999
DXF file: _cgs_temp_output.dxf
999
Pro/ENGINEER 2016360 by Parametric Technology Corporation
  0
SECTION
  2
HEADER
  9
$ACADVER
  1
AC1021
  9
$DWGCODEPAGE
  3
ANSI_1252
  9
$EXTMAX
 10
22.0
 20
17.0
 30
0.0
  9
$EXTMIN
 10
0.0
 20
0.0
 30
0.0
  9
$LIMMIN
 10
0.0
 20
0.0
  9
$LIMMAX
 10
22.0
 20
17.0
  9
$VIEWCTR
 10
11.0
 20
8.5
  9
$VIEWSIZE
 40
17.0
  9
$CLAYER
  8
0
  9
$LTSCALE
 40
1.21
  9
$CELTYPE
  6
BYLAYER
  9
$DIMSCALE
 40
1.0
  9
$DIMASZ
 40
0.1875
  9
$DIMEXO
 40
0.0625
  9
$DIMDLI
 40
0.836
  9
$DIMEXE
 40
0.125
  9
$DIMCEN
 40
0.198
  9
$DIMLFAC
 40
1.0
  9
$DIMBLK
  1
_CLOSED
  9
$DIMALT
 70
0
  9
$DIMALTF
 40
25.4
  9
$DIMTXT
 40
0.15625
  9
$DIMTOL
 70
0
  9
$DIMLIM
 70
0
  9
$DIMTFAC
 40
1.0
  9
$DIMGAP
 40
0.09
  9
$DIMDSEP
 70
46
  9
$AUNITS
 70
0
  9
$PDMODE
 70
3
  9
$PDSIZE
 40
0.3125
  9
$HANDSEED
  5
372
  9
$TILEMODE
 70
1
  9
$MEASUREMENT
 70
0
  9
$INSUNITS
 70
1
  0
ENDSEC
  0
SECTION
  2
CLASSES
  0
CLASS
  1
ACDBDICTIONARYWDFLT
  2
AcDbDictionaryWithDefault
  3
AutoCAD 2000
 90
0
 91
1
280
0
281
0
  0
CLASS
  1
ACDBPLACEHOLDER
  2
AcDbPlaceHolder
  3
AutoCAD 2000
 90
0
 91
1
280
0
281
0
  0
CLASS
  1
LAYOUT
  2
AcDbLayout
  3
AutoCAD 2000
 90
0
 91
0
280
0
281
0
  0
ENDSEC
  0
SECTION
  2
TABLES
  0
TABLE
  2
VPORT
  5
8
100
AcDbSymbolTable
 70
2
  0
VPORT
  5
1F4
100
AcDbSymbolTableRecord
100
AcDbViewportTableRecord
  2
*ACTIVE
 70
0
 10
0.0
 20
0.0
 11
1.0
 21
1.0
 12
11.0
 22
8.5
 13
0.0
 23
0.0
 14
1.0
 24
1.0
 15
0.0
 25
0.0
 16
0.0
 26
0.0
 36
1.0
 17
0.0
 27
0.0
 37
0.0
 40
17.0
 41
1.2941176471
 42
50.0
 43
0.0
 44
0.0
 50
0.0
 51
0.0
 71
0
 72
100
 73
1
 74
1
 75
0
 76
0
 77
0
 78
0
  0
ENDTAB
  0
TABLE
  2
LTYPE
  5
5
100
AcDbSymbolTable
 70
6
  0
LTYPE
  5
14
100
AcDbSymbolTableRecord
100
AcDbLinetypeTableRecord
  2
BYBLOCK
 70
0
  3

 72
65
 73
0
 40
0.0
  0
LTYPE
  5
15
100
AcDbSymbolTableRecord
100
AcDbLinetypeTableRecord
  2
BYLAYER
 70
0
  3

 72
65
 73
0
 40
0.0
  0
LTYPE
  5
16
100
AcDbSymbolTableRecord
100
AcDbLinetypeTableRecord
  2
CONTINUOUS
 70
64
  3
Solid line
 72
65
 73
0
 40
0.0
  0
LTYPE
  5
1F5
100
AcDbSymbolTableRecord
100
AcDbLinetypeTableRecord
  2
CENTER
 70
64
  3
____ _ ____ _ ____ _ ____ _ ____ _ ____ _ ____
 72
65
 73
4
 40
0.6
 49
0.375
 74
0
 49
-0.075
 74
0
 49
0.075
 74
0
 49
-0.075
 74
0
  0
LTYPE
  5
1F6
100
AcDbSymbolTableRecord
100
AcDbLinetypeTableRecord
  2
HIDDEN
 70
64
  3
- - - - - - - - - - - - - - - - - - - -
 72
65
 73
2
 40
0.2
 49
0.1
 74
0
 49
-0.1
 74
0
  0
LTYPE
  5
1F7
100
AcDbSymbolTableRecord
100
AcDbLinetypeTableRecord
  2
PHANTOM
 70
64
  3
_____ _ _ _____ _ _ _____ _ _ _____
 72
65
 73
6
 40
0.8
 49
0.45
 74
0
 49
-0.05
 74
0
 49
0.1
 74
0
 49
-0.05
 74
0
 49
0.1
 74
0
 49
-0.05
 74
0
  0
LTYPE
  5
1F8
100
AcDbSymbolTableRecord
100
AcDbLinetypeTableRecord
  2
DOT
 70
64
  3
. . . . . . . . . . . . . . . . . . . .
 72
65
 73
2
 40
0.2
 49
0.1
 74
0
 49
-0.1
 74
0
  0
LTYPE
  5
1F9
100
AcDbSymbolTableRecord
100
AcDbLinetypeTableRecord
  2
DASHED
 70
64
  3
- - - - - - - - - - - - - - - - - - - -
 72
65
 73
2
 40
0.2
 49
0.1
 74
0
 49
-0.1
 74
0
  0
ENDTAB
  0
TABLE
  2
LAYER
  5
2
100
AcDbSymbolTable
 70
36
  0
LAYER
  5
10
100
AcDbSymbolTableRecord
100
AcDbLayerTableRecord
  2
0
 70
0
 62
7
  6
CONTINUOUS
370
-3
390
F
  0
LAYER
  5
1FA
100
AcDbSymbolTableRecord
100
AcDbLayerTableRecord
  2
DEFAULT_1
 70
0
 62
7
  6
CENTER
370
-3
390
F
  0
LAYER
  5
1FB
100
AcDbSymbolTableRecord
100
AcDbLayerTableRecord
  2
DEFAULT_2
 70
0
 62
8
  6
HIDDEN
370
-3
390
F
  0
LAYER
  5
1FC
100
AcDbSymbolTableRecord
100
AcDbLayerTableRecord
  2
DEFAULT_3
 70
0
 62
7
  6
PHANTOM
370
-3
390
F
  0
LAYER
  5
1FD
100
AcDbSymbolTableRecord
100
AcDbLayerTableRecord
  2
01_ALL_DTM_PLN
 70
0
 62
7
  6
CONTINUOUS
370
-3
390
F
  0
LAYER
  5
1FE
100
AcDbSymbolTableRecord
100
AcDbLayerTableRecord
  2
01__ASM_ALL_DTM_PLN
 70
0
 62
7
  6
CONTINUOUS
370
-3
390
F
  0
LAYER
  5
1FF
100
AcDbSymbolTableRecord
100
AcDbLayerTableRecord
  2
01__ASM_DEF_DTM_PLN
 70
0
 62
7
  6
CONTINUOUS
370
-3
390
F
  0
LAYER
  5
200
100
AcDbSymbolTableRecord
100
AcDbLayerTableRecord
  2
01___PRT_ALL_DTM_PLN
 70
0
 62
7
  6
CONTINUOUS
370
-3
390
F
  0
LAYER
  5
201
100
AcDbSymbolTableRecord
100
AcDbLayerTableRecord
  2
01___PRT_DEF_DTM_PLN
 70
0
 62
7
  6
CONTINUOUS
370
-3
390
F
  0
LAYER
  5
202
100
AcDbSymbolTableRecord
100
AcDbLayerTableRecord
  2
02_ALL_AXES
 70
0
 62
7
  6
CONTINUOUS
370
-3
390
F
  0
LAYER
  5
203
100
AcDbSymbolTableRecord
100
AcDbLayerTableRecord
  2
02__ASM_ALL_AXES
 70
0
 62
7
  6
CONTINUOUS
370
-3
390
F
  0
LAYER
  5
204
100
AcDbSymbolTableRecord
100
AcDbLayerTableRecord
  2
02___PRT_ALL_AXES
 70
0
 62
7
  6
CONTINUOUS
370
-3
390
F
  0
LAYER
  5
205
100
AcDbSymbolTableRecord
100
AcDbLayerTableRecord
  2
03_ALL_CURVES
 70
0
 62
7
  6
CONTINUOUS
370
-3
390
F
  0
LAYER
  5
206
100
AcDbSymbolTableRecord
100
AcDbLayerTableRecord
  2
03__ASM_ALL_CURVES
 70
0
 62
7
  6
CONTINUOUS
370
-3
390
F
  0
LAYER
  5
207
100
AcDbSymbolTableRecord
100
AcDbLayerTableRecord
  2
03___PRT_ALL_CURVES
 70
0
 62
7
  6
CONTINUOUS
370
-3
390
F
  0
LAYER
  5
208
100
AcDbSymbolTableRecord
100
AcDbLayerTableRecord
  2
04_ALL_DTM_PNT
 70
0
 62
7
  6
CONTINUOUS
370
-3
390
F
  0
LAYER
  5
209
100
AcDbSymbolTableRecord
100
AcDbLayerTableRecord
  2
04__ASM_ALL_DTM_PNT
 70
0
 62
7
  6
CONTINUOUS
370
-3
390
F
  0
LAYER
  5
20A
100
AcDbSymbolTableRecord
100
AcDbLayerTableRecord
  2
04___PRT_ALL_DTM_PNT
 70
0
 62
7
  6
CONTINUOUS
370
-3
390
F
  0
LAYER
  5
20B
100
AcDbSymbolTableRecord
100
AcDbLayerTableRecord
  2
05_ALL_DTM_CSYS
 70
0
 62
7
  6
CONTINUOUS
370
-3
390
F
  0
LAYER
  5
20C
100
AcDbSymbolTableRecord
100
AcDbLayerTableRecord
  2
05__ASM_ALL_DTM_CSYS
 70
0
 62
7
  6
CONTINUOUS
370
-3
390
F
  0
LAYER
  5
20D
100
AcDbSymbolTableRecord
100
AcDbLayerTableRecord
  2
05__ASM_DEF_DTM_CSYS
 70
0
 62
7
  6
CONTINUOUS
370
-3
390
F
  0
LAYER
  5
20E
100
AcDbSymbolTableRecord
100
AcDbLayerTableRecord
  2
05___PRT_ALL_DTM_CSYS
 70
0
 62
7
  6
CONTINUOUS
370
-3
390
F
  0
LAYER
  5
20F
100
AcDbSymbolTableRecord
100
AcDbLayerTableRecord
  2
05___PRT_DEF_DTM_CSYS
 70
0
 62
7
  6
CONTINUOUS
370
-3
390
F
  0
LAYER
  5
210
100
AcDbSymbolTableRecord
100
AcDbLayerTableRecord
  2
06_ALL_SURFS
 70
0
 62
7
  6
CONTINUOUS
370
-3
390
F
  0
LAYER
  5
211
100
AcDbSymbolTableRecord
100
AcDbLayerTableRecord
  2
06__ASM_ALL_SURFS
 70
0
 62
7
  6
CONTINUOUS
370
-3
390
F
  0
LAYER
  5
212
100
AcDbSymbolTableRecord
100
AcDbLayerTableRecord
  2
06___PRT_ALL_SURFS
 70
0
 62
7
  6
CONTINUOUS
370
-3
390
F
  0
LAYER
  5
213
100
AcDbSymbolTableRecord
100
AcDbLayerTableRecord
  2
07__ASM_ALL_SKELETONS
 70
0
 62
7
  6
CONTINUOUS
370
-3
390
F
  0
ENDTAB
  0
TABLE
  2
STYLE
  5
3
100
AcDbSymbolTable
 70
1
  0
STYLE
  5
11
100
AcDbSymbolTableRecord
100
AcDbTextStyleTableRecord
  2
STANDARD
 70
0
 40
0.0
 41
0.8
 50
0.0
 71
0
 42
0.2
  3
txt
  4

  0
STYLE
  5
214
100
AcDbSymbolTableRecord
100
AcDbTextStyleTableRecord
  2
TEXTSTYLE_1
 70
0
 40
0.0
 41
0.8
 50
0.0
 71
0
 42
0.2
  3
gdt
  4

  0
ENDTAB
  0
TABLE
  2
VIEW
  5
6
100
AcDbSymbolTable
 70
0
  0
ENDTAB
  0
TABLE
  2
UCS
  5
7
100
AcDbSymbolTable
 70
0
  0
ENDTAB
  0
TABLE
  2
APPID
  5
9
100
AcDbSymbolTable
 70
1
  0
APPID
  5
215
100
AcDbSymbolTableRecord
100
AcDbRegAppTableRecord
  2
ACAD
 70
0
  0
ENDTAB
  0
TABLE
  2
BLOCK_RECORD
  5
1
100
AcDbSymbolTable
 70
0
  0
BLOCK_RECORD
  5
216
100
AcDbSymbolTableRecord
100
AcDbBlockTableRecord
  2
*Model_Space
  0
BLOCK_RECORD
  5
217
100
AcDbSymbolTableRecord
100
AcDbBlockTableRecord
  2
*Paper_Space
  0
ENDTAB
  0
TABLE
  2
DIMSTYLE
  5
A
100
AcDbSymbolTable
 70
1
100
AcDbDimStyleTable
 71
0
  0
DIMSTYLE
105
218
100
AcDbSymbolTableRecord
100
AcDbDimStyleTableRecord
  2
STANDARD
 70
0
  3

  4

 40
1.0
 41
0.1875
 42
0.0625
 43
0.38
 44
0.125
 45
0.0
 46
0.0
 47
0.0001
 48
0.0001
140
0.15625
141
0.09
142
0.0
143
25.4
144
1.0
145
0.0
146
1.0
147
0.09
 71
0.0
 72
0.0
 73
1
 74
1
 75
0
 76
0
 77
0
 78
4
 79
1
170
0
171
3
172
0
173
0
174
0
175
0
176
0
177
0
178
0
270
2
179
4
271
4
272
4
273
2
274
2
275
0
280
0
281
0
282
0
283
1
284
4
285
0
286
0
287
3
288
0
340
11
278
46
  0
ENDTAB
  0
ENDSEC
  0
SECTION
  2
BLOCKS
  0
BLOCK
  5
20
100
AcDbEntity
  8
0
100
AcDbBlockBegin
  2
*Model_Space
 70
0
 10
0.0
 20
0.0
 30
0.0
  3
*Model_Space
  1

  0
ENDBLK
  5
21
100
AcDbEntity
  8
0
100
AcDbBlockEnd
  0
BLOCK
  5
1C
100
AcDbEntity
  8
0
100
AcDbBlockBegin
  2
*Paper_Space
 70
0
 10
0.0
 20
0.0
 30
0.0
  3
*Paper_Space
  1

  0
ENDBLK
  5
1D
100
AcDbEntity
  8
0
100
AcDbBlockEnd
  0
ENDSEC
  0
SECTION
  2
ENTITIES
  0
MTEXT
  5
219
100
AcDbEntity
  8
0
100
AcDbMText
 62
7
  6
CONTINUOUS
  7
STANDARD
 71
1
 72
1
 10
15.9560215477
 20
0.9479130325
 30
0.0
 11
1.0
 21
0.0
 31
0.0
 44
0.9
  1
SCALE: 1:1.000
 40
0.3
 41
3.36
  0
LINE
  5
21A
100
AcDbEntity
  8
0
100
AcDbLine
 62
7
  6
CONTINUOUS
 10
0.0
 20
0.0
 11
0.0
 21
17.0
  0
LINE
  5
21B
100
AcDbEntity
  8
0
100
AcDbLine
 62
7
  6
CONTINUOUS
 10
0.0
 20
0.0
 11
22.0
 21
0.0
  0
LINE
  5
21C
100
AcDbEntity
  8
0
100
AcDbLine
 62
7
  6
CONTINUOUS
 10
0.0
 20
17.0
 11
22.0
 21
17.0
  0
LINE
  5
21D
100
AcDbEntity
  8
0
100
AcDbLine
 62
7
  6
CONTINUOUS
 10
22.0
 20
0.0
 11
22.0
 21
17.0
  0
LINE
  5
21E
100
AcDbEntity
  8
0
100
AcDbLine
 62
7
  6
CONTINUOUS
 10
5.9335168825
 20
5.6668040184
 11
5.9335168825
 21
5.6559517947
  0
LINE
  5
21F
100
AcDbEntity
  8
0
100
AcDbLine
 62
7
  6
CONTINUOUS
 10
6.0106112135
 20
5.3626395818
 11
6.2501233389
 21
5.3626395818
  0
LINE
  5
220
100
AcDbEntity
  8
0
100
AcDbLine
 62
7
  6
CONTINUOUS
 10
5.9878134803
 20
5.4676264584
 11
6.272921072
 21
5.4676264584
  0
LINE
  5
221
100
AcDbEntity
  8
0
100
AcDbLine
 62
7
  6
CONTINUOUS
 10
6.3272176699
 20
5.6559517947
 11
6.3272176699
 21
5.6668040184
  0
LINE
  5
222
100
AcDbEntity
  8
0
100
AcDbLine
 62
7
  6
CONTINUOUS
 10
6.2677224776
 20
10.6315438444
 11
5.8740216902
 21
10.6315438444
  0
LINE
  5
223
100
AcDbEntity
  8
0
100
AcDbLine
 62
7
  6
CONTINUOUS
 10
5.8740216902
 20
10.6315438444
 11
5.8740216902
 21
14.5685517184
  0
LINE
  5
224
100
AcDbEntity
  8
0
100
AcDbLine
 62
7
  6
CONTINUOUS
 10
6.2677224776
 20
10.6315438444
 11
6.2677224776
 21
14.5685517184
  0
LINE
  5
225
100
AcDbEntity
  8
0
100
AcDbLine
 62
7
  6
CONTINUOUS
 10
5.8740216902
 20
14.5685517184
 11
6.2677224776
 21
14.5685517184
  0
LINE
  5
226
100
AcDbEntity
  8
0
100
AcDbLine
 62
7
  6
CONTINUOUS
 10
13.5918513199
 20
5.4081312661
 11
13.5918513199
 21
5.6181050194
  0
LINE
  5
227
100
AcDbEntity
  8
0
100
AcDbLine
 62
7
  6
CONTINUOUS
 10
13.6835248052
 20
5.3848827038
 11
13.6970282284
 21
5.3263929518
  0
LINE
  5
228
100
AcDbEntity
  8
0
100
AcDbLine
 62
7
  6
CONTINUOUS
 10
13.8803751989
 20
5.3263929518
 11
13.8938786221
 21
5.3848827038
  0
LINE
  5
229
100
AcDbEntity
  8
0
100
AcDbLine
 62
7
  6
CONTINUOUS
 10
14.0772255926
 20
5.3848827038
 11
14.0907290158
 21
5.3263929518
  0
LINE
  5
22A
100
AcDbEntity
  8
0
100
AcDbLine
 62
7
  6
CONTINUOUS
 10
14.2740759863
 20
5.3263929518
 11
14.2875794095
 21
5.3848827038
  0
LINE
  5
22B
100
AcDbEntity
  8
0
100
AcDbLine
 62
7
  6
CONTINUOUS
 10
14.47092638
 20
5.3848827038
 11
14.4844298032
 21
5.3263929518
  0
LINE
  5
22C
100
AcDbEntity
  8
0
100
AcDbLine
 62
7
  6
CONTINUOUS
 10
14.6677767737
 20
5.3263929518
 11
14.6812801969
 21
5.3848827038
  0
LINE
  5
22D
100
AcDbEntity
  8
0
100
AcDbLine
 62
7
  6
CONTINUOUS
 10
14.8646271674
 20
5.3848827038
 11
14.8781305906
 21
5.3263929518
  0
LINE
  5
22E
100
AcDbEntity
  8
0
100
AcDbLine
 62
7
  6
CONTINUOUS
 10
15.0614775611
 20
5.3263929518
 11
15.0749809843
 21
5.3848827038
  0
LINE
  5
22F
100
AcDbEntity
  8
0
100
AcDbLine
 62
7
  6
CONTINUOUS
 10
15.2583279548
 20
5.3848827038
 11
15.271831378
 21
5.3263929518
  0
LINE
  5
230
100
AcDbEntity
  8
0
100
AcDbLine
 62
7
  6
CONTINUOUS
 10
13.7262556769
 20
5.3031443895
 11
13.8511477503
 21
5.3031443895
  0
LINE
  5
231
100
AcDbEntity
  8
0
100
AcDbLine
 62
7
  6
CONTINUOUS
 10
14.1199564643
 20
5.3031443895
 11
14.2448485377
 21
5.3031443895
  0
LINE
  5
232
100
AcDbEntity
  8
0
100
AcDbLine
 62
7
  6
CONTINUOUS
 10
14.5136572517
 20
5.3031443895
 11
14.6385493251
 21
5.3031443895
  0
LINE
  5
233
100
AcDbEntity
  8
0
100
AcDbLine
 62
7
  6
CONTINUOUS
 10
14.9073580391
 20
5.3031443895
 11
15.0322501125
 21
5.3031443895
  0
LINE
  5
234
100
AcDbEntity
  8
0
100
AcDbLine
 62
7
  6
CONTINUOUS
 10
15.3010588265
 20
5.3031443895
 11
15.4259508999
 21
5.3031443895
  0
LINE
  5
235
100
AcDbEntity
  8
0
100
AcDbLine
 62
7
  6
CONTINUOUS
 10
15.6947596139
 20
5.3031443895
 11
15.8196516873
 21
5.3031443895
  0
LINE
  5
236
100
AcDbEntity
  8
0
100
AcDbLine
 62
7
  6
CONTINUOUS
 10
16.0884604013
 20
5.3031443895
 11
16.2133524747
 21
5.3031443895
  0
LINE
  5
237
100
AcDbEntity
  8
0
100
AcDbLine
 62
7
  6
CONTINUOUS
 10
16.4821611887
 20
5.3031443895
 11
16.6070532622
 21
5.3031443895
  0
LINE
  5
238
100
AcDbEntity
  8
0
100
AcDbLine
 62
7
  6
CONTINUOUS
 10
16.8758619761
 20
5.3031443895
 11
17.0007540496
 21
5.3031443895
  0
LINE
  5
239
100
AcDbEntity
  8
0
100
AcDbLine
 62
7
  6
CONTINUOUS
 10
17.2695627635
 20
5.3031443895
 11
17.394454837
 21
5.3031443895
  0
LINE
  5
23A
100
AcDbEntity
  8
0
100
AcDbLine
 62
7
  6
CONTINUOUS
 10
15.4551783485
 20
5.3263929518
 11
15.4686817717
 21
5.3848827038
  0
LINE
  5
23B
100
AcDbEntity
  8
0
100
AcDbLine
 62
7
  6
CONTINUOUS
 10
13.5918513199
 20
5.4081312661
 11
13.6542973566
 21
5.4081312661
  0
LINE
  5
23C
100
AcDbEntity
  8
0
100
AcDbLine
 62
7
  6
CONTINUOUS
 10
13.9231060706
 20
5.4081312661
 11
14.047998144
 21
5.4081312661
  0
LINE
  5
23D
100
AcDbEntity
  8
0
100
AcDbLine
 62
7
  6
CONTINUOUS
 10
14.316806858
 20
5.4081312661
 11
14.4416989314
 21
5.4081312661
  0
LINE
  5
23E
100
AcDbEntity
  8
0
100
AcDbLine
 62
7
  6
CONTINUOUS
 10
14.7105076454
 20
5.4081312661
 11
14.8353997188
 21
5.4081312661
  0
LINE
  5
23F
100
AcDbEntity
  8
0
100
AcDbLine
 62
7
  6
CONTINUOUS
 10
15.1042084328
 20
5.4081312661
 11
15.2291005062
 21
5.4081312661
  0
LINE
  5
240
100
AcDbEntity
  8
0
100
AcDbLine
 62
7
  6
CONTINUOUS
 10
15.4979092202
 20
5.4081312661
 11
15.6228012936
 21
5.4081312661
  0
LINE
  5
241
100
AcDbEntity
  8
0
100
AcDbLine
 62
7
  6
CONTINUOUS
 10
15.8916100076
 20
5.4081312661
 11
16.016502081
 21
5.4081312661
  0
LINE
  5
242
100
AcDbEntity
  8
0
100
AcDbLine
 62
7
  6
CONTINUOUS
 10
16.285310795
 20
5.4081312661
 11
16.4102028685
 21
5.4081312661
  0
LINE
  5
243
100
AcDbEntity
  8
0
100
AcDbLine
 62
7
  6
CONTINUOUS
 10
16.6790115824
 20
5.4081312661
 11
16.8039036559
 21
5.4081312661
  0
LINE
  5
244
100
AcDbEntity
  8
0
100
AcDbLine
 62
7
  6
CONTINUOUS
 10
17.0727123698
 20
5.4081312661
 11
17.1976044433
 21
5.4081312661
  0
LINE
  5
245
100
AcDbEntity
  8
0
100
AcDbLine
 62
7
  6
CONTINUOUS
 10
17.4664131572
 20
5.4081312661
 11
17.5288591939
 21
5.4081312661
  0
LINE
  5
246
100
AcDbEntity
  8
0
100
AcDbLine
 62
7
  6
CONTINUOUS
 10
15.6520287422
 20
5.3848827038
 11
15.6655321654
 21
5.3263929518
  0
LINE
  5
247
100
AcDbEntity
  8
0
100
AcDbLine
 62
7
  6
CONTINUOUS
 10
17.5288591939
 20
5.6181050194
 11
13.5918513199
 21
5.6181050194
  0
LINE
  5
248
100
AcDbEntity
  8
0
100
AcDbLine
 62
7
  6
CONTINUOUS
 10
15.8488791359
 20
5.3263929518
 11
15.8623825591
 21
5.3848827038
  0
LINE
  5
249
100
AcDbEntity
  8
0
100
AcDbLine
 62
7
  6
CONTINUOUS
 10
16.0457295296
 20
5.3848827038
 11
16.0592329528
 21
5.3263929518
  0
LINE
  5
24A
100
AcDbEntity
  8
0
100
AcDbLine
 62
7
  6
CONTINUOUS
 10
16.2425799233
 20
5.3263929518
 11
16.2560833465
 21
5.3848827038
  0
LINE
  5
24B
100
AcDbEntity
  8
0
100
AcDbLine
 62
7
  6
CONTINUOUS
 10
16.439430317
 20
5.3848827038
 11
16.4529337402
 21
5.3263929518
  0
LINE
  5
24C
100
AcDbEntity
  8
0
100
AcDbLine
 62
7
  6
CONTINUOUS
 10
16.6362807107
 20
5.3263929518
 11
16.6497841339
 21
5.3848827038
  0
LINE
  5
24D
100
AcDbEntity
  8
0
100
AcDbLine
 62
7
  6
CONTINUOUS
 10
16.8331311044
 20
5.3848827038
 11
16.8466345276
 21
5.3263929518
  0
LINE
  5
24E
100
AcDbEntity
  8
0
100
AcDbLine
 62
7
  6
CONTINUOUS
 10
17.0299814981
 20
5.3263929518
 11
17.0434849213
 21
5.3848827038
  0
LINE
  5
24F
100
AcDbEntity
  8
0
100
AcDbLine
 62
7
  6
CONTINUOUS
 10
17.2268318918
 20
5.3848827038
 11
17.240335315
 21
5.3263929518
  0
LINE
  5
250
100
AcDbEntity
  8
0
100
AcDbLine
 62
7
  6
CONTINUOUS
 10
17.5288591939
 20
5.4081312661
 11
17.5288591939
 21
5.6181050194
  0
LINE
  5
251
100
AcDbEntity
  8
0
100
AcDbLine
 62
7
  6
CONTINUOUS
 10
17.4236822855
 20
5.3263929518
 11
17.4371857087
 21
5.3848827038
  0
LWPOLYLINE
  5
252
100
AcDbEntity
  8
0
100
AcDbPolyline
 62
7
  6
CONTINUOUS
 90
4
 70
0
 10
15.2138994436
 20
10.9322336075
 10
15.2167564603
 20
10.9326021251
 10
15.2214965333
 20
10.9350956514
 10
15.2249333667
 20
10.9392579047
  0
LINE
  5
253
100
AcDbEntity
  8
0
100
AcDbLine
 62
7
  6
CONTINUOUS
 10
14.9154799421
 20
10.9035619983
 11
15.1780814239
 21
10.9035619983
  0
LINE
  5
254
100
AcDbEntity
  8
0
100
AcDbLine
 62
7
  6
CONTINUOUS
 10
15.1924368031
 20
10.9322333767
 11
15.2139050509
 21
10.9322333767
  0
LINE
  5
255
100
AcDbEntity
  8
0
100
AcDbLine
 62
7
  6
CONTINUOUS
 10
15.2877385052
 20
11.2406297978
 11
15.309206753
 21
11.2406297978
  0
LWPOLYLINE
  5
256
100
AcDbEntity
  8
0
100
AcDbPolyline
 62
7
  6
CONTINUOUS
 90
4
 70
0
 10
15.3092011458
 20
11.2406300287
 10
15.3120581624
 20
11.2409985462
 10
15.3167982355
 20
11.2434920725
 10
15.3202350689
 20
11.2476543258
  0
LINE
  5
257
100
AcDbEntity
  8
0
100
AcDbLine
 62
7
  6
CONTINUOUS
 10
14.8047119691
 20
11.027372755
 11
14.8080223516
 21
11.0206269046
  0
LWPOLYLINE
  5
258
100
AcDbEntity
  8
0
100
AcDbPolyline
 62
7
  6
CONTINUOUS
 90
4
 70
0
 10
15.4045028479
 20
11.5490264498
 10
15.4073598645
 20
11.5493949673
 10
15.4120999376
 20
11.5518884936
 10
15.415536771
 20
11.5560507469
  0
LINE
  5
259
100
AcDbEntity
  8
0
100
AcDbLine
 62
7
  6
CONTINUOUS
 10
15.3830402073
 20
11.5490262189
 11
15.4045084551
 21
11.5490262189
  0
LINE
  5
25A
100
AcDbEntity
  8
0
100
AcDbLine
 62
7
  6
CONTINUOUS
 10
15.1706447902
 20
11.0206269046
 11
15.1673344077
 21
11.027372755
  0
LINE
  5
25B
100
AcDbEntity
  8
0
100
AcDbLine
 62
7
  6
CONTINUOUS
 10
14.804502622
 20
11.0291719084
 11
14.8047119691
 21
11.027372755
  0
LWPOLYLINE
  5
25C
100
AcDbEntity
  8
0
100
AcDbPolyline
 62
7
  6
CONTINUOUS
 90
4
 70
0
 10
15.49980455
 20
11.8574228709
 10
15.5026615667
 20
11.8577913884
 10
15.5074016397
 20
11.8602849148
 10
15.5108384731
 20
11.864447168
  0
LINE
  5
25D
100
AcDbEntity
  8
0
100
AcDbLine
 62
7
  6
CONTINUOUS
 10
15.4783419094
 20
11.85742264
 11
15.4998101572
 21
11.85742264
  0
LWPOLYLINE
  5
25E
100
AcDbEntity
  8
0
100
AcDbPolyline
 62
7
  6
CONTINUOUS
 90
4
 70
0
 10
15.5951062521
 20
12.165819292
 10
15.5979632688
 20
12.1661878095
 10
15.6027033419
 20
12.1686813359
 10
15.6061401752
 20
12.1728435891
  0
LINE
  5
25F
100
AcDbEntity
  8
0
100
AcDbLine
 62
7
  6
CONTINUOUS
 10
15.5736436116
 20
12.1658190611
 11
15.5951118594
 21
12.1658190611
  0
LINE
  5
260
100
AcDbEntity
  8
0
100
AcDbLine
 62
7
  6
CONTINUOUS
 10
15.2616942658
 20
11.0732653651
 11
15.2616926878
 21
11.0732859709
  0
LWPOLYLINE
  5
261
100
AcDbEntity
  8
0
100
AcDbPolyline
 62
7
  6
CONTINUOUS
 90
3
 70
0
 10
15.2616942658
 20
11.0732653651
 10
15.2607112003
 20
11.087099419
 10
15.2595137033
 20
11.1057993653
  0
LINE
  5
262
100
AcDbEntity
  8
0
100
AcDbLine
 62
7
  6
CONTINUOUS
 10
15.2595137033
 20
11.1057993653
 11
15.2587055731
 21
11.1199998478
  0
LINE
  5
263
100
AcDbEntity
  8
0
100
AcDbLine
 62
7
  6
CONTINUOUS
 10
15.2618311394
 20
11.0704161358
 11
15.2616926485
 21
11.0732859681
  0
LINE
  5
264
100
AcDbEntity
  8
0
100
AcDbLine
 62
7
  6
CONTINUOUS
 10
15.2587048121
 20
11.1200138793
 11
15.2586025766
 21
11.1229715923
  0
LINE
  5
265
100
AcDbEntity
  8
0
100
AcDbLine
 62
7
  6
CONTINUOUS
 10
15.3569959679
 20
11.3816617862
 11
15.3569943899
 21
11.381682392
  0
LWPOLYLINE
  5
266
100
AcDbEntity
  8
0
100
AcDbPolyline
 62
7
  6
CONTINUOUS
 90
3
 70
0
 10
15.3569959679
 20
11.3816617862
 10
15.3560129024
 20
11.3954958401
 10
15.3548154055
 20
11.4141957864
  0
LINE
  5
267
100
AcDbEntity
  8
0
100
AcDbLine
 62
7
  6
CONTINUOUS
 10
15.3548154055
 20
11.4141957864
 11
15.3540072753
 21
11.4283962689
  0
LINE
  5
268
100
AcDbEntity
  8
0
100
AcDbLine
 62
7
  6
CONTINUOUS
 10
15.3571328416
 20
11.3788125569
 11
15.3569943506
 21
11.3816823892
  0
LINE
  5
269
100
AcDbEntity
  8
0
100
AcDbLine
 62
7
  6
CONTINUOUS
 10
15.3540065143
 20
11.4284103004
 11
15.3539042787
 21
11.4313680134
  0
LWPOLYLINE
  5
26A
100
AcDbEntity
  8
0
100
AcDbPolyline
 62
7
  6
CONTINUOUS
 90
5
 70
0
 10
15.2586025766
 20
11.1229715923
 10
15.2588497213
 20
11.1323807463
 10
15.2598698533
 20
11.1428097412
 10
15.2615732877
 20
11.1533097981
 10
15.2637940949
 20
11.1629307755
  0
LINE
  5
26B
100
AcDbEntity
  8
0
100
AcDbLine
 62
7
  6
CONTINUOUS
 10
15.261602918
 20
11.0625539872
 11
15.2618311394
 21
11.0704161358
  0
LINE
  5
26C
100
AcDbEntity
  8
0
100
AcDbLine
 62
7
  6
CONTINUOUS
 10
15.1845856701
 20
10.9068254833
 11
15.1846935715
 21
10.9083673426
  0
LINE
  5
26D
100
AcDbEntity
  8
0
100
AcDbLine
 62
7
  6
CONTINUOUS
 10
14.8045025887
 20
11.0291719187
 11
15.75751961
 21
14.1131361298
  0
LINE
  5
26E
100
AcDbEntity
  8
0
100
AcDbLine
 62
7
  6
CONTINUOUS
 10
16.0606817599
 20
13.7396794712
 11
16.061269948
 21
13.7406897939
  0
LINE
  5
26F
100
AcDbEntity
  8
0
100
AcDbLine
 62
7
  6
CONTINUOUS
 10
15.4522976701
 20
11.6900582073
 11
15.4522960921
 21
11.6900788131
  0
LWPOLYLINE
  5
270
100
AcDbEntity
  8
0
100
AcDbPolyline
 62
7
  6
CONTINUOUS
 90
3
 70
0
 10
15.4522976701
 20
11.6900582073
 10
15.4513146045
 20
11.7038922612
 10
15.4501171076
 20
11.7225922075
  0
LINE
  5
271
100
AcDbEntity
  8
0
100
AcDbLine
 62
7
  6
CONTINUOUS
 10
15.4501171076
 20
11.7225922075
 11
15.4493089774
 21
11.73679269
  0
LINE
  5
272
100
AcDbEntity
  8
0
100
AcDbLine
 62
7
  6
CONTINUOUS
 10
15.4524345437
 20
11.687208978
 11
15.4522960528
 21
11.6900788103
  0
LINE
  5
273
100
AcDbEntity
  8
0
100
AcDbLine
 62
7
  6
CONTINUOUS
 10
15.4493082164
 20
11.7368067215
 11
15.4492059809
 21
11.7397644345
  0
LWPOLYLINE
  5
274
100
AcDbEntity
  8
0
100
AcDbPolyline
 62
7
  6
CONTINUOUS
 90
5
 70
0
 10
15.3539042787
 20
11.4313680134
 10
15.3541514234
 20
11.4407771674
 10
15.3551715554
 20
11.4512061623
 10
15.3568749899
 20
11.4617062192
 10
15.3590957971
 20
11.4713271966
  0
LWPOLYLINE
  5
275
100
AcDbEntity
  8
0
100
AcDbPolyline
 62
7
  6
CONTINUOUS
 90
5
 70
0
 10
15.4492059809
 20
11.7397644345
 10
15.4494531256
 20
11.7491735885
 10
15.4504732575
 20
11.7596025834
 10
15.452176692
 20
11.7701026404
 10
15.4543974992
 20
11.7797236177
  0
LINE
  5
276
100
AcDbEntity
  8
0
100
AcDbLine
 62
7
  6
CONTINUOUS
 10
15.3569046201
 20
11.3709504083
 11
15.3571328416
 21
11.3788125569
  0
LINE
  5
277
100
AcDbEntity
  8
0
100
AcDbLine
 62
7
  6
CONTINUOUS
 10
15.4522063222
 20
11.6793468294
 11
15.4524345437
 21
11.687208978
  0
LINE
  5
278
100
AcDbEntity
  8
0
100
AcDbLine
 62
7
  6
CONTINUOUS
 10
15.2606164173
 20
11.0543911283
 11
15.261602918
 21
11.0625539872
  0
LINE
  5
279
100
AcDbEntity
  8
0
100
AcDbLine
 62
7
  6
CONTINUOUS
 10
15.9653800578
 20
13.4312830501
 11
15.9659682458
 21
13.4322933728
  0
LWPOLYLINE
  5
27A
100
AcDbEntity
  8
0
100
AcDbPolyline
 62
7
  6
CONTINUOUS
 90
4
 70
0
 10
15.6904079543
 20
12.4742157131
 10
15.6932649709
 20
12.4745842306
 10
15.698005044
 20
12.477077757
 10
15.7014418774
 20
12.4812400103
  0
LINE
  5
27B
100
AcDbEntity
  8
0
100
AcDbLine
 62
7
  6
CONTINUOUS
 10
15.6689453137
 20
12.4742154822
 11
15.6904135615
 21
12.4742154822
  0
LINE
  5
27C
100
AcDbEntity
  8
0
100
AcDbLine
 62
7
  6
CONTINUOUS
 10
15.5475993722
 20
11.9984546285
 11
15.5475977942
 21
11.9984752342
  0
LWPOLYLINE
  5
27D
100
AcDbEntity
  8
0
100
AcDbPolyline
 62
7
  6
CONTINUOUS
 90
3
 70
0
 10
15.5475993722
 20
11.9984546285
 10
15.5466163067
 20
12.0122886823
 10
15.5454188097
 20
12.0309886286
  0
LINE
  5
27E
100
AcDbEntity
  8
0
100
AcDbLine
 62
7
  6
CONTINUOUS
 10
15.5454188097
 20
12.0309886286
 11
15.5446106795
 21
12.0451891111
  0
LINE
  5
27F
100
AcDbEntity
  8
0
100
AcDbLine
 62
7
  6
CONTINUOUS
 10
15.5477362458
 20
11.9956053991
 11
15.5475977549
 21
11.9984752314
  0
LINE
  5
280
100
AcDbEntity
  8
0
100
AcDbLine
 62
7
  6
CONTINUOUS
 10
15.5446099185
 20
12.0452031426
 11
15.544507683
 21
12.0481608557
  0
LWPOLYLINE
  5
281
100
AcDbEntity
  8
0
100
AcDbPolyline
 62
7
  6
CONTINUOUS
 90
5
 70
0
 10
15.544507683
 20
12.0481608557
 10
15.5447548277
 20
12.0575700096
 10
15.5457749596
 20
12.0679990045
 10
15.5474783941
 20
12.0784990615
 10
15.5496992013
 20
12.0881200388
  0
LINE
  5
282
100
AcDbEntity
  8
0
100
AcDbLine
 62
7
  6
CONTINUOUS
 10
15.5475080244
 20
11.9877432505
 11
15.5477362458
 21
11.9956053991
  0
LINE
  5
283
100
AcDbEntity
  8
0
100
AcDbLine
 62
7
  6
CONTINUOUS
 10
15.3559181195
 20
11.3627875494
 11
15.3569046201
 21
11.3709504083
  0
LINE
  5
284
100
AcDbEntity
  8
0
100
AcDbLine
 62
7
  6
CONTINUOUS
 10
15.4512198216
 20
11.6711839705
 11
15.4522063222
 21
11.6793468294
  0
LINE
  5
285
100
AcDbEntity
  8
0
100
AcDbLine
 62
7
  6
CONTINUOUS
 10
15.258985651
 20
11.0467789073
 11
15.2606164173
 21
11.0543911283
  0
LINE
  5
286
100
AcDbEntity
  8
0
100
AcDbLine
 62
7
  6
CONTINUOUS
 10
15.3542873531
 20
11.3551753284
 11
15.3559181195
 21
11.3627875494
  0
LINE
  5
287
100
AcDbEntity
  8
0
100
AcDbLine
 62
7
  6
CONTINUOUS
 10
16.0592122608
 20
13.7364514704
 11
16.0606817599
 21
13.7396794712
  0
LINE
  5
288
100
AcDbEntity
  8
0
100
AcDbLine
 62
7
  6
CONTINUOUS
 10
15.9639105586
 20
13.4280550493
 11
15.9653800578
 21
13.4312830501
  0
LINE
  5
289
100
AcDbEntity
  8
0
100
AcDbLine
 62
7
  6
CONTINUOUS
 10
15.8686088565
 20
13.1196586282
 11
15.8700783557
 21
13.122886629
  0
LINE
  5
28A
100
AcDbEntity
  8
0
100
AcDbLine
 62
7
  6
CONTINUOUS
 10
16.0826486859
 20
13.7148256947
 11
16.0851116631
 21
13.7201699825
  0
LINE
  5
28B
100
AcDbEntity
  8
0
100
AcDbLine
 62
7
  6
CONTINUOUS
 10
15.9873469838
 20
13.4064292736
 11
15.989809961
 21
13.4117735613
  0
LINE
  5
28C
100
AcDbEntity
  8
0
100
AcDbLine
 62
7
  6
CONTINUOUS
 10
15.8700783557
 20
13.122886629
 11
15.8706665437
 21
13.1238969517
  0
LINE
  5
28D
100
AcDbEntity
  8
0
100
AcDbLine
 62
7
  6
CONTINUOUS
 10
15.7747766535
 20
12.8144902079
 11
15.7753648416
 21
12.8155005306
  0
LINE
  5
28E
100
AcDbEntity
  8
0
100
AcDbLine
 62
7
  6
CONTINUOUS
 10
15.6429010743
 20
12.3068510496
 11
15.6428994963
 21
12.3068716553
  0
LWPOLYLINE
  5
28F
100
AcDbEntity
  8
0
100
AcDbPolyline
 62
7
  6
CONTINUOUS
 90
3
 70
0
 10
15.6429010743
 20
12.3068510496
 10
15.6419180088
 20
12.3206851034
 10
15.6407205118
 20
12.3393850497
  0
LINE
  5
290
100
AcDbEntity
  8
0
100
AcDbLine
 62
7
  6
CONTINUOUS
 10
15.6407205118
 20
12.3393850497
 11
15.6399123816
 21
12.3535855322
  0
LINE
  5
291
100
AcDbEntity
  8
0
100
AcDbLine
 62
7
  6
CONTINUOUS
 10
15.6430379479
 20
12.3040018202
 11
15.642899457
 21
12.3068716525
  0
LINE
  5
292
100
AcDbEntity
  8
0
100
AcDbLine
 62
7
  6
CONTINUOUS
 10
15.6399116207
 20
12.3535995637
 11
15.6398093851
 21
12.3565572768
  0
LWPOLYLINE
  5
293
100
AcDbEntity
  8
0
100
AcDbPolyline
 62
7
  6
CONTINUOUS
 90
5
 70
0
 10
15.6398093851
 20
12.3565572768
 10
15.6400565298
 20
12.3659664307
 10
15.6410766618
 20
12.3763954256
 10
15.6427800963
 20
12.3868954826
 10
15.6450009035
 20
12.3965164599
  0
LINE
  5
294
100
AcDbEntity
  8
0
100
AcDbLine
 62
7
  6
CONTINUOUS
 10
15.6428097265
 20
12.2961396716
 11
15.6430379479
 21
12.3040018202
  0
LINE
  5
295
100
AcDbEntity
  8
0
100
AcDbLine
 62
7
  6
CONTINUOUS
 10
15.5465215237
 20
11.9795803916
 11
15.5475080244
 21
11.9877432505
  0
LINE
  5
296
100
AcDbEntity
  8
0
100
AcDbLine
 62
7
  6
CONTINUOUS
 10
15.6418232259
 20
12.2879768127
 11
15.6428097265
 21
12.2961396716
  0
LINE
  5
297
100
AcDbEntity
  8
0
100
AcDbLine
 62
7
  6
CONTINUOUS
 10
15.4495890552
 20
11.6635717495
 11
15.4512198216
 21
11.6711839705
  0
LINE
  5
298
100
AcDbEntity
  8
0
100
AcDbLine
 62
7
  6
CONTINUOUS
 10
15.5448907573
 20
11.9719681706
 11
15.5465215237
 21
11.9795803916
  0
LINE
  5
299
100
AcDbEntity
  8
0
100
AcDbLine
 62
7
  6
CONTINUOUS
 10
15.6401924595
 20
12.2803645918
 11
15.6418232259
 21
12.2879768127
  0
LINE
  5
29A
100
AcDbEntity
  8
0
100
AcDbLine
 62
7
  6
CONTINUOUS
 10
15.7354941616
 20
12.5887610129
 11
15.737124928
 21
12.5963732339
  0
LINE
  5
29B
100
AcDbEntity
  8
0
100
AcDbLine
 62
7
  6
CONTINUOUS
 10
15.2583758443
 20
11.0446681295
 11
15.258985651
 21
11.0467789073
  0
LINE
  5
29C
100
AcDbEntity
  8
0
100
AcDbLine
 62
7
  6
CONTINUOUS
 10
15.3536775465
 20
11.3530645506
 11
15.3542873531
 21
11.3551753284
  0
LINE
  5
29D
100
AcDbEntity
  8
0
100
AcDbLine
 62
7
  6
CONTINUOUS
 10
15.4489792486
 20
11.6614609717
 11
15.4495890552
 21
11.6635717495
  0
LINE
  5
29E
100
AcDbEntity
  8
0
100
AcDbLine
 62
7
  6
CONTINUOUS
 10
15.5442809507
 20
11.9698573928
 11
15.5448907573
 21
11.9719681706
  0
LINE
  5
29F
100
AcDbEntity
  8
0
100
AcDbLine
 62
7
  6
CONTINUOUS
 10
15.6395826529
 20
12.2782538139
 11
15.6401924595
 21
12.2803645918
  0
LINE
  5
2A0
100
AcDbEntity
  8
0
100
AcDbLine
 62
7
  6
CONTINUOUS
 10
15.734884355
 20
12.586650235
 11
15.7354941616
 21
12.5887610129
  0
LINE
  5
2A1
100
AcDbEntity
  8
0
100
AcDbLine
 62
7
  6
CONTINUOUS
 10
15.8301860571
 20
12.8950466562
 11
15.8307958637
 21
12.897157434
  0
LINE
  5
2A2
100
AcDbEntity
  8
0
100
AcDbLine
 62
7
  6
CONTINUOUS
 10
15.9254877592
 20
13.2034430773
 11
15.9260975659
 21
13.2055538551
  0
LINE
  5
2A3
100
AcDbEntity
  8
0
100
AcDbLine
 62
7
  6
CONTINUOUS
 10
15.2637940949
 20
11.1629307755
 11
15.2647679495
 21
11.1662979104
  0
LINE
  5
2A4
100
AcDbEntity
  8
0
100
AcDbLine
 62
7
  6
CONTINUOUS
 10
15.3590957971
 20
11.4713271966
 11
15.3600696516
 21
11.4746943315
  0
LINE
  5
2A5
100
AcDbEntity
  8
0
100
AcDbLine
 62
7
  6
CONTINUOUS
 10
15.4543974992
 20
11.7797236177
 11
15.4553713537
 21
11.7830907526
  0
LINE
  5
2A6
100
AcDbEntity
  8
0
100
AcDbLine
 62
7
  6
CONTINUOUS
 10
15.5496992013
 20
12.0881200388
 11
15.5506730559
 21
12.0914871737
  0
LINE
  5
2A7
100
AcDbEntity
  8
0
100
AcDbLine
 62
7
  6
CONTINUOUS
 10
15.6450009035
 20
12.3965164599
 11
15.645974758
 21
12.3998835948
  0
LINE
  5
2A8
100
AcDbEntity
  8
0
100
AcDbLine
 62
7
  6
CONTINUOUS
 10
15.7403026056
 20
12.704912881
 11
15.7412764601
 21
12.7082800159
  0
LINE
  5
2A9
100
AcDbEntity
  8
0
100
AcDbLine
 62
7
  6
CONTINUOUS
 10
15.8356043077
 20
13.0133093022
 11
15.8365781623
 21
13.0166764371
  0
LINE
  5
2AA
100
AcDbEntity
  8
0
100
AcDbLine
 62
7
  6
CONTINUOUS
 10
15.9309060098
 20
13.3217057233
 11
15.9318798644
 21
13.3250728582
  0
LINE
  5
2AB
100
AcDbEntity
  8
0
100
AcDbLine
 62
7
  6
CONTINUOUS
 10
16.026207712
 20
13.6301021444
 11
16.0271815665
 21
13.6334692793
  0
LINE
  5
2AC
100
AcDbEntity
  8
0
100
AcDbLine
 62
7
  6
CONTINUOUS
 10
16.1215094141
 20
13.9384985655
 11
16.1224832686
 21
13.9418657004
  0
LINE
  5
2AD
100
AcDbEntity
  8
0
100
AcDbLine
 62
7
  6
CONTINUOUS
 10
15.1850295558
 20
10.9082635156
 11
15.1997012961
 21
10.9557412849
  0
LINE
  5
2AE
100
AcDbEntity
  8
0
100
AcDbLine
 62
7
  6
CONTINUOUS
 10
15.2647708333
 20
11.1663063844
 11
15.2950029983
 21
11.264137706
  0
LINE
  5
2AF
100
AcDbEntity
  8
0
100
AcDbLine
 62
7
  6
CONTINUOUS
 10
15.3600725355
 20
11.4747028055
 11
15.3903047004
 21
11.5725341271
  0
LINE
  5
2B0
100
AcDbEntity
  8
0
100
AcDbLine
 62
7
  6
CONTINUOUS
 10
15.4553742376
 20
11.7830992266
 11
15.4856064025
 21
11.8809305482
  0
LINE
  5
2B1
100
AcDbEntity
  8
0
100
AcDbLine
 62
7
  6
CONTINUOUS
 10
15.5506759397
 20
12.0914956478
 11
15.5809081047
 21
12.1893269693
  0
LINE
  5
2B2
100
AcDbEntity
  8
0
100
AcDbLine
 62
7
  6
CONTINUOUS
 10
15.6459776418
 20
12.3998920689
 11
15.6762098068
 21
12.4977233904
  0
LINE
  5
2B3
100
AcDbEntity
  8
0
100
AcDbLine
 62
7
  6
CONTINUOUS
 10
15.741279344
 20
12.70828849
 11
15.7715115089
 21
12.8061198116
  0
LINE
  5
2B4
100
AcDbEntity
  8
0
100
AcDbLine
 62
7
  6
CONTINUOUS
 10
15.8365810461
 20
13.0166849111
 11
15.866813211
 21
13.1145162327
  0
LINE
  5
2B5
100
AcDbEntity
  8
0
100
AcDbLine
 62
7
  6
CONTINUOUS
 10
15.9318827482
 20
13.3250813322
 11
15.9621149132
 21
13.4229126538
  0
LINE
  5
2B6
100
AcDbEntity
  8
0
100
AcDbLine
 62
7
  6
CONTINUOUS
 10
16.0271844504
 20
13.6334777533
 11
16.0574166153
 21
13.7313090749
  0
LINE
  5
2B7
100
AcDbEntity
  8
0
100
AcDbLine
 62
7
  6
CONTINUOUS
 10
16.1224861525
 20
13.9418741744
 11
16.137602235
 21
13.9907898354
  0
LINE
  5
2B8
100
AcDbEntity
  8
0
100
AcDbLine
 62
7
  6
CONTINUOUS
 10
15.2281472723
 20
10.9468472848
 11
15.2583794384
 21
11.04467861
  0
LINE
  5
2B9
100
AcDbEntity
  8
0
100
AcDbLine
 62
7
  6
CONTINUOUS
 10
15.3234489745
 20
11.2552437059
 11
15.3536811405
 21
11.3530750312
  0
LINE
  5
2BA
100
AcDbEntity
  8
0
100
AcDbLine
 62
7
  6
CONTINUOUS
 10
15.4187506766
 20
11.563640127
 11
15.4489828427
 21
11.6614714523
  0
LINE
  5
2BB
100
AcDbEntity
  8
0
100
AcDbLine
 62
7
  6
CONTINUOUS
 10
15.5140523787
 20
11.8720365481
 11
15.5442845448
 21
11.9698678734
  0
LINE
  5
2BC
100
AcDbEntity
  8
0
100
AcDbLine
 62
7
  6
CONTINUOUS
 10
15.6093540808
 20
12.1804329692
 11
15.6395862469
 21
12.2782642945
  0
LINE
  5
2BD
100
AcDbEntity
  8
0
100
AcDbLine
 62
7
  6
CONTINUOUS
 10
15.704655783
 20
12.4888293904
 11
15.734887949
 21
12.5866607156
  0
LINE
  5
2BE
100
AcDbEntity
  8
0
100
AcDbLine
 62
7
  6
CONTINUOUS
 10
15.7999574851
 20
12.7972258115
 11
15.8301896512
 21
12.8950571367
  0
LINE
  5
2BF
100
AcDbEntity
  8
0
100
AcDbLine
 62
7
  6
CONTINUOUS
 10
15.8952591872
 20
13.1056222326
 11
15.9254913533
 21
13.2034535578
  0
LINE
  5
2C0
100
AcDbEntity
  8
0
100
AcDbLine
 62
7
  6
CONTINUOUS
 10
15.9905608894
 20
13.4140186537
 11
16.0207930554
 21
13.511849979
  0
LINE
  5
2C1
100
AcDbEntity
  8
0
100
AcDbLine
 62
7
  6
CONTINUOUS
 10
16.0858625915
 20
13.7224150748
 11
16.1160947576
 21
13.8202464001
  0
LINE
  5
2C2
100
AcDbEntity
  8
0
100
AcDbLine
 62
7
  6
CONTINUOUS
 10
16.1160947576
 20
13.8202464001
 11
16.1160914705
 21
13.8202358266
  0
LINE
  5
2C3
100
AcDbEntity
  8
0
100
AcDbLine
 62
7
  6
CONTINUOUS
 10
16.0207930554
 20
13.511849979
 11
16.0207897684
 21
13.5118394055
  0
LINE
  5
2C4
100
AcDbEntity
  8
0
100
AcDbLine
 62
7
  6
CONTINUOUS
 10
15.9254913533
 20
13.2034535578
 11
15.9254880663
 21
13.2034429844
  0
LINE
  5
2C5
100
AcDbEntity
  8
0
100
AcDbLine
 62
7
  6
CONTINUOUS
 10
15.8301896512
 20
12.8950571367
 11
15.8301863642
 21
12.8950465633
  0
LINE
  5
2C6
100
AcDbEntity
  8
0
100
AcDbLine
 62
7
  6
CONTINUOUS
 10
15.734887949
 20
12.5866607156
 11
15.734884662
 21
12.5866501422
  0
LINE
  5
2C7
100
AcDbEntity
  8
0
100
AcDbLine
 62
7
  6
CONTINUOUS
 10
15.6395862469
 20
12.2782642945
 11
15.6395829599
 21
12.278253721
  0
LINE
  5
2C8
100
AcDbEntity
  8
0
100
AcDbLine
 62
7
  6
CONTINUOUS
 10
15.5442845448
 20
11.9698678734
 11
15.5442812578
 21
11.9698572999
  0
LINE
  5
2C9
100
AcDbEntity
  8
0
100
AcDbLine
 62
7
  6
CONTINUOUS
 10
15.4489828427
 20
11.6614714523
 11
15.4489795556
 21
11.6614608788
  0
LINE
  5
2CA
100
AcDbEntity
  8
0
100
AcDbLine
 62
7
  6
CONTINUOUS
 10
15.3536811405
 20
11.3530750312
 11
15.3536778535
 21
11.3530644577
  0
LINE
  5
2CB
100
AcDbEntity
  8
0
100
AcDbLine
 62
7
  6
CONTINUOUS
 10
15.2583794384
 20
11.04467861
 11
15.2583761514
 21
11.0446680366
  0
LINE
  5
2CC
100
AcDbEntity
  8
0
100
AcDbLine
 62
7
  6
CONTINUOUS
 10
16.0851116631
 20
13.7201699825
 11
16.0858680405
 21
13.7224330064
  0
LINE
  5
2CD
100
AcDbEntity
  8
0
100
AcDbLine
 62
7
  6
CONTINUOUS
 10
15.989809961
 20
13.4117735613
 11
15.9905663384
 21
13.4140365853
  0
LINE
  5
2CE
100
AcDbEntity
  8
0
100
AcDbLine
 62
7
  6
CONTINUOUS
 10
15.8945082589
 20
13.1033771402
 11
15.8952646363
 21
13.1056401642
  0
LINE
  5
2CF
100
AcDbEntity
  8
0
100
AcDbLine
 62
7
  6
CONTINUOUS
 10
15.7992065567
 20
12.7949807191
 11
15.7999629341
 21
12.7972437431
  0
LINE
  5
2D0
100
AcDbEntity
  8
0
100
AcDbLine
 62
7
  6
CONTINUOUS
 10
15.7039048546
 20
12.486584298
 11
15.704661232
 21
12.488847322
  0
LINE
  5
2D1
100
AcDbEntity
  8
0
100
AcDbLine
 62
7
  6
CONTINUOUS
 10
15.6086031525
 20
12.1781878769
 11
15.6093595299
 21
12.1804509009
  0
LINE
  5
2D2
100
AcDbEntity
  8
0
100
AcDbLine
 62
7
  6
CONTINUOUS
 10
15.5133014503
 20
11.8697914558
 11
15.5140578277
 21
11.8720544798
  0
LINE
  5
2D3
100
AcDbEntity
  8
0
100
AcDbLine
 62
7
  6
CONTINUOUS
 10
16.0574168655
 20
13.7313099036
 11
16.0592122608
 21
13.7364514704
  0
LINE
  5
2D4
100
AcDbEntity
  8
0
100
AcDbLine
 62
7
  6
CONTINUOUS
 10
15.9621151634
 20
13.4229134825
 11
15.9639105586
 21
13.4280550493
  0
LINE
  5
2D5
100
AcDbEntity
  8
0
100
AcDbLine
 62
7
  6
CONTINUOUS
 10
15.8668134612
 20
13.1145170614
 11
15.8686088565
 21
13.1196586282
  0
LINE
  5
2D6
100
AcDbEntity
  8
0
100
AcDbLine
 62
7
  6
CONTINUOUS
 10
15.7715117591
 20
12.8061206403
 11
15.7733071544
 21
12.8112622071
  0
LINE
  5
2D7
100
AcDbEntity
  8
0
100
AcDbLine
 62
7
  6
CONTINUOUS
 10
15.676210057
 20
12.4977242192
 11
15.6780054522
 21
12.502865786
  0
LINE
  5
2D8
100
AcDbEntity
  8
0
100
AcDbLine
 62
7
  6
CONTINUOUS
 10
15.5809083548
 20
12.1893277981
 11
15.5827037501
 21
12.1944693648
  0
LINE
  5
2D9
100
AcDbEntity
  8
0
100
AcDbLine
 62
7
  6
CONTINUOUS
 10
15.4856066527
 20
11.880931377
 11
15.487402048
 21
11.8860729437
  0
LINE
  5
2DA
100
AcDbEntity
  8
0
100
AcDbLine
 62
7
  6
CONTINUOUS
 10
15.3903049506
 20
11.5725349559
 11
15.3921003459
 21
11.5776765226
  0
LINE
  5
2DB
100
AcDbEntity
  8
0
100
AcDbLine
 62
7
  6
CONTINUOUS
 10
15.2950032485
 20
11.2641385347
 11
15.2967986437
 21
11.2692801015
  0
LINE
  5
2DC
100
AcDbEntity
  8
0
100
AcDbLine
 62
7
  6
CONTINUOUS
 10
15.7733071544
 20
12.8112622071
 11
15.7747766535
 21
12.8144902079
  0
LINE
  5
2DD
100
AcDbEntity
  8
0
100
AcDbLine
 62
7
  6
CONTINUOUS
 10
15.6780054522
 20
12.502865786
 11
15.6794749514
 21
12.5060937867
  0
LINE
  5
2DE
100
AcDbEntity
  8
0
100
AcDbLine
 62
7
  6
CONTINUOUS
 10
15.5827037501
 20
12.1944693648
 11
15.5841732493
 21
12.1976973656
  0
LINE
  5
2DF
100
AcDbEntity
  8
0
100
AcDbLine
 62
7
  6
CONTINUOUS
 10
15.8920452816
 20
13.0980328525
 11
15.8945082589
 21
13.1033771402
  0
LINE
  5
2E0
100
AcDbEntity
  8
0
100
AcDbLine
 62
7
  6
CONTINUOUS
 10
15.7967435795
 20
12.7896364314
 11
15.7992065567
 21
12.7949807191
  0
LINE
  5
2E1
100
AcDbEntity
  8
0
100
AcDbLine
 62
7
  6
CONTINUOUS
 10
15.7014418774
 20
12.4812400103
 11
15.7039048546
 21
12.486584298
  0
LINE
  5
2E2
100
AcDbEntity
  8
0
100
AcDbLine
 62
7
  6
CONTINUOUS
 10
15.6794749514
 20
12.5060937867
 11
15.6800631394
 21
12.5071041095
  0
LWPOLYLINE
  5
2E3
100
AcDbEntity
  8
0
100
AcDbPolyline
 62
7
  6
CONTINUOUS
 90
4
 70
0
 10
15.7857096564
 20
12.7826121342
 10
15.788566673
 20
12.7829806517
 10
15.7933067461
 20
12.7854741781
 10
15.7967435795
 20
12.7896364314
  0
LINE
  5
2E4
100
AcDbEntity
  8
0
100
AcDbLine
 62
7
  6
CONTINUOUS
 10
15.7382027765
 20
12.6152474707
 11
15.7382011985
 21
12.6152680764
  0
LWPOLYLINE
  5
2E5
100
AcDbEntity
  8
0
100
AcDbPolyline
 62
7
  6
CONTINUOUS
 90
3
 70
0
 10
15.7382027765
 20
12.6152474707
 10
15.7372197109
 20
12.6290815245
 10
15.736022214
 20
12.6477814708
  0
LINE
  5
2E6
100
AcDbEntity
  8
0
100
AcDbLine
 62
7
  6
CONTINUOUS
 10
15.736022214
 20
12.6477814708
 11
15.7352140838
 21
12.6619819533
  0
LINE
  5
2E7
100
AcDbEntity
  8
0
100
AcDbLine
 62
7
  6
CONTINUOUS
 10
15.7383396501
 20
12.6123982413
 11
15.7382011591
 21
12.6152680736
  0
LINE
  5
2E8
100
AcDbEntity
  8
0
100
AcDbLine
 62
7
  6
CONTINUOUS
 10
15.7352133228
 20
12.6619959848
 11
15.7351110872
 21
12.6649536979
  0
LWPOLYLINE
  5
2E9
100
AcDbEntity
  8
0
100
AcDbPolyline
 62
7
  6
CONTINUOUS
 90
5
 70
0
 10
15.7351110872
 20
12.6649536979
 10
15.735358232
 20
12.6743628519
 10
15.7363783639
 20
12.6847918467
 10
15.7380817984
 20
12.6952919037
 10
15.7403026056
 20
12.704912881
  0
LWPOLYLINE
  5
2EA
100
AcDbEntity
  8
0
100
AcDbPolyline
 62
7
  6
CONTINUOUS
 90
5
 70
0
 10
15.8304127894
 20
12.973350119
 10
15.8306599341
 20
12.982759273
 10
15.831680066
 20
12.9931882679
 10
15.8333835005
 20
13.0036883248
 10
15.8356043077
 20
13.0133093022
  0
LINE
  5
2EB
100
AcDbEntity
  8
0
100
AcDbLine
 62
7
  6
CONTINUOUS
 10
15.7381114286
 20
12.6045360927
 11
15.7383396501
 21
12.6123982413
  0
LINE
  5
2EC
100
AcDbEntity
  8
0
100
AcDbLine
 62
7
  6
CONTINUOUS
 10
15.8334131308
 20
12.9129325139
 11
15.8336413522
 21
12.9207946625
  0
LINE
  5
2ED
100
AcDbEntity
  8
0
100
AcDbLine
 62
7
  6
CONTINUOUS
 10
15.737124928
 20
12.5963732339
 11
15.7381114286
 21
12.6045360927
  0
LINE
  5
2EE
100
AcDbEntity
  8
0
100
AcDbLine
 62
7
  6
CONTINUOUS
 10
15.8324266301
 20
12.904769655
 11
15.8334131308
 21
12.9129325139
  0
LINE
  5
2EF
100
AcDbEntity
  8
0
100
AcDbLine
 62
7
  6
CONTINUOUS
 10
15.8307958637
 20
12.897157434
 11
15.8324266301
 21
12.904769655
  0
LINE
  5
2F0
100
AcDbEntity
  8
0
100
AcDbLine
 62
7
  6
CONTINUOUS
 10
15.9260975659
 20
13.2055538551
 11
15.9277283322
 21
13.2131660761
  0
LINE
  5
2F1
100
AcDbEntity
  8
0
100
AcDbLine
 62
7
  6
CONTINUOUS
 10
16.021399268
 20
13.5139502762
 11
16.0230300344
 21
13.5215624972
  0
LINE
  5
2F2
100
AcDbEntity
  8
0
100
AcDbLine
 62
7
  6
CONTINUOUS
 10
16.1167009701
 20
13.8223466973
 11
16.1183317365
 21
13.8299589183
  0
LINE
  5
2F3
100
AcDbEntity
  8
0
100
AcDbLine
 62
7
  6
CONTINUOUS
 10
16.0207894614
 20
13.5118394984
 11
16.021399268
 21
13.5139502762
  0
LINE
  5
2F4
100
AcDbEntity
  8
0
100
AcDbLine
 62
7
  6
CONTINUOUS
 10
16.1160911635
 20
13.8202359195
 11
16.1167009701
 21
13.8223466973
  0
LINE
  5
2F5
100
AcDbEntity
  8
0
100
AcDbLine
 62
7
  6
CONTINUOUS
 10
15.4179997482
 20
11.5613950347
 11
15.4187561256
 21
11.5636580586
  0
LINE
  5
2F6
100
AcDbEntity
  8
0
100
AcDbLine
 62
7
  6
CONTINUOUS
 10
15.3226980461
 20
11.2529986135
 11
15.3234544235
 21
11.2552616375
  0
LINE
  5
2F7
100
AcDbEntity
  8
0
100
AcDbLine
 62
7
  6
CONTINUOUS
 10
15.227396344
 20
10.9446021924
 11
15.2281527214
 21
10.9468652164
  0
LINE
  5
2F8
100
AcDbEntity
  8
0
100
AcDbLine
 62
7
  6
CONTINUOUS
 10
15.1997015463
 20
10.9557421136
 11
15.2014969416
 21
10.9608836804
  0
LINE
  5
2F9
100
AcDbEntity
  8
0
100
AcDbLine
 62
7
  6
CONTINUOUS
 10
15.487402048
 20
11.8860729437
 11
15.4888715471
 21
11.8893009445
  0
LINE
  5
2FA
100
AcDbEntity
  8
0
100
AcDbLine
 62
7
  6
CONTINUOUS
 10
15.3921003459
 20
11.5776765226
 11
15.393569845
 21
11.5809045234
  0
LINE
  5
2FB
100
AcDbEntity
  8
0
100
AcDbLine
 62
7
  6
CONTINUOUS
 10
15.2967986437
 20
11.2692801015
 11
15.2982681429
 21
11.2725081023
  0
LINE
  5
2FC
100
AcDbEntity
  8
0
100
AcDbLine
 62
7
  6
CONTINUOUS
 10
15.6061401752
 20
12.1728435891
 11
15.6086031525
 21
12.1781878769
  0
LINE
  5
2FD
100
AcDbEntity
  8
0
100
AcDbLine
 62
7
  6
CONTINUOUS
 10
15.5108384731
 20
11.864447168
 11
15.5133014503
 21
11.8697914558
  0
LINE
  5
2FE
100
AcDbEntity
  8
0
100
AcDbLine
 62
7
  6
CONTINUOUS
 10
15.415536771
 20
11.5560507469
 11
15.4179997482
 21
11.5613950347
  0
LINE
  5
2FF
100
AcDbEntity
  8
0
100
AcDbLine
 62
7
  6
CONTINUOUS
 10
15.5841732493
 20
12.1976973656
 11
15.5847614373
 21
12.1987076884
  0
LINE
  5
300
100
AcDbEntity
  8
0
100
AcDbLine
 62
7
  6
CONTINUOUS
 10
15.4888715471
 20
11.8893009445
 11
15.4894597352
 21
11.8903112673
  0
LINE
  5
301
100
AcDbEntity
  8
0
100
AcDbLine
 62
7
  6
CONTINUOUS
 10
15.7642470158
 20
12.7826119033
 11
15.7857152636
 21
12.7826119033
  0
LINE
  5
302
100
AcDbEntity
  8
0
100
AcDbLine
 62
7
  6
CONTINUOUS
 10
15.8335044786
 20
12.9236438918
 11
15.8335029006
 21
12.9236644975
  0
LWPOLYLINE
  5
303
100
AcDbEntity
  8
0
100
AcDbPolyline
 62
7
  6
CONTINUOUS
 90
3
 70
0
 10
15.8335044786
 20
12.9236438918
 10
15.8325214131
 20
12.9374779457
 10
15.8313239161
 20
12.956177892
  0
LINE
  5
304
100
AcDbEntity
  8
0
100
AcDbLine
 62
7
  6
CONTINUOUS
 10
15.8313239161
 20
12.956177892
 11
15.8305157859
 21
12.9703783744
  0
LINE
  5
305
100
AcDbEntity
  8
0
100
AcDbLine
 62
7
  6
CONTINUOUS
 10
15.8336413522
 20
12.9207946625
 11
15.8335028613
 21
12.9236644947
  0
LINE
  5
306
100
AcDbEntity
  8
0
100
AcDbLine
 62
7
  6
CONTINUOUS
 10
15.8305150249
 20
12.9703924059
 11
15.8304127894
 21
12.973350119
  0
LWPOLYLINE
  5
307
100
AcDbEntity
  8
0
100
AcDbPolyline
 62
7
  6
CONTINUOUS
 90
5
 70
0
 10
15.9257144915
 20
13.2817465401
 10
15.9259616362
 20
13.2911556941
 10
15.9269817682
 20
13.301584689
 10
15.9286852026
 20
13.3120847459
 10
15.9309060098
 20
13.3217057233
  0
LINE
  5
308
100
AcDbEntity
  8
0
100
AcDbLine
 62
7
  6
CONTINUOUS
 10
15.9287148329
 20
13.221328935
 11
15.9289430543
 21
13.2291910836
  0
LINE
  5
309
100
AcDbEntity
  8
0
100
AcDbLine
 62
7
  6
CONTINUOUS
 10
15.9277283322
 20
13.2131660761
 11
15.9287148329
 21
13.221328935
  0
LINE
  5
30A
100
AcDbEntity
  8
0
100
AcDbLine
 62
7
  6
CONTINUOUS
 10
16.0230300344
 20
13.5215624972
 11
16.024016535
 21
13.5297253561
  0
LINE
  5
30B
100
AcDbEntity
  8
0
100
AcDbLine
 62
7
  6
CONTINUOUS
 10
15.2014969416
 20
10.9608836804
 11
15.2029664408
 21
10.9641116812
  0
LINE
  5
30C
100
AcDbEntity
  8
0
100
AcDbLine
 62
7
  6
CONTINUOUS
 10
15.3202350689
 20
11.2476543258
 11
15.3226980461
 21
11.2529986135
  0
LINE
  5
30D
100
AcDbEntity
  8
0
100
AcDbLine
 62
7
  6
CONTINUOUS
 10
15.2249333667
 20
10.9392579047
 11
15.227396344
 21
10.9446021924
  0
LINE
  5
30E
100
AcDbEntity
  8
0
100
AcDbLine
 62
7
  6
CONTINUOUS
 10
15.393569845
 20
11.5809045234
 11
15.3941580331
 21
11.5819148462
  0
LINE
  5
30F
100
AcDbEntity
  8
0
100
AcDbLine
 62
7
  6
CONTINUOUS
 10
15.2982681429
 20
11.2725081023
 11
15.2988563309
 21
11.273518425
  0
LINE
  5
310
100
AcDbEntity
  8
0
100
AcDbLine
 62
7
  6
CONTINUOUS
 10
15.9288061807
 20
13.2320403129
 11
15.9288046027
 21
13.2320609187
  0
LWPOLYLINE
  5
311
100
AcDbEntity
  8
0
100
AcDbPolyline
 62
7
  6
CONTINUOUS
 90
3
 70
0
 10
15.9288061807
 20
13.2320403129
 10
15.9278231152
 20
13.2458743668
 10
15.9266256182
 20
13.2645743131
  0
LINE
  5
312
100
AcDbEntity
  8
0
100
AcDbLine
 62
7
  6
CONTINUOUS
 10
15.9266256182
 20
13.2645743131
 11
15.925817488
 21
13.2787747955
  0
LINE
  5
313
100
AcDbEntity
  8
0
100
AcDbLine
 62
7
  6
CONTINUOUS
 10
15.9289430543
 20
13.2291910836
 11
15.9288045634
 21
13.2320609159
  0
LINE
  5
314
100
AcDbEntity
  8
0
100
AcDbLine
 62
7
  6
CONTINUOUS
 10
15.925816727
 20
13.278788827
 11
15.9257144915
 21
13.2817465401
  0
LINE
  5
315
100
AcDbEntity
  8
0
100
AcDbLine
 62
7
  6
CONTINUOUS
 10
16.0211184292
 20
13.5871852482
 11
16.0210161936
 21
13.5901429612
  0
LWPOLYLINE
  5
316
100
AcDbEntity
  8
0
100
AcDbPolyline
 62
7
  6
CONTINUOUS
 90
5
 70
0
 10
16.0210161936
 20
13.5901429612
 10
16.0212633383
 20
13.5995521152
 10
16.0222834703
 20
13.6099811101
 10
16.0239869048
 20
13.620481167
 10
16.026207712
 20
13.6301021444
  0
LINE
  5
317
100
AcDbEntity
  8
0
100
AcDbLine
 62
7
  6
CONTINUOUS
 10
16.024016535
 20
13.5297253561
 11
16.0242447565
 21
13.5375875047
  0
LINE
  5
318
100
AcDbEntity
  8
0
100
AcDbLine
 62
7
  6
CONTINUOUS
 10
16.1377105928
 20
13.9923315537
 11
16.1376026914
 21
13.9907896944
  0
LINE
  5
319
100
AcDbEntity
  8
0
100
AcDbLine
 62
7
  6
CONTINUOUS
 10
16.1183317365
 20
13.8299589183
 11
16.1193182371
 21
13.8381217772
  0
LINE
  5
31A
100
AcDbEntity
  8
0
100
AcDbLine
 62
7
  6
CONTINUOUS
 10
15.2029664408
 20
10.9641116812
 11
15.2035546288
 21
10.9651220039
  0
LWPOLYLINE
  5
31B
100
AcDbEntity
  8
0
100
AcDbPolyline
 62
7
  6
CONTINUOUS
 90
4
 70
0
 10
15.8810113585
 20
13.0910085553
 10
15.8838683752
 20
13.0913770729
 10
15.8886084482
 20
13.0938705992
 10
15.8920452816
 20
13.0980328525
  0
LINE
  5
31C
100
AcDbEntity
  8
0
100
AcDbLine
 62
7
  6
CONTINUOUS
 10
15.859548718
 20
13.0910083245
 11
15.8810169658
 21
13.0910083245
  0
LINE
  5
31D
100
AcDbEntity
  8
0
100
AcDbLine
 62
7
  6
CONTINUOUS
 10
16.0241078828
 20
13.540436734
 11
16.0241063048
 21
13.5404573398
  0
LWPOLYLINE
  5
31E
100
AcDbEntity
  8
0
100
AcDbPolyline
 62
7
  6
CONTINUOUS
 90
3
 70
0
 10
16.0241078828
 20
13.540436734
 10
16.0231248173
 20
13.5542707879
 10
16.0219273204
 20
13.5729707342
  0
LINE
  5
31F
100
AcDbEntity
  8
0
100
AcDbLine
 62
7
  6
CONTINUOUS
 10
16.0219273204
 20
13.5729707342
 11
16.0211191902
 21
13.5871712167
  0
LINE
  5
320
100
AcDbEntity
  8
0
100
AcDbLine
 62
7
  6
CONTINUOUS
 10
16.0242447565
 20
13.5375875047
 11
16.0241062655
 21
13.540457337
  0
LINE
  5
321
100
AcDbEntity
  8
0
100
AcDbLine
 62
7
  6
CONTINUOUS
 10
16.1164201313
 20
13.8955816693
 11
16.1163178958
 21
13.8985393823
  0
LWPOLYLINE
  5
322
100
AcDbEntity
  8
0
100
AcDbPolyline
 62
7
  6
CONTINUOUS
 90
5
 70
0
 10
16.1163178958
 20
13.8985393823
 10
16.1165650405
 20
13.9079485363
 10
16.1175851724
 20
13.9183775312
 10
16.1192886069
 20
13.9288775882
 10
16.1215094141
 20
13.9384985655
  0
LINE
  5
323
100
AcDbEntity
  8
0
100
AcDbLine
 62
7
  6
CONTINUOUS
 10
16.1193182371
 20
13.8381217772
 11
16.1195464586
 21
13.8459839258
  0
LINE
  5
324
100
AcDbEntity
  8
0
100
AcDbLine
 62
7
  6
CONTINUOUS
 10
16.119409585
 20
13.8488331551
 11
16.119408007
 21
13.8488537609
  0
LWPOLYLINE
  5
325
100
AcDbEntity
  8
0
100
AcDbPolyline
 62
7
  6
CONTINUOUS
 90
3
 70
0
 10
16.119409585
 20
13.8488331551
 10
16.1184265194
 20
13.862667209
 10
16.1172290225
 20
13.8813671553
  0
LINE
  5
326
100
AcDbEntity
  8
0
100
AcDbLine
 62
7
  6
CONTINUOUS
 10
16.1172290225
 20
13.8813671553
 11
16.1164208923
 21
13.8955676378
  0
LINE
  5
327
100
AcDbEntity
  8
0
100
AcDbLine
 62
7
  6
CONTINUOUS
 10
16.1195464586
 20
13.8459839258
 11
16.1194079677
 21
13.8488537581
  0
LWPOLYLINE
  5
328
100
AcDbEntity
  8
0
100
AcDbPolyline
 62
7
  6
CONTINUOUS
 90
4
 70
0
 10
15.9763130607
 20
13.3994049765
 10
15.9791700773
 20
13.399773494
 10
15.9839101504
 20
13.4022670203
 10
15.9873469838
 20
13.4064292736
  0
LINE
  5
329
100
AcDbEntity
  8
0
100
AcDbLine
 62
7
  6
CONTINUOUS
 10
15.9548504201
 20
13.3994047456
 11
15.9763186679
 21
13.3994047456
  0
LWPOLYLINE
  5
32A
100
AcDbEntity
  8
0
100
AcDbPolyline
 62
7
  6
CONTINUOUS
 90
4
 70
0
 10
16.0716147628
 20
13.7078013976
 10
16.0744717794
 20
13.7081699151
 10
16.0792118525
 20
13.7106634414
 10
16.0826486859
 20
13.7148256947
  0
LINE
  5
32B
100
AcDbEntity
  8
0
100
AcDbLine
 62
7
  6
CONTINUOUS
 10
16.0501521222
 20
13.7078011667
 11
16.07162037
 21
13.7078011667
  0
LINE
  5
32C
100
AcDbEntity
  8
0
100
AcDbLine
 62
7
  6
CONTINUOUS
 10
16.1236618115
 20
14.1045911157
 11
16.1203514289
 21
14.1113369661
  0
ARC
  5
32D
100
AcDbEntity
  8
0
100
AcDbCircle
 62
7
  6
CONTINUOUS
 10
2.5272264668
 20
4.6711968127
 40
3.5433070866
100
AcDbArc
 50
13.1176810354
 51
15.8423110981
  0
ARC
  5
32E
100
AcDbEntity
  8
0
100
AcDbCircle
 62
7
  6
CONTINUOUS
 10
2.5272264668
 20
4.6711968127
 40
3.5433070866
100
AcDbArc
 50
11.3852872806
 51
13.0877401944
  0
ARC
  5
32F
100
AcDbEntity
  8
0
100
AcDbCircle
 62
7
  6
CONTINUOUS
 10
5.9396106325
 20
5.6668040184
 40
0.00609375
100
AcDbArc
 50
92.8242853827
 51
180.0
  0
ARC
  5
330
100
AcDbEntity
  8
0
100
AcDbCircle
 62
7
  6
CONTINUOUS
 10
5.9878134803
 20
5.4776264584
 40
0.01
100
AcDbArc
 50
193.1176810354
 51
270.0
  0
ARC
  5
331
100
AcDbEntity
  8
0
100
AcDbCircle
 62
7
  6
CONTINUOUS
 10
6.0106111927
 20
5.3726396861
 40
0.01
100
AcDbArc
 50
191.3858964087
 51
270.0001191769
  0
ARC
  5
332
100
AcDbEntity
  8
0
100
AcDbCircle
 62
7
  6
CONTINUOUS
 10
5.9974932604
 20
5.6559517947
 40
0.063976378
100
AcDbArc
 50
180.0
 51
195.8423110981
  0
ARC
  5
333
100
AcDbEntity
  8
0
100
AcDbCircle
 62
7
  6
CONTINUOUS
 10
6.1303672762
 20
1.8000924617
 40
3.87750775
100
AcDbArc
 50
87.1757146173
 51
92.8242853827
  0
ARC
  5
334
100
AcDbEntity
  8
0
100
AcDbCircle
 62
7
  6
CONTINUOUS
 10
6.272921072
 20
5.4776264584
 40
0.01
100
AcDbArc
 50
270.0
 51
346.8823189646
  0
ARC
  5
335
100
AcDbEntity
  8
0
100
AcDbCircle
 62
7
  6
CONTINUOUS
 10
6.2501235178
 20
5.3726405017
 40
0.01
100
AcDbArc
 50
269.9989752353
 51
348.6093432034
  0
ARC
  5
336
100
AcDbEntity
  8
0
100
AcDbCircle
 62
7
  6
CONTINUOUS
 10
6.2632412919
 20
5.6559517947
 40
0.063976378
100
AcDbArc
 50
344.1576889019
 51
360.0
  0
ARC
  5
337
100
AcDbEntity
  8
0
100
AcDbCircle
 62
7
  6
CONTINUOUS
 10
6.3211239199
 20
5.6668040184
 40
0.00609375
100
AcDbArc
 50
0.0
 51
87.1757146173
  0
ARC
  5
338
100
AcDbEntity
  8
0
100
AcDbCircle
 62
7
  6
CONTINUOUS
 10
9.7335080856
 20
4.6711968127
 40
3.5433070866
100
AcDbArc
 50
164.1576889019
 51
166.8823189646
  0
ARC
  5
339
100
AcDbEntity
  8
0
100
AcDbCircle
 62
7
  6
CONTINUOUS
 10
9.7335080856
 20
4.6711968127
 40
3.5433070866
100
AcDbArc
 50
166.9122598154
 51
168.6147127194
  0
ARC
  5
33A
100
AcDbEntity
  8
0
100
AcDbCircle
 62
7
  6
CONTINUOUS
 10
13.7262556769
 20
5.33314064
 40
0.0299962505
100
AcDbArc
 50
193.0
 51
270.0
  0
ARC
  5
33B
100
AcDbEntity
  8
0
100
AcDbCircle
 62
7
  6
CONTINUOUS
 10
14.1199564643
 20
5.33314064
 40
0.0299962505
100
AcDbArc
 50
193.0
 51
270.0
  0
ARC
  5
33C
100
AcDbEntity
  8
0
100
AcDbCircle
 62
7
  6
CONTINUOUS
 10
13.8511477503
 20
5.33314064
 40
0.0299962505
100
AcDbArc
 50
270.0
 51
347.0
  0
ARC
  5
33D
100
AcDbEntity
  8
0
100
AcDbCircle
 62
7
  6
CONTINUOUS
 10
14.5136572517
 20
5.33314064
 40
0.0299962505
100
AcDbArc
 50
193.0
 51
270.0
  0
ARC
  5
33E
100
AcDbEntity
  8
0
100
AcDbCircle
 62
7
  6
CONTINUOUS
 10
14.2448485377
 20
5.33314064
 40
0.0299962505
100
AcDbArc
 50
270.0
 51
347.0
  0
ARC
  5
33F
100
AcDbEntity
  8
0
100
AcDbCircle
 62
7
  6
CONTINUOUS
 10
14.9073580391
 20
5.33314064
 40
0.0299962505
100
AcDbArc
 50
193.0
 51
270.0
  0
ARC
  5
340
100
AcDbEntity
  8
0
100
AcDbCircle
 62
7
  6
CONTINUOUS
 10
14.6385493251
 20
5.33314064
 40
0.0299962505
100
AcDbArc
 50
270.0
 51
347.0
  0
ARC
  5
341
100
AcDbEntity
  8
0
100
AcDbCircle
 62
7
  6
CONTINUOUS
 10
15.3010588265
 20
5.33314064
 40
0.0299962505
100
AcDbArc
 50
193.0
 51
270.0
  0
ARC
  5
342
100
AcDbEntity
  8
0
100
AcDbCircle
 62
7
  6
CONTINUOUS
 10
15.0322501125
 20
5.33314064
 40
0.0299962505
100
AcDbArc
 50
270.0
 51
347.0
  0
ARC
  5
343
100
AcDbEntity
  8
0
100
AcDbCircle
 62
7
  6
CONTINUOUS
 10
15.4259508999
 20
5.33314064
 40
0.0299962505
100
AcDbArc
 50
270.0
 51
347.0
  0
ARC
  5
344
100
AcDbEntity
  8
0
100
AcDbCircle
 62
7
  6
CONTINUOUS
 10
13.6542973566
 20
5.3781350157
 40
0.0299962505
100
AcDbArc
 50
13.0
 51
90.0
  0
ARC
  5
345
100
AcDbEntity
  8
0
100
AcDbCircle
 62
7
  6
CONTINUOUS
 10
14.047998144
 20
5.3781350157
 40
0.0299962505
100
AcDbArc
 50
13.0
 51
90.0
  0
ARC
  5
346
100
AcDbEntity
  8
0
100
AcDbCircle
 62
7
  6
CONTINUOUS
 10
13.9231060706
 20
5.3781350157
 40
0.0299962505
100
AcDbArc
 50
90.0
 51
167.0
  0
ARC
  5
347
100
AcDbEntity
  8
0
100
AcDbCircle
 62
7
  6
CONTINUOUS
 10
14.4416989314
 20
5.3781350157
 40
0.0299962505
100
AcDbArc
 50
13.0
 51
90.0
  0
ARC
  5
348
100
AcDbEntity
  8
0
100
AcDbCircle
 62
7
  6
CONTINUOUS
 10
14.316806858
 20
5.3781350157
 40
0.0299962505
100
AcDbArc
 50
90.0
 51
167.0
  0
ARC
  5
349
100
AcDbEntity
  8
0
100
AcDbCircle
 62
7
  6
CONTINUOUS
 10
14.8353997188
 20
5.3781350157
 40
0.0299962505
100
AcDbArc
 50
13.0
 51
90.0
  0
ARC
  5
34A
100
AcDbEntity
  8
0
100
AcDbCircle
 62
7
  6
CONTINUOUS
 10
14.7105076454
 20
5.3781350157
 40
0.0299962505
100
AcDbArc
 50
90.0
 51
167.0
  0
ARC
  5
34B
100
AcDbEntity
  8
0
100
AcDbCircle
 62
7
  6
CONTINUOUS
 10
15.2291005062
 20
5.3781350157
 40
0.0299962505
100
AcDbArc
 50
13.0
 51
90.0
  0
ARC
  5
34C
100
AcDbEntity
  8
0
100
AcDbCircle
 62
7
  6
CONTINUOUS
 10
15.1042084328
 20
5.3781350157
 40
0.0299962505
100
AcDbArc
 50
90.0
 51
167.0
  0
ARC
  5
34D
100
AcDbEntity
  8
0
100
AcDbCircle
 62
7
  6
CONTINUOUS
 10
15.4979092202
 20
5.3781350157
 40
0.0299962505
100
AcDbArc
 50
90.0
 51
167.0
  0
ARC
  5
34E
100
AcDbEntity
  8
0
100
AcDbCircle
 62
7
  6
CONTINUOUS
 10
17.394454837
 20
5.33314064
 40
0.0299962505
100
AcDbArc
 50
270.0
 51
347.0
  0
ARC
  5
34F
100
AcDbEntity
  8
0
100
AcDbCircle
 62
7
  6
CONTINUOUS
 10
17.0007540496
 20
5.33314064
 40
0.0299962505
100
AcDbArc
 50
270.0
 51
347.0
  0
ARC
  5
350
100
AcDbEntity
  8
0
100
AcDbCircle
 62
7
  6
CONTINUOUS
 10
17.2695627635
 20
5.33314064
 40
0.0299962505
100
AcDbArc
 50
193.0
 51
270.0
  0
ARC
  5
351
100
AcDbEntity
  8
0
100
AcDbCircle
 62
7
  6
CONTINUOUS
 10
16.6070532622
 20
5.33314064
 40
0.0299962505
100
AcDbArc
 50
270.0
 51
347.0
  0
ARC
  5
352
100
AcDbEntity
  8
0
100
AcDbCircle
 62
7
  6
CONTINUOUS
 10
16.8758619761
 20
5.33314064
 40
0.0299962505
100
AcDbArc
 50
193.0
 51
270.0
  0
ARC
  5
353
100
AcDbEntity
  8
0
100
AcDbCircle
 62
7
  6
CONTINUOUS
 10
16.2133524747
 20
5.33314064
 40
0.0299962505
100
AcDbArc
 50
270.0
 51
347.0
  0
ARC
  5
354
100
AcDbEntity
  8
0
100
AcDbCircle
 62
7
  6
CONTINUOUS
 10
16.4821611887
 20
5.33314064
 40
0.0299962505
100
AcDbArc
 50
193.0
 51
270.0
  0
ARC
  5
355
100
AcDbEntity
  8
0
100
AcDbCircle
 62
7
  6
CONTINUOUS
 10
15.8196516873
 20
5.33314064
 40
0.0299962505
100
AcDbArc
 50
270.0
 51
347.0
  0
ARC
  5
356
100
AcDbEntity
  8
0
100
AcDbCircle
 62
7
  6
CONTINUOUS
 10
15.6947596139
 20
5.33314064
 40
0.0299962505
100
AcDbArc
 50
193.0
 51
270.0
  0
ARC
  5
357
100
AcDbEntity
  8
0
100
AcDbCircle
 62
7
  6
CONTINUOUS
 10
16.0884604013
 20
5.33314064
 40
0.0299962505
100
AcDbArc
 50
193.0
 51
270.0
  0
ARC
  5
358
100
AcDbEntity
  8
0
100
AcDbCircle
 62
7
  6
CONTINUOUS
 10
17.4664131572
 20
5.3781350157
 40
0.0299962505
100
AcDbArc
 50
90.0
 51
167.0
  0
ARC
  5
359
100
AcDbEntity
  8
0
100
AcDbCircle
 62
7
  6
CONTINUOUS
 10
17.0727123698
 20
5.3781350157
 40
0.0299962505
100
AcDbArc
 50
90.0
 51
167.0
  0
ARC
  5
35A
100
AcDbEntity
  8
0
100
AcDbCircle
 62
7
  6
CONTINUOUS
 10
17.1976044433
 20
5.3781350157
 40
0.0299962505
100
AcDbArc
 50
13.0
 51
90.0
  0
ARC
  5
35B
100
AcDbEntity
  8
0
100
AcDbCircle
 62
7
  6
CONTINUOUS
 10
16.6790115824
 20
5.3781350157
 40
0.0299962505
100
AcDbArc
 50
90.0
 51
167.0
  0
ARC
  5
35C
100
AcDbEntity
  8
0
100
AcDbCircle
 62
7
  6
CONTINUOUS
 10
16.8039036559
 20
5.3781350157
 40
0.0299962505
100
AcDbArc
 50
13.0
 51
90.0
  0
ARC
  5
35D
100
AcDbEntity
  8
0
100
AcDbCircle
 62
7
  6
CONTINUOUS
 10
16.285310795
 20
5.3781350157
 40
0.0299962505
100
AcDbArc
 50
90.0
 51
167.0
  0
ARC
  5
35E
100
AcDbEntity
  8
0
100
AcDbCircle
 62
7
  6
CONTINUOUS
 10
16.4102028685
 20
5.3781350157
 40
0.0299962505
100
AcDbArc
 50
13.0
 51
90.0
  0
ARC
  5
35F
100
AcDbEntity
  8
0
100
AcDbCircle
 62
7
  6
CONTINUOUS
 10
15.8916100076
 20
5.3781350157
 40
0.0299962505
100
AcDbArc
 50
90.0
 51
167.0
  0
ARC
  5
360
100
AcDbEntity
  8
0
100
AcDbCircle
 62
7
  6
CONTINUOUS
 10
16.016502081
 20
5.3781350157
 40
0.0299962505
100
AcDbArc
 50
13.0
 51
90.0
  0
ARC
  5
361
100
AcDbEntity
  8
0
100
AcDbCircle
 62
7
  6
CONTINUOUS
 10
15.6228012936
 20
5.3781350157
 40
0.0299962505
100
AcDbArc
 50
13.0
 51
90.0
  0
ARC
  5
362
100
AcDbEntity
  8
0
100
AcDbCircle
 62
7
  6
CONTINUOUS
 10
15.9371836186
 20
8.7854106436
 40
5.3326140167
100
AcDbArc
 50
88.108908864
 51
91.891091136
  0
ARC
  5
363
100
AcDbEntity
  8
0
100
AcDbCircle
 62
7
  6
CONTINUOUS
 10
14.9841665974
 20
5.7014464325
 40
5.3326140167
100
AcDbArc
 50
88.108908864
 51
91.891091136
  0
ARC
  5
364
100
AcDbEntity
  8
0
100
AcDbCircle
 62
7
  6
CONTINUOUS
 10
12.4672267442
 20
8.869383576
 40
3.1774293583
100
AcDbArc
 50
39.9193443099
 51
42.3472468549
  0
ARC
  5
365
100
AcDbEntity
  8
0
100
AcDbCircle
 62
7
  6
CONTINUOUS
 10
17.5035790777
 20
14.1912456799
 40
1.3802766199
100
AcDbArc
 50
184.051089431
 51
188.2858479626
  0
ARC
  5
366
100
AcDbEntity
  8
0
100
AcDbCircle
 62
7
  6
CONTINUOUS
 10
16.5505620564
 20
11.1072814688
 40
1.3802766199
100
AcDbArc
 50
184.051089431
 51
188.2858479626
  0
SPLINE
  5
367
100
AcDbEntity
  8
0
100
AcDbSpline
 62
7
  6
CONTINUOUS
 70
0
 71
3
 72
9
 73
5
 74
0
 42
0.0000001
 43
0.0000001
 44
0.0000000001
 40
0.0
 40
0.0
 40
0.0
 40
0.0
 40
0.264842638
 40
1.0
 40
1.0
 40
1.0
 40
1.0
 10
16.1236618115
 20
14.1045911157
 30
0.0
 10
16.1241022767
 20
14.103693542
 30
0.0
 10
16.125628179
 20
14.100241904
 30
0.0
 10
16.126556633
 20
14.0965032377
 30
0.0
 10
16.1267511433
 20
14.0937347233
 30
0.0
  0
SPLINE
  5
368
100
AcDbEntity
  8
0
100
AcDbSpline
 62
7
  6
CONTINUOUS
 70
0
 71
3
 72
9
 73
5
 74
0
 42
0.0000001
 43
0.0000001
 44
0.0000000001
 40
0.0
 40
0.0
 40
0.0
 40
0.0
 40
0.5399076558
 40
1.0
 40
1.0
 40
1.0
 40
1.0
 10
16.1131586785
 20
14.1151203008
 30
0.0
 10
16.1146639852
 20
14.1150709886
 30
0.0
 10
16.1174125462
 20
14.1143276313
 30
0.0
 10
16.1197860086
 20
14.1124891716
 30
0.0
 10
16.1203514289
 20
14.1113369661
 30
0.0
  0
SPLINE
  5
369
100
AcDbEntity
  8
0
100
AcDbSpline
 62
7
  6
CONTINUOUS
 70
0
 71
3
 72
9
 73
5
 74
0
 42
0.0000001
 43
0.0000001
 44
0.0000000001
 40
0.0
 40
0.0
 40
0.0
 40
0.0
 40
0.235579732
 40
1.0
 40
1.0
 40
1.0
 40
1.0
 10
14.8080223516
 20
11.0206269046
 30
0.0
 10
14.8084810092
 20
11.0196922587
 30
0.0
 10
14.8105951953
 20
11.0158071126
 30
0.0
 10
14.8133127529
 20
11.01226761
 30
0.0
 10
14.815588107
 20
11.0097705122
 30
0.0
  0
SPLINE
  5
36A
100
AcDbEntity
  8
0
100
AcDbSpline
 62
7
  6
CONTINUOUS
 70
0
 71
3
 72
9
 73
5
 74
0
 42
0.0000001
 43
0.0000001
 44
0.0000000001
 40
0.0
 40
0.0
 40
0.0
 40
0.0
 40
0.573476082
 40
1.0
 40
1.0
 40
1.0
 40
1.0
 10
15.1780814239
 20
10.9035619983
 30
0.0
 10
15.1795404957
 20
10.9035619983
 30
0.0
 10
15.1821472249
 20
10.9038599448
 30
0.0
 10
15.1842655763
 20
10.9057885788
 30
0.0
 10
15.1845848642
 20
10.906825732
 30
0.0
  0
SPLINE
  5
36B
100
AcDbEntity
  8
0
100
AcDbSpline
 62
7
  6
CONTINUOUS
 70
0
 71
3
 72
9
 73
5
 74
0
 42
0.0000001
 43
0.0000001
 44
0.0000000001
 40
0.0
 40
0.0
 40
0.0
 40
0.0
 40
0.4801874562
 40
1.0
 40
1.0
 40
1.0
 40
1.0
 10
14.9041515536
 20
10.9083673426
 30
0.0
 10
14.9054408944
 20
10.906825108
 30
0.0
 10
14.9091233532
 20
10.9044948844
 30
0.0
 10
14.9133038648
 20
10.9035619983
 30
0.0
 10
14.9154799421
 20
10.9035619983
 30
0.0
  0
SPLINE
  5
36C
100
AcDbEntity
  8
0
100
AcDbSpline
 62
7
  6
CONTINUOUS
 70
0
 71
3
 72
9
 73
5
 74
0
 42
0.0000001
 43
0.0000001
 44
0.0000000001
 40
0.0
 40
0.0
 40
0.0
 40
0.0
 40
0.429689947
 40
1.0
 40
1.0
 40
1.0
 40
1.0
 10
15.7575197422
 20
14.1131360891
 30
0.0
 10
15.7577029294
 20
14.1137369082
 30
0.0
 10
15.7588846108
 20
14.1148671236
 30
0.0
 10
15.760375351
 20
14.1150920991
 30
0.0
 10
15.7612085588
 20
14.1151203008
 30
0.0
  0
SPLINE
  5
36D
100
AcDbEntity
  8
0
100
AcDbSpline
 62
7
  6
CONTINUOUS
 70
0
 71
3
 72
9
 73
5
 74
0
 42
0.0000001
 43
0.0000001
 44
0.0000000001
 40
0.0
 40
0.0
 40
0.0
 40
0.0
 40
0.570310053
 40
1.0
 40
1.0
 40
1.0
 40
1.0
 10
14.8081915375
 20
11.0311560897
 30
0.0
 10
14.8073583297
 20
11.031127888
 30
0.0
 10
14.8058675895
 20
11.0309029125
 30
0.0
 10
14.8046859081
 20
11.029772697
 30
0.0
 10
14.8045027209
 20
11.029171878
 30
0.0
  0
SPLINE
  5
36E
100
AcDbEntity
  8
0
100
AcDbSpline
 62
7
  6
CONTINUOUS
 70
0
 71
3
 72
9
 73
5
 74
0
 42
0.0000001
 43
0.0000001
 44
0.0000000001
 40
0.0
 40
0.0
 40
0.0
 40
0.0
 40
0.4600923442
 40
1.0
 40
1.0
 40
1.0
 40
1.0
 10
15.1673344077
 20
11.027372755
 30
0.0
 10
15.1667689873
 20
11.0285249605
 30
0.0
 10
15.1643955249
 20
11.0303634202
 30
0.0
 10
15.1616469639
 20
11.0311067775
 30
0.0
 10
15.1601416572
 20
11.0311560897
 30
0.0
  0
SPLINE
  5
36F
100
AcDbEntity
  8
0
100
AcDbSpline
 62
7
  6
CONTINUOUS
 70
0
 71
3
 72
9
 73
5
 74
0
 42
0.0000001
 43
0.0000001
 44
0.0000000001
 40
0.0
 40
0.0
 40
0.0
 40
0.0
 40
0.2373153198
 40
1.0
 40
1.0
 40
1.0
 40
1.0
 10
15.173734122
 20
11.0097705122
 30
0.0
 10
15.1736713162
 20
11.0106644431
 30
0.0
 10
15.1731964331
 20
11.0144164983
 30
0.0
 10
15.1719135532
 20
11.0180414375
 30
0.0
 10
15.1706447902
 20
11.0206269046
 30
0.0
  0
ENDSEC
  0
SECTION
  2
OBJECTS
  0
DICTIONARY
  5
C
100
AcDbDictionary
280
0
281
1
  3
ACAD_GROUP
350
D
  3
ACAD_MLINESTYLE
350
17
  3
ACAD_LAYOUT
350
1A
  3
ACAD_PLOTSETTINGS
350
19
  3
ACAD_PLOTSTYLENAME
350
E
  0
DICTIONARY
  5
D
102
{ACAD_REACTORS
330
C
102
}
100
AcDbDictionary
280
0
281
1
  0
ACDBDICTIONARYWDFLT
  5
E
102
{ACAD_REACTORS
330
C
102
}
100
AcDbDictionary
281
1
  3
Normal
350
F
100
AcDbDictionaryWithDefault
340
F
  0
DICTIONARY
  5
17
102
{ACAD_REACTORS
330
C
102
}
100
AcDbDictionary
280
0
281
1
  3
Standard
350
18
  0
DICTIONARY
  5
19
102
{ACAD_REACTORS
330
C
102
}
100
AcDbDictionary
281
1
  0
DICTIONARY
  5
1A
102
{ACAD_REACTORS
330
C
102
}
100
AcDbDictionary
281
1
  3
Model
350
370
  3
Layout1
350
371
  0
ACDBPLACEHOLDER
  5
F
102
{ACAD_REACTORS
330
E
102
}
  0
MLINESTYLE
  5
18
102
{ACAD_REACTORS
330
17
102
}
100
AcDbMlineStyle
  2
STANDARD
 70
0
  3

 62
256
 51
90.0
 52
90.0
 71
2
 49
0.5
 62
256
  6
BYLAYER
 49
-0.5
 62
256
  6
BYLAYER
  0
LAYOUT
  5
370
102
{ACAD_REACTORS
330
1A
102
}
100
AcDbPlotSettings
  1

  2
none_device
  4
ANSI_C_(22.00_x_17.00_Inches)
  6

 40
0.0
 41
0.0
 42
0.0
 43
0.0
 44
558.8
 45
431.8
 46
0.0
 47
0.0
 48
0.0
 49
0.0
140
0.0
141
0.0
142
1.0
143
1.0
 70
1024
 72
0
 73
0
 74
0
  7

 75
0
147
1.0
148
0.0
149
0.0
100
AcDbLayout
  1
Model
 70
0
 71
0
 10
0.0
 20
0.0
 11
22.0
 21
17.0
 12
0.0
 22
0.0
 32
0.0
 14
0.0
 24
0.0
 34
0.0
 15
0.0
 25
0.0
 35
0.0
146
0.0
 13
0.0
 23
0.0
 33
0.0
 16
1.0
 26
0.0
 36
0.0
 17
0.0
 27
1.0
 37
0.0
 76
0
330
216
345
0
346
0
  0
LAYOUT
  5
371
102
{ACAD_REACTORS
330
1A
102
}
100
AcDbPlotSettings
  1

  2
none_device
  4
ANSI_C_(22.00_x_17.00_Inches)
  6

 40
0.0
 41
0.0
 42
0.0
 43
0.0
 44
558.8
 45
431.8
 46
0.0
 47
0.0
 48
0.0
 49
0.0
140
0.0
141
0.0
142
1.0
143
1.0
 70
0
 72
0
 73
0
 74
0
  7

 75
0
147
1.0
148
0.0
149
0.0
100
AcDbLayout
  1
Layout1
 70
0
 71
1
 10
0.0
 20
0.0
 11
22.0
 21
17.0
 12
0.0
 22
0.0
 32
0.0
 14
0.0
 24
0.0
 34
0.0
 15
0.0
 25
0.0
 35
0.0
146
0.0
 13
0.0
 23
0.0
 33
0.0
 16
1.0
 26
0.0
 36
0.0
 17
0.0
 27
1.0
 37
0.0
 76
0
330
217
345
0
346
0
  0
ENDSEC
  0
EOF