999
DXF file: _cgs_temp_output.dxf
999
Pro/ENGINEER 2016360 by Parametric Technology Corporation
  0
SECTION
  2
HEADER
  9
$ACADVER
  1
AC1021
  9
$DWGCODEPAGE
  3
ANSI_1252
  9
$EXTMAX
 10
22.0
 20
17.0
 30
0.0
  9
$EXTMIN
 10
0.0
 20
0.0
 30
0.0
  9
$LIMMIN
 10
0.0
 20
0.0
  9
$LIMMAX
 10
22.0
 20
17.0
  9
$VIEWCTR
 10
11.0
 20
8.5
  9
$VIEWSIZE
 40
17.0
  9
$CLAYER
  8
0
  9
$LTSCALE
 40
1.21
  9
$CELTYPE
  6
BYLAYER
  9
$DIMSCALE
 40
1.0
  9
$DIMASZ
 40
0.1875
  9
$DIMEXO
 40
0.0625
  9
$DIMDLI
 40
0.836
  9
$DIMEXE
 40
0.125
  9
$DIMCEN
 40
0.198
  9
$DIMLFAC
 40
1.0
  9
$DIMBLK
  1
_CLOSED
  9
$DIMALT
 70
0
  9
$DIMALTF
 40
25.4
  9
$DIMTXT
 40
0.15625
  9
$DIMTOL
 70
0
  9
$DIMLIM
 70
0
  9
$DIMTFAC
 40
1.0
  9
$DIMGAP
 40
0.09
  9
$DIMDSEP
 70
46
  9
$AUNITS
 70
0
  9
$PDMODE
 70
3
  9
$PDSIZE
 40
0.3125
  9
$HANDSEED
  5
2AE
  9
$TILEMODE
 70
1
  9
$MEASUREMENT
 70
0
  9
$INSUNITS
 70
1
  0
ENDSEC
  0
SECTION
  2
CLASSES
  0
CLASS
  1
ACDBDICTIONARYWDFLT
  2
AcDbDictionaryWithDefault
  3
AutoCAD 2000
 90
0
 91
1
280
0
281
0
  0
CLASS
  1
ACDBPLACEHOLDER
  2
AcDbPlaceHolder
  3
AutoCAD 2000
 90
0
 91
1
280
0
281
0
  0
CLASS
  1
LAYOUT
  2
AcDbLayout
  3
AutoCAD 2000
 90
0
 91
0
280
0
281
0
  0
ENDSEC
  0
SECTION
  2
TABLES
  0
TABLE
  2
VPORT
  5
8
100
AcDbSymbolTable
 70
2
  0
VPORT
  5
1F4
100
AcDbSymbolTableRecord
100
AcDbViewportTableRecord
  2
*ACTIVE
 70
0
 10
0.0
 20
0.0
 11
1.0
 21
1.0
 12
11.0
 22
8.5
 13
0.0
 23
0.0
 14
1.0
 24
1.0
 15
0.0
 25
0.0
 16
0.0
 26
0.0
 36
1.0
 17
0.0
 27
0.0
 37
0.0
 40
17.0
 41
1.2941176471
 42
50.0
 43
0.0
 44
0.0
 50
0.0
 51
0.0
 71
0
 72
100
 73
1
 74
1
 75
0
 76
0
 77
0
 78
0
  0
ENDTAB
  0
TABLE
  2
LTYPE
  5
5
100
AcDbSymbolTable
 70
6
  0
LTYPE
  5
14
100
AcDbSymbolTableRecord
100
AcDbLinetypeTableRecord
  2
BYBLOCK
 70
0
  3

 72
65
 73
0
 40
0.0
  0
LTYPE
  5
15
100
AcDbSymbolTableRecord
100
AcDbLinetypeTableRecord
  2
BYLAYER
 70
0
  3

 72
65
 73
0
 40
0.0
  0
LTYPE
  5
16
100
AcDbSymbolTableRecord
100
AcDbLinetypeTableRecord
  2
CONTINUOUS
 70
64
  3
Solid line
 72
65
 73
0
 40
0.0
  0
LTYPE
  5
1F5
100
AcDbSymbolTableRecord
100
AcDbLinetypeTableRecord
  2
CENTER
 70
64
  3
____ _ ____ _ ____ _ ____ _ ____ _ ____ _ ____
 72
65
 73
4
 40
0.6
 49
0.375
 74
0
 49
-0.075
 74
0
 49
0.075
 74
0
 49
-0.075
 74
0
  0
LTYPE
  5
1F6
100
AcDbSymbolTableRecord
100
AcDbLinetypeTableRecord
  2
HIDDEN
 70
64
  3
- - - - - - - - - - - - - - - - - - - -
 72
65
 73
2
 40
0.2
 49
0.1
 74
0
 49
-0.1
 74
0
  0
LTYPE
  5
1F7
100
AcDbSymbolTableRecord
100
AcDbLinetypeTableRecord
  2
PHANTOM
 70
64
  3
_____ _ _ _____ _ _ _____ _ _ _____
 72
65
 73
6
 40
0.8
 49
0.45
 74
0
 49
-0.05
 74
0
 49
0.1
 74
0
 49
-0.05
 74
0
 49
0.1
 74
0
 49
-0.05
 74
0
  0
LTYPE
  5
1F8
100
AcDbSymbolTableRecord
100
AcDbLinetypeTableRecord
  2
DOT
 70
64
  3
. . . . . . . . . . . . . . . . . . . .
 72
65
 73
2
 40
0.2
 49
0.1
 74
0
 49
-0.1
 74
0
  0
LTYPE
  5
1F9
100
AcDbSymbolTableRecord
100
AcDbLinetypeTableRecord
  2
DASHED
 70
64
  3
- - - - - - - - - - - - - - - - - - - -
 72
65
 73
2
 40
0.2
 49
0.1
 74
0
 49
-0.1
 74
0
  0
ENDTAB
  0
TABLE
  2
LAYER
  5
2
100
AcDbSymbolTable
 70
36
  0
LAYER
  5
10
100
AcDbSymbolTableRecord
100
AcDbLayerTableRecord
  2
0
 70
0
 62
7
  6
CONTINUOUS
370
-3
390
F
  0
LAYER
  5
1FA
100
AcDbSymbolTableRecord
100
AcDbLayerTableRecord
  2
DEFAULT_1
 70
0
 62
7
  6
CENTER
370
-3
390
F
  0
LAYER
  5
1FB
100
AcDbSymbolTableRecord
100
AcDbLayerTableRecord
  2
DEFAULT_2
 70
0
 62
8
  6
HIDDEN
370
-3
390
F
  0
LAYER
  5
1FC
100
AcDbSymbolTableRecord
100
AcDbLayerTableRecord
  2
DEFAULT_3
 70
0
 62
7
  6
PHANTOM
370
-3
390
F
  0
LAYER
  5
1FD
100
AcDbSymbolTableRecord
100
AcDbLayerTableRecord
  2
01_ALL_DTM_PLN
 70
0
 62
7
  6
CONTINUOUS
370
-3
390
F
  0
LAYER
  5
1FE
100
AcDbSymbolTableRecord
100
AcDbLayerTableRecord
  2
01__ASM_ALL_DTM_PLN
 70
0
 62
7
  6
CONTINUOUS
370
-3
390
F
  0
LAYER
  5
1FF
100
AcDbSymbolTableRecord
100
AcDbLayerTableRecord
  2
01__ASM_DEF_DTM_PLN
 70
0
 62
7
  6
CONTINUOUS
370
-3
390
F
  0
LAYER
  5
200
100
AcDbSymbolTableRecord
100
AcDbLayerTableRecord
  2
01___PRT_ALL_DTM_PLN
 70
0
 62
7
  6
CONTINUOUS
370
-3
390
F
  0
LAYER
  5
201
100
AcDbSymbolTableRecord
100
AcDbLayerTableRecord
  2
01___PRT_DEF_DTM_PLN
 70
0
 62
7
  6
CONTINUOUS
370
-3
390
F
  0
LAYER
  5
202
100
AcDbSymbolTableRecord
100
AcDbLayerTableRecord
  2
02_ALL_AXES
 70
0
 62
7
  6
CONTINUOUS
370
-3
390
F
  0
LAYER
  5
203
100
AcDbSymbolTableRecord
100
AcDbLayerTableRecord
  2
02__ASM_ALL_AXES
 70
0
 62
7
  6
CONTINUOUS
370
-3
390
F
  0
LAYER
  5
204
100
AcDbSymbolTableRecord
100
AcDbLayerTableRecord
  2
02___PRT_ALL_AXES
 70
0
 62
7
  6
CONTINUOUS
370
-3
390
F
  0
LAYER
  5
205
100
AcDbSymbolTableRecord
100
AcDbLayerTableRecord
  2
03_ALL_CURVES
 70
0
 62
7
  6
CONTINUOUS
370
-3
390
F
  0
LAYER
  5
206
100
AcDbSymbolTableRecord
100
AcDbLayerTableRecord
  2
03__ASM_ALL_CURVES
 70
0
 62
7
  6
CONTINUOUS
370
-3
390
F
  0
LAYER
  5
207
100
AcDbSymbolTableRecord
100
AcDbLayerTableRecord
  2
03___PRT_ALL_CURVES
 70
0
 62
7
  6
CONTINUOUS
370
-3
390
F
  0
LAYER
  5
208
100
AcDbSymbolTableRecord
100
AcDbLayerTableRecord
  2
04_ALL_DTM_PNT
 70
0
 62
7
  6
CONTINUOUS
370
-3
390
F
  0
LAYER
  5
209
100
AcDbSymbolTableRecord
100
AcDbLayerTableRecord
  2
04__ASM_ALL_DTM_PNT
 70
0
 62
7
  6
CONTINUOUS
370
-3
390
F
  0
LAYER
  5
20A
100
AcDbSymbolTableRecord
100
AcDbLayerTableRecord
  2
04___PRT_ALL_DTM_PNT
 70
0
 62
7
  6
CONTINUOUS
370
-3
390
F
  0
LAYER
  5
20B
100
AcDbSymbolTableRecord
100
AcDbLayerTableRecord
  2
05_ALL_DTM_CSYS
 70
0
 62
7
  6
CONTINUOUS
370
-3
390
F
  0
LAYER
  5
20C
100
AcDbSymbolTableRecord
100
AcDbLayerTableRecord
  2
05__ASM_ALL_DTM_CSYS
 70
0
 62
7
  6
CONTINUOUS
370
-3
390
F
  0
LAYER
  5
20D
100
AcDbSymbolTableRecord
100
AcDbLayerTableRecord
  2
05__ASM_DEF_DTM_CSYS
 70
0
 62
7
  6
CONTINUOUS
370
-3
390
F
  0
LAYER
  5
20E
100
AcDbSymbolTableRecord
100
AcDbLayerTableRecord
  2
05___PRT_ALL_DTM_CSYS
 70
0
 62
7
  6
CONTINUOUS
370
-3
390
F
  0
LAYER
  5
20F
100
AcDbSymbolTableRecord
100
AcDbLayerTableRecord
  2
05___PRT_DEF_DTM_CSYS
 70
0
 62
7
  6
CONTINUOUS
370
-3
390
F
  0
LAYER
  5
210
100
AcDbSymbolTableRecord
100
AcDbLayerTableRecord
  2
06_ALL_SURFS
 70
0
 62
7
  6
CONTINUOUS
370
-3
390
F
  0
LAYER
  5
211
100
AcDbSymbolTableRecord
100
AcDbLayerTableRecord
  2
06__ASM_ALL_SURFS
 70
0
 62
7
  6
CONTINUOUS
370
-3
390
F
  0
LAYER
  5
212
100
AcDbSymbolTableRecord
100
AcDbLayerTableRecord
  2
06___PRT_ALL_SURFS
 70
0
 62
7
  6
CONTINUOUS
370
-3
390
F
  0
LAYER
  5
213
100
AcDbSymbolTableRecord
100
AcDbLayerTableRecord
  2
07__ASM_ALL_SKELETONS
 70
0
 62
7
  6
CONTINUOUS
370
-3
390
F
  0
ENDTAB
  0
TABLE
  2
STYLE
  5
3
100
AcDbSymbolTable
 70
1
  0
STYLE
  5
11
100
AcDbSymbolTableRecord
100
AcDbTextStyleTableRecord
  2
STANDARD
 70
0
 40
0.0
 41
0.8
 50
0.0
 71
0
 42
0.2
  3
txt
  4

  0
STYLE
  5
214
100
AcDbSymbolTableRecord
100
AcDbTextStyleTableRecord
  2
TEXTSTYLE_1
 70
0
 40
0.0
 41
0.8
 50
0.0
 71
0
 42
0.2
  3
gdt
  4

  0
ENDTAB
  0
TABLE
  2
VIEW
  5
6
100
AcDbSymbolTable
 70
0
  0
ENDTAB
  0
TABLE
  2
UCS
  5
7
100
AcDbSymbolTable
 70
0
  0
ENDTAB
  0
TABLE
  2
APPID
  5
9
100
AcDbSymbolTable
 70
1
  0
APPID
  5
215
100
AcDbSymbolTableRecord
100
AcDbRegAppTableRecord
  2
ACAD
 70
0
  0
ENDTAB
  0
TABLE
  2
BLOCK_RECORD
  5
1
100
AcDbSymbolTable
 70
0
  0
BLOCK_RECORD
  5
216
100
AcDbSymbolTableRecord
100
AcDbBlockTableRecord
  2
*Model_Space
  0
BLOCK_RECORD
  5
217
100
AcDbSymbolTableRecord
100
AcDbBlockTableRecord
  2
*Paper_Space
  0
ENDTAB
  0
TABLE
  2
DIMSTYLE
  5
A
100
AcDbSymbolTable
 70
1
100
AcDbDimStyleTable
 71
0
  0
DIMSTYLE
105
218
100
AcDbSymbolTableRecord
100
AcDbDimStyleTableRecord
  2
STANDARD
 70
0
  3

  4

 40
1.0
 41
0.1875
 42
0.0625
 43
0.38
 44
0.125
 45
0.0
 46
0.0
 47
0.0001
 48
0.0001
140
0.15625
141
0.09
142
0.0
143
25.4
144
1.0
145
0.0
146
1.0
147
0.09
 71
0.0
 72
0.0
 73
1
 74
1
 75
0
 76
0
 77
0
 78
4
 79
1
170
0
171
3
172
0
173
0
174
0
175
0
176
0
177
0
178
0
270
2
179
4
271
4
272
4
273
2
274
2
275
0
280
0
281
0
282
0
283
1
284
4
285
0
286
0
287
3
288
0
340
11
278
46
  0
ENDTAB
  0
ENDSEC
  0
SECTION
  2
BLOCKS
  0
BLOCK
  5
20
100
AcDbEntity
  8
0
100
AcDbBlockBegin
  2
*Model_Space
 70
0
 10
0.0
 20
0.0
 30
0.0
  3
*Model_Space
  1

  0
ENDBLK
  5
21
100
AcDbEntity
  8
0
100
AcDbBlockEnd
  0
BLOCK
  5
1C
100
AcDbEntity
  8
0
100
AcDbBlockBegin
  2
*Paper_Space
 70
0
 10
0.0
 20
0.0
 30
0.0
  3
*Paper_Space
  1

  0
ENDBLK
  5
1D
100
AcDbEntity
  8
0
100
AcDbBlockEnd
  0
ENDSEC
  0
SECTION
  2
ENTITIES
  0
MTEXT
  5
219
100
AcDbEntity
  8
0
100
AcDbMText
 62
7
  6
CONTINUOUS
  7
STANDARD
 71
1
 72
1
 10
15.9560215477
 20
0.9479130325
 30
0.0
 11
1.0
 21
0.0
 31
0.0
 44
0.9
  1
SCALE: 1:2.000
 40
0.3
 41
3.36
  0
LINE
  5
21A
100
AcDbEntity
  8
0
100
AcDbLine
 62
7
  6
CONTINUOUS
 10
0.0
 20
0.0
 11
0.0
 21
17.0
  0
LINE
  5
21B
100
AcDbEntity
  8
0
100
AcDbLine
 62
7
  6
CONTINUOUS
 10
0.0
 20
0.0
 11
22.0
 21
0.0
  0
LINE
  5
21C
100
AcDbEntity
  8
0
100
AcDbLine
 62
7
  6
CONTINUOUS
 10
0.0
 20
17.0
 11
22.0
 21
17.0
  0
LINE
  5
21D
100
AcDbEntity
  8
0
100
AcDbLine
 62
7
  6
CONTINUOUS
 10
22.0
 20
0.0
 11
22.0
 21
17.0
  0
LINE
  5
21E
100
AcDbEntity
  8
0
100
AcDbLine
 62
7
  6
CONTINUOUS
 10
4.9303672762
 20
5.6101198968
 11
4.9303672762
 21
5.5301198968
  0
LINE
  5
21F
100
AcDbEntity
  8
0
100
AcDbLine
 62
7
  6
CONTINUOUS
 10
5.0110495183
 20
5.5164017508
 11
5.0382652693
 21
5.4506971157
  0
LINE
  5
220
100
AcDbEntity
  8
0
100
AcDbLine
 62
7
  6
CONTINUOUS
 10
5.2224692831
 20
5.4506971157
 11
5.2496850341
 21
5.5164017508
  0
LINE
  5
221
100
AcDbEntity
  8
0
100
AcDbLine
 62
7
  6
CONTINUOUS
 10
5.4110495183
 20
5.5164017508
 11
5.4382652693
 21
5.4506971157
  0
LINE
  5
222
100
AcDbEntity
  8
0
100
AcDbLine
 62
7
  6
CONTINUOUS
 10
5.6224692831
 20
5.4506971157
 11
5.6496850341
 21
5.5164017508
  0
LINE
  5
223
100
AcDbEntity
  8
0
100
AcDbLine
 62
7
  6
CONTINUOUS
 10
5.8110495183
 20
5.5164017508
 11
5.8382652693
 21
5.4506971157
  0
LINE
  5
224
100
AcDbEntity
  8
0
100
AcDbLine
 62
7
  6
CONTINUOUS
 10
6.0224692831
 20
5.4506971157
 11
6.0496850341
 21
5.5164017508
  0
LINE
  5
225
100
AcDbEntity
  8
0
100
AcDbLine
 62
7
  6
CONTINUOUS
 10
5.0690612537
 20
5.4301198968
 11
5.1916732987
 21
5.4301198968
  0
LINE
  5
226
100
AcDbEntity
  8
0
100
AcDbLine
 62
7
  6
CONTINUOUS
 10
5.4690612537
 20
5.4301198968
 11
5.5916732987
 21
5.4301198968
  0
LINE
  5
227
100
AcDbEntity
  8
0
100
AcDbLine
 62
7
  6
CONTINUOUS
 10
5.8690612537
 20
5.4301198968
 11
5.9916732987
 21
5.4301198968
  0
LINE
  5
228
100
AcDbEntity
  8
0
100
AcDbLine
 62
7
  6
CONTINUOUS
 10
6.2690612537
 20
5.4301198968
 11
6.3916732987
 21
5.4301198968
  0
LINE
  5
229
100
AcDbEntity
  8
0
100
AcDbLine
 62
7
  6
CONTINUOUS
 10
6.6690612537
 20
5.4301198968
 11
6.7916732987
 21
5.4301198968
  0
LINE
  5
22A
100
AcDbEntity
  8
0
100
AcDbLine
 62
7
  6
CONTINUOUS
 10
7.0690612537
 20
5.4301198968
 11
7.1916732987
 21
5.4301198968
  0
LINE
  5
22B
100
AcDbEntity
  8
0
100
AcDbLine
 62
7
  6
CONTINUOUS
 10
4.9303672762
 20
5.5301198968
 11
4.990518862
 21
5.5301198968
  0
LINE
  5
22C
100
AcDbEntity
  8
0
100
AcDbLine
 62
7
  6
CONTINUOUS
 10
5.2702156903
 20
5.5301198968
 11
5.390518862
 21
5.5301198968
  0
LINE
  5
22D
100
AcDbEntity
  8
0
100
AcDbLine
 62
7
  6
CONTINUOUS
 10
5.6702156903
 20
5.5301198968
 11
5.790518862
 21
5.5301198968
  0
LINE
  5
22E
100
AcDbEntity
  8
0
100
AcDbLine
 62
7
  6
CONTINUOUS
 10
6.0702156903
 20
5.5301198968
 11
6.190518862
 21
5.5301198968
  0
LINE
  5
22F
100
AcDbEntity
  8
0
100
AcDbLine
 62
7
  6
CONTINUOUS
 10
6.4702156903
 20
5.5301198968
 11
6.590518862
 21
5.5301198968
  0
LINE
  5
230
100
AcDbEntity
  8
0
100
AcDbLine
 62
7
  6
CONTINUOUS
 10
6.8702156903
 20
5.5301198968
 11
6.990518862
 21
5.5301198968
  0
LINE
  5
231
100
AcDbEntity
  8
0
100
AcDbLine
 62
7
  6
CONTINUOUS
 10
7.2702156903
 20
5.5301198968
 11
7.3303672762
 21
5.5301198968
  0
LINE
  5
232
100
AcDbEntity
  8
0
100
AcDbLine
 62
7
  6
CONTINUOUS
 10
7.3303672762
 20
5.6101198968
 11
4.9303672762
 21
5.6101198968
  0
LINE
  5
233
100
AcDbEntity
  8
0
100
AcDbLine
 62
7
  6
CONTINUOUS
 10
6.2110495183
 20
5.5164017508
 11
6.2382652693
 21
5.4506971157
  0
LINE
  5
234
100
AcDbEntity
  8
0
100
AcDbLine
 62
7
  6
CONTINUOUS
 10
6.4224692831
 20
5.4506971157
 11
6.4496850341
 21
5.5164017508
  0
LINE
  5
235
100
AcDbEntity
  8
0
100
AcDbLine
 62
7
  6
CONTINUOUS
 10
6.6110495183
 20
5.5164017508
 11
6.6382652693
 21
5.4506971157
  0
LINE
  5
236
100
AcDbEntity
  8
0
100
AcDbLine
 62
7
  6
CONTINUOUS
 10
6.8224692831
 20
5.4506971157
 11
6.8496850341
 21
5.5164017508
  0
LINE
  5
237
100
AcDbEntity
  8
0
100
AcDbLine
 62
7
  6
CONTINUOUS
 10
7.0110495183
 20
5.5164017508
 11
7.0382652693
 21
5.4506971157
  0
LINE
  5
238
100
AcDbEntity
  8
0
100
AcDbLine
 62
7
  6
CONTINUOUS
 10
7.2224692831
 20
5.4506971157
 11
7.2496850341
 21
5.5164017508
  0
LINE
  5
239
100
AcDbEntity
  8
0
100
AcDbLine
 62
7
  6
CONTINUOUS
 10
7.3303672762
 20
5.5301198968
 11
7.3303672762
 21
5.6101198968
  0
LINE
  5
23A
100
AcDbEntity
  8
0
100
AcDbLine
 62
7
  6
CONTINUOUS
 10
7.2708720839
 20
10.6000477814
 11
4.8708720839
 21
10.6000477814
  0
LINE
  5
23B
100
AcDbEntity
  8
0
100
AcDbLine
 62
7
  6
CONTINUOUS
 10
4.8708720839
 20
14.6000477814
 11
4.8708720839
 21
10.6000477814
  0
LINE
  5
23C
100
AcDbEntity
  8
0
100
AcDbLine
 62
7
  6
CONTINUOUS
 10
7.2708720839
 20
14.6000477814
 11
7.2708720839
 21
10.6000477814
  0
LINE
  5
23D
100
AcDbEntity
  8
0
100
AcDbLine
 62
7
  6
CONTINUOUS
 10
4.8708720839
 20
14.6000477814
 11
7.2708720839
 21
14.6000477814
  0
LINE
  5
23E
100
AcDbEntity
  8
0
100
AcDbLine
 62
7
  6
CONTINUOUS
 10
13.5603552569
 20
5.3706247044
 11
13.5603552569
 21
5.5506247044
  0
LINE
  5
23F
100
AcDbEntity
  8
0
100
AcDbLine
 62
7
  6
CONTINUOUS
 10
13.5603552569
 20
5.3706247044
 11
17.5603552569
 21
5.3706247044
  0
LINE
  5
240
100
AcDbEntity
  8
0
100
AcDbLine
 62
7
  6
CONTINUOUS
 10
17.5603552569
 20
5.4706247044
 11
13.5603552569
 21
5.4706247044
  0
LINE
  5
241
100
AcDbEntity
  8
0
100
AcDbLine
 62
7
  6
CONTINUOUS
 10
17.5603552569
 20
5.5506247044
 11
13.5603552569
 21
5.5506247044
  0
LINE
  5
242
100
AcDbEntity
  8
0
100
AcDbLine
 62
7
  6
CONTINUOUS
 10
17.5603552569
 20
5.3706247044
 11
17.5603552569
 21
5.5506247044
  0
LINE
  5
243
100
AcDbEntity
  8
0
100
AcDbLine
 62
7
  6
CONTINUOUS
 10
13.9724061785
 20
10.9418399371
 11
14.0175162097
 21
10.9009972809
  0
LINE
  5
244
100
AcDbEntity
  8
0
100
AcDbLine
 62
7
  6
CONTINUOUS
 10
13.8695049542
 20
11.0000960708
 11
13.8939083035
 21
10.9503672733
  0
LINE
  5
245
100
AcDbEntity
  8
0
100
AcDbLine
 62
7
  6
CONTINUOUS
 10
14.3408305761
 20
10.9418399371
 11
14.3859406073
 21
10.9009972809
  0
LINE
  5
246
100
AcDbEntity
  8
0
100
AcDbLine
 62
7
  6
CONTINUOUS
 10
14.7092549737
 20
10.9418399371
 11
14.7543650049
 21
10.9009972809
  0
LINE
  5
247
100
AcDbEntity
  8
0
100
AcDbLine
 62
7
  6
CONTINUOUS
 10
14.052158103
 20
10.8882062765
 11
14.165091275
 21
10.8882062765
  0
LINE
  5
248
100
AcDbEntity
  8
0
100
AcDbLine
 62
7
  6
CONTINUOUS
 10
14.4205825006
 20
10.8882062765
 11
14.5335156726
 21
10.8882062765
  0
LINE
  5
249
100
AcDbEntity
  8
0
100
AcDbLine
 62
7
  6
CONTINUOUS
 10
14.7890068982
 20
10.8882062765
 11
14.9019400702
 21
10.8882062765
  0
LINE
  5
24A
100
AcDbEntity
  8
0
100
AcDbLine
 62
7
  6
CONTINUOUS
 10
15.1574312958
 20
10.8882062765
 11
15.2703644678
 21
10.8882062765
  0
LINE
  5
24B
100
AcDbEntity
  8
0
100
AcDbLine
 62
7
  6
CONTINUOUS
 10
15.5258556934
 20
10.8882062765
 11
15.6387888654
 21
10.8882062765
  0
LINE
  5
24C
100
AcDbEntity
  8
0
100
AcDbLine
 62
7
  6
CONTINUOUS
 10
15.894280091
 20
10.8882062765
 11
16.007213263
 21
10.8882062765
  0
LINE
  5
24D
100
AcDbEntity
  8
0
100
AcDbLine
 62
7
  6
CONTINUOUS
 10
13.8939083035
 20
10.9503672733
 11
13.949311583
 21
10.9503672733
  0
LINE
  5
24E
100
AcDbEntity
  8
0
100
AcDbLine
 62
7
  6
CONTINUOUS
 10
14.2069294217
 20
10.9503672733
 11
14.3177359806
 21
10.9503672733
  0
LINE
  5
24F
100
AcDbEntity
  8
0
100
AcDbLine
 62
7
  6
CONTINUOUS
 10
14.5753538193
 20
10.9503672733
 11
14.6861603782
 21
10.9503672733
  0
LINE
  5
250
100
AcDbEntity
  8
0
100
AcDbLine
 62
7
  6
CONTINUOUS
 10
14.9437782169
 20
10.9503672733
 11
15.0545847758
 21
10.9503672733
  0
LINE
  5
251
100
AcDbEntity
  8
0
100
AcDbLine
 62
7
  6
CONTINUOUS
 10
15.3122026145
 20
10.9503672733
 11
15.4230091734
 21
10.9503672733
  0
LINE
  5
252
100
AcDbEntity
  8
0
100
AcDbLine
 62
7
  6
CONTINUOUS
 10
15.6806270121
 20
10.9503672733
 11
15.791433571
 21
10.9503672733
  0
LINE
  5
253
100
AcDbEntity
  8
0
100
AcDbLine
 62
7
  6
CONTINUOUS
 10
16.0490514097
 20
10.9503672733
 11
16.1044546891
 21
10.9503672733
  0
LINE
  5
254
100
AcDbEntity
  8
0
100
AcDbLine
 62
7
  6
CONTINUOUS
 10
16.0800513398
 20
11.0000960708
 11
13.8695049542
 21
11.0000960708
  0
LINE
  5
255
100
AcDbEntity
  8
0
100
AcDbLine
 62
7
  6
CONTINUOUS
 10
15.0776793713
 20
10.9418399371
 11
15.1227894025
 21
10.9009972809
  0
LINE
  5
256
100
AcDbEntity
  8
0
100
AcDbLine
 62
7
  6
CONTINUOUS
 10
14.1871793418
 20
10.9009972809
 11
14.1922040439
 21
10.9418399371
  0
LINE
  5
257
100
AcDbEntity
  8
0
100
AcDbLine
 62
7
  6
CONTINUOUS
 10
14.8377702478
 20
14.1334037093
 11
13.8695049542
 21
11.0000960708
  0
LINE
  5
258
100
AcDbEntity
  8
0
100
AcDbLine
 62
7
  6
CONTINUOUS
 10
15.4461037689
 20
10.9418399371
 11
15.4912138001
 21
10.9009972809
  0
LINE
  5
259
100
AcDbEntity
  8
0
100
AcDbLine
 62
7
  6
CONTINUOUS
 10
14.1867638859
 20
10.8990870941
 11
14.1871793418
 21
10.9009972809
  0
LINE
  5
25A
100
AcDbEntity
  8
0
100
AcDbLine
 62
7
  6
CONTINUOUS
 10
14.1922040439
 20
10.9418399371
 11
14.1924826844
 21
10.9431128787
  0
LINE
  5
25B
100
AcDbEntity
  8
0
100
AcDbLine
 62
7
  6
CONTINUOUS
 10
15.8145281665
 20
10.9418399371
 11
15.8596381977
 21
10.9009972809
  0
LINE
  5
25C
100
AcDbEntity
  8
0
100
AcDbLine
 62
7
  6
CONTINUOUS
 10
14.1873456253
 20
10.9009458954
 11
14.2024724912
 21
10.9498964517
  0
LINE
  5
25D
100
AcDbEntity
  8
0
100
AcDbLine
 62
7
  6
CONTINUOUS
 10
14.5556037394
 20
10.9009972809
 11
14.5606284415
 21
10.9418399371
  0
LINE
  5
25E
100
AcDbEntity
  8
0
100
AcDbLine
 62
7
  6
CONTINUOUS
 10
14.5551882835
 20
10.8990870941
 11
14.5556037394
 21
10.9009972809
  0
LINE
  5
25F
100
AcDbEntity
  8
0
100
AcDbLine
 62
7
  6
CONTINUOUS
 10
14.5606284415
 20
10.9418399371
 11
14.560907082
 21
10.9431128787
  0
LINE
  5
260
100
AcDbEntity
  8
0
100
AcDbLine
 62
7
  6
CONTINUOUS
 10
14.924028137
 20
10.9009972809
 11
14.9290528391
 21
10.9418399371
  0
LINE
  5
261
100
AcDbEntity
  8
0
100
AcDbLine
 62
7
  6
CONTINUOUS
 10
14.5557700229
 20
10.9009458954
 11
14.5708968888
 21
10.9498964517
  0
LINE
  5
262
100
AcDbEntity
  8
0
100
AcDbLine
 62
7
  6
CONTINUOUS
 10
14.9236126811
 20
10.8990870941
 11
14.924028137
 21
10.9009972809
  0
LINE
  5
263
100
AcDbEntity
  8
0
100
AcDbLine
 62
7
  6
CONTINUOUS
 10
14.9290528391
 20
10.9418399371
 11
14.9293314796
 21
10.9431128787
  0
LINE
  5
264
100
AcDbEntity
  8
0
100
AcDbLine
 62
7
  6
CONTINUOUS
 10
15.2924525346
 20
10.9009972809
 11
15.2974772367
 21
10.9418399371
  0
LINE
  5
265
100
AcDbEntity
  8
0
100
AcDbLine
 62
7
  6
CONTINUOUS
 10
14.9241944205
 20
10.9009458954
 11
14.9393212864
 21
10.9498964517
  0
LINE
  5
266
100
AcDbEntity
  8
0
100
AcDbLine
 62
7
  6
CONTINUOUS
 10
16.1044546891
 20
10.9503672733
 11
16.0800513398
 21
11.0000960708
  0
LINE
  5
267
100
AcDbEntity
  8
0
100
AcDbLine
 62
7
  6
CONTINUOUS
 10
15.2920370787
 20
10.8990870941
 11
15.2924525346
 21
10.9009972809
  0
LINE
  5
268
100
AcDbEntity
  8
0
100
AcDbLine
 62
7
  6
CONTINUOUS
 10
15.2974772367
 20
10.9418399371
 11
15.2977558772
 21
10.9431128787
  0
LINE
  5
269
100
AcDbEntity
  8
0
100
AcDbLine
 62
7
  6
CONTINUOUS
 10
15.2926188181
 20
10.9009458954
 11
15.3077456841
 21
10.9498964517
  0
LINE
  5
26A
100
AcDbEntity
  8
0
100
AcDbLine
 62
7
  6
CONTINUOUS
 10
15.6608769322
 20
10.9009972809
 11
15.6659016343
 21
10.9418399371
  0
LINE
  5
26B
100
AcDbEntity
  8
0
100
AcDbLine
 62
7
  6
CONTINUOUS
 10
15.6604614763
 20
10.8990870941
 11
15.6608769322
 21
10.9009972809
  0
LINE
  5
26C
100
AcDbEntity
  8
0
100
AcDbLine
 62
7
  6
CONTINUOUS
 10
15.6659016343
 20
10.9418399371
 11
15.6661802748
 21
10.9431128787
  0
LINE
  5
26D
100
AcDbEntity
  8
0
100
AcDbLine
 62
7
  6
CONTINUOUS
 10
16.0293013298
 20
10.9009972809
 11
16.0343260319
 21
10.9418399371
  0
LINE
  5
26E
100
AcDbEntity
  8
0
100
AcDbLine
 62
7
  6
CONTINUOUS
 10
15.6610432157
 20
10.9009458954
 11
15.6761700817
 21
10.9498964517
  0
LINE
  5
26F
100
AcDbEntity
  8
0
100
AcDbLine
 62
7
  6
CONTINUOUS
 10
16.0288858739
 20
10.8990870941
 11
16.0293013298
 21
10.9009972809
  0
LINE
  5
270
100
AcDbEntity
  8
0
100
AcDbLine
 62
7
  6
CONTINUOUS
 10
16.0343260319
 20
10.9418399371
 11
16.0346046724
 21
10.9431128787
  0
LINE
  5
271
100
AcDbEntity
  8
0
100
AcDbLine
 62
7
  6
CONTINUOUS
 10
16.0294676133
 20
10.9009458954
 11
16.0445944793
 21
10.9498964517
  0
LINE
  5
272
100
AcDbEntity
  8
0
100
AcDbLine
 62
7
  6
CONTINUOUS
 10
17.0483166334
 20
14.1334037093
 11
16.0800513398
 21
11.0000960708
  0
LINE
  5
273
100
AcDbEntity
  8
0
100
AcDbLine
 62
7
  6
CONTINUOUS
 10
17.0727199828
 20
14.0836749118
 11
16.1044546891
 21
10.9503672733
  0
LINE
  5
274
100
AcDbEntity
  8
0
100
AcDbLine
 62
7
  6
CONTINUOUS
 10
14.8377702478
 20
14.1334037093
 11
17.0483166334
 21
14.1334037093
  0
LINE
  5
275
100
AcDbEntity
  8
0
100
AcDbLine
 62
7
  6
CONTINUOUS
 10
17.0727199828
 20
14.0836749118
 11
17.0483166334
 21
14.1334037093
  0
ARC
  5
276
100
AcDbEntity
  8
0
100
AcDbCircle
 62
7
  6
CONTINUOUS
 10
5.4690612537
 20
5.4634532301
 40
0.0333333333
100
AcDbArc
 50
202.5
 51
270.0
  0
ARC
  5
277
100
AcDbEntity
  8
0
100
AcDbCircle
 62
7
  6
CONTINUOUS
 10
5.5916732987
 20
5.4634532301
 40
0.0333333333
100
AcDbArc
 50
270.0
 51
337.5
  0
ARC
  5
278
100
AcDbEntity
  8
0
100
AcDbCircle
 62
7
  6
CONTINUOUS
 10
5.8690612537
 20
5.4634532301
 40
0.0333333333
100
AcDbArc
 50
202.5
 51
270.0
  0
ARC
  5
279
100
AcDbEntity
  8
0
100
AcDbCircle
 62
7
  6
CONTINUOUS
 10
5.9916732987
 20
5.4634532301
 40
0.0333333333
100
AcDbArc
 50
270.0
 51
337.5
  0
ARC
  5
27A
100
AcDbEntity
  8
0
100
AcDbCircle
 62
7
  6
CONTINUOUS
 10
6.2690612537
 20
5.4634532301
 40
0.0333333333
100
AcDbArc
 50
202.5
 51
270.0
  0
ARC
  5
27B
100
AcDbEntity
  8
0
100
AcDbCircle
 62
7
  6
CONTINUOUS
 10
6.3916732987
 20
5.4634532301
 40
0.0333333333
100
AcDbArc
 50
270.0
 51
337.5
  0
ARC
  5
27C
100
AcDbEntity
  8
0
100
AcDbCircle
 62
7
  6
CONTINUOUS
 10
5.1916732987
 20
5.4634532301
 40
0.0333333333
100
AcDbArc
 50
270.0
 51
337.5
  0
ARC
  5
27D
100
AcDbEntity
  8
0
100
AcDbCircle
 62
7
  6
CONTINUOUS
 10
5.0690612537
 20
5.4634532301
 40
0.0333333333
100
AcDbArc
 50
202.5
 51
270.0
  0
ARC
  5
27E
100
AcDbEntity
  8
0
100
AcDbCircle
 62
7
  6
CONTINUOUS
 10
7.1916732987
 20
5.4634532301
 40
0.0333333333
100
AcDbArc
 50
270.0
 51
337.5
  0
ARC
  5
27F
100
AcDbEntity
  8
0
100
AcDbCircle
 62
7
  6
CONTINUOUS
 10
7.0690612537
 20
5.4634532301
 40
0.0333333333
100
AcDbArc
 50
202.5
 51
270.0
  0
ARC
  5
280
100
AcDbEntity
  8
0
100
AcDbCircle
 62
7
  6
CONTINUOUS
 10
6.7916732987
 20
5.4634532301
 40
0.0333333333
100
AcDbArc
 50
270.0
 51
337.5
  0
ARC
  5
281
100
AcDbEntity
  8
0
100
AcDbCircle
 62
7
  6
CONTINUOUS
 10
6.6690612537
 20
5.4634532301
 40
0.0333333333
100
AcDbArc
 50
202.5
 51
270.0
  0
ARC
  5
282
100
AcDbEntity
  8
0
100
AcDbCircle
 62
7
  6
CONTINUOUS
 10
5.2702156903
 20
5.5078976745
 40
0.0222222222
100
AcDbArc
 50
90.0
 51
157.5
  0
ARC
  5
283
100
AcDbEntity
  8
0
100
AcDbCircle
 62
7
  6
CONTINUOUS
 10
4.990518862
 20
5.5078976745
 40
0.0222222222
100
AcDbArc
 50
22.5
 51
90.0
  0
ARC
  5
284
100
AcDbEntity
  8
0
100
AcDbCircle
 62
7
  6
CONTINUOUS
 10
5.6702156903
 20
5.5078976745
 40
0.0222222222
100
AcDbArc
 50
90.0
 51
157.5
  0
ARC
  5
285
100
AcDbEntity
  8
0
100
AcDbCircle
 62
7
  6
CONTINUOUS
 10
5.390518862
 20
5.5078976745
 40
0.0222222222
100
AcDbArc
 50
22.5
 51
90.0
  0
ARC
  5
286
100
AcDbEntity
  8
0
100
AcDbCircle
 62
7
  6
CONTINUOUS
 10
6.0702156903
 20
5.5078976745
 40
0.0222222222
100
AcDbArc
 50
90.0
 51
157.5
  0
ARC
  5
287
100
AcDbEntity
  8
0
100
AcDbCircle
 62
7
  6
CONTINUOUS
 10
5.790518862
 20
5.5078976745
 40
0.0222222222
100
AcDbArc
 50
22.5
 51
90.0
  0
ARC
  5
288
100
AcDbEntity
  8
0
100
AcDbCircle
 62
7
  6
CONTINUOUS
 10
6.4702156903
 20
5.5078976745
 40
0.0222222222
100
AcDbArc
 50
90.0
 51
157.5
  0
ARC
  5
289
100
AcDbEntity
  8
0
100
AcDbCircle
 62
7
  6
CONTINUOUS
 10
6.190518862
 20
5.5078976745
 40
0.0222222222
100
AcDbArc
 50
22.5
 51
90.0
  0
ARC
  5
28A
100
AcDbEntity
  8
0
100
AcDbCircle
 62
7
  6
CONTINUOUS
 10
6.8702156903
 20
5.5078976745
 40
0.0222222222
100
AcDbArc
 50
90.0
 51
157.5
  0
ARC
  5
28B
100
AcDbEntity
  8
0
100
AcDbCircle
 62
7
  6
CONTINUOUS
 10
6.590518862
 20
5.5078976745
 40
0.0222222222
100
AcDbArc
 50
22.5
 51
90.0
  0
ARC
  5
28C
100
AcDbEntity
  8
0
100
AcDbCircle
 62
7
  6
CONTINUOUS
 10
7.2702156903
 20
5.5078976745
 40
0.0222222222
100
AcDbArc
 50
90.0
 51
157.5
  0
ARC
  5
28D
100
AcDbEntity
  8
0
100
AcDbCircle
 62
7
  6
CONTINUOUS
 10
6.990518862
 20
5.5078976745
 40
0.0222222222
100
AcDbArc
 50
22.5
 51
90.0
  0
SPLINE
  5
28E
100
AcDbEntity
  8
0
100
AcDbSpline
 62
7
  6
CONTINUOUS
 70
0
 71
3
 72
12
 73
8
 74
0
 42
0.0000001
 43
0.0000001
 44
0.0000000001
 40
0.0
 40
0.0
 40
0.0
 40
0.0
 40
0.108030641
 40
0.218171228
 40
0.4510068326
 40
0.7099970957
 40
1.0
 40
1.0
 40
1.0
 40
1.0
 10
14.1924772698
 20
10.943114553
 30
0.0
 10
14.1925999541
 20
10.9435107352
 30
0.0
 10
14.1929168613
 20
10.9442912116
 30
0.0
 10
14.1938298773
 20
10.9457706206
 30
0.0
 10
14.1955116981
 20
10.9474096706
 30
0.0
 10
14.1981531619
 20
10.9488862382
 30
0.0
 10
14.2001778629
 20
10.9495209919
 30
0.0
 10
14.2012633105
 20
10.9497687162
 30
0.0
  0
SPLINE
  5
28F
100
AcDbEntity
  8
0
100
AcDbSpline
 62
7
  6
CONTINUOUS
 70
0
 71
3
 72
9
 73
5
 74
0
 42
0.0000001
 43
0.0000001
 44
0.0000000001
 40
0.0
 40
0.0
 40
0.0
 40
0.0
 40
0.4849450333
 40
1.0
 40
1.0
 40
1.0
 40
1.0
 10
14.2012633105
 20
10.9497687162
 30
0.0
 10
14.2021626262
 20
10.9499739608
 30
0.0
 10
14.2040461515
 20
10.9502744408
 30
0.0
 10
14.2059497088
 20
10.9503672733
 30
0.0
 10
14.2069294217
 20
10.9503672733
 30
0.0
  0
SPLINE
  5
290
100
AcDbEntity
  8
0
100
AcDbSpline
 62
7
  6
CONTINUOUS
 70
0
 71
3
 72
12
 73
8
 74
0
 42
0.0000001
 43
0.0000001
 44
0.0000000001
 40
0.0
 40
0.0
 40
0.0
 40
0.0
 40
0.108030641
 40
0.218171228
 40
0.4510068326
 40
0.7099970957
 40
1.0
 40
1.0
 40
1.0
 40
1.0
 10
14.5609016674
 20
10.943114553
 30
0.0
 10
14.5610243517
 20
10.9435107352
 30
0.0
 10
14.5613412589
 20
10.9442912116
 30
0.0
 10
14.5622542749
 20
10.9457706206
 30
0.0
 10
14.5639360957
 20
10.9474096706
 30
0.0
 10
14.5665775595
 20
10.9488862382
 30
0.0
 10
14.5686022605
 20
10.9495209919
 30
0.0
 10
14.5696877081
 20
10.9497687162
 30
0.0
  0
SPLINE
  5
291
100
AcDbEntity
  8
0
100
AcDbSpline
 62
7
  6
CONTINUOUS
 70
0
 71
3
 72
9
 73
5
 74
0
 42
0.0000001
 43
0.0000001
 44
0.0000000001
 40
0.0
 40
0.0
 40
0.0
 40
0.0
 40
0.4849450333
 40
1.0
 40
1.0
 40
1.0
 40
1.0
 10
14.5696877081
 20
10.9497687162
 30
0.0
 10
14.5705870238
 20
10.9499739608
 30
0.0
 10
14.5724705491
 20
10.9502744408
 30
0.0
 10
14.5743741064
 20
10.9503672733
 30
0.0
 10
14.5753538193
 20
10.9503672733
 30
0.0
  0
SPLINE
  5
292
100
AcDbEntity
  8
0
100
AcDbSpline
 62
7
  6
CONTINUOUS
 70
0
 71
3
 72
12
 73
8
 74
0
 42
0.0000001
 43
0.0000001
 44
0.0000000001
 40
0.0
 40
0.0
 40
0.0
 40
0.0
 40
0.108030641
 40
0.218171228
 40
0.4510068326
 40
0.7099970957
 40
1.0
 40
1.0
 40
1.0
 40
1.0
 10
14.929326065
 20
10.943114553
 30
0.0
 10
14.9294487493
 20
10.9435107352
 30
0.0
 10
14.9297656565
 20
10.9442912116
 30
0.0
 10
14.9306786725
 20
10.9457706206
 30
0.0
 10
14.9323604933
 20
10.9474096706
 30
0.0
 10
14.9350019571
 20
10.9488862382
 30
0.0
 10
14.9370266581
 20
10.9495209919
 30
0.0
 10
14.9381121057
 20
10.9497687162
 30
0.0
  0
SPLINE
  5
293
100
AcDbEntity
  8
0
100
AcDbSpline
 62
7
  6
CONTINUOUS
 70
0
 71
3
 72
9
 73
5
 74
0
 42
0.0000001
 43
0.0000001
 44
0.0000000001
 40
0.0
 40
0.0
 40
0.0
 40
0.0
 40
0.4849450333
 40
1.0
 40
1.0
 40
1.0
 40
1.0
 10
14.9381121057
 20
10.9497687162
 30
0.0
 10
14.9390114214
 20
10.9499739608
 30
0.0
 10
14.9408949467
 20
10.9502744408
 30
0.0
 10
14.942798504
 20
10.9503672733
 30
0.0
 10
14.9437782169
 20
10.9503672733
 30
0.0
  0
SPLINE
  5
294
100
AcDbEntity
  8
0
100
AcDbSpline
 62
7
  6
CONTINUOUS
 70
0
 71
3
 72
12
 73
8
 74
0
 42
0.0000001
 43
0.0000001
 44
0.0000000001
 40
0.0
 40
0.0
 40
0.0
 40
0.0
 40
0.108030641
 40
0.218171228
 40
0.4510068326
 40
0.7099970957
 40
1.0
 40
1.0
 40
1.0
 40
1.0
 10
15.2977504626
 20
10.943114553
 30
0.0
 10
15.2978731469
 20
10.9435107352
 30
0.0
 10
15.2981900541
 20
10.9442912116
 30
0.0
 10
15.2991030701
 20
10.9457706206
 30
0.0
 10
15.3007848909
 20
10.9474096706
 30
0.0
 10
15.3034263547
 20
10.9488862382
 30
0.0
 10
15.3054510557
 20
10.9495209919
 30
0.0
 10
15.3065365033
 20
10.9497687162
 30
0.0
  0
SPLINE
  5
295
100
AcDbEntity
  8
0
100
AcDbSpline
 62
7
  6
CONTINUOUS
 70
0
 71
3
 72
9
 73
5
 74
0
 42
0.0000001
 43
0.0000001
 44
0.0000000001
 40
0.0
 40
0.0
 40
0.0
 40
0.0
 40
0.4849450333
 40
1.0
 40
1.0
 40
1.0
 40
1.0
 10
15.3065365033
 20
10.9497687162
 30
0.0
 10
15.307435819
 20
10.9499739608
 30
0.0
 10
15.3093193443
 20
10.9502744408
 30
0.0
 10
15.3112229016
 20
10.9503672733
 30
0.0
 10
15.3122026145
 20
10.9503672733
 30
0.0
  0
SPLINE
  5
296
100
AcDbEntity
  8
0
100
AcDbSpline
 62
7
  6
CONTINUOUS
 70
0
 71
3
 72
12
 73
8
 74
0
 42
0.0000001
 43
0.0000001
 44
0.0000000001
 40
0.0
 40
0.0
 40
0.0
 40
0.0
 40
0.108030641
 40
0.218171228
 40
0.4510068326
 40
0.7099970957
 40
1.0
 40
1.0
 40
1.0
 40
1.0
 10
15.6661748602
 20
10.943114553
 30
0.0
 10
15.6662975445
 20
10.9435107352
 30
0.0
 10
15.6666144517
 20
10.9442912116
 30
0.0
 10
15.6675274677
 20
10.9457706206
 30
0.0
 10
15.6692092885
 20
10.9474096706
 30
0.0
 10
15.6718507523
 20
10.9488862382
 30
0.0
 10
15.6738754533
 20
10.9495209919
 30
0.0
 10
15.6749609009
 20
10.9497687162
 30
0.0
  0
SPLINE
  5
297
100
AcDbEntity
  8
0
100
AcDbSpline
 62
7
  6
CONTINUOUS
 70
0
 71
3
 72
9
 73
5
 74
0
 42
0.0000001
 43
0.0000001
 44
0.0000000001
 40
0.0
 40
0.0
 40
0.0
 40
0.0
 40
0.4849450333
 40
1.0
 40
1.0
 40
1.0
 40
1.0
 10
15.6749609009
 20
10.9497687162
 30
0.0
 10
15.6758602166
 20
10.9499739608
 30
0.0
 10
15.6777437419
 20
10.9502744408
 30
0.0
 10
15.6796472992
 20
10.9503672733
 30
0.0
 10
15.6806270121
 20
10.9503672733
 30
0.0
  0
SPLINE
  5
298
100
AcDbEntity
  8
0
100
AcDbSpline
 62
7
  6
CONTINUOUS
 70
0
 71
3
 72
12
 73
8
 74
0
 42
0.0000001
 43
0.0000001
 44
0.0000000001
 40
0.0
 40
0.0
 40
0.0
 40
0.0
 40
0.108030641
 40
0.218171228
 40
0.4510068326
 40
0.7099970957
 40
1.0
 40
1.0
 40
1.0
 40
1.0
 10
16.0345992578
 20
10.943114553
 30
0.0
 10
16.0347219421
 20
10.9435107352
 30
0.0
 10
16.0350388493
 20
10.9442912116
 30
0.0
 10
16.0359518653
 20
10.9457706206
 30
0.0
 10
16.0376336861
 20
10.9474096706
 30
0.0
 10
16.0402751499
 20
10.9488862382
 30
0.0
 10
16.0422998509
 20
10.9495209919
 30
0.0
 10
16.0433852985
 20
10.9497687162
 30
0.0
  0
SPLINE
  5
299
100
AcDbEntity
  8
0
100
AcDbSpline
 62
7
  6
CONTINUOUS
 70
0
 71
3
 72
9
 73
5
 74
0
 42
0.0000001
 43
0.0000001
 44
0.0000000001
 40
0.0
 40
0.0
 40
0.0
 40
0.0
 40
0.4849450333
 40
1.0
 40
1.0
 40
1.0
 40
1.0
 10
16.0433852985
 20
10.9497687162
 30
0.0
 10
16.0442846142
 20
10.9499739608
 30
0.0
 10
16.0461681395
 20
10.9502744408
 30
0.0
 10
16.0480716968
 20
10.9503672733
 30
0.0
 10
16.0490514097
 20
10.9503672733
 30
0.0
  0
SPLINE
  5
29A
100
AcDbEntity
  8
0
100
AcDbSpline
 62
7
  6
CONTINUOUS
 70
0
 71
3
 72
15
 73
11
 74
0
 42
0.0000001
 43
0.0000001
 44
0.0000000001
 40
0.0
 40
0.0
 40
0.0
 40
0.0
 40
0.1556217885
 40
0.3031487609
 40
0.4410996888
 40
0.5690301656
 40
0.6872665641
 40
0.7969822988
 40
0.9002638111
 40
1.0
 40
1.0
 40
1.0
 40
1.0
 10
14.165091275
 20
10.8882062765
 30
0.0
 10
14.1664321808
 20
10.8882062765
 30
0.0
 10
14.1690461576
 20
10.8883228853
 30
0.0
 10
14.1728146938
 20
10.8888661
 30
0.0
 10
14.1762687927
 20
10.8897716478
 30
0.0
 10
14.1793449038
 20
10.8910220089
 30
0.0
 10
14.1819899735
 20
10.8926001857
 30
0.0
 10
14.1841570132
 20
10.8944847108
 30
0.0
 10
14.1857970086
 20
10.8966487977
 30
0.0
 10
14.1865153127
 20
10.8982644396
 30
0.0
 10
14.1867695143
 20
10.8990853536
 30
0.0
  0
SPLINE
  5
29B
100
AcDbEntity
  8
0
100
AcDbSpline
 62
7
  6
CONTINUOUS
 70
0
 71
3
 72
15
 73
11
 74
0
 42
0.0000001
 43
0.0000001
 44
0.0000000001
 40
0.0
 40
0.0
 40
0.0
 40
0.0
 40
0.1148035875
 40
0.2360636943
 40
0.3619939696
 40
0.4908818722
 40
0.6209753815
 40
0.7504718072
 40
0.8775129745
 40
1.0
 40
1.0
 40
1.0
 40
1.0
 10
14.0175162097
 20
10.9009972809
 30
0.0
 10
14.018585131
 20
10.9000294787
 30
0.0
 10
14.0209028109
 20
10.8981692748
 30
0.0
 10
14.0247215453
 20
10.8956895158
 30
0.0
 10
14.0289115841
 20
10.893494585
 30
0.0
 10
14.0333777832
 20
10.8916284562
 30
0.0
 10
14.0380281275
 20
10.8901324671
 30
0.0
 10
14.0427648635
 20
10.8890353597
 30
0.0
 10
14.0474840264
 20
10.8883662133
 30
0.0
 10
14.0506196426
 20
10.8882062765
 30
0.0
 10
14.052158103
 20
10.8882062765
 30
0.0
  0
SPLINE
  5
29C
100
AcDbEntity
  8
0
100
AcDbSpline
 62
7
  6
CONTINUOUS
 70
0
 71
3
 72
15
 73
11
 74
0
 42
0.0000001
 43
0.0000001
 44
0.0000000001
 40
0.0
 40
0.0
 40
0.0
 40
0.0
 40
0.1556217885
 40
0.3031487609
 40
0.4410996888
 40
0.5690301656
 40
0.6872665641
 40
0.7969822988
 40
0.9002638111
 40
1.0
 40
1.0
 40
1.0
 40
1.0
 10
16.007213263
 20
10.8882062765
 30
0.0
 10
16.0085541688
 20
10.8882062765
 30
0.0
 10
16.0111681457
 20
10.8883228853
 30
0.0
 10
16.0149366818
 20
10.8888661
 30
0.0
 10
16.0183907807
 20
10.8897716478
 30
0.0
 10
16.0214668918
 20
10.8910220089
 30
0.0
 10
16.0241119615
 20
10.8926001857
 30
0.0
 10
16.0262790012
 20
10.8944847108
 30
0.0
 10
16.0279189966
 20
10.8966487977
 30
0.0
 10
16.0286373007
 20
10.8982644396
 30
0.0
 10
16.0288915023
 20
10.8990853536
 30
0.0
  0
SPLINE
  5
29D
100
AcDbEntity
  8
0
100
AcDbSpline
 62
7
  6
CONTINUOUS
 70
0
 71
3
 72
15
 73
11
 74
0
 42
0.0000001
 43
0.0000001
 44
0.0000000001
 40
0.0
 40
0.0
 40
0.0
 40
0.0
 40
0.1148035875
 40
0.2360636943
 40
0.3619939696
 40
0.4908818722
 40
0.6209753815
 40
0.7504718072
 40
0.8775129745
 40
1.0
 40
1.0
 40
1.0
 40
1.0
 10
15.8596381977
 20
10.9009972809
 30
0.0
 10
15.860707119
 20
10.9000294787
 30
0.0
 10
15.8630247989
 20
10.8981692748
 30
0.0
 10
15.8668435333
 20
10.8956895158
 30
0.0
 10
15.8710335721
 20
10.893494585
 30
0.0
 10
15.8754997712
 20
10.8916284562
 30
0.0
 10
15.8801501155
 20
10.8901324671
 30
0.0
 10
15.8848868515
 20
10.8890353597
 30
0.0
 10
15.8896060144
 20
10.8883662133
 30
0.0
 10
15.8927416306
 20
10.8882062765
 30
0.0
 10
15.894280091
 20
10.8882062765
 30
0.0
  0
SPLINE
  5
29E
100
AcDbEntity
  8
0
100
AcDbSpline
 62
7
  6
CONTINUOUS
 70
0
 71
3
 72
15
 73
11
 74
0
 42
0.0000001
 43
0.0000001
 44
0.0000000001
 40
0.0
 40
0.0
 40
0.0
 40
0.0
 40
0.1556217885
 40
0.3031487609
 40
0.4410996888
 40
0.5690301656
 40
0.6872665641
 40
0.7969822988
 40
0.9002638111
 40
1.0
 40
1.0
 40
1.0
 40
1.0
 10
15.6387888654
 20
10.8882062765
 30
0.0
 10
15.6401297712
 20
10.8882062765
 30
0.0
 10
15.6427437481
 20
10.8883228853
 30
0.0
 10
15.6465122842
 20
10.8888661
 30
0.0
 10
15.6499663831
 20
10.8897716478
 30
0.0
 10
15.6530424942
 20
10.8910220089
 30
0.0
 10
15.6556875639
 20
10.8926001857
 30
0.0
 10
15.6578546036
 20
10.8944847108
 30
0.0
 10
15.659494599
 20
10.8966487977
 30
0.0
 10
15.6602129031
 20
10.8982644396
 30
0.0
 10
15.6604671047
 20
10.8990853536
 30
0.0
  0
SPLINE
  5
29F
100
AcDbEntity
  8
0
100
AcDbSpline
 62
7
  6
CONTINUOUS
 70
0
 71
3
 72
15
 73
11
 74
0
 42
0.0000001
 43
0.0000001
 44
0.0000000001
 40
0.0
 40
0.0
 40
0.0
 40
0.0
 40
0.1148035875
 40
0.2360636943
 40
0.3619939696
 40
0.4908818722
 40
0.6209753815
 40
0.7504718072
 40
0.8775129745
 40
1.0
 40
1.0
 40
1.0
 40
1.0
 10
15.4912138001
 20
10.9009972809
 30
0.0
 10
15.4922827214
 20
10.9000294787
 30
0.0
 10
15.4946004013
 20
10.8981692748
 30
0.0
 10
15.4984191357
 20
10.8956895158
 30
0.0
 10
15.5026091745
 20
10.893494585
 30
0.0
 10
15.5070753736
 20
10.8916284562
 30
0.0
 10
15.5117257179
 20
10.8901324671
 30
0.0
 10
15.5164624539
 20
10.8890353597
 30
0.0
 10
15.5211816168
 20
10.8883662133
 30
0.0
 10
15.524317233
 20
10.8882062765
 30
0.0
 10
15.5258556934
 20
10.8882062765
 30
0.0
  0
SPLINE
  5
2A0
100
AcDbEntity
  8
0
100
AcDbSpline
 62
7
  6
CONTINUOUS
 70
0
 71
3
 72
15
 73
11
 74
0
 42
0.0000001
 43
0.0000001
 44
0.0000000001
 40
0.0
 40
0.0
 40
0.0
 40
0.0
 40
0.1556217885
 40
0.3031487609
 40
0.4410996888
 40
0.5690301656
 40
0.6872665641
 40
0.7969822988
 40
0.9002638111
 40
1.0
 40
1.0
 40
1.0
 40
1.0
 10
15.2703644678
 20
10.8882062765
 30
0.0
 10
15.2717053736
 20
10.8882062765
 30
0.0
 10
15.2743193505
 20
10.8883228853
 30
0.0
 10
15.2780878866
 20
10.8888661
 30
0.0
 10
15.2815419855
 20
10.8897716478
 30
0.0
 10
15.2846180966
 20
10.8910220089
 30
0.0
 10
15.2872631663
 20
10.8926001857
 30
0.0
 10
15.289430206
 20
10.8944847108
 30
0.0
 10
15.2910702014
 20
10.8966487977
 30
0.0
 10
15.2917885055
 20
10.8982644396
 30
0.0
 10
15.2920427071
 20
10.8990853536
 30
0.0
  0
SPLINE
  5
2A1
100
AcDbEntity
  8
0
100
AcDbSpline
 62
7
  6
CONTINUOUS
 70
0
 71
3
 72
15
 73
11
 74
0
 42
0.0000001
 43
0.0000001
 44
0.0000000001
 40
0.0
 40
0.0
 40
0.0
 40
0.0
 40
0.1148035875
 40
0.2360636943
 40
0.3619939696
 40
0.4908818722
 40
0.6209753815
 40
0.7504718072
 40
0.8775129745
 40
1.0
 40
1.0
 40
1.0
 40
1.0
 10
15.1227894025
 20
10.9009972809
 30
0.0
 10
15.1238583238
 20
10.9000294787
 30
0.0
 10
15.1261760037
 20
10.8981692748
 30
0.0
 10
15.1299947381
 20
10.8956895158
 30
0.0
 10
15.1341847769
 20
10.893494585
 30
0.0
 10
15.138650976
 20
10.8916284562
 30
0.0
 10
15.1433013203
 20
10.8901324671
 30
0.0
 10
15.1480380563
 20
10.8890353597
 30
0.0
 10
15.1527572192
 20
10.8883662133
 30
0.0
 10
15.1558928354
 20
10.8882062765
 30
0.0
 10
15.1574312958
 20
10.8882062765
 30
0.0
  0
SPLINE
  5
2A2
100
AcDbEntity
  8
0
100
AcDbSpline
 62
7
  6
CONTINUOUS
 70
0
 71
3
 72
15
 73
11
 74
0
 42
0.0000001
 43
0.0000001
 44
0.0000000001
 40
0.0
 40
0.0
 40
0.0
 40
0.0
 40
0.1556217885
 40
0.3031487609
 40
0.4410996888
 40
0.5690301656
 40
0.6872665641
 40
0.7969822988
 40
0.9002638111
 40
1.0
 40
1.0
 40
1.0
 40
1.0
 10
14.9019400702
 20
10.8882062765
 30
0.0
 10
14.903280976
 20
10.8882062765
 30
0.0
 10
14.9058949528
 20
10.8883228853
 30
0.0
 10
14.909663489
 20
10.8888661
 30
0.0
 10
14.9131175879
 20
10.8897716478
 30
0.0
 10
14.916193699
 20
10.8910220089
 30
0.0
 10
14.9188387687
 20
10.8926001857
 30
0.0
 10
14.9210058084
 20
10.8944847108
 30
0.0
 10
14.9226458038
 20
10.8966487977
 30
0.0
 10
14.9233641079
 20
10.8982644396
 30
0.0
 10
14.9236183095
 20
10.8990853536
 30
0.0
  0
SPLINE
  5
2A3
100
AcDbEntity
  8
0
100
AcDbSpline
 62
7
  6
CONTINUOUS
 70
0
 71
3
 72
15
 73
11
 74
0
 42
0.0000001
 43
0.0000001
 44
0.0000000001
 40
0.0
 40
0.0
 40
0.0
 40
0.0
 40
0.1148035875
 40
0.2360636943
 40
0.3619939696
 40
0.4908818722
 40
0.6209753815
 40
0.7504718072
 40
0.8775129745
 40
1.0
 40
1.0
 40
1.0
 40
1.0
 10
14.7543650049
 20
10.9009972809
 30
0.0
 10
14.7554339262
 20
10.9000294787
 30
0.0
 10
14.7577516061
 20
10.8981692748
 30
0.0
 10
14.7615703405
 20
10.8956895158
 30
0.0
 10
14.7657603793
 20
10.893494585
 30
0.0
 10
14.7702265784
 20
10.8916284562
 30
0.0
 10
14.7748769227
 20
10.8901324671
 30
0.0
 10
14.7796136587
 20
10.8890353597
 30
0.0
 10
14.7843328216
 20
10.8883662133
 30
0.0
 10
14.7874684378
 20
10.8882062765
 30
0.0
 10
14.7890068982
 20
10.8882062765
 30
0.0
  0
SPLINE
  5
2A4
100
AcDbEntity
  8
0
100
AcDbSpline
 62
7
  6
CONTINUOUS
 70
0
 71
3
 72
15
 73
11
 74
0
 42
0.0000001
 43
0.0000001
 44
0.0000000001
 40
0.0
 40
0.0
 40
0.0
 40
0.0
 40
0.1556217885
 40
0.3031487609
 40
0.4410996888
 40
0.5690301656
 40
0.6872665641
 40
0.7969822988
 40
0.9002638111
 40
1.0
 40
1.0
 40
1.0
 40
1.0
 10
14.5335156726
 20
10.8882062765
 30
0.0
 10
14.5348565784
 20
10.8882062765
 30
0.0
 10
14.5374705552
 20
10.8883228853
 30
0.0
 10
14.5412390914
 20
10.8888661
 30
0.0
 10
14.5446931903
 20
10.8897716478
 30
0.0
 10
14.5477693014
 20
10.8910220089
 30
0.0
 10
14.5504143711
 20
10.8926001857
 30
0.0
 10
14.5525814108
 20
10.8944847108
 30
0.0
 10
14.5542214062
 20
10.8966487977
 30
0.0
 10
14.5549397103
 20
10.8982644396
 30
0.0
 10
14.5551939119
 20
10.8990853536
 30
0.0
  0
SPLINE
  5
2A5
100
AcDbEntity
  8
0
100
AcDbSpline
 62
7
  6
CONTINUOUS
 70
0
 71
3
 72
15
 73
11
 74
0
 42
0.0000001
 43
0.0000001
 44
0.0000000001
 40
0.0
 40
0.0
 40
0.0
 40
0.0
 40
0.1148035875
 40
0.2360636943
 40
0.3619939696
 40
0.4908818722
 40
0.6209753815
 40
0.7504718072
 40
0.8775129745
 40
1.0
 40
1.0
 40
1.0
 40
1.0
 10
14.3859406073
 20
10.9009972809
 30
0.0
 10
14.3870095286
 20
10.9000294787
 30
0.0
 10
14.3893272085
 20
10.8981692748
 30
0.0
 10
14.3931459429
 20
10.8956895158
 30
0.0
 10
14.3973359817
 20
10.893494585
 30
0.0
 10
14.4018021808
 20
10.8916284562
 30
0.0
 10
14.4064525251
 20
10.8901324671
 30
0.0
 10
14.4111892611
 20
10.8890353597
 30
0.0
 10
14.415908424
 20
10.8883662133
 30
0.0
 10
14.4190440402
 20
10.8882062765
 30
0.0
 10
14.4205825006
 20
10.8882062765
 30
0.0
  0
SPLINE
  5
2A6
100
AcDbEntity
  8
0
100
AcDbSpline
 62
7
  6
CONTINUOUS
 70
0
 71
3
 72
15
 73
11
 74
0
 42
0.0000001
 43
0.0000001
 44
0.0000000001
 40
0.0
 40
0.0
 40
0.0
 40
0.0
 40
0.1224886668
 40
0.2495327361
 40
0.3790295171
 40
0.5091194955
 40
0.6380011353
 40
0.7639286085
 40
0.8851930253
 40
1.0
 40
1.0
 40
1.0
 40
1.0
 10
13.949311583
 20
10.9503672733
 30
0.0
 10
13.9503372369
 20
10.9503672733
 30
0.0
 10
13.9524276849
 20
10.9502606331
 30
0.0
 10
13.9555738341
 20
10.9498145344
 30
0.0
 10
13.9587316549
 20
10.9490831225
 30
0.0
 10
13.9618318024
 20
10.948085805
 30
0.0
 10
13.9648091881
 20
10.9468418013
 30
0.0
 10
13.9676025022
 20
10.9453785106
 30
0.0
 10
13.9701483496
 20
10.9437253052
 30
0.0
 10
13.9716935433
 20
10.9424851575
 30
0.0
 10
13.9724061785
 20
10.9418399371
 30
0.0
  0
SPLINE
  5
2A7
100
AcDbEntity
  8
0
100
AcDbSpline
 62
7
  6
CONTINUOUS
 70
0
 71
3
 72
15
 73
11
 74
0
 42
0.0000001
 43
0.0000001
 44
0.0000000001
 40
0.0
 40
0.0
 40
0.0
 40
0.0
 40
0.1224886668
 40
0.2495327361
 40
0.3790295171
 40
0.5091194955
 40
0.6380011353
 40
0.7639286085
 40
0.8851930253
 40
1.0
 40
1.0
 40
1.0
 40
1.0
 10
14.3177359806
 20
10.9503672733
 30
0.0
 10
14.3187616345
 20
10.9503672733
 30
0.0
 10
14.3208520825
 20
10.9502606331
 30
0.0
 10
14.3239982317
 20
10.9498145344
 30
0.0
 10
14.3271560525
 20
10.9490831225
 30
0.0
 10
14.3302562
 20
10.948085805
 30
0.0
 10
14.3332335857
 20
10.9468418013
 30
0.0
 10
14.3360268998
 20
10.9453785106
 30
0.0
 10
14.3385727472
 20
10.9437253052
 30
0.0
 10
14.3401179409
 20
10.9424851575
 30
0.0
 10
14.3408305761
 20
10.9418399371
 30
0.0
  0
SPLINE
  5
2A8
100
AcDbEntity
  8
0
100
AcDbSpline
 62
7
  6
CONTINUOUS
 70
0
 71
3
 72
15
 73
11
 74
0
 42
0.0000001
 43
0.0000001
 44
0.0000000001
 40
0.0
 40
0.0
 40
0.0
 40
0.0
 40
0.1224886668
 40
0.2495327361
 40
0.3790295171
 40
0.5091194955
 40
0.6380011353
 40
0.7639286085
 40
0.8851930253
 40
1.0
 40
1.0
 40
1.0
 40
1.0
 10
14.6861603782
 20
10.9503672733
 30
0.0
 10
14.6871860321
 20
10.9503672733
 30
0.0
 10
14.6892764801
 20
10.9502606331
 30
0.0
 10
14.6924226293
 20
10.9498145344
 30
0.0
 10
14.6955804501
 20
10.9490831225
 30
0.0
 10
14.6986805976
 20
10.948085805
 30
0.0
 10
14.7016579833
 20
10.9468418013
 30
0.0
 10
14.7044512974
 20
10.9453785106
 30
0.0
 10
14.7069971448
 20
10.9437253052
 30
0.0
 10
14.7085423385
 20
10.9424851575
 30
0.0
 10
14.7092549737
 20
10.9418399371
 30
0.0
  0
SPLINE
  5
2A9
100
AcDbEntity
  8
0
100
AcDbSpline
 62
7
  6
CONTINUOUS
 70
0
 71
3
 72
15
 73
11
 74
0
 42
0.0000001
 43
0.0000001
 44
0.0000000001
 40
0.0
 40
0.0
 40
0.0
 40
0.0
 40
0.1224886668
 40
0.2495327361
 40
0.3790295171
 40
0.5091194955
 40
0.6380011353
 40
0.7639286085
 40
0.8851930253
 40
1.0
 40
1.0
 40
1.0
 40
1.0
 10
15.0545847758
 20
10.9503672733
 30
0.0
 10
15.0556104297
 20
10.9503672733
 30
0.0
 10
15.0577008777
 20
10.9502606331
 30
0.0
 10
15.0608470269
 20
10.9498145344
 30
0.0
 10
15.0640048477
 20
10.9490831225
 30
0.0
 10
15.0671049952
 20
10.948085805
 30
0.0
 10
15.0700823809
 20
10.9468418013
 30
0.0
 10
15.072875695
 20
10.9453785106
 30
0.0
 10
15.0754215424
 20
10.9437253052
 30
0.0
 10
15.0769667361
 20
10.9424851575
 30
0.0
 10
15.0776793713
 20
10.9418399371
 30
0.0
  0
SPLINE
  5
2AA
100
AcDbEntity
  8
0
100
AcDbSpline
 62
7
  6
CONTINUOUS
 70
0
 71
3
 72
15
 73
11
 74
0
 42
0.0000001
 43
0.0000001
 44
0.0000000001
 40
0.0
 40
0.0
 40
0.0
 40
0.0
 40
0.1224886668
 40
0.2495327361
 40
0.3790295171
 40
0.5091194955
 40
0.6380011353
 40
0.7639286085
 40
0.8851930253
 40
1.0
 40
1.0
 40
1.0
 40
1.0
 10
15.4230091734
 20
10.9503672733
 30
0.0
 10
15.4240348273
 20
10.9503672733
 30
0.0
 10
15.4261252753
 20
10.9502606331
 30
0.0
 10
15.4292714245
 20
10.9498145344
 30
0.0
 10
15.4324292453
 20
10.9490831225
 30
0.0
 10
15.4355293928
 20
10.948085805
 30
0.0
 10
15.4385067785
 20
10.9468418013
 30
0.0
 10
15.4413000926
 20
10.9453785106
 30
0.0
 10
15.44384594
 20
10.9437253052
 30
0.0
 10
15.4453911337
 20
10.9424851575
 30
0.0
 10
15.4461037689
 20
10.9418399371
 30
0.0
  0
SPLINE
  5
2AB
100
AcDbEntity
  8
0
100
AcDbSpline
 62
7
  6
CONTINUOUS
 70
0
 71
3
 72
15
 73
11
 74
0
 42
0.0000001
 43
0.0000001
 44
0.0000000001
 40
0.0
 40
0.0
 40
0.0
 40
0.0
 40
0.1224886668
 40
0.2495327361
 40
0.3790295171
 40
0.5091194955
 40
0.6380011353
 40
0.7639286085
 40
0.8851930253
 40
1.0
 40
1.0
 40
1.0
 40
1.0
 10
15.791433571
 20
10.9503672733
 30
0.0
 10
15.7924592249
 20
10.9503672733
 30
0.0
 10
15.7945496729
 20
10.9502606331
 30
0.0
 10
15.7976958221
 20
10.9498145344
 30
0.0
 10
15.8008536429
 20
10.9490831225
 30
0.0
 10
15.8039537904
 20
10.948085805
 30
0.0
 10
15.8069311761
 20
10.9468418013
 30
0.0
 10
15.8097244902
 20
10.9453785106
 30
0.0
 10
15.8122703376
 20
10.9437253052
 30
0.0
 10
15.8138155313
 20
10.9424851575
 30
0.0
 10
15.8145281665
 20
10.9418399371
 30
0.0
  0
ENDSEC
  0
SECTION
  2
OBJECTS
  0
DICTIONARY
  5
C
100
AcDbDictionary
280
0
281
1
  3
ACAD_GROUP
350
D
  3
ACAD_MLINESTYLE
350
17
  3
ACAD_LAYOUT
350
1A
  3
ACAD_PLOTSETTINGS
350
19
  3
ACAD_PLOTSTYLENAME
350
E
  0
DICTIONARY
  5
D
102
{ACAD_REACTORS
330
C
102
}
100
AcDbDictionary
280
0
281
1
  0
ACDBDICTIONARYWDFLT
  5
E
102
{ACAD_REACTORS
330
C
102
}
100
AcDbDictionary
281
1
  3
Normal
350
F
100
AcDbDictionaryWithDefault
340
F
  0
DICTIONARY
  5
17
102
{ACAD_REACTORS
330
C
102
}
100
AcDbDictionary
280
0
281
1
  3
Standard
350
18
  0
DICTIONARY
  5
19
102
{ACAD_REACTORS
330
C
102
}
100
AcDbDictionary
281
1
  0
DICTIONARY
  5
1A
102
{ACAD_REACTORS
330
C
102
}
100
AcDbDictionary
281
1
  3
Model
350
2AC
  3
Layout1
350
2AD
  0
ACDBPLACEHOLDER
  5
F
102
{ACAD_REACTORS
330
E
102
}
  0
MLINESTYLE
  5
18
102
{ACAD_REACTORS
330
17
102
}
100
AcDbMlineStyle
  2
STANDARD
 70
0
  3

 62
256
 51
90.0
 52
90.0
 71
2
 49
0.5
 62
256
  6
BYLAYER
 49
-0.5
 62
256
  6
BYLAYER
  0
LAYOUT
  5
2AC
102
{ACAD_REACTORS
330
1A
102
}
100
AcDbPlotSettings
  1

  2
none_device
  4
ANSI_C_(22.00_x_17.00_Inches)
  6

 40
0.0
 41
0.0
 42
0.0
 43
0.0
 44
558.8
 45
431.8
 46
0.0
 47
0.0
 48
0.0
 49
0.0
140
0.0
141
0.0
142
1.0
143
1.0
 70
1024
 72
0
 73
0
 74
0
  7

 75
0
147
1.0
148
0.0
149
0.0
100
AcDbLayout
  1
Model
 70
0
 71
0
 10
0.0
 20
0.0
 11
22.0
 21
17.0
 12
0.0
 22
0.0
 32
0.0
 14
0.0
 24
0.0
 34
0.0
 15
0.0
 25
0.0
 35
0.0
146
0.0
 13
0.0
 23
0.0
 33
0.0
 16
1.0
 26
0.0
 36
0.0
 17
0.0
 27
1.0
 37
0.0
 76
0
330
216
345
0
346
0
  0
LAYOUT
  5
2AD
102
{ACAD_REACTORS
330
1A
102
}
100
AcDbPlotSettings
  1

  2
none_device
  4
ANSI_C_(22.00_x_17.00_Inches)
  6

 40
0.0
 41
0.0
 42
0.0
 43
0.0
 44
558.8
 45
431.8
 46
0.0
 47
0.0
 48
0.0
 49
0.0
140
0.0
141
0.0
142
1.0
143
1.0
 70
0
 72
0
 73
0
 74
0
  7

 75
0
147
1.0
148
0.0
149
0.0
100
AcDbLayout
  1
Layout1
 70
0
 71
1
 10
0.0
 20
0.0
 11
22.0
 21
17.0
 12
0.0
 22
0.0
 32
0.0
 14
0.0
 24
0.0
 34
0.0
 15
0.0
 25
0.0
 35
0.0
146
0.0
 13
0.0
 23
0.0
 33
0.0
 16
1.0
 26
0.0
 36
0.0
 17
0.0
 27
1.0
 37
0.0
 76
0
330
217
345
0
346
0
  0
ENDSEC
  0
EOF