999
DXF file: _cgs_temp_output.dxf
999
Pro/ENGINEER 2016360 by Parametric Technology Corporation
  0
SECTION
  2
HEADER
  9
$ACADVER
  1
AC1021
  9
$DWGCODEPAGE
  3
ANSI_1252
  9
$EXTMAX
 10
22.0
 20
17.0
 30
0.0
  9
$EXTMIN
 10
0.0
 20
0.0
 30
0.0
  9
$LIMMIN
 10
0.0
 20
0.0
  9
$LIMMAX
 10
22.0
 20
17.0
  9
$VIEWCTR
 10
11.0
 20
8.5
  9
$VIEWSIZE
 40
17.0
  9
$CLAYER
  8
0
  9
$LTSCALE
 40
1.21
  9
$CELTYPE
  6
BYLAYER
  9
$DIMSCALE
 40
1.0
  9
$DIMASZ
 40
0.1875
  9
$DIMEXO
 40
0.0625
  9
$DIMDLI
 40
0.836
  9
$DIMEXE
 40
0.125
  9
$DIMCEN
 40
0.198
  9
$DIMLFAC
 40
1.0
  9
$DIMBLK
  1
_CLOSED
  9
$DIMALT
 70
0
  9
$DIMALTF
 40
25.4
  9
$DIMTXT
 40
0.15625
  9
$DIMTOL
 70
0
  9
$DIMLIM
 70
0
  9
$DIMTFAC
 40
1.0
  9
$DIMGAP
 40
0.09
  9
$DIMDSEP
 70
46
  9
$AUNITS
 70
0
  9
$PDMODE
 70
3
  9
$PDSIZE
 40
0.3125
  9
$HANDSEED
  5
2AE
  9
$TILEMODE
 70
1
  9
$MEASUREMENT
 70
0
  9
$INSUNITS
 70
1
  0
ENDSEC
  0
SECTION
  2
CLASSES
  0
CLASS
  1
ACDBDICTIONARYWDFLT
  2
AcDbDictionaryWithDefault
  3
AutoCAD 2000
 90
0
 91
1
280
0
281
0
  0
CLASS
  1
ACDBPLACEHOLDER
  2
AcDbPlaceHolder
  3
AutoCAD 2000
 90
0
 91
1
280
0
281
0
  0
CLASS
  1
LAYOUT
  2
AcDbLayout
  3
AutoCAD 2000
 90
0
 91
0
280
0
281
0
  0
ENDSEC
  0
SECTION
  2
TABLES
  0
TABLE
  2
VPORT
  5
8
100
AcDbSymbolTable
 70
2
  0
VPORT
  5
1F4
100
AcDbSymbolTableRecord
100
AcDbViewportTableRecord
  2
*ACTIVE
 70
0
 10
0.0
 20
0.0
 11
1.0
 21
1.0
 12
11.0
 22
8.5
 13
0.0
 23
0.0
 14
1.0
 24
1.0
 15
0.0
 25
0.0
 16
0.0
 26
0.0
 36
1.0
 17
0.0
 27
0.0
 37
0.0
 40
17.0
 41
1.2941176471
 42
50.0
 43
0.0
 44
0.0
 50
0.0
 51
0.0
 71
0
 72
100
 73
1
 74
1
 75
0
 76
0
 77
0
 78
0
  0
ENDTAB
  0
TABLE
  2
LTYPE
  5
5
100
AcDbSymbolTable
 70
6
  0
LTYPE
  5
14
100
AcDbSymbolTableRecord
100
AcDbLinetypeTableRecord
  2
BYBLOCK
 70
0
  3

 72
65
 73
0
 40
0.0
  0
LTYPE
  5
15
100
AcDbSymbolTableRecord
100
AcDbLinetypeTableRecord
  2
BYLAYER
 70
0
  3

 72
65
 73
0
 40
0.0
  0
LTYPE
  5
16
100
AcDbSymbolTableRecord
100
AcDbLinetypeTableRecord
  2
CONTINUOUS
 70
64
  3
Solid line
 72
65
 73
0
 40
0.0
  0
LTYPE
  5
1F5
100
AcDbSymbolTableRecord
100
AcDbLinetypeTableRecord
  2
CENTER
 70
64
  3
____ _ ____ _ ____ _ ____ _ ____ _ ____ _ ____
 72
65
 73
4
 40
0.6
 49
0.375
 74
0
 49
-0.075
 74
0
 49
0.075
 74
0
 49
-0.075
 74
0
  0
LTYPE
  5
1F6
100
AcDbSymbolTableRecord
100
AcDbLinetypeTableRecord
  2
HIDDEN
 70
64
  3
- - - - - - - - - - - - - - - - - - - -
 72
65
 73
2
 40
0.2
 49
0.1
 74
0
 49
-0.1
 74
0
  0
LTYPE
  5
1F7
100
AcDbSymbolTableRecord
100
AcDbLinetypeTableRecord
  2
PHANTOM
 70
64
  3
_____ _ _ _____ _ _ _____ _ _ _____
 72
65
 73
6
 40
0.8
 49
0.45
 74
0
 49
-0.05
 74
0
 49
0.1
 74
0
 49
-0.05
 74
0
 49
0.1
 74
0
 49
-0.05
 74
0
  0
LTYPE
  5
1F8
100
AcDbSymbolTableRecord
100
AcDbLinetypeTableRecord
  2
DOT
 70
64
  3
. . . . . . . . . . . . . . . . . . . .
 72
65
 73
2
 40
0.2
 49
0.1
 74
0
 49
-0.1
 74
0
  0
LTYPE
  5
1F9
100
AcDbSymbolTableRecord
100
AcDbLinetypeTableRecord
  2
DASHED
 70
64
  3
- - - - - - - - - - - - - - - - - - - -
 72
65
 73
2
 40
0.2
 49
0.1
 74
0
 49
-0.1
 74
0
  0
ENDTAB
  0
TABLE
  2
LAYER
  5
2
100
AcDbSymbolTable
 70
36
  0
LAYER
  5
10
100
AcDbSymbolTableRecord
100
AcDbLayerTableRecord
  2
0
 70
0
 62
7
  6
CONTINUOUS
370
-3
390
F
  0
LAYER
  5
1FA
100
AcDbSymbolTableRecord
100
AcDbLayerTableRecord
  2
DEFAULT_1
 70
0
 62
7
  6
CENTER
370
-3
390
F
  0
LAYER
  5
1FB
100
AcDbSymbolTableRecord
100
AcDbLayerTableRecord
  2
DEFAULT_2
 70
0
 62
8
  6
HIDDEN
370
-3
390
F
  0
LAYER
  5
1FC
100
AcDbSymbolTableRecord
100
AcDbLayerTableRecord
  2
DEFAULT_3
 70
0
 62
7
  6
PHANTOM
370
-3
390
F
  0
LAYER
  5
1FD
100
AcDbSymbolTableRecord
100
AcDbLayerTableRecord
  2
01_ALL_DTM_PLN
 70
0
 62
7
  6
CONTINUOUS
370
-3
390
F
  0
LAYER
  5
1FE
100
AcDbSymbolTableRecord
100
AcDbLayerTableRecord
  2
01__ASM_ALL_DTM_PLN
 70
0
 62
7
  6
CONTINUOUS
370
-3
390
F
  0
LAYER
  5
1FF
100
AcDbSymbolTableRecord
100
AcDbLayerTableRecord
  2
01__ASM_DEF_DTM_PLN
 70
0
 62
7
  6
CONTINUOUS
370
-3
390
F
  0
LAYER
  5
200
100
AcDbSymbolTableRecord
100
AcDbLayerTableRecord
  2
01___PRT_ALL_DTM_PLN
 70
0
 62
7
  6
CONTINUOUS
370
-3
390
F
  0
LAYER
  5
201
100
AcDbSymbolTableRecord
100
AcDbLayerTableRecord
  2
01___PRT_DEF_DTM_PLN
 70
0
 62
7
  6
CONTINUOUS
370
-3
390
F
  0
LAYER
  5
202
100
AcDbSymbolTableRecord
100
AcDbLayerTableRecord
  2
02_ALL_AXES
 70
0
 62
7
  6
CONTINUOUS
370
-3
390
F
  0
LAYER
  5
203
100
AcDbSymbolTableRecord
100
AcDbLayerTableRecord
  2
02__ASM_ALL_AXES
 70
0
 62
7
  6
CONTINUOUS
370
-3
390
F
  0
LAYER
  5
204
100
AcDbSymbolTableRecord
100
AcDbLayerTableRecord
  2
02___PRT_ALL_AXES
 70
0
 62
7
  6
CONTINUOUS
370
-3
390
F
  0
LAYER
  5
205
100
AcDbSymbolTableRecord
100
AcDbLayerTableRecord
  2
03_ALL_CURVES
 70
0
 62
7
  6
CONTINUOUS
370
-3
390
F
  0
LAYER
  5
206
100
AcDbSymbolTableRecord
100
AcDbLayerTableRecord
  2
03__ASM_ALL_CURVES
 70
0
 62
7
  6
CONTINUOUS
370
-3
390
F
  0
LAYER
  5
207
100
AcDbSymbolTableRecord
100
AcDbLayerTableRecord
  2
03___PRT_ALL_CURVES
 70
0
 62
7
  6
CONTINUOUS
370
-3
390
F
  0
LAYER
  5
208
100
AcDbSymbolTableRecord
100
AcDbLayerTableRecord
  2
04_ALL_DTM_PNT
 70
0
 62
7
  6
CONTINUOUS
370
-3
390
F
  0
LAYER
  5
209
100
AcDbSymbolTableRecord
100
AcDbLayerTableRecord
  2
04__ASM_ALL_DTM_PNT
 70
0
 62
7
  6
CONTINUOUS
370
-3
390
F
  0
LAYER
  5
20A
100
AcDbSymbolTableRecord
100
AcDbLayerTableRecord
  2
04___PRT_ALL_DTM_PNT
 70
0
 62
7
  6
CONTINUOUS
370
-3
390
F
  0
LAYER
  5
20B
100
AcDbSymbolTableRecord
100
AcDbLayerTableRecord
  2
05_ALL_DTM_CSYS
 70
0
 62
7
  6
CONTINUOUS
370
-3
390
F
  0
LAYER
  5
20C
100
AcDbSymbolTableRecord
100
AcDbLayerTableRecord
  2
05__ASM_ALL_DTM_CSYS
 70
0
 62
7
  6
CONTINUOUS
370
-3
390
F
  0
LAYER
  5
20D
100
AcDbSymbolTableRecord
100
AcDbLayerTableRecord
  2
05__ASM_DEF_DTM_CSYS
 70
0
 62
7
  6
CONTINUOUS
370
-3
390
F
  0
LAYER
  5
20E
100
AcDbSymbolTableRecord
100
AcDbLayerTableRecord
  2
05___PRT_ALL_DTM_CSYS
 70
0
 62
7
  6
CONTINUOUS
370
-3
390
F
  0
LAYER
  5
20F
100
AcDbSymbolTableRecord
100
AcDbLayerTableRecord
  2
05___PRT_DEF_DTM_CSYS
 70
0
 62
7
  6
CONTINUOUS
370
-3
390
F
  0
LAYER
  5
210
100
AcDbSymbolTableRecord
100
AcDbLayerTableRecord
  2
06_ALL_SURFS
 70
0
 62
7
  6
CONTINUOUS
370
-3
390
F
  0
LAYER
  5
211
100
AcDbSymbolTableRecord
100
AcDbLayerTableRecord
  2
06__ASM_ALL_SURFS
 70
0
 62
7
  6
CONTINUOUS
370
-3
390
F
  0
LAYER
  5
212
100
AcDbSymbolTableRecord
100
AcDbLayerTableRecord
  2
06___PRT_ALL_SURFS
 70
0
 62
7
  6
CONTINUOUS
370
-3
390
F
  0
LAYER
  5
213
100
AcDbSymbolTableRecord
100
AcDbLayerTableRecord
  2
07__ASM_ALL_SKELETONS
 70
0
 62
7
  6
CONTINUOUS
370
-3
390
F
  0
ENDTAB
  0
TABLE
  2
STYLE
  5
3
100
AcDbSymbolTable
 70
1
  0
STYLE
  5
11
100
AcDbSymbolTableRecord
100
AcDbTextStyleTableRecord
  2
STANDARD
 70
0
 40
0.0
 41
0.8
 50
0.0
 71
0
 42
0.2
  3
txt
  4

  0
STYLE
  5
214
100
AcDbSymbolTableRecord
100
AcDbTextStyleTableRecord
  2
TEXTSTYLE_1
 70
0
 40
0.0
 41
0.8
 50
0.0
 71
0
 42
0.2
  3
gdt
  4

  0
ENDTAB
  0
TABLE
  2
VIEW
  5
6
100
AcDbSymbolTable
 70
0
  0
ENDTAB
  0
TABLE
  2
UCS
  5
7
100
AcDbSymbolTable
 70
0
  0
ENDTAB
  0
TABLE
  2
APPID
  5
9
100
AcDbSymbolTable
 70
1
  0
APPID
  5
215
100
AcDbSymbolTableRecord
100
AcDbRegAppTableRecord
  2
ACAD
 70
0
  0
ENDTAB
  0
TABLE
  2
BLOCK_RECORD
  5
1
100
AcDbSymbolTable
 70
0
  0
BLOCK_RECORD
  5
216
100
AcDbSymbolTableRecord
100
AcDbBlockTableRecord
  2
*Model_Space
  0
BLOCK_RECORD
  5
217
100
AcDbSymbolTableRecord
100
AcDbBlockTableRecord
  2
*Paper_Space
  0
ENDTAB
  0
TABLE
  2
DIMSTYLE
  5
A
100
AcDbSymbolTable
 70
1
100
AcDbDimStyleTable
 71
0
  0
DIMSTYLE
105
218
100
AcDbSymbolTableRecord
100
AcDbDimStyleTableRecord
  2
STANDARD
 70
0
  3

  4

 40
1.0
 41
0.1875
 42
0.0625
 43
0.38
 44
0.125
 45
0.0
 46
0.0
 47
0.0001
 48
0.0001
140
0.15625
141
0.09
142
0.0
143
25.4
144
1.0
145
0.0
146
1.0
147
0.09
 71
0.0
 72
0.0
 73
1
 74
1
 75
0
 76
0
 77
0
 78
4
 79
1
170
0
171
3
172
0
173
0
174
0
175
0
176
0
177
0
178
0
270
2
179
4
271
4
272
4
273
2
274
2
275
0
280
0
281
0
282
0
283
1
284
4
285
0
286
0
287
3
288
0
340
11
278
46
  0
ENDTAB
  0
ENDSEC
  0
SECTION
  2
BLOCKS
  0
BLOCK
  5
20
100
AcDbEntity
  8
0
100
AcDbBlockBegin
  2
*Model_Space
 70
0
 10
0.0
 20
0.0
 30
0.0
  3
*Model_Space
  1

  0
ENDBLK
  5
21
100
AcDbEntity
  8
0
100
AcDbBlockEnd
  0
BLOCK
  5
1C
100
AcDbEntity
  8
0
100
AcDbBlockBegin
  2
*Paper_Space
 70
0
 10
0.0
 20
0.0
 30
0.0
  3
*Paper_Space
  1

  0
ENDBLK
  5
1D
100
AcDbEntity
  8
0
100
AcDbBlockEnd
  0
ENDSEC
  0
SECTION
  2
ENTITIES
  0
MTEXT
  5
219
100
AcDbEntity
  8
0
100
AcDbMText
 62
7
  6
CONTINUOUS
  7
STANDARD
 71
1
 72
1
 10
15.9560215477
 20
0.9479130325
 30
0.0
 11
1.0
 21
0.0
 31
0.0
 44
0.9
  1
SCALE: 1:2.000
 40
0.3
 41
3.36
  0
LINE
  5
21A
100
AcDbEntity
  8
0
100
AcDbLine
 62
7
  6
CONTINUOUS
 10
0.0
 20
0.0
 11
0.0
 21
17.0
  0
LINE
  5
21B
100
AcDbEntity
  8
0
100
AcDbLine
 62
7
  6
CONTINUOUS
 10
0.0
 20
0.0
 11
22.0
 21
0.0
  0
LINE
  5
21C
100
AcDbEntity
  8
0
100
AcDbLine
 62
7
  6
CONTINUOUS
 10
0.0
 20
17.0
 11
22.0
 21
17.0
  0
LINE
  5
21D
100
AcDbEntity
  8
0
100
AcDbLine
 62
7
  6
CONTINUOUS
 10
22.0
 20
0.0
 11
22.0
 21
17.0
  0
LINE
  5
21E
100
AcDbEntity
  8
0
100
AcDbLine
 62
7
  6
CONTINUOUS
 10
4.9303672762
 20
5.6101198968
 11
4.9303672762
 21
5.5301198968
  0
LINE
  5
21F
100
AcDbEntity
  8
0
100
AcDbLine
 62
7
  6
CONTINUOUS
 10
5.0110495183
 20
5.5164017508
 11
5.0382652693
 21
5.4506971157
  0
LINE
  5
220
100
AcDbEntity
  8
0
100
AcDbLine
 62
7
  6
CONTINUOUS
 10
5.2224692831
 20
5.4506971157
 11
5.2496850341
 21
5.5164017508
  0
LINE
  5
221
100
AcDbEntity
  8
0
100
AcDbLine
 62
7
  6
CONTINUOUS
 10
5.4110495183
 20
5.5164017508
 11
5.4382652693
 21
5.4506971157
  0
LINE
  5
222
100
AcDbEntity
  8
0
100
AcDbLine
 62
7
  6
CONTINUOUS
 10
5.6224692831
 20
5.4506971157
 11
5.6496850341
 21
5.5164017508
  0
LINE
  5
223
100
AcDbEntity
  8
0
100
AcDbLine
 62
7
  6
CONTINUOUS
 10
5.8110495183
 20
5.5164017508
 11
5.8382652693
 21
5.4506971157
  0
LINE
  5
224
100
AcDbEntity
  8
0
100
AcDbLine
 62
7
  6
CONTINUOUS
 10
6.0224692831
 20
5.4506971157
 11
6.0496850341
 21
5.5164017508
  0
LINE
  5
225
100
AcDbEntity
  8
0
100
AcDbLine
 62
7
  6
CONTINUOUS
 10
5.0690612537
 20
5.4301198968
 11
5.1916732987
 21
5.4301198968
  0
LINE
  5
226
100
AcDbEntity
  8
0
100
AcDbLine
 62
7
  6
CONTINUOUS
 10
5.4690612537
 20
5.4301198968
 11
5.5916732987
 21
5.4301198968
  0
LINE
  5
227
100
AcDbEntity
  8
0
100
AcDbLine
 62
7
  6
CONTINUOUS
 10
5.8690612537
 20
5.4301198968
 11
5.9916732987
 21
5.4301198968
  0
LINE
  5
228
100
AcDbEntity
  8
0
100
AcDbLine
 62
7
  6
CONTINUOUS
 10
6.2690612537
 20
5.4301198968
 11
6.3916732987
 21
5.4301198968
  0
LINE
  5
229
100
AcDbEntity
  8
0
100
AcDbLine
 62
7
  6
CONTINUOUS
 10
6.6690612537
 20
5.4301198968
 11
6.7916732987
 21
5.4301198968
  0
LINE
  5
22A
100
AcDbEntity
  8
0
100
AcDbLine
 62
7
  6
CONTINUOUS
 10
7.0690612537
 20
5.4301198968
 11
7.1916732987
 21
5.4301198968
  0
LINE
  5
22B
100
AcDbEntity
  8
0
100
AcDbLine
 62
7
  6
CONTINUOUS
 10
4.9303672762
 20
5.5301198968
 11
4.990518862
 21
5.5301198968
  0
LINE
  5
22C
100
AcDbEntity
  8
0
100
AcDbLine
 62
7
  6
CONTINUOUS
 10
5.2702156903
 20
5.5301198968
 11
5.390518862
 21
5.5301198968
  0
LINE
  5
22D
100
AcDbEntity
  8
0
100
AcDbLine
 62
7
  6
CONTINUOUS
 10
5.6702156903
 20
5.5301198968
 11
5.790518862
 21
5.5301198968
  0
LINE
  5
22E
100
AcDbEntity
  8
0
100
AcDbLine
 62
7
  6
CONTINUOUS
 10
6.0702156903
 20
5.5301198968
 11
6.190518862
 21
5.5301198968
  0
LINE
  5
22F
100
AcDbEntity
  8
0
100
AcDbLine
 62
7
  6
CONTINUOUS
 10
6.4702156903
 20
5.5301198968
 11
6.590518862
 21
5.5301198968
  0
LINE
  5
230
100
AcDbEntity
  8
0
100
AcDbLine
 62
7
  6
CONTINUOUS
 10
6.8702156903
 20
5.5301198968
 11
6.990518862
 21
5.5301198968
  0
LINE
  5
231
100
AcDbEntity
  8
0
100
AcDbLine
 62
7
  6
CONTINUOUS
 10
7.2702156903
 20
5.5301198968
 11
7.3303672762
 21
5.5301198968
  0
LINE
  5
232
100
AcDbEntity
  8
0
100
AcDbLine
 62
7
  6
CONTINUOUS
 10
7.3303672762
 20
5.6101198968
 11
4.9303672762
 21
5.6101198968
  0
LINE
  5
233
100
AcDbEntity
  8
0
100
AcDbLine
 62
7
  6
CONTINUOUS
 10
6.2110495183
 20
5.5164017508
 11
6.2382652693
 21
5.4506971157
  0
LINE
  5
234
100
AcDbEntity
  8
0
100
AcDbLine
 62
7
  6
CONTINUOUS
 10
6.4224692831
 20
5.4506971157
 11
6.4496850341
 21
5.5164017508
  0
LINE
  5
235
100
AcDbEntity
  8
0
100
AcDbLine
 62
7
  6
CONTINUOUS
 10
6.6110495183
 20
5.5164017508
 11
6.6382652693
 21
5.4506971157
  0
LINE
  5
236
100
AcDbEntity
  8
0
100
AcDbLine
 62
7
  6
CONTINUOUS
 10
6.8224692831
 20
5.4506971157
 11
6.8496850341
 21
5.5164017508
  0
LINE
  5
237
100
AcDbEntity
  8
0
100
AcDbLine
 62
7
  6
CONTINUOUS
 10
7.0110495183
 20
5.5164017508
 11
7.0382652693
 21
5.4506971157
  0
LINE
  5
238
100
AcDbEntity
  8
0
100
AcDbLine
 62
7
  6
CONTINUOUS
 10
7.2224692831
 20
5.4506971157
 11
7.2496850341
 21
5.5164017508
  0
LINE
  5
239
100
AcDbEntity
  8
0
100
AcDbLine
 62
7
  6
CONTINUOUS
 10
7.3303672762
 20
5.5301198968
 11
7.3303672762
 21
5.6101198968
  0
LINE
  5
23A
100
AcDbEntity
  8
0
100
AcDbLine
 62
7
  6
CONTINUOUS
 10
7.2708720839
 20
11.1000477814
 11
4.8708720839
 21
11.1000477814
  0
LINE
  5
23B
100
AcDbEntity
  8
0
100
AcDbLine
 62
7
  6
CONTINUOUS
 10
4.8708720839
 20
14.1000477814
 11
4.8708720839
 21
11.1000477814
  0
LINE
  5
23C
100
AcDbEntity
  8
0
100
AcDbLine
 62
7
  6
CONTINUOUS
 10
7.2708720839
 20
14.1000477814
 11
7.2708720839
 21
11.1000477814
  0
LINE
  5
23D
100
AcDbEntity
  8
0
100
AcDbLine
 62
7
  6
CONTINUOUS
 10
4.8708720839
 20
14.1000477814
 11
7.2708720839
 21
14.1000477814
  0
LINE
  5
23E
100
AcDbEntity
  8
0
100
AcDbLine
 62
7
  6
CONTINUOUS
 10
14.0603552569
 20
5.3706247044
 11
14.0603552569
 21
5.5506247044
  0
LINE
  5
23F
100
AcDbEntity
  8
0
100
AcDbLine
 62
7
  6
CONTINUOUS
 10
14.0603552569
 20
5.3706247044
 11
17.0603552569
 21
5.3706247044
  0
LINE
  5
240
100
AcDbEntity
  8
0
100
AcDbLine
 62
7
  6
CONTINUOUS
 10
17.0603552569
 20
5.4706247044
 11
14.0603552569
 21
5.4706247044
  0
LINE
  5
241
100
AcDbEntity
  8
0
100
AcDbLine
 62
7
  6
CONTINUOUS
 10
17.0603552569
 20
5.5506247044
 11
14.0603552569
 21
5.5506247044
  0
LINE
  5
242
100
AcDbEntity
  8
0
100
AcDbLine
 62
7
  6
CONTINUOUS
 10
17.0603552569
 20
5.3706247044
 11
17.0603552569
 21
5.5506247044
  0
LINE
  5
243
100
AcDbEntity
  8
0
100
AcDbLine
 62
7
  6
CONTINUOUS
 10
14.0934393402
 20
11.3335033919
 11
14.1385493714
 21
11.2926607357
  0
LINE
  5
244
100
AcDbEntity
  8
0
100
AcDbLine
 62
7
  6
CONTINUOUS
 10
13.9905381159
 20
11.3917595256
 11
14.0149414652
 21
11.3420307281
  0
LINE
  5
245
100
AcDbEntity
  8
0
100
AcDbLine
 62
7
  6
CONTINUOUS
 10
14.4618637378
 20
11.3335033919
 11
14.506973769
 21
11.2926607357
  0
LINE
  5
246
100
AcDbEntity
  8
0
100
AcDbLine
 62
7
  6
CONTINUOUS
 10
14.8302881354
 20
11.3335033919
 11
14.8753981666
 21
11.2926607357
  0
LINE
  5
247
100
AcDbEntity
  8
0
100
AcDbLine
 62
7
  6
CONTINUOUS
 10
14.1731912647
 20
11.2798697313
 11
14.2861244367
 21
11.2798697313
  0
LINE
  5
248
100
AcDbEntity
  8
0
100
AcDbLine
 62
7
  6
CONTINUOUS
 10
14.5416156623
 20
11.2798697313
 11
14.6545488343
 21
11.2798697313
  0
LINE
  5
249
100
AcDbEntity
  8
0
100
AcDbLine
 62
7
  6
CONTINUOUS
 10
14.9100400599
 20
11.2798697313
 11
15.0229732319
 21
11.2798697313
  0
LINE
  5
24A
100
AcDbEntity
  8
0
100
AcDbLine
 62
7
  6
CONTINUOUS
 10
15.2784644575
 20
11.2798697313
 11
15.3913976295
 21
11.2798697313
  0
LINE
  5
24B
100
AcDbEntity
  8
0
100
AcDbLine
 62
7
  6
CONTINUOUS
 10
15.6468888551
 20
11.2798697313
 11
15.7598220271
 21
11.2798697313
  0
LINE
  5
24C
100
AcDbEntity
  8
0
100
AcDbLine
 62
7
  6
CONTINUOUS
 10
16.0153132527
 20
11.2798697313
 11
16.1282464247
 21
11.2798697313
  0
LINE
  5
24D
100
AcDbEntity
  8
0
100
AcDbLine
 62
7
  6
CONTINUOUS
 10
14.0149414652
 20
11.3420307281
 11
14.0703447447
 21
11.3420307281
  0
LINE
  5
24E
100
AcDbEntity
  8
0
100
AcDbLine
 62
7
  6
CONTINUOUS
 10
14.3279625834
 20
11.3420307281
 11
14.4387691423
 21
11.3420307281
  0
LINE
  5
24F
100
AcDbEntity
  8
0
100
AcDbLine
 62
7
  6
CONTINUOUS
 10
14.696386981
 20
11.3420307281
 11
14.8071935399
 21
11.3420307281
  0
LINE
  5
250
100
AcDbEntity
  8
0
100
AcDbLine
 62
7
  6
CONTINUOUS
 10
15.0648113786
 20
11.3420307281
 11
15.1756179375
 21
11.3420307281
  0
LINE
  5
251
100
AcDbEntity
  8
0
100
AcDbLine
 62
7
  6
CONTINUOUS
 10
15.4332357762
 20
11.3420307281
 11
15.5440423351
 21
11.3420307281
  0
LINE
  5
252
100
AcDbEntity
  8
0
100
AcDbLine
 62
7
  6
CONTINUOUS
 10
15.8016601738
 20
11.3420307281
 11
15.9124667327
 21
11.3420307281
  0
LINE
  5
253
100
AcDbEntity
  8
0
100
AcDbLine
 62
7
  6
CONTINUOUS
 10
16.1700845714
 20
11.3420307281
 11
16.2254878508
 21
11.3420307281
  0
LINE
  5
254
100
AcDbEntity
  8
0
100
AcDbLine
 62
7
  6
CONTINUOUS
 10
14.7167370861
 20
13.7417402545
 11
13.9905381159
 21
11.3917595256
  0
LINE
  5
255
100
AcDbEntity
  8
0
100
AcDbLine
 62
7
  6
CONTINUOUS
 10
16.2010845015
 20
11.3917595256
 11
13.9905381159
 21
11.3917595256
  0
LINE
  5
256
100
AcDbEntity
  8
0
100
AcDbLine
 62
7
  6
CONTINUOUS
 10
15.198712533
 20
11.3335033919
 11
15.2438225642
 21
11.2926607357
  0
LINE
  5
257
100
AcDbEntity
  8
0
100
AcDbLine
 62
7
  6
CONTINUOUS
 10
14.3082125035
 20
11.2926607357
 11
14.3132372056
 21
11.3335033919
  0
LINE
  5
258
100
AcDbEntity
  8
0
100
AcDbLine
 62
7
  6
CONTINUOUS
 10
14.3077983062
 20
11.29075016
 11
14.3082125035
 21
11.2926607357
  0
LINE
  5
259
100
AcDbEntity
  8
0
100
AcDbLine
 62
7
  6
CONTINUOUS
 10
14.3132372056
 20
11.3335033919
 11
14.3135143719
 21
11.3347767893
  0
LINE
  5
25A
100
AcDbEntity
  8
0
100
AcDbLine
 62
7
  6
CONTINUOUS
 10
15.5671369306
 20
11.3335033919
 11
15.6122469618
 21
11.2926607357
  0
LINE
  5
25B
100
AcDbEntity
  8
0
100
AcDbLine
 62
7
  6
CONTINUOUS
 10
14.6766369011
 20
11.2926607357
 11
14.6816616032
 21
11.3335033919
  0
LINE
  5
25C
100
AcDbEntity
  8
0
100
AcDbLine
 62
7
  6
CONTINUOUS
 10
14.308378787
 20
11.2926093502
 11
14.3235059797
 21
11.3415609639
  0
LINE
  5
25D
100
AcDbEntity
  8
0
100
AcDbLine
 62
7
  6
CONTINUOUS
 10
14.6762227038
 20
11.29075016
 11
14.6766369011
 21
11.2926607357
  0
LINE
  5
25E
100
AcDbEntity
  8
0
100
AcDbLine
 62
7
  6
CONTINUOUS
 10
14.6816616032
 20
11.3335033919
 11
14.6819387695
 21
11.3347767893
  0
LINE
  5
25F
100
AcDbEntity
  8
0
100
AcDbLine
 62
7
  6
CONTINUOUS
 10
15.9355613282
 20
11.3335033919
 11
15.9806713594
 21
11.2926607357
  0
LINE
  5
260
100
AcDbEntity
  8
0
100
AcDbLine
 62
7
  6
CONTINUOUS
 10
14.6768031846
 20
11.2926093502
 11
14.6919303773
 21
11.3415609639
  0
LINE
  5
261
100
AcDbEntity
  8
0
100
AcDbLine
 62
7
  6
CONTINUOUS
 10
15.0450612987
 20
11.2926607357
 11
15.0500860008
 21
11.3335033919
  0
LINE
  5
262
100
AcDbEntity
  8
0
100
AcDbLine
 62
7
  6
CONTINUOUS
 10
15.0446471014
 20
11.29075016
 11
15.0450612987
 21
11.2926607357
  0
LINE
  5
263
100
AcDbEntity
  8
0
100
AcDbLine
 62
7
  6
CONTINUOUS
 10
15.0500860008
 20
11.3335033919
 11
15.0503631671
 21
11.3347767893
  0
LINE
  5
264
100
AcDbEntity
  8
0
100
AcDbLine
 62
7
  6
CONTINUOUS
 10
15.0452275822
 20
11.2926093502
 11
15.0603547749
 21
11.3415609639
  0
LINE
  5
265
100
AcDbEntity
  8
0
100
AcDbLine
 62
7
  6
CONTINUOUS
 10
15.4134856963
 20
11.2926607357
 11
15.4185103984
 21
11.3335033919
  0
LINE
  5
266
100
AcDbEntity
  8
0
100
AcDbLine
 62
7
  6
CONTINUOUS
 10
15.413071499
 20
11.29075016
 11
15.4134856963
 21
11.2926607357
  0
LINE
  5
267
100
AcDbEntity
  8
0
100
AcDbLine
 62
7
  6
CONTINUOUS
 10
15.4185103984
 20
11.3335033919
 11
15.4187875647
 21
11.3347767893
  0
LINE
  5
268
100
AcDbEntity
  8
0
100
AcDbLine
 62
7
  6
CONTINUOUS
 10
16.2254878508
 20
11.3420307281
 11
16.2010845015
 21
11.3917595256
  0
LINE
  5
269
100
AcDbEntity
  8
0
100
AcDbLine
 62
7
  6
CONTINUOUS
 10
15.4136519798
 20
11.2926093502
 11
15.4287791725
 21
11.3415609639
  0
LINE
  5
26A
100
AcDbEntity
  8
0
100
AcDbLine
 62
7
  6
CONTINUOUS
 10
15.7819100939
 20
11.2926607357
 11
15.786934796
 21
11.3335033919
  0
LINE
  5
26B
100
AcDbEntity
  8
0
100
AcDbLine
 62
7
  6
CONTINUOUS
 10
15.7814958966
 20
11.29075016
 11
15.7819100939
 21
11.2926607357
  0
LINE
  5
26C
100
AcDbEntity
  8
0
100
AcDbLine
 62
7
  6
CONTINUOUS
 10
15.786934796
 20
11.3335033919
 11
15.7872119623
 21
11.3347767893
  0
LINE
  5
26D
100
AcDbEntity
  8
0
100
AcDbLine
 62
7
  6
CONTINUOUS
 10
15.7820763774
 20
11.2926093502
 11
15.7972035701
 21
11.3415609639
  0
LINE
  5
26E
100
AcDbEntity
  8
0
100
AcDbLine
 62
7
  6
CONTINUOUS
 10
16.1503344915
 20
11.2926607357
 11
16.1553591936
 21
11.3335033919
  0
LINE
  5
26F
100
AcDbEntity
  8
0
100
AcDbLine
 62
7
  6
CONTINUOUS
 10
16.1499202942
 20
11.29075016
 11
16.1503344915
 21
11.2926607357
  0
LINE
  5
270
100
AcDbEntity
  8
0
100
AcDbLine
 62
7
  6
CONTINUOUS
 10
16.1553591936
 20
11.3335033919
 11
16.1556363599
 21
11.3347767893
  0
LINE
  5
271
100
AcDbEntity
  8
0
100
AcDbLine
 62
7
  6
CONTINUOUS
 10
16.150500775
 20
11.2926093502
 11
16.1656279677
 21
11.3415609639
  0
LINE
  5
272
100
AcDbEntity
  8
0
100
AcDbLine
 62
7
  6
CONTINUOUS
 10
16.9272834717
 20
13.7417402545
 11
16.2010845015
 21
11.3917595256
  0
LINE
  5
273
100
AcDbEntity
  8
0
100
AcDbLine
 62
7
  6
CONTINUOUS
 10
16.9516868211
 20
13.692011457
 11
16.2254878508
 21
11.3420307281
  0
LINE
  5
274
100
AcDbEntity
  8
0
100
AcDbLine
 62
7
  6
CONTINUOUS
 10
14.7167370861
 20
13.7417402545
 11
16.9272834717
 21
13.7417402545
  0
LINE
  5
275
100
AcDbEntity
  8
0
100
AcDbLine
 62
7
  6
CONTINUOUS
 10
16.9516868211
 20
13.692011457
 11
16.9272834717
 21
13.7417402545
  0
ARC
  5
276
100
AcDbEntity
  8
0
100
AcDbCircle
 62
7
  6
CONTINUOUS
 10
5.4690612537
 20
5.4634532301
 40
0.0333333333
100
AcDbArc
 50
202.5
 51
270.0
  0
ARC
  5
277
100
AcDbEntity
  8
0
100
AcDbCircle
 62
7
  6
CONTINUOUS
 10
5.5916732987
 20
5.4634532301
 40
0.0333333333
100
AcDbArc
 50
270.0
 51
337.5
  0
ARC
  5
278
100
AcDbEntity
  8
0
100
AcDbCircle
 62
7
  6
CONTINUOUS
 10
5.8690612537
 20
5.4634532301
 40
0.0333333333
100
AcDbArc
 50
202.5
 51
270.0
  0
ARC
  5
279
100
AcDbEntity
  8
0
100
AcDbCircle
 62
7
  6
CONTINUOUS
 10
5.9916732987
 20
5.4634532301
 40
0.0333333333
100
AcDbArc
 50
270.0
 51
337.5
  0
ARC
  5
27A
100
AcDbEntity
  8
0
100
AcDbCircle
 62
7
  6
CONTINUOUS
 10
6.2690612537
 20
5.4634532301
 40
0.0333333333
100
AcDbArc
 50
202.5
 51
270.0
  0
ARC
  5
27B
100
AcDbEntity
  8
0
100
AcDbCircle
 62
7
  6
CONTINUOUS
 10
6.3916732987
 20
5.4634532301
 40
0.0333333333
100
AcDbArc
 50
270.0
 51
337.5
  0
ARC
  5
27C
100
AcDbEntity
  8
0
100
AcDbCircle
 62
7
  6
CONTINUOUS
 10
5.1916732987
 20
5.4634532301
 40
0.0333333333
100
AcDbArc
 50
270.0
 51
337.5
  0
ARC
  5
27D
100
AcDbEntity
  8
0
100
AcDbCircle
 62
7
  6
CONTINUOUS
 10
5.0690612537
 20
5.4634532301
 40
0.0333333333
100
AcDbArc
 50
202.5
 51
270.0
  0
ARC
  5
27E
100
AcDbEntity
  8
0
100
AcDbCircle
 62
7
  6
CONTINUOUS
 10
7.1916732987
 20
5.4634532301
 40
0.0333333333
100
AcDbArc
 50
270.0
 51
337.5
  0
ARC
  5
27F
100
AcDbEntity
  8
0
100
AcDbCircle
 62
7
  6
CONTINUOUS
 10
7.0690612537
 20
5.4634532301
 40
0.0333333333
100
AcDbArc
 50
202.5
 51
270.0
  0
ARC
  5
280
100
AcDbEntity
  8
0
100
AcDbCircle
 62
7
  6
CONTINUOUS
 10
6.7916732987
 20
5.4634532301
 40
0.0333333333
100
AcDbArc
 50
270.0
 51
337.5
  0
ARC
  5
281
100
AcDbEntity
  8
0
100
AcDbCircle
 62
7
  6
CONTINUOUS
 10
6.6690612537
 20
5.4634532301
 40
0.0333333333
100
AcDbArc
 50
202.5
 51
270.0
  0
ARC
  5
282
100
AcDbEntity
  8
0
100
AcDbCircle
 62
7
  6
CONTINUOUS
 10
5.2702156903
 20
5.5078976745
 40
0.0222222222
100
AcDbArc
 50
90.0
 51
157.5
  0
ARC
  5
283
100
AcDbEntity
  8
0
100
AcDbCircle
 62
7
  6
CONTINUOUS
 10
4.990518862
 20
5.5078976745
 40
0.0222222222
100
AcDbArc
 50
22.5
 51
90.0
  0
ARC
  5
284
100
AcDbEntity
  8
0
100
AcDbCircle
 62
7
  6
CONTINUOUS
 10
5.6702156903
 20
5.5078976745
 40
0.0222222222
100
AcDbArc
 50
90.0
 51
157.5
  0
ARC
  5
285
100
AcDbEntity
  8
0
100
AcDbCircle
 62
7
  6
CONTINUOUS
 10
5.390518862
 20
5.5078976745
 40
0.0222222222
100
AcDbArc
 50
22.5
 51
90.0
  0
ARC
  5
286
100
AcDbEntity
  8
0
100
AcDbCircle
 62
7
  6
CONTINUOUS
 10
6.0702156903
 20
5.5078976745
 40
0.0222222222
100
AcDbArc
 50
90.0
 51
157.5
  0
ARC
  5
287
100
AcDbEntity
  8
0
100
AcDbCircle
 62
7
  6
CONTINUOUS
 10
5.790518862
 20
5.5078976745
 40
0.0222222222
100
AcDbArc
 50
22.5
 51
90.0
  0
ARC
  5
288
100
AcDbEntity
  8
0
100
AcDbCircle
 62
7
  6
CONTINUOUS
 10
6.4702156903
 20
5.5078976745
 40
0.0222222222
100
AcDbArc
 50
90.0
 51
157.5
  0
ARC
  5
289
100
AcDbEntity
  8
0
100
AcDbCircle
 62
7
  6
CONTINUOUS
 10
6.190518862
 20
5.5078976745
 40
0.0222222222
100
AcDbArc
 50
22.5
 51
90.0
  0
ARC
  5
28A
100
AcDbEntity
  8
0
100
AcDbCircle
 62
7
  6
CONTINUOUS
 10
6.8702156903
 20
5.5078976745
 40
0.0222222222
100
AcDbArc
 50
90.0
 51
157.5
  0
ARC
  5
28B
100
AcDbEntity
  8
0
100
AcDbCircle
 62
7
  6
CONTINUOUS
 10
6.590518862
 20
5.5078976745
 40
0.0222222222
100
AcDbArc
 50
22.5
 51
90.0
  0
ARC
  5
28C
100
AcDbEntity
  8
0
100
AcDbCircle
 62
7
  6
CONTINUOUS
 10
7.2702156903
 20
5.5078976745
 40
0.0222222222
100
AcDbArc
 50
90.0
 51
157.5
  0
ARC
  5
28D
100
AcDbEntity
  8
0
100
AcDbCircle
 62
7
  6
CONTINUOUS
 10
6.990518862
 20
5.5078976745
 40
0.0222222222
100
AcDbArc
 50
22.5
 51
90.0
  0
SPLINE
  5
28E
100
AcDbEntity
  8
0
100
AcDbSpline
 62
7
  6
CONTINUOUS
 70
0
 71
3
 72
13
 73
9
 74
0
 42
0.0000001
 43
0.0000001
 44
0.0000000001
 40
0.0
 40
0.0
 40
0.0
 40
0.0
 40
0.107943569
 40
0.2179987353
 40
0.331934398
 40
0.4512934468
 40
0.7101402521
 40
1.0
 40
1.0
 40
1.0
 40
1.0
 10
14.3135104236
 20
11.3347780102
 30
0.0
 10
14.3136331965
 20
11.3351744908
 30
0.0
 10
14.3139503056
 20
11.3359555234
 30
0.0
 10
14.3146239457
 20
11.3370460589
 30
0.0
 10
14.315491801
 20
11.3380479815
 30
0.0
 10
14.3169295029
 20
11.3392872042
 30
0.0
 10
14.3191942502
 20
11.3405540218
 30
0.0
 10
14.3212203361
 20
11.3411871624
 30
0.0
 10
14.3223070659
 20
11.3414345881
 30
0.0
  0
SPLINE
  5
28F
100
AcDbEntity
  8
0
100
AcDbSpline
 62
7
  6
CONTINUOUS
 70
0
 71
3
 72
9
 73
5
 74
0
 42
0.0000001
 43
0.0000001
 44
0.0000000001
 40
0.0
 40
0.0
 40
0.0
 40
0.0
 40
0.4849823828
 40
1.0
 40
1.0
 40
1.0
 40
1.0
 10
14.3223070659
 20
11.3414345881
 30
0.0
 10
14.3232048474
 20
11.3416389942
 30
0.0
 10
14.3250848696
 20
11.3419382619
 30
0.0
 10
14.3269848034
 20
11.3420307281
 30
0.0
 10
14.3279625834
 20
11.3420307281
 30
0.0
  0
SPLINE
  5
290
100
AcDbEntity
  8
0
100
AcDbSpline
 62
7
  6
CONTINUOUS
 70
0
 71
3
 72
13
 73
9
 74
0
 42
0.0000001
 43
0.0000001
 44
0.0000000001
 40
0.0
 40
0.0
 40
0.0
 40
0.0
 40
0.107943569
 40
0.2179987353
 40
0.331934398
 40
0.4512934468
 40
0.7101402521
 40
1.0
 40
1.0
 40
1.0
 40
1.0
 10
14.6819348212
 20
11.3347780102
 30
0.0
 10
14.6820575941
 20
11.3351744908
 30
0.0
 10
14.6823747032
 20
11.3359555234
 30
0.0
 10
14.6830483433
 20
11.3370460589
 30
0.0
 10
14.6839161986
 20
11.3380479815
 30
0.0
 10
14.6853539005
 20
11.3392872042
 30
0.0
 10
14.6876186478
 20
11.3405540218
 30
0.0
 10
14.6896447337
 20
11.3411871624
 30
0.0
 10
14.6907314635
 20
11.3414345881
 30
0.0
  0
SPLINE
  5
291
100
AcDbEntity
  8
0
100
AcDbSpline
 62
7
  6
CONTINUOUS
 70
0
 71
3
 72
9
 73
5
 74
0
 42
0.0000001
 43
0.0000001
 44
0.0000000001
 40
0.0
 40
0.0
 40
0.0
 40
0.0
 40
0.4849823828
 40
1.0
 40
1.0
 40
1.0
 40
1.0
 10
14.6907314635
 20
11.3414345881
 30
0.0
 10
14.691629245
 20
11.3416389942
 30
0.0
 10
14.6935092672
 20
11.3419382619
 30
0.0
 10
14.695409201
 20
11.3420307281
 30
0.0
 10
14.696386981
 20
11.3420307281
 30
0.0
  0
SPLINE
  5
292
100
AcDbEntity
  8
0
100
AcDbSpline
 62
7
  6
CONTINUOUS
 70
0
 71
3
 72
13
 73
9
 74
0
 42
0.0000001
 43
0.0000001
 44
0.0000000001
 40
0.0
 40
0.0
 40
0.0
 40
0.0
 40
0.107943569
 40
0.2179987353
 40
0.331934398
 40
0.4512934468
 40
0.7101402521
 40
1.0
 40
1.0
 40
1.0
 40
1.0
 10
15.0503592188
 20
11.3347780102
 30
0.0
 10
15.0504819917
 20
11.3351744908
 30
0.0
 10
15.0507991008
 20
11.3359555234
 30
0.0
 10
15.0514727409
 20
11.3370460589
 30
0.0
 10
15.0523405962
 20
11.3380479815
 30
0.0
 10
15.0537782981
 20
11.3392872042
 30
0.0
 10
15.0560430454
 20
11.3405540218
 30
0.0
 10
15.0580691313
 20
11.3411871624
 30
0.0
 10
15.0591558611
 20
11.3414345881
 30
0.0
  0
SPLINE
  5
293
100
AcDbEntity
  8
0
100
AcDbSpline
 62
7
  6
CONTINUOUS
 70
0
 71
3
 72
9
 73
5
 74
0
 42
0.0000001
 43
0.0000001
 44
0.0000000001
 40
0.0
 40
0.0
 40
0.0
 40
0.0
 40
0.4849823828
 40
1.0
 40
1.0
 40
1.0
 40
1.0
 10
15.0591558611
 20
11.3414345881
 30
0.0
 10
15.0600536426
 20
11.3416389942
 30
0.0
 10
15.0619336648
 20
11.3419382619
 30
0.0
 10
15.0638335986
 20
11.3420307281
 30
0.0
 10
15.0648113786
 20
11.3420307281
 30
0.0
  0
SPLINE
  5
294
100
AcDbEntity
  8
0
100
AcDbSpline
 62
7
  6
CONTINUOUS
 70
0
 71
3
 72
13
 73
9
 74
0
 42
0.0000001
 43
0.0000001
 44
0.0000000001
 40
0.0
 40
0.0
 40
0.0
 40
0.0
 40
0.107943569
 40
0.2179987353
 40
0.331934398
 40
0.4512934468
 40
0.7101402521
 40
1.0
 40
1.0
 40
1.0
 40
1.0
 10
15.4187836164
 20
11.3347780102
 30
0.0
 10
15.4189063893
 20
11.3351744908
 30
0.0
 10
15.4192234984
 20
11.3359555234
 30
0.0
 10
15.4198971385
 20
11.3370460589
 30
0.0
 10
15.4207649938
 20
11.3380479815
 30
0.0
 10
15.4222026957
 20
11.3392872042
 30
0.0
 10
15.424467443
 20
11.3405540218
 30
0.0
 10
15.4264935289
 20
11.3411871624
 30
0.0
 10
15.4275802587
 20
11.3414345881
 30
0.0
  0
SPLINE
  5
295
100
AcDbEntity
  8
0
100
AcDbSpline
 62
7
  6
CONTINUOUS
 70
0
 71
3
 72
9
 73
5
 74
0
 42
0.0000001
 43
0.0000001
 44
0.0000000001
 40
0.0
 40
0.0
 40
0.0
 40
0.0
 40
0.4849823828
 40
1.0
 40
1.0
 40
1.0
 40
1.0
 10
15.4275802587
 20
11.3414345881
 30
0.0
 10
15.4284780402
 20
11.3416389942
 30
0.0
 10
15.4303580624
 20
11.3419382619
 30
0.0
 10
15.4322579962
 20
11.3420307281
 30
0.0
 10
15.4332357762
 20
11.3420307281
 30
0.0
  0
SPLINE
  5
296
100
AcDbEntity
  8
0
100
AcDbSpline
 62
7
  6
CONTINUOUS
 70
0
 71
3
 72
13
 73
9
 74
0
 42
0.0000001
 43
0.0000001
 44
0.0000000001
 40
0.0
 40
0.0
 40
0.0
 40
0.0
 40
0.107943569
 40
0.2179987353
 40
0.331934398
 40
0.4512934468
 40
0.7101402521
 40
1.0
 40
1.0
 40
1.0
 40
1.0
 10
15.787208014
 20
11.3347780102
 30
0.0
 10
15.7873307869
 20
11.3351744908
 30
0.0
 10
15.787647896
 20
11.3359555234
 30
0.0
 10
15.7883215361
 20
11.3370460589
 30
0.0
 10
15.7891893914
 20
11.3380479815
 30
0.0
 10
15.7906270933
 20
11.3392872042
 30
0.0
 10
15.7928918406
 20
11.3405540218
 30
0.0
 10
15.7949179265
 20
11.3411871624
 30
0.0
 10
15.7960046563
 20
11.3414345881
 30
0.0
  0
SPLINE
  5
297
100
AcDbEntity
  8
0
100
AcDbSpline
 62
7
  6
CONTINUOUS
 70
0
 71
3
 72
9
 73
5
 74
0
 42
0.0000001
 43
0.0000001
 44
0.0000000001
 40
0.0
 40
0.0
 40
0.0
 40
0.0
 40
0.4849823828
 40
1.0
 40
1.0
 40
1.0
 40
1.0
 10
15.7960046563
 20
11.3414345881
 30
0.0
 10
15.7969024378
 20
11.3416389942
 30
0.0
 10
15.79878246
 20
11.3419382619
 30
0.0
 10
15.8006823938
 20
11.3420307281
 30
0.0
 10
15.8016601738
 20
11.3420307281
 30
0.0
  0
SPLINE
  5
298
100
AcDbEntity
  8
0
100
AcDbSpline
 62
7
  6
CONTINUOUS
 70
0
 71
3
 72
13
 73
9
 74
0
 42
0.0000001
 43
0.0000001
 44
0.0000000001
 40
0.0
 40
0.0
 40
0.0
 40
0.0
 40
0.107943569
 40
0.2179987353
 40
0.331934398
 40
0.4512934468
 40
0.7101402521
 40
1.0
 40
1.0
 40
1.0
 40
1.0
 10
16.1556324116
 20
11.3347780102
 30
0.0
 10
16.1557551845
 20
11.3351744908
 30
0.0
 10
16.1560722936
 20
11.3359555234
 30
0.0
 10
16.1567459337
 20
11.3370460589
 30
0.0
 10
16.157613789
 20
11.3380479815
 30
0.0
 10
16.1590514909
 20
11.3392872042
 30
0.0
 10
16.1613162382
 20
11.3405540218
 30
0.0
 10
16.1633423241
 20
11.3411871624
 30
0.0
 10
16.1644290539
 20
11.3414345881
 30
0.0
  0
SPLINE
  5
299
100
AcDbEntity
  8
0
100
AcDbSpline
 62
7
  6
CONTINUOUS
 70
0
 71
3
 72
9
 73
5
 74
0
 42
0.0000001
 43
0.0000001
 44
0.0000000001
 40
0.0
 40
0.0
 40
0.0
 40
0.0
 40
0.4849823828
 40
1.0
 40
1.0
 40
1.0
 40
1.0
 10
16.1644290539
 20
11.3414345881
 30
0.0
 10
16.1653268354
 20
11.3416389942
 30
0.0
 10
16.1672068576
 20
11.3419382619
 30
0.0
 10
16.1691067914
 20
11.3420307281
 30
0.0
 10
16.1700845714
 20
11.3420307281
 30
0.0
  0
SPLINE
  5
29A
100
AcDbEntity
  8
0
100
AcDbSpline
 62
7
  6
CONTINUOUS
 70
0
 71
3
 72
15
 73
11
 74
0
 42
0.0000001
 43
0.0000001
 44
0.0000000001
 40
0.0
 40
0.0
 40
0.0
 40
0.0
 40
0.1556211613
 40
0.3031470017
 40
0.4410977639
 40
0.5690294613
 40
0.6872671532
 40
0.796983705
 40
0.9002648824
 40
1.0
 40
1.0
 40
1.0
 40
1.0
 10
14.2861244367
 20
11.2798697313
 30
0.0
 10
14.2874653372
 20
11.2798697313
 30
0.0
 10
14.2900792991
 20
11.2799863329
 30
0.0
 10
14.2938478203
 20
11.2805295419
 30
0.0
 10
14.2973019159
 20
11.2814350981
 30
0.0
 10
14.3003780514
 20
11.2826854527
 30
0.0
 10
14.3030231455
 20
11.2842636491
 30
0.0
 10
14.3051901835
 20
11.2861481969
 30
0.0
 10
14.3068301965
 20
11.2883122639
 30
0.0
 10
14.3075484884
 20
11.2899279
 30
0.0
 10
14.307802683
 20
11.2907488066
 30
0.0
  0
SPLINE
  5
29B
100
AcDbEntity
  8
0
100
AcDbSpline
 62
7
  6
CONTINUOUS
 70
0
 71
3
 72
15
 73
11
 74
0
 42
0.0000001
 43
0.0000001
 44
0.0000000001
 40
0.0
 40
0.0
 40
0.0
 40
0.0
 40
0.1148029741
 40
0.2360622061
 40
0.3619927611
 40
0.4908819585
 40
0.6209770037
 40
0.750473849
 40
0.8775138114
 40
1.0
 40
1.0
 40
1.0
 40
1.0
 10
14.1385493714
 20
11.2926607357
 30
0.0
 10
14.1396182871
 20
11.2916929387
 30
0.0
 10
14.1419359465
 20
11.2898327392
 30
0.0
 10
14.1457546706
 20
11.2873529912
 30
0.0
 10
14.1499447175
 20
11.2851580579
 30
0.0
 10
14.154410949
 20
11.283291904
 30
0.0
 10
14.1590613373
 20
11.281795917
 30
0.0
 10
14.1637980808
 20
11.2806988027
 30
0.0
 10
14.1685172237
 20
11.2800296547
 30
0.0
 10
14.1716528148
 20
11.2798697313
 30
0.0
 10
14.1731912647
 20
11.2798697313
 30
0.0
  0
SPLINE
  5
29C
100
AcDbEntity
  8
0
100
AcDbSpline
 62
7
  6
CONTINUOUS
 70
0
 71
3
 72
15
 73
11
 74
0
 42
0.0000001
 43
0.0000001
 44
0.0000000001
 40
0.0
 40
0.0
 40
0.0
 40
0.0
 40
0.1556211613
 40
0.3031470017
 40
0.4410977639
 40
0.5690294613
 40
0.6872671532
 40
0.796983705
 40
0.9002648824
 40
1.0
 40
1.0
 40
1.0
 40
1.0
 10
16.1282464247
 20
11.2798697313
 30
0.0
 10
16.1295873252
 20
11.2798697313
 30
0.0
 10
16.1322012871
 20
11.2799863329
 30
0.0
 10
16.1359698083
 20
11.2805295419
 30
0.0
 10
16.1394239039
 20
11.2814350981
 30
0.0
 10
16.1425000394
 20
11.2826854527
 30
0.0
 10
16.1451451335
 20
11.2842636491
 30
0.0
 10
16.1473121715
 20
11.2861481969
 30
0.0
 10
16.1489521845
 20
11.2883122639
 30
0.0
 10
16.1496704764
 20
11.2899279
 30
0.0
 10
16.149924671
 20
11.2907488066
 30
0.0
  0
SPLINE
  5
29D
100
AcDbEntity
  8
0
100
AcDbSpline
 62
7
  6
CONTINUOUS
 70
0
 71
3
 72
15
 73
11
 74
0
 42
0.0000001
 43
0.0000001
 44
0.0000000001
 40
0.0
 40
0.0
 40
0.0
 40
0.0
 40
0.1148029741
 40
0.2360622061
 40
0.3619927611
 40
0.4908819585
 40
0.6209770037
 40
0.750473849
 40
0.8775138114
 40
1.0
 40
1.0
 40
1.0
 40
1.0
 10
15.9806713594
 20
11.2926607357
 30
0.0
 10
15.9817402751
 20
11.2916929387
 30
0.0
 10
15.9840579345
 20
11.2898327392
 30
0.0
 10
15.9878766586
 20
11.2873529912
 30
0.0
 10
15.9920667055
 20
11.2851580579
 30
0.0
 10
15.996532937
 20
11.283291904
 30
0.0
 10
16.0011833253
 20
11.281795917
 30
0.0
 10
16.0059200688
 20
11.2806988027
 30
0.0
 10
16.0106392117
 20
11.2800296547
 30
0.0
 10
16.0137748028
 20
11.2798697313
 30
0.0
 10
16.0153132527
 20
11.2798697313
 30
0.0
  0
SPLINE
  5
29E
100
AcDbEntity
  8
0
100
AcDbSpline
 62
7
  6
CONTINUOUS
 70
0
 71
3
 72
15
 73
11
 74
0
 42
0.0000001
 43
0.0000001
 44
0.0000000001
 40
0.0
 40
0.0
 40
0.0
 40
0.0
 40
0.1556211613
 40
0.3031470017
 40
0.4410977639
 40
0.5690294613
 40
0.6872671532
 40
0.796983705
 40
0.9002648824
 40
1.0
 40
1.0
 40
1.0
 40
1.0
 10
15.7598220271
 20
11.2798697313
 30
0.0
 10
15.7611629276
 20
11.2798697313
 30
0.0
 10
15.7637768895
 20
11.2799863329
 30
0.0
 10
15.7675454107
 20
11.2805295419
 30
0.0
 10
15.7709995063
 20
11.2814350981
 30
0.0
 10
15.7740756418
 20
11.2826854527
 30
0.0
 10
15.7767207359
 20
11.2842636491
 30
0.0
 10
15.7788877739
 20
11.2861481969
 30
0.0
 10
15.7805277869
 20
11.2883122639
 30
0.0
 10
15.7812460788
 20
11.2899279
 30
0.0
 10
15.7815002734
 20
11.2907488066
 30
0.0
  0
SPLINE
  5
29F
100
AcDbEntity
  8
0
100
AcDbSpline
 62
7
  6
CONTINUOUS
 70
0
 71
3
 72
15
 73
11
 74
0
 42
0.0000001
 43
0.0000001
 44
0.0000000001
 40
0.0
 40
0.0
 40
0.0
 40
0.0
 40
0.1148029741
 40
0.2360622061
 40
0.3619927611
 40
0.4908819585
 40
0.6209770037
 40
0.750473849
 40
0.8775138114
 40
1.0
 40
1.0
 40
1.0
 40
1.0
 10
15.6122469618
 20
11.2926607357
 30
0.0
 10
15.6133158775
 20
11.2916929387
 30
0.0
 10
15.6156335369
 20
11.2898327392
 30
0.0
 10
15.619452261
 20
11.2873529912
 30
0.0
 10
15.6236423079
 20
11.2851580579
 30
0.0
 10
15.6281085394
 20
11.283291904
 30
0.0
 10
15.6327589277
 20
11.281795917
 30
0.0
 10
15.6374956712
 20
11.2806988027
 30
0.0
 10
15.6422148141
 20
11.2800296547
 30
0.0
 10
15.6453504052
 20
11.2798697313
 30
0.0
 10
15.6468888551
 20
11.2798697313
 30
0.0
  0
SPLINE
  5
2A0
100
AcDbEntity
  8
0
100
AcDbSpline
 62
7
  6
CONTINUOUS
 70
0
 71
3
 72
15
 73
11
 74
0
 42
0.0000001
 43
0.0000001
 44
0.0000000001
 40
0.0
 40
0.0
 40
0.0
 40
0.0
 40
0.1556211613
 40
0.3031470017
 40
0.4410977639
 40
0.5690294613
 40
0.6872671532
 40
0.796983705
 40
0.9002648824
 40
1.0
 40
1.0
 40
1.0
 40
1.0
 10
15.3913976295
 20
11.2798697313
 30
0.0
 10
15.39273853
 20
11.2798697313
 30
0.0
 10
15.3953524919
 20
11.2799863329
 30
0.0
 10
15.3991210131
 20
11.2805295419
 30
0.0
 10
15.4025751087
 20
11.2814350981
 30
0.0
 10
15.4056512442
 20
11.2826854527
 30
0.0
 10
15.4082963383
 20
11.2842636491
 30
0.0
 10
15.4104633763
 20
11.2861481969
 30
0.0
 10
15.4121033893
 20
11.2883122639
 30
0.0
 10
15.4128216812
 20
11.2899279
 30
0.0
 10
15.4130758758
 20
11.2907488066
 30
0.0
  0
SPLINE
  5
2A1
100
AcDbEntity
  8
0
100
AcDbSpline
 62
7
  6
CONTINUOUS
 70
0
 71
3
 72
15
 73
11
 74
0
 42
0.0000001
 43
0.0000001
 44
0.0000000001
 40
0.0
 40
0.0
 40
0.0
 40
0.0
 40
0.1148029741
 40
0.2360622061
 40
0.3619927611
 40
0.4908819585
 40
0.6209770037
 40
0.750473849
 40
0.8775138114
 40
1.0
 40
1.0
 40
1.0
 40
1.0
 10
15.2438225642
 20
11.2926607357
 30
0.0
 10
15.2448914799
 20
11.2916929387
 30
0.0
 10
15.2472091393
 20
11.2898327392
 30
0.0
 10
15.2510278634
 20
11.2873529912
 30
0.0
 10
15.2552179103
 20
11.2851580579
 30
0.0
 10
15.2596841418
 20
11.283291904
 30
0.0
 10
15.2643345301
 20
11.281795917
 30
0.0
 10
15.2690712736
 20
11.2806988027
 30
0.0
 10
15.2737904165
 20
11.2800296547
 30
0.0
 10
15.2769260076
 20
11.2798697313
 30
0.0
 10
15.2784644575
 20
11.2798697313
 30
0.0
  0
SPLINE
  5
2A2
100
AcDbEntity
  8
0
100
AcDbSpline
 62
7
  6
CONTINUOUS
 70
0
 71
3
 72
15
 73
11
 74
0
 42
0.0000001
 43
0.0000001
 44
0.0000000001
 40
0.0
 40
0.0
 40
0.0
 40
0.0
 40
0.1556211613
 40
0.3031470017
 40
0.4410977639
 40
0.5690294613
 40
0.6872671532
 40
0.796983705
 40
0.9002648824
 40
1.0
 40
1.0
 40
1.0
 40
1.0
 10
15.0229732319
 20
11.2798697313
 30
0.0
 10
15.0243141324
 20
11.2798697313
 30
0.0
 10
15.0269280943
 20
11.2799863329
 30
0.0
 10
15.0306966155
 20
11.2805295419
 30
0.0
 10
15.0341507111
 20
11.2814350981
 30
0.0
 10
15.0372268466
 20
11.2826854527
 30
0.0
 10
15.0398719407
 20
11.2842636491
 30
0.0
 10
15.0420389787
 20
11.2861481969
 30
0.0
 10
15.0436789917
 20
11.2883122639
 30
0.0
 10
15.0443972836
 20
11.2899279
 30
0.0
 10
15.0446514782
 20
11.2907488066
 30
0.0
  0
SPLINE
  5
2A3
100
AcDbEntity
  8
0
100
AcDbSpline
 62
7
  6
CONTINUOUS
 70
0
 71
3
 72
15
 73
11
 74
0
 42
0.0000001
 43
0.0000001
 44
0.0000000001
 40
0.0
 40
0.0
 40
0.0
 40
0.0
 40
0.1148029741
 40
0.2360622061
 40
0.3619927611
 40
0.4908819585
 40
0.6209770037
 40
0.750473849
 40
0.8775138114
 40
1.0
 40
1.0
 40
1.0
 40
1.0
 10
14.8753981666
 20
11.2926607357
 30
0.0
 10
14.8764670823
 20
11.2916929387
 30
0.0
 10
14.8787847417
 20
11.2898327392
 30
0.0
 10
14.8826034658
 20
11.2873529912
 30
0.0
 10
14.8867935127
 20
11.2851580579
 30
0.0
 10
14.8912597442
 20
11.283291904
 30
0.0
 10
14.8959101325
 20
11.281795917
 30
0.0
 10
14.900646876
 20
11.2806988027
 30
0.0
 10
14.9053660189
 20
11.2800296547
 30
0.0
 10
14.90850161
 20
11.2798697313
 30
0.0
 10
14.9100400599
 20
11.2798697313
 30
0.0
  0
SPLINE
  5
2A4
100
AcDbEntity
  8
0
100
AcDbSpline
 62
7
  6
CONTINUOUS
 70
0
 71
3
 72
15
 73
11
 74
0
 42
0.0000001
 43
0.0000001
 44
0.0000000001
 40
0.0
 40
0.0
 40
0.0
 40
0.0
 40
0.1556211613
 40
0.3031470017
 40
0.4410977639
 40
0.5690294613
 40
0.6872671532
 40
0.796983705
 40
0.9002648824
 40
1.0
 40
1.0
 40
1.0
 40
1.0
 10
14.6545488343
 20
11.2798697313
 30
0.0
 10
14.6558897348
 20
11.2798697313
 30
0.0
 10
14.6585036967
 20
11.2799863329
 30
0.0
 10
14.6622722179
 20
11.2805295419
 30
0.0
 10
14.6657263135
 20
11.2814350981
 30
0.0
 10
14.668802449
 20
11.2826854527
 30
0.0
 10
14.6714475431
 20
11.2842636491
 30
0.0
 10
14.6736145811
 20
11.2861481969
 30
0.0
 10
14.6752545941
 20
11.2883122639
 30
0.0
 10
14.675972886
 20
11.2899279
 30
0.0
 10
14.6762270806
 20
11.2907488066
 30
0.0
  0
SPLINE
  5
2A5
100
AcDbEntity
  8
0
100
AcDbSpline
 62
7
  6
CONTINUOUS
 70
0
 71
3
 72
15
 73
11
 74
0
 42
0.0000001
 43
0.0000001
 44
0.0000000001
 40
0.0
 40
0.0
 40
0.0
 40
0.0
 40
0.1148029741
 40
0.2360622061
 40
0.3619927611
 40
0.4908819585
 40
0.6209770037
 40
0.750473849
 40
0.8775138114
 40
1.0
 40
1.0
 40
1.0
 40
1.0
 10
14.506973769
 20
11.2926607357
 30
0.0
 10
14.5080426847
 20
11.2916929387
 30
0.0
 10
14.5103603441
 20
11.2898327392
 30
0.0
 10
14.5141790682
 20
11.2873529912
 30
0.0
 10
14.5183691151
 20
11.2851580579
 30
0.0
 10
14.5228353466
 20
11.283291904
 30
0.0
 10
14.5274857349
 20
11.281795917
 30
0.0
 10
14.5322224784
 20
11.2806988027
 30
0.0
 10
14.5369416213
 20
11.2800296547
 30
0.0
 10
14.5400772124
 20
11.2798697313
 30
0.0
 10
14.5416156623
 20
11.2798697313
 30
0.0
  0
SPLINE
  5
2A6
100
AcDbEntity
  8
0
100
AcDbSpline
 62
7
  6
CONTINUOUS
 70
0
 71
3
 72
15
 73
11
 74
0
 42
0.0000001
 43
0.0000001
 44
0.0000000001
 40
0.0
 40
0.0
 40
0.0
 40
0.0
 40
0.1224872411
 40
0.249529245
 40
0.3790267723
 40
0.5091195657
 40
0.6380037797
 40
0.7639318155
 40
0.8851943354
 40
1.0
 40
1.0
 40
1.0
 40
1.0
 10
14.0703447447
 20
11.3420307281
 30
0.0
 10
14.0713703867
 20
11.3420307281
 30
0.0
 10
14.0734608061
 20
11.341924103
 30
0.0
 10
14.0766069327
 20
11.3414780027
 30
0.0
 10
14.0797647639
 20
11.3407465828
 30
0.0
 10
14.0828649662
 20
11.339749266
 30
0.0
 10
14.0858423923
 20
11.3385052282
 30
0.0
 10
14.0886357167
 20
11.3370419361
 30
0.0
 10
14.0911815489
 20
11.3353887464
 30
0.0
 10
14.0927267131
 20
11.334148605
 30
0.0
 10
14.0934393402
 20
11.3335033919
 30
0.0
  0
SPLINE
  5
2A7
100
AcDbEntity
  8
0
100
AcDbSpline
 62
7
  6
CONTINUOUS
 70
0
 71
3
 72
15
 73
11
 74
0
 42
0.0000001
 43
0.0000001
 44
0.0000000001
 40
0.0
 40
0.0
 40
0.0
 40
0.0
 40
0.1224872411
 40
0.249529245
 40
0.3790267723
 40
0.5091195657
 40
0.6380037797
 40
0.7639318155
 40
0.8851943354
 40
1.0
 40
1.0
 40
1.0
 40
1.0
 10
14.4387691423
 20
11.3420307281
 30
0.0
 10
14.4397947843
 20
11.3420307281
 30
0.0
 10
14.4418852037
 20
11.341924103
 30
0.0
 10
14.4450313304
 20
11.3414780027
 30
0.0
 10
14.4481891615
 20
11.3407465828
 30
0.0
 10
14.4512893638
 20
11.339749266
 30
0.0
 10
14.4542667899
 20
11.3385052282
 30
0.0
 10
14.4570601143
 20
11.3370419361
 30
0.0
 10
14.4596059465
 20
11.3353887464
 30
0.0
 10
14.4611511107
 20
11.334148605
 30
0.0
 10
14.4618637378
 20
11.3335033919
 30
0.0
  0
SPLINE
  5
2A8
100
AcDbEntity
  8
0
100
AcDbSpline
 62
7
  6
CONTINUOUS
 70
0
 71
3
 72
15
 73
11
 74
0
 42
0.0000001
 43
0.0000001
 44
0.0000000001
 40
0.0
 40
0.0
 40
0.0
 40
0.0
 40
0.1224872411
 40
0.249529245
 40
0.3790267723
 40
0.5091195657
 40
0.6380037797
 40
0.7639318155
 40
0.8851943354
 40
1.0
 40
1.0
 40
1.0
 40
1.0
 10
14.8071935399
 20
11.3420307281
 30
0.0
 10
14.8082191819
 20
11.3420307281
 30
0.0
 10
14.8103096013
 20
11.341924103
 30
0.0
 10
14.813455728
 20
11.3414780027
 30
0.0
 10
14.8166135591
 20
11.3407465828
 30
0.0
 10
14.8197137614
 20
11.339749266
 30
0.0
 10
14.8226911875
 20
11.3385052282
 30
0.0
 10
14.8254845119
 20
11.3370419361
 30
0.0
 10
14.8280303441
 20
11.3353887464
 30
0.0
 10
14.8295755083
 20
11.334148605
 30
0.0
 10
14.8302881354
 20
11.3335033919
 30
0.0
  0
SPLINE
  5
2A9
100
AcDbEntity
  8
0
100
AcDbSpline
 62
7
  6
CONTINUOUS
 70
0
 71
3
 72
15
 73
11
 74
0
 42
0.0000001
 43
0.0000001
 44
0.0000000001
 40
0.0
 40
0.0
 40
0.0
 40
0.0
 40
0.1224872411
 40
0.249529245
 40
0.3790267723
 40
0.5091195657
 40
0.6380037797
 40
0.7639318155
 40
0.8851943354
 40
1.0
 40
1.0
 40
1.0
 40
1.0
 10
15.1756179375
 20
11.3420307281
 30
0.0
 10
15.1766435795
 20
11.3420307281
 30
0.0
 10
15.1787339989
 20
11.341924103
 30
0.0
 10
15.1818801256
 20
11.3414780027
 30
0.0
 10
15.1850379567
 20
11.3407465828
 30
0.0
 10
15.188138159
 20
11.339749266
 30
0.0
 10
15.1911155851
 20
11.3385052282
 30
0.0
 10
15.1939089095
 20
11.3370419361
 30
0.0
 10
15.1964547417
 20
11.3353887464
 30
0.0
 10
15.1979999059
 20
11.334148605
 30
0.0
 10
15.198712533
 20
11.3335033919
 30
0.0
  0
SPLINE
  5
2AA
100
AcDbEntity
  8
0
100
AcDbSpline
 62
7
  6
CONTINUOUS
 70
0
 71
3
 72
15
 73
11
 74
0
 42
0.0000001
 43
0.0000001
 44
0.0000000001
 40
0.0
 40
0.0
 40
0.0
 40
0.0
 40
0.1224872411
 40
0.249529245
 40
0.3790267723
 40
0.5091195657
 40
0.6380037797
 40
0.7639318155
 40
0.8851943354
 40
1.0
 40
1.0
 40
1.0
 40
1.0
 10
15.5440423351
 20
11.3420307281
 30
0.0
 10
15.5450679771
 20
11.3420307281
 30
0.0
 10
15.5471583965
 20
11.341924103
 30
0.0
 10
15.5503045232
 20
11.3414780027
 30
0.0
 10
15.5534623543
 20
11.3407465828
 30
0.0
 10
15.5565625566
 20
11.339749266
 30
0.0
 10
15.5595399827
 20
11.3385052282
 30
0.0
 10
15.5623333071
 20
11.3370419361
 30
0.0
 10
15.5648791393
 20
11.3353887464
 30
0.0
 10
15.5664243035
 20
11.334148605
 30
0.0
 10
15.5671369306
 20
11.3335033919
 30
0.0
  0
SPLINE
  5
2AB
100
AcDbEntity
  8
0
100
AcDbSpline
 62
7
  6
CONTINUOUS
 70
0
 71
3
 72
15
 73
11
 74
0
 42
0.0000001
 43
0.0000001
 44
0.0000000001
 40
0.0
 40
0.0
 40
0.0
 40
0.0
 40
0.1224872411
 40
0.249529245
 40
0.3790267723
 40
0.5091195657
 40
0.6380037797
 40
0.7639318155
 40
0.8851943354
 40
1.0
 40
1.0
 40
1.0
 40
1.0
 10
15.9124667327
 20
11.3420307281
 30
0.0
 10
15.9134923747
 20
11.3420307281
 30
0.0
 10
15.9155827941
 20
11.341924103
 30
0.0
 10
15.9187289208
 20
11.3414780027
 30
0.0
 10
15.9218867519
 20
11.3407465828
 30
0.0
 10
15.9249869542
 20
11.339749266
 30
0.0
 10
15.9279643803
 20
11.3385052282
 30
0.0
 10
15.9307577047
 20
11.3370419361
 30
0.0
 10
15.9333035369
 20
11.3353887464
 30
0.0
 10
15.9348487011
 20
11.334148605
 30
0.0
 10
15.9355613282
 20
11.3335033919
 30
0.0
  0
ENDSEC
  0
SECTION
  2
OBJECTS
  0
DICTIONARY
  5
C
100
AcDbDictionary
280
0
281
1
  3
ACAD_GROUP
350
D
  3
ACAD_MLINESTYLE
350
17
  3
ACAD_LAYOUT
350
1A
  3
ACAD_PLOTSETTINGS
350
19
  3
ACAD_PLOTSTYLENAME
350
E
  0
DICTIONARY
  5
D
102
{ACAD_REACTORS
330
C
102
}
100
AcDbDictionary
280
0
281
1
  0
ACDBDICTIONARYWDFLT
  5
E
102
{ACAD_REACTORS
330
C
102
}
100
AcDbDictionary
281
1
  3
Normal
350
F
100
AcDbDictionaryWithDefault
340
F
  0
DICTIONARY
  5
17
102
{ACAD_REACTORS
330
C
102
}
100
AcDbDictionary
280
0
281
1
  3
Standard
350
18
  0
DICTIONARY
  5
19
102
{ACAD_REACTORS
330
C
102
}
100
AcDbDictionary
281
1
  0
DICTIONARY
  5
1A
102
{ACAD_REACTORS
330
C
102
}
100
AcDbDictionary
281
1
  3
Model
350
2AC
  3
Layout1
350
2AD
  0
ACDBPLACEHOLDER
  5
F
102
{ACAD_REACTORS
330
E
102
}
  0
MLINESTYLE
  5
18
102
{ACAD_REACTORS
330
17
102
}
100
AcDbMlineStyle
  2
STANDARD
 70
0
  3

 62
256
 51
90.0
 52
90.0
 71
2
 49
0.5
 62
256
  6
BYLAYER
 49
-0.5
 62
256
  6
BYLAYER
  0
LAYOUT
  5
2AC
102
{ACAD_REACTORS
330
1A
102
}
100
AcDbPlotSettings
  1

  2
none_device
  4
ANSI_C_(22.00_x_17.00_Inches)
  6

 40
0.0
 41
0.0
 42
0.0
 43
0.0
 44
558.8
 45
431.8
 46
0.0
 47
0.0
 48
0.0
 49
0.0
140
0.0
141
0.0
142
1.0
143
1.0
 70
1024
 72
0
 73
0
 74
0
  7

 75
0
147
1.0
148
0.0
149
0.0
100
AcDbLayout
  1
Model
 70
0
 71
0
 10
0.0
 20
0.0
 11
22.0
 21
17.0
 12
0.0
 22
0.0
 32
0.0
 14
0.0
 24
0.0
 34
0.0
 15
0.0
 25
0.0
 35
0.0
146
0.0
 13
0.0
 23
0.0
 33
0.0
 16
1.0
 26
0.0
 36
0.0
 17
0.0
 27
1.0
 37
0.0
 76
0
330
216
345
0
346
0
  0
LAYOUT
  5
2AD
102
{ACAD_REACTORS
330
1A
102
}
100
AcDbPlotSettings
  1

  2
none_device
  4
ANSI_C_(22.00_x_17.00_Inches)
  6

 40
0.0
 41
0.0
 42
0.0
 43
0.0
 44
558.8
 45
431.8
 46
0.0
 47
0.0
 48
0.0
 49
0.0
140
0.0
141
0.0
142
1.0
143
1.0
 70
0
 72
0
 73
0
 74
0
  7

 75
0
147
1.0
148
0.0
149
0.0
100
AcDbLayout
  1
Layout1
 70
0
 71
1
 10
0.0
 20
0.0
 11
22.0
 21
17.0
 12
0.0
 22
0.0
 32
0.0
 14
0.0
 24
0.0
 34
0.0
 15
0.0
 25
0.0
 35
0.0
146
0.0
 13
0.0
 23
0.0
 33
0.0
 16
1.0
 26
0.0
 36
0.0
 17
0.0
 27
1.0
 37
0.0
 76
0
330
217
345
0
346
0
  0
ENDSEC
  0
EOF