999
DXF file: _cgs_temp_output.dxf
999
Pro/ENGINEER 2016360 by Parametric Technology Corporation
  0
SECTION
  2
HEADER
  9
$ACADVER
  1
AC1021
  9
$DWGCODEPAGE
  3
ANSI_1252
  9
$EXTMAX
 10
22.0
 20
17.0
 30
0.0
  9
$EXTMIN
 10
0.0
 20
0.0
 30
0.0
  9
$LIMMIN
 10
0.0
 20
0.0
  9
$LIMMAX
 10
22.0
 20
17.0
  9
$VIEWCTR
 10
11.0
 20
8.5
  9
$VIEWSIZE
 40
17.0
  9
$CLAYER
  8
0
  9
$LTSCALE
 40
1.21
  9
$CELTYPE
  6
BYLAYER
  9
$DIMSCALE
 40
1.0
  9
$DIMASZ
 40
0.1875
  9
$DIMEXO
 40
0.0625
  9
$DIMDLI
 40
0.836
  9
$DIMEXE
 40
0.125
  9
$DIMCEN
 40
0.198
  9
$DIMLFAC
 40
1.0
  9
$DIMBLK
  1
_CLOSED
  9
$DIMALT
 70
0
  9
$DIMALTF
 40
25.4
  9
$DIMTXT
 40
0.15625
  9
$DIMTOL
 70
0
  9
$DIMLIM
 70
0
  9
$DIMTFAC
 40
1.0
  9
$DIMGAP
 40
0.09
  9
$DIMDSEP
 70
46
  9
$AUNITS
 70
0
  9
$PDMODE
 70
3
  9
$PDSIZE
 40
0.3125
  9
$HANDSEED
  5
2AE
  9
$TILEMODE
 70
1
  9
$MEASUREMENT
 70
0
  9
$INSUNITS
 70
1
  0
ENDSEC
  0
SECTION
  2
CLASSES
  0
CLASS
  1
ACDBDICTIONARYWDFLT
  2
AcDbDictionaryWithDefault
  3
AutoCAD 2000
 90
0
 91
1
280
0
281
0
  0
CLASS
  1
ACDBPLACEHOLDER
  2
AcDbPlaceHolder
  3
AutoCAD 2000
 90
0
 91
1
280
0
281
0
  0
CLASS
  1
LAYOUT
  2
AcDbLayout
  3
AutoCAD 2000
 90
0
 91
0
280
0
281
0
  0
ENDSEC
  0
SECTION
  2
TABLES
  0
TABLE
  2
VPORT
  5
8
100
AcDbSymbolTable
 70
2
  0
VPORT
  5
1F4
100
AcDbSymbolTableRecord
100
AcDbViewportTableRecord
  2
*ACTIVE
 70
0
 10
0.0
 20
0.0
 11
1.0
 21
1.0
 12
11.0
 22
8.5
 13
0.0
 23
0.0
 14
1.0
 24
1.0
 15
0.0
 25
0.0
 16
0.0
 26
0.0
 36
1.0
 17
0.0
 27
0.0
 37
0.0
 40
17.0
 41
1.2941176471
 42
50.0
 43
0.0
 44
0.0
 50
0.0
 51
0.0
 71
0
 72
100
 73
1
 74
1
 75
0
 76
0
 77
0
 78
0
  0
ENDTAB
  0
TABLE
  2
LTYPE
  5
5
100
AcDbSymbolTable
 70
6
  0
LTYPE
  5
14
100
AcDbSymbolTableRecord
100
AcDbLinetypeTableRecord
  2
BYBLOCK
 70
0
  3

 72
65
 73
0
 40
0.0
  0
LTYPE
  5
15
100
AcDbSymbolTableRecord
100
AcDbLinetypeTableRecord
  2
BYLAYER
 70
0
  3

 72
65
 73
0
 40
0.0
  0
LTYPE
  5
16
100
AcDbSymbolTableRecord
100
AcDbLinetypeTableRecord
  2
CONTINUOUS
 70
64
  3
Solid line
 72
65
 73
0
 40
0.0
  0
LTYPE
  5
1F5
100
AcDbSymbolTableRecord
100
AcDbLinetypeTableRecord
  2
CENTER
 70
64
  3
____ _ ____ _ ____ _ ____ _ ____ _ ____ _ ____
 72
65
 73
4
 40
0.6
 49
0.375
 74
0
 49
-0.075
 74
0
 49
0.075
 74
0
 49
-0.075
 74
0
  0
LTYPE
  5
1F6
100
AcDbSymbolTableRecord
100
AcDbLinetypeTableRecord
  2
HIDDEN
 70
64
  3
- - - - - - - - - - - - - - - - - - - -
 72
65
 73
2
 40
0.2
 49
0.1
 74
0
 49
-0.1
 74
0
  0
LTYPE
  5
1F7
100
AcDbSymbolTableRecord
100
AcDbLinetypeTableRecord
  2
PHANTOM
 70
64
  3
_____ _ _ _____ _ _ _____ _ _ _____
 72
65
 73
6
 40
0.8
 49
0.45
 74
0
 49
-0.05
 74
0
 49
0.1
 74
0
 49
-0.05
 74
0
 49
0.1
 74
0
 49
-0.05
 74
0
  0
LTYPE
  5
1F8
100
AcDbSymbolTableRecord
100
AcDbLinetypeTableRecord
  2
DOT
 70
64
  3
. . . . . . . . . . . . . . . . . . . .
 72
65
 73
2
 40
0.2
 49
0.1
 74
0
 49
-0.1
 74
0
  0
LTYPE
  5
1F9
100
AcDbSymbolTableRecord
100
AcDbLinetypeTableRecord
  2
DASHED
 70
64
  3
- - - - - - - - - - - - - - - - - - - -
 72
65
 73
2
 40
0.2
 49
0.1
 74
0
 49
-0.1
 74
0
  0
ENDTAB
  0
TABLE
  2
LAYER
  5
2
100
AcDbSymbolTable
 70
36
  0
LAYER
  5
10
100
AcDbSymbolTableRecord
100
AcDbLayerTableRecord
  2
0
 70
0
 62
7
  6
CONTINUOUS
370
-3
390
F
  0
LAYER
  5
1FA
100
AcDbSymbolTableRecord
100
AcDbLayerTableRecord
  2
DEFAULT_1
 70
0
 62
7
  6
CENTER
370
-3
390
F
  0
LAYER
  5
1FB
100
AcDbSymbolTableRecord
100
AcDbLayerTableRecord
  2
DEFAULT_2
 70
0
 62
8
  6
HIDDEN
370
-3
390
F
  0
LAYER
  5
1FC
100
AcDbSymbolTableRecord
100
AcDbLayerTableRecord
  2
DEFAULT_3
 70
0
 62
7
  6
PHANTOM
370
-3
390
F
  0
LAYER
  5
1FD
100
AcDbSymbolTableRecord
100
AcDbLayerTableRecord
  2
01_ALL_DTM_PLN
 70
0
 62
7
  6
CONTINUOUS
370
-3
390
F
  0
LAYER
  5
1FE
100
AcDbSymbolTableRecord
100
AcDbLayerTableRecord
  2
01__ASM_ALL_DTM_PLN
 70
0
 62
7
  6
CONTINUOUS
370
-3
390
F
  0
LAYER
  5
1FF
100
AcDbSymbolTableRecord
100
AcDbLayerTableRecord
  2
01__ASM_DEF_DTM_PLN
 70
0
 62
7
  6
CONTINUOUS
370
-3
390
F
  0
LAYER
  5
200
100
AcDbSymbolTableRecord
100
AcDbLayerTableRecord
  2
01___PRT_ALL_DTM_PLN
 70
0
 62
7
  6
CONTINUOUS
370
-3
390
F
  0
LAYER
  5
201
100
AcDbSymbolTableRecord
100
AcDbLayerTableRecord
  2
01___PRT_DEF_DTM_PLN
 70
0
 62
7
  6
CONTINUOUS
370
-3
390
F
  0
LAYER
  5
202
100
AcDbSymbolTableRecord
100
AcDbLayerTableRecord
  2
02_ALL_AXES
 70
0
 62
7
  6
CONTINUOUS
370
-3
390
F
  0
LAYER
  5
203
100
AcDbSymbolTableRecord
100
AcDbLayerTableRecord
  2
02__ASM_ALL_AXES
 70
0
 62
7
  6
CONTINUOUS
370
-3
390
F
  0
LAYER
  5
204
100
AcDbSymbolTableRecord
100
AcDbLayerTableRecord
  2
02___PRT_ALL_AXES
 70
0
 62
7
  6
CONTINUOUS
370
-3
390
F
  0
LAYER
  5
205
100
AcDbSymbolTableRecord
100
AcDbLayerTableRecord
  2
03_ALL_CURVES
 70
0
 62
7
  6
CONTINUOUS
370
-3
390
F
  0
LAYER
  5
206
100
AcDbSymbolTableRecord
100
AcDbLayerTableRecord
  2
03__ASM_ALL_CURVES
 70
0
 62
7
  6
CONTINUOUS
370
-3
390
F
  0
LAYER
  5
207
100
AcDbSymbolTableRecord
100
AcDbLayerTableRecord
  2
03___PRT_ALL_CURVES
 70
0
 62
7
  6
CONTINUOUS
370
-3
390
F
  0
LAYER
  5
208
100
AcDbSymbolTableRecord
100
AcDbLayerTableRecord
  2
04_ALL_DTM_PNT
 70
0
 62
7
  6
CONTINUOUS
370
-3
390
F
  0
LAYER
  5
209
100
AcDbSymbolTableRecord
100
AcDbLayerTableRecord
  2
04__ASM_ALL_DTM_PNT
 70
0
 62
7
  6
CONTINUOUS
370
-3
390
F
  0
LAYER
  5
20A
100
AcDbSymbolTableRecord
100
AcDbLayerTableRecord
  2
04___PRT_ALL_DTM_PNT
 70
0
 62
7
  6
CONTINUOUS
370
-3
390
F
  0
LAYER
  5
20B
100
AcDbSymbolTableRecord
100
AcDbLayerTableRecord
  2
05_ALL_DTM_CSYS
 70
0
 62
7
  6
CONTINUOUS
370
-3
390
F
  0
LAYER
  5
20C
100
AcDbSymbolTableRecord
100
AcDbLayerTableRecord
  2
05__ASM_ALL_DTM_CSYS
 70
0
 62
7
  6
CONTINUOUS
370
-3
390
F
  0
LAYER
  5
20D
100
AcDbSymbolTableRecord
100
AcDbLayerTableRecord
  2
05__ASM_DEF_DTM_CSYS
 70
0
 62
7
  6
CONTINUOUS
370
-3
390
F
  0
LAYER
  5
20E
100
AcDbSymbolTableRecord
100
AcDbLayerTableRecord
  2
05___PRT_ALL_DTM_CSYS
 70
0
 62
7
  6
CONTINUOUS
370
-3
390
F
  0
LAYER
  5
20F
100
AcDbSymbolTableRecord
100
AcDbLayerTableRecord
  2
05___PRT_DEF_DTM_CSYS
 70
0
 62
7
  6
CONTINUOUS
370
-3
390
F
  0
LAYER
  5
210
100
AcDbSymbolTableRecord
100
AcDbLayerTableRecord
  2
06_ALL_SURFS
 70
0
 62
7
  6
CONTINUOUS
370
-3
390
F
  0
LAYER
  5
211
100
AcDbSymbolTableRecord
100
AcDbLayerTableRecord
  2
06__ASM_ALL_SURFS
 70
0
 62
7
  6
CONTINUOUS
370
-3
390
F
  0
LAYER
  5
212
100
AcDbSymbolTableRecord
100
AcDbLayerTableRecord
  2
06___PRT_ALL_SURFS
 70
0
 62
7
  6
CONTINUOUS
370
-3
390
F
  0
LAYER
  5
213
100
AcDbSymbolTableRecord
100
AcDbLayerTableRecord
  2
07__ASM_ALL_SKELETONS
 70
0
 62
7
  6
CONTINUOUS
370
-3
390
F
  0
ENDTAB
  0
TABLE
  2
STYLE
  5
3
100
AcDbSymbolTable
 70
1
  0
STYLE
  5
11
100
AcDbSymbolTableRecord
100
AcDbTextStyleTableRecord
  2
STANDARD
 70
0
 40
0.0
 41
0.8
 50
0.0
 71
0
 42
0.2
  3
txt
  4

  0
STYLE
  5
214
100
AcDbSymbolTableRecord
100
AcDbTextStyleTableRecord
  2
TEXTSTYLE_1
 70
0
 40
0.0
 41
0.8
 50
0.0
 71
0
 42
0.2
  3
gdt
  4

  0
ENDTAB
  0
TABLE
  2
VIEW
  5
6
100
AcDbSymbolTable
 70
0
  0
ENDTAB
  0
TABLE
  2
UCS
  5
7
100
AcDbSymbolTable
 70
0
  0
ENDTAB
  0
TABLE
  2
APPID
  5
9
100
AcDbSymbolTable
 70
1
  0
APPID
  5
215
100
AcDbSymbolTableRecord
100
AcDbRegAppTableRecord
  2
ACAD
 70
0
  0
ENDTAB
  0
TABLE
  2
BLOCK_RECORD
  5
1
100
AcDbSymbolTable
 70
0
  0
BLOCK_RECORD
  5
216
100
AcDbSymbolTableRecord
100
AcDbBlockTableRecord
  2
*Model_Space
  0
BLOCK_RECORD
  5
217
100
AcDbSymbolTableRecord
100
AcDbBlockTableRecord
  2
*Paper_Space
  0
ENDTAB
  0
TABLE
  2
DIMSTYLE
  5
A
100
AcDbSymbolTable
 70
1
100
AcDbDimStyleTable
 71
0
  0
DIMSTYLE
105
218
100
AcDbSymbolTableRecord
100
AcDbDimStyleTableRecord
  2
STANDARD
 70
0
  3

  4

 40
1.0
 41
0.1875
 42
0.0625
 43
0.38
 44
0.125
 45
0.0
 46
0.0
 47
0.0001
 48
0.0001
140
0.15625
141
0.09
142
0.0
143
25.4
144
1.0
145
0.0
146
1.0
147
0.09
 71
0.0
 72
0.0
 73
1
 74
1
 75
0
 76
0
 77
0
 78
4
 79
1
170
0
171
3
172
0
173
0
174
0
175
0
176
0
177
0
178
0
270
2
179
4
271
4
272
4
273
2
274
2
275
0
280
0
281
0
282
0
283
1
284
4
285
0
286
0
287
3
288
0
340
11
278
46
  0
ENDTAB
  0
ENDSEC
  0
SECTION
  2
BLOCKS
  0
BLOCK
  5
20
100
AcDbEntity
  8
0
100
AcDbBlockBegin
  2
*Model_Space
 70
0
 10
0.0
 20
0.0
 30
0.0
  3
*Model_Space
  1

  0
ENDBLK
  5
21
100
AcDbEntity
  8
0
100
AcDbBlockEnd
  0
BLOCK
  5
1C
100
AcDbEntity
  8
0
100
AcDbBlockBegin
  2
*Paper_Space
 70
0
 10
0.0
 20
0.0
 30
0.0
  3
*Paper_Space
  1

  0
ENDBLK
  5
1D
100
AcDbEntity
  8
0
100
AcDbBlockEnd
  0
ENDSEC
  0
SECTION
  2
ENTITIES
  0
MTEXT
  5
219
100
AcDbEntity
  8
0
100
AcDbMText
 62
7
  6
CONTINUOUS
  7
STANDARD
 71
1
 72
1
 10
15.9560215477
 20
0.9479130325
 30
0.0
 11
1.0
 21
0.0
 31
0.0
 44
0.9
  1
SCALE: 1:3.000
 40
0.3
 41
3.36
  0
LINE
  5
21A
100
AcDbEntity
  8
0
100
AcDbLine
 62
7
  6
CONTINUOUS
 10
0.0
 20
0.0
 11
0.0
 21
17.0
  0
LINE
  5
21B
100
AcDbEntity
  8
0
100
AcDbLine
 62
7
  6
CONTINUOUS
 10
0.0
 20
0.0
 11
22.0
 21
0.0
  0
LINE
  5
21C
100
AcDbEntity
  8
0
100
AcDbLine
 62
7
  6
CONTINUOUS
 10
0.0
 20
17.0
 11
22.0
 21
17.0
  0
LINE
  5
21D
100
AcDbEntity
  8
0
100
AcDbLine
 62
7
  6
CONTINUOUS
 10
22.0
 20
0.0
 11
22.0
 21
17.0
  0
LINE
  5
21E
100
AcDbEntity
  8
0
100
AcDbLine
 62
7
  6
CONTINUOUS
 10
4.3303672762
 20
5.6551198968
 11
4.3303672762
 21
5.5351198968
  0
LINE
  5
21F
100
AcDbEntity
  8
0
100
AcDbLine
 62
7
  6
CONTINUOUS
 10
4.4513906393
 20
5.5145426778
 11
4.4922142658
 21
5.4159857251
  0
LINE
  5
220
100
AcDbEntity
  8
0
100
AcDbLine
 62
7
  6
CONTINUOUS
 10
4.7685202865
 20
5.4159857251
 11
4.809343913
 21
5.5145426778
  0
LINE
  5
221
100
AcDbEntity
  8
0
100
AcDbLine
 62
7
  6
CONTINUOUS
 10
5.0513906393
 20
5.5145426778
 11
5.0922142658
 21
5.4159857251
  0
LINE
  5
222
100
AcDbEntity
  8
0
100
AcDbLine
 62
7
  6
CONTINUOUS
 10
5.3685202865
 20
5.4159857251
 11
5.409343913
 21
5.5145426778
  0
LINE
  5
223
100
AcDbEntity
  8
0
100
AcDbLine
 62
7
  6
CONTINUOUS
 10
5.6513906393
 20
5.5145426778
 11
5.6922142658
 21
5.4159857251
  0
LINE
  5
224
100
AcDbEntity
  8
0
100
AcDbLine
 62
7
  6
CONTINUOUS
 10
5.9685202865
 20
5.4159857251
 11
6.009343913
 21
5.5145426778
  0
LINE
  5
225
100
AcDbEntity
  8
0
100
AcDbLine
 62
7
  6
CONTINUOUS
 10
4.5384082424
 20
5.3851198968
 11
4.7223263099
 21
5.3851198968
  0
LINE
  5
226
100
AcDbEntity
  8
0
100
AcDbLine
 62
7
  6
CONTINUOUS
 10
5.1384082424
 20
5.3851198968
 11
5.3223263099
 21
5.3851198968
  0
LINE
  5
227
100
AcDbEntity
  8
0
100
AcDbLine
 62
7
  6
CONTINUOUS
 10
5.7384082424
 20
5.3851198968
 11
5.9223263099
 21
5.3851198968
  0
LINE
  5
228
100
AcDbEntity
  8
0
100
AcDbLine
 62
7
  6
CONTINUOUS
 10
6.3384082424
 20
5.3851198968
 11
6.5223263099
 21
5.3851198968
  0
LINE
  5
229
100
AcDbEntity
  8
0
100
AcDbLine
 62
7
  6
CONTINUOUS
 10
6.9384082424
 20
5.3851198968
 11
7.1223263099
 21
5.3851198968
  0
LINE
  5
22A
100
AcDbEntity
  8
0
100
AcDbLine
 62
7
  6
CONTINUOUS
 10
7.5384082424
 20
5.3851198968
 11
7.7223263099
 21
5.3851198968
  0
LINE
  5
22B
100
AcDbEntity
  8
0
100
AcDbLine
 62
7
  6
CONTINUOUS
 10
4.3303672762
 20
5.5351198968
 11
4.4205946549
 21
5.5351198968
  0
LINE
  5
22C
100
AcDbEntity
  8
0
100
AcDbLine
 62
7
  6
CONTINUOUS
 10
4.8401398974
 20
5.5351198968
 11
5.0205946549
 21
5.5351198968
  0
LINE
  5
22D
100
AcDbEntity
  8
0
100
AcDbLine
 62
7
  6
CONTINUOUS
 10
5.4401398974
 20
5.5351198968
 11
5.6205946549
 21
5.5351198968
  0
LINE
  5
22E
100
AcDbEntity
  8
0
100
AcDbLine
 62
7
  6
CONTINUOUS
 10
6.0401398974
 20
5.5351198968
 11
6.2205946549
 21
5.5351198968
  0
LINE
  5
22F
100
AcDbEntity
  8
0
100
AcDbLine
 62
7
  6
CONTINUOUS
 10
6.6401398974
 20
5.5351198968
 11
6.8205946549
 21
5.5351198968
  0
LINE
  5
230
100
AcDbEntity
  8
0
100
AcDbLine
 62
7
  6
CONTINUOUS
 10
7.2401398974
 20
5.5351198968
 11
7.4205946549
 21
5.5351198968
  0
LINE
  5
231
100
AcDbEntity
  8
0
100
AcDbLine
 62
7
  6
CONTINUOUS
 10
7.8401398974
 20
5.5351198968
 11
7.9303672762
 21
5.5351198968
  0
LINE
  5
232
100
AcDbEntity
  8
0
100
AcDbLine
 62
7
  6
CONTINUOUS
 10
7.9303672762
 20
5.6551198968
 11
4.3303672762
 21
5.6551198968
  0
LINE
  5
233
100
AcDbEntity
  8
0
100
AcDbLine
 62
7
  6
CONTINUOUS
 10
6.2513906393
 20
5.5145426778
 11
6.2922142658
 21
5.4159857251
  0
LINE
  5
234
100
AcDbEntity
  8
0
100
AcDbLine
 62
7
  6
CONTINUOUS
 10
6.5685202865
 20
5.4159857251
 11
6.609343913
 21
5.5145426778
  0
LINE
  5
235
100
AcDbEntity
  8
0
100
AcDbLine
 62
7
  6
CONTINUOUS
 10
6.8513906393
 20
5.5145426778
 11
6.8922142658
 21
5.4159857251
  0
LINE
  5
236
100
AcDbEntity
  8
0
100
AcDbLine
 62
7
  6
CONTINUOUS
 10
7.1685202865
 20
5.4159857251
 11
7.209343913
 21
5.5145426778
  0
LINE
  5
237
100
AcDbEntity
  8
0
100
AcDbLine
 62
7
  6
CONTINUOUS
 10
7.4513906393
 20
5.5145426778
 11
7.4922142658
 21
5.4159857251
  0
LINE
  5
238
100
AcDbEntity
  8
0
100
AcDbLine
 62
7
  6
CONTINUOUS
 10
7.7685202865
 20
5.4159857251
 11
7.809343913
 21
5.5145426778
  0
LINE
  5
239
100
AcDbEntity
  8
0
100
AcDbLine
 62
7
  6
CONTINUOUS
 10
7.9303672762
 20
5.5351198968
 11
7.9303672762
 21
5.6551198968
  0
LINE
  5
23A
100
AcDbEntity
  8
0
100
AcDbLine
 62
7
  6
CONTINUOUS
 10
4.2708720839
 20
13.7250477814
 11
4.2708720839
 21
11.4750477814
  0
LINE
  5
23B
100
AcDbEntity
  8
0
100
AcDbLine
 62
7
  6
CONTINUOUS
 10
7.8708720839
 20
11.4750477814
 11
4.2708720839
 21
11.4750477814
  0
LINE
  5
23C
100
AcDbEntity
  8
0
100
AcDbLine
 62
7
  6
CONTINUOUS
 10
4.2708720839
 20
13.7250477814
 11
7.8708720839
 21
13.7250477814
  0
LINE
  5
23D
100
AcDbEntity
  8
0
100
AcDbLine
 62
7
  6
CONTINUOUS
 10
7.8708720839
 20
13.7250477814
 11
7.8708720839
 21
11.4750477814
  0
LINE
  5
23E
100
AcDbEntity
  8
0
100
AcDbLine
 62
7
  6
CONTINUOUS
 10
14.4353552569
 20
5.3256247044
 11
14.4353552569
 21
5.5956247044
  0
LINE
  5
23F
100
AcDbEntity
  8
0
100
AcDbLine
 62
7
  6
CONTINUOUS
 10
14.4353552569
 20
5.3256247044
 11
16.6853552569
 21
5.3256247044
  0
LINE
  5
240
100
AcDbEntity
  8
0
100
AcDbLine
 62
7
  6
CONTINUOUS
 10
16.6853552569
 20
5.4756247044
 11
14.4353552569
 21
5.4756247044
  0
LINE
  5
241
100
AcDbEntity
  8
0
100
AcDbLine
 62
7
  6
CONTINUOUS
 10
16.6853552569
 20
5.5956247044
 11
14.4353552569
 21
5.5956247044
  0
LINE
  5
242
100
AcDbEntity
  8
0
100
AcDbLine
 62
7
  6
CONTINUOUS
 10
16.6853552569
 20
5.3256247044
 11
16.6853552569
 21
5.5956247044
  0
LINE
  5
243
100
AcDbEntity
  8
0
100
AcDbLine
 62
7
  6
CONTINUOUS
 10
13.5225755534
 20
11.7134795653
 11
13.5591805774
 21
11.6388863691
  0
LINE
  5
244
100
AcDbEntity
  8
0
100
AcDbLine
 62
7
  6
CONTINUOUS
 10
13.6769273899
 20
11.6260953647
 11
13.7445924367
 21
11.5648313805
  0
LINE
  5
245
100
AcDbEntity
  8
0
100
AcDbLine
 62
7
  6
CONTINUOUS
 10
14.0672247811
 20
13.475965112
 11
13.5225755534
 21
11.7134795653
  0
LINE
  5
246
100
AcDbEntity
  8
0
100
AcDbLine
 62
7
  6
CONTINUOUS
 10
14.2295639863
 20
11.6260953647
 11
14.2972290331
 21
11.5648313805
  0
LINE
  5
247
100
AcDbEntity
  8
0
100
AcDbLine
 62
7
  6
CONTINUOUS
 10
13.9990871348
 20
11.5648313805
 11
14.0066241879
 21
11.6260953647
  0
LINE
  5
248
100
AcDbEntity
  8
0
100
AcDbLine
 62
7
  6
CONTINUOUS
 10
13.9984781161
 20
11.5619617282
 11
13.9990871348
 21
11.5648313805
  0
LINE
  5
249
100
AcDbEntity
  8
0
100
AcDbLine
 62
7
  6
CONTINUOUS
 10
14.0066241879
 20
11.6260953647
 11
14.0070377044
 21
11.6280061506
  0
LINE
  5
24A
100
AcDbEntity
  8
0
100
AcDbLine
 62
7
  6
CONTINUOUS
 10
13.99933656
 20
11.5647543022
 11
14.0220279547
 21
11.6381836824
  0
LINE
  5
24B
100
AcDbEntity
  8
0
100
AcDbLine
 62
7
  6
CONTINUOUS
 10
14.7822005827
 20
11.6260953647
 11
14.8498656295
 21
11.5648313805
  0
LINE
  5
24C
100
AcDbEntity
  8
0
100
AcDbLine
 62
7
  6
CONTINUOUS
 10
13.7965552766
 20
11.5456448739
 11
13.9659550347
 21
11.5456448739
  0
LINE
  5
24D
100
AcDbEntity
  8
0
100
AcDbLine
 62
7
  6
CONTINUOUS
 10
14.349191873
 20
11.5456448739
 11
14.5185916311
 21
11.5456448739
  0
LINE
  5
24E
100
AcDbEntity
  8
0
100
AcDbLine
 62
7
  6
CONTINUOUS
 10
14.9018284694
 20
11.5456448739
 11
15.0712282275
 21
11.5456448739
  0
LINE
  5
24F
100
AcDbEntity
  8
0
100
AcDbLine
 62
7
  6
CONTINUOUS
 10
15.4544650658
 20
11.5456448739
 11
15.6238648239
 21
11.5456448739
  0
LINE
  5
250
100
AcDbEntity
  8
0
100
AcDbLine
 62
7
  6
CONTINUOUS
 10
16.0071016622
 20
11.5456448739
 11
16.1765014203
 21
11.5456448739
  0
LINE
  5
251
100
AcDbEntity
  8
0
100
AcDbLine
 62
7
  6
CONTINUOUS
 10
16.5597382586
 20
11.5456448739
 11
16.7291380167
 21
11.5456448739
  0
LINE
  5
252
100
AcDbEntity
  8
0
100
AcDbLine
 62
7
  6
CONTINUOUS
 10
13.5591805774
 20
11.6388863691
 11
13.6422854966
 21
11.6388863691
  0
LINE
  5
253
100
AcDbEntity
  8
0
100
AcDbLine
 62
7
  6
CONTINUOUS
 10
14.0287122547
 20
11.6388863691
 11
14.194922093
 21
11.6388863691
  0
LINE
  5
254
100
AcDbEntity
  8
0
100
AcDbLine
 62
7
  6
CONTINUOUS
 10
14.5813488511
 20
11.6388863691
 11
14.7475586894
 21
11.6388863691
  0
LINE
  5
255
100
AcDbEntity
  8
0
100
AcDbLine
 62
7
  6
CONTINUOUS
 10
15.1339854475
 20
11.6388863691
 11
15.3001952858
 21
11.6388863691
  0
LINE
  5
256
100
AcDbEntity
  8
0
100
AcDbLine
 62
7
  6
CONTINUOUS
 10
15.6866220439
 20
11.6388863691
 11
15.8528318822
 21
11.6388863691
  0
LINE
  5
257
100
AcDbEntity
  8
0
100
AcDbLine
 62
7
  6
CONTINUOUS
 10
16.2392586403
 20
11.6388863691
 11
16.4054684786
 21
11.6388863691
  0
LINE
  5
258
100
AcDbEntity
  8
0
100
AcDbLine
 62
7
  6
CONTINUOUS
 10
16.7918952367
 20
11.6388863691
 11
16.8750001558
 21
11.6388863691
  0
LINE
  5
259
100
AcDbEntity
  8
0
100
AcDbLine
 62
7
  6
CONTINUOUS
 10
14.5517237312
 20
11.5648313805
 11
14.5592607843
 21
11.6260953647
  0
LINE
  5
25A
100
AcDbEntity
  8
0
100
AcDbLine
 62
7
  6
CONTINUOUS
 10
16.8383951318
 20
11.7134795653
 11
13.5225755534
 21
11.7134795653
  0
LINE
  5
25B
100
AcDbEntity
  8
0
100
AcDbLine
 62
7
  6
CONTINUOUS
 10
15.3348371791
 20
11.6260953647
 11
15.4025022259
 21
11.5648313805
  0
LINE
  5
25C
100
AcDbEntity
  8
0
100
AcDbLine
 62
7
  6
CONTINUOUS
 10
14.5511147125
 20
11.5619617282
 11
14.5517237312
 21
11.5648313805
  0
LINE
  5
25D
100
AcDbEntity
  8
0
100
AcDbLine
 62
7
  6
CONTINUOUS
 10
14.5592607843
 20
11.6260953647
 11
14.5596743008
 21
11.6280061506
  0
LINE
  5
25E
100
AcDbEntity
  8
0
100
AcDbLine
 62
7
  6
CONTINUOUS
 10
14.5519731564
 20
11.5647543022
 11
14.5746645511
 21
11.6381836824
  0
LINE
  5
25F
100
AcDbEntity
  8
0
100
AcDbLine
 62
7
  6
CONTINUOUS
 10
15.8874737755
 20
11.6260953647
 11
15.9551388223
 21
11.5648313805
  0
LINE
  5
260
100
AcDbEntity
  8
0
100
AcDbLine
 62
7
  6
CONTINUOUS
 10
15.1043603276
 20
11.5648313805
 11
15.1118973807
 21
11.6260953647
  0
LINE
  5
261
100
AcDbEntity
  8
0
100
AcDbLine
 62
7
  6
CONTINUOUS
 10
15.1037513089
 20
11.5619617282
 11
15.1043603276
 21
11.5648313805
  0
LINE
  5
262
100
AcDbEntity
  8
0
100
AcDbLine
 62
7
  6
CONTINUOUS
 10
15.1118973807
 20
11.6260953647
 11
15.1123108972
 21
11.6280061506
  0
LINE
  5
263
100
AcDbEntity
  8
0
100
AcDbLine
 62
7
  6
CONTINUOUS
 10
15.1046097528
 20
11.5647543022
 11
15.1273011475
 21
11.6381836824
  0
LINE
  5
264
100
AcDbEntity
  8
0
100
AcDbLine
 62
7
  6
CONTINUOUS
 10
16.4401103719
 20
11.6260953647
 11
16.5077754187
 21
11.5648313805
  0
LINE
  5
265
100
AcDbEntity
  8
0
100
AcDbLine
 62
7
  6
CONTINUOUS
 10
15.656996924
 20
11.5648313805
 11
15.6645339771
 21
11.6260953647
  0
LINE
  5
266
100
AcDbEntity
  8
0
100
AcDbLine
 62
7
  6
CONTINUOUS
 10
15.6563879053
 20
11.5619617282
 11
15.656996924
 21
11.5648313805
  0
LINE
  5
267
100
AcDbEntity
  8
0
100
AcDbLine
 62
7
  6
CONTINUOUS
 10
15.6645339771
 20
11.6260953647
 11
15.6649474936
 21
11.6280061506
  0
LINE
  5
268
100
AcDbEntity
  8
0
100
AcDbLine
 62
7
  6
CONTINUOUS
 10
15.6572463492
 20
11.5647543022
 11
15.6799377439
 21
11.6381836824
  0
LINE
  5
269
100
AcDbEntity
  8
0
100
AcDbLine
 62
7
  6
CONTINUOUS
 10
16.2096335204
 20
11.5648313805
 11
16.2171705735
 21
11.6260953647
  0
LINE
  5
26A
100
AcDbEntity
  8
0
100
AcDbLine
 62
7
  6
CONTINUOUS
 10
16.8750001558
 20
11.6388863691
 11
16.8383951318
 21
11.7134795653
  0
LINE
  5
26B
100
AcDbEntity
  8
0
100
AcDbLine
 62
7
  6
CONTINUOUS
 10
16.2090245017
 20
11.5619617282
 11
16.2096335204
 21
11.5648313805
  0
LINE
  5
26C
100
AcDbEntity
  8
0
100
AcDbLine
 62
7
  6
CONTINUOUS
 10
16.2171705735
 20
11.6260953647
 11
16.21758409
 21
11.6280061506
  0
LINE
  5
26D
100
AcDbEntity
  8
0
100
AcDbLine
 62
7
  6
CONTINUOUS
 10
16.2098829456
 20
11.5647543022
 11
16.2325743403
 21
11.6381836824
  0
LINE
  5
26E
100
AcDbEntity
  8
0
100
AcDbLine
 62
7
  6
CONTINUOUS
 10
14.0672247811
 20
13.475965112
 11
17.3830443595
 21
13.475965112
  0
LINE
  5
26F
100
AcDbEntity
  8
0
100
AcDbLine
 62
7
  6
CONTINUOUS
 10
16.7622701168
 20
11.5648313805
 11
16.76980717
 21
11.6260953647
  0
LINE
  5
270
100
AcDbEntity
  8
0
100
AcDbLine
 62
7
  6
CONTINUOUS
 10
16.7616610981
 20
11.5619617282
 11
16.7622701168
 21
11.5648313805
  0
LINE
  5
271
100
AcDbEntity
  8
0
100
AcDbLine
 62
7
  6
CONTINUOUS
 10
16.76980717
 20
11.6260953647
 11
16.7702206864
 21
11.6280061506
  0
LINE
  5
272
100
AcDbEntity
  8
0
100
AcDbLine
 62
7
  6
CONTINUOUS
 10
16.762519542
 20
11.5647543022
 11
16.7852109367
 21
11.6381836824
  0
LINE
  5
273
100
AcDbEntity
  8
0
100
AcDbLine
 62
7
  6
CONTINUOUS
 10
17.3830443595
 20
13.475965112
 11
16.8383951318
 21
11.7134795653
  0
LINE
  5
274
100
AcDbEntity
  8
0
100
AcDbLine
 62
7
  6
CONTINUOUS
 10
17.4196493835
 20
13.4013719158
 11
16.8750001558
 21
11.6388863691
  0
LINE
  5
275
100
AcDbEntity
  8
0
100
AcDbLine
 62
7
  6
CONTINUOUS
 10
17.4196493835
 20
13.4013719158
 11
17.3830443595
 21
13.475965112
  0
ARC
  5
276
100
AcDbEntity
  8
0
100
AcDbCircle
 62
7
  6
CONTINUOUS
 10
5.1384082424
 20
5.4351198968
 40
0.05
100
AcDbArc
 50
202.5
 51
270.0
  0
ARC
  5
277
100
AcDbEntity
  8
0
100
AcDbCircle
 62
7
  6
CONTINUOUS
 10
5.3223263099
 20
5.4351198968
 40
0.05
100
AcDbArc
 50
270.0
 51
337.5
  0
ARC
  5
278
100
AcDbEntity
  8
0
100
AcDbCircle
 62
7
  6
CONTINUOUS
 10
5.7384082424
 20
5.4351198968
 40
0.05
100
AcDbArc
 50
202.5
 51
270.0
  0
ARC
  5
279
100
AcDbEntity
  8
0
100
AcDbCircle
 62
7
  6
CONTINUOUS
 10
5.9223263099
 20
5.4351198968
 40
0.05
100
AcDbArc
 50
270.0
 51
337.5
  0
ARC
  5
27A
100
AcDbEntity
  8
0
100
AcDbCircle
 62
7
  6
CONTINUOUS
 10
6.3384082424
 20
5.4351198968
 40
0.05
100
AcDbArc
 50
202.5
 51
270.0
  0
ARC
  5
27B
100
AcDbEntity
  8
0
100
AcDbCircle
 62
7
  6
CONTINUOUS
 10
6.5223263099
 20
5.4351198968
 40
0.05
100
AcDbArc
 50
270.0
 51
337.5
  0
ARC
  5
27C
100
AcDbEntity
  8
0
100
AcDbCircle
 62
7
  6
CONTINUOUS
 10
4.7223263099
 20
5.4351198968
 40
0.05
100
AcDbArc
 50
270.0
 51
337.5
  0
ARC
  5
27D
100
AcDbEntity
  8
0
100
AcDbCircle
 62
7
  6
CONTINUOUS
 10
4.5384082424
 20
5.4351198968
 40
0.05
100
AcDbArc
 50
202.5
 51
270.0
  0
ARC
  5
27E
100
AcDbEntity
  8
0
100
AcDbCircle
 62
7
  6
CONTINUOUS
 10
7.7223263099
 20
5.4351198968
 40
0.05
100
AcDbArc
 50
270.0
 51
337.5
  0
ARC
  5
27F
100
AcDbEntity
  8
0
100
AcDbCircle
 62
7
  6
CONTINUOUS
 10
7.5384082424
 20
5.4351198968
 40
0.05
100
AcDbArc
 50
202.5
 51
270.0
  0
ARC
  5
280
100
AcDbEntity
  8
0
100
AcDbCircle
 62
7
  6
CONTINUOUS
 10
7.1223263099
 20
5.4351198968
 40
0.05
100
AcDbArc
 50
270.0
 51
337.5
  0
ARC
  5
281
100
AcDbEntity
  8
0
100
AcDbCircle
 62
7
  6
CONTINUOUS
 10
6.9384082424
 20
5.4351198968
 40
0.05
100
AcDbArc
 50
202.5
 51
270.0
  0
ARC
  5
282
100
AcDbEntity
  8
0
100
AcDbCircle
 62
7
  6
CONTINUOUS
 10
4.8401398974
 20
5.5017865634
 40
0.0333333333
100
AcDbArc
 50
90.0
 51
157.5
  0
ARC
  5
283
100
AcDbEntity
  8
0
100
AcDbCircle
 62
7
  6
CONTINUOUS
 10
4.4205946549
 20
5.5017865634
 40
0.0333333333
100
AcDbArc
 50
22.5
 51
90.0
  0
ARC
  5
284
100
AcDbEntity
  8
0
100
AcDbCircle
 62
7
  6
CONTINUOUS
 10
5.4401398974
 20
5.5017865634
 40
0.0333333333
100
AcDbArc
 50
90.0
 51
157.5
  0
ARC
  5
285
100
AcDbEntity
  8
0
100
AcDbCircle
 62
7
  6
CONTINUOUS
 10
5.0205946549
 20
5.5017865634
 40
0.0333333333
100
AcDbArc
 50
22.5
 51
90.0
  0
ARC
  5
286
100
AcDbEntity
  8
0
100
AcDbCircle
 62
7
  6
CONTINUOUS
 10
6.0401398974
 20
5.5017865634
 40
0.0333333333
100
AcDbArc
 50
90.0
 51
157.5
  0
ARC
  5
287
100
AcDbEntity
  8
0
100
AcDbCircle
 62
7
  6
CONTINUOUS
 10
5.6205946549
 20
5.5017865634
 40
0.0333333333
100
AcDbArc
 50
22.5
 51
90.0
  0
ARC
  5
288
100
AcDbEntity
  8
0
100
AcDbCircle
 62
7
  6
CONTINUOUS
 10
6.6401398974
 20
5.5017865634
 40
0.0333333333
100
AcDbArc
 50
90.0
 51
157.5
  0
ARC
  5
289
100
AcDbEntity
  8
0
100
AcDbCircle
 62
7
  6
CONTINUOUS
 10
6.2205946549
 20
5.5017865634
 40
0.0333333333
100
AcDbArc
 50
22.5
 51
90.0
  0
ARC
  5
28A
100
AcDbEntity
  8
0
100
AcDbCircle
 62
7
  6
CONTINUOUS
 10
7.2401398974
 20
5.5017865634
 40
0.0333333333
100
AcDbArc
 50
90.0
 51
157.5
  0
ARC
  5
28B
100
AcDbEntity
  8
0
100
AcDbCircle
 62
7
  6
CONTINUOUS
 10
6.8205946549
 20
5.5017865634
 40
0.0333333333
100
AcDbArc
 50
22.5
 51
90.0
  0
ARC
  5
28C
100
AcDbEntity
  8
0
100
AcDbCircle
 62
7
  6
CONTINUOUS
 10
7.8401398974
 20
5.5017865634
 40
0.0333333333
100
AcDbArc
 50
90.0
 51
157.5
  0
ARC
  5
28D
100
AcDbEntity
  8
0
100
AcDbCircle
 62
7
  6
CONTINUOUS
 10
7.4205946549
 20
5.5017865634
 40
0.0333333333
100
AcDbArc
 50
22.5
 51
90.0
  0
SPLINE
  5
28E
100
AcDbEntity
  8
0
100
AcDbSpline
 62
7
  6
CONTINUOUS
 70
0
 71
3
 72
11
 73
7
 74
0
 42
0.0000001
 43
0.0000001
 44
0.0000000001
 40
0.0
 40
0.0
 40
0.0
 40
0.0
 40
0.2342285481
 40
0.4753682253
 40
0.729152897
 40
1.0
 40
1.0
 40
1.0
 40
1.0
 10
14.0070340034
 20
11.6280072951
 30
0.0
 10
14.0072638797
 20
11.6287496766
 30
0.0
 10
14.0078936354
 20
11.6302108479
 30
0.0
 10
14.0092998759
 20
11.6321987433
 30
0.0
 10
14.0111455422
 20
11.6339644659
 30
0.0
 10
14.0125933932
 20
11.6349455082
 30
0.0
 10
14.0133711279
 20
11.6353957423
 30
0.0
  0
SPLINE
  5
28F
100
AcDbEntity
  8
0
100
AcDbSpline
 62
7
  6
CONTINUOUS
 70
0
 71
3
 72
11
 73
7
 74
0
 42
0.0000001
 43
0.0000001
 44
0.0000000001
 40
0.0
 40
0.0
 40
0.0
 40
0.0
 40
0.2218865052
 40
0.4632413836
 40
0.7235723405
 40
1.0
 40
1.0
 40
1.0
 40
1.0
 10
14.0133711279
 20
11.6353957423
 30
0.0
 10
14.0143886827
 20
11.6359848093
 30
0.0
 10
14.0166289776
 20
11.6370194434
 30
0.0
 10
14.0203193354
 20
11.6380993752
 30
0.0
 10
14.0244007467
 20
11.638747924
 30
0.0
 10
14.0272474819
 20
11.6388863691
 30
0.0
 10
14.0287122547
 20
11.6388863691
 30
0.0
  0
SPLINE
  5
290
100
AcDbEntity
  8
0
100
AcDbSpline
 62
7
  6
CONTINUOUS
 70
0
 71
3
 72
11
 73
7
 74
0
 42
0.0000001
 43
0.0000001
 44
0.0000000001
 40
0.0
 40
0.0
 40
0.0
 40
0.0
 40
0.2342285481
 40
0.4753682253
 40
0.729152897
 40
1.0
 40
1.0
 40
1.0
 40
1.0
 10
14.5596705998
 20
11.6280072951
 30
0.0
 10
14.5599004761
 20
11.6287496766
 30
0.0
 10
14.5605302318
 20
11.6302108479
 30
0.0
 10
14.5619364723
 20
11.6321987433
 30
0.0
 10
14.5637821386
 20
11.6339644659
 30
0.0
 10
14.5652299896
 20
11.6349455082
 30
0.0
 10
14.5660077243
 20
11.6353957423
 30
0.0
  0
SPLINE
  5
291
100
AcDbEntity
  8
0
100
AcDbSpline
 62
7
  6
CONTINUOUS
 70
0
 71
3
 72
11
 73
7
 74
0
 42
0.0000001
 43
0.0000001
 44
0.0000000001
 40
0.0
 40
0.0
 40
0.0
 40
0.0
 40
0.2218865052
 40
0.4632413836
 40
0.7235723405
 40
1.0
 40
1.0
 40
1.0
 40
1.0
 10
14.5660077243
 20
11.6353957423
 30
0.0
 10
14.5670252791
 20
11.6359848093
 30
0.0
 10
14.569265574
 20
11.6370194434
 30
0.0
 10
14.5729559318
 20
11.6380993752
 30
0.0
 10
14.5770373431
 20
11.638747924
 30
0.0
 10
14.5798840783
 20
11.6388863691
 30
0.0
 10
14.5813488511
 20
11.6388863691
 30
0.0
  0
SPLINE
  5
292
100
AcDbEntity
  8
0
100
AcDbSpline
 62
7
  6
CONTINUOUS
 70
0
 71
3
 72
11
 73
7
 74
0
 42
0.0000001
 43
0.0000001
 44
0.0000000001
 40
0.0
 40
0.0
 40
0.0
 40
0.0
 40
0.2342285481
 40
0.4753682253
 40
0.729152897
 40
1.0
 40
1.0
 40
1.0
 40
1.0
 10
15.1123071962
 20
11.6280072951
 30
0.0
 10
15.1125370725
 20
11.6287496766
 30
0.0
 10
15.1131668282
 20
11.6302108479
 30
0.0
 10
15.1145730687
 20
11.6321987433
 30
0.0
 10
15.116418735
 20
11.6339644659
 30
0.0
 10
15.117866586
 20
11.6349455082
 30
0.0
 10
15.1186443207
 20
11.6353957423
 30
0.0
  0
SPLINE
  5
293
100
AcDbEntity
  8
0
100
AcDbSpline
 62
7
  6
CONTINUOUS
 70
0
 71
3
 72
11
 73
7
 74
0
 42
0.0000001
 43
0.0000001
 44
0.0000000001
 40
0.0
 40
0.0
 40
0.0
 40
0.0
 40
0.2218865052
 40
0.4632413836
 40
0.7235723405
 40
1.0
 40
1.0
 40
1.0
 40
1.0
 10
15.1186443207
 20
11.6353957423
 30
0.0
 10
15.1196618755
 20
11.6359848093
 30
0.0
 10
15.1219021704
 20
11.6370194434
 30
0.0
 10
15.1255925282
 20
11.6380993752
 30
0.0
 10
15.1296739395
 20
11.638747924
 30
0.0
 10
15.1325206747
 20
11.6388863691
 30
0.0
 10
15.1339854475
 20
11.6388863691
 30
0.0
  0
SPLINE
  5
294
100
AcDbEntity
  8
0
100
AcDbSpline
 62
7
  6
CONTINUOUS
 70
0
 71
3
 72
11
 73
7
 74
0
 42
0.0000001
 43
0.0000001
 44
0.0000000001
 40
0.0
 40
0.0
 40
0.0
 40
0.0
 40
0.2342285481
 40
0.4753682253
 40
0.729152897
 40
1.0
 40
1.0
 40
1.0
 40
1.0
 10
15.6649437926
 20
11.6280072951
 30
0.0
 10
15.6651736689
 20
11.6287496766
 30
0.0
 10
15.6658034246
 20
11.6302108479
 30
0.0
 10
15.6672096651
 20
11.6321987433
 30
0.0
 10
15.6690553314
 20
11.6339644659
 30
0.0
 10
15.6705031824
 20
11.6349455082
 30
0.0
 10
15.6712809171
 20
11.6353957423
 30
0.0
  0
SPLINE
  5
295
100
AcDbEntity
  8
0
100
AcDbSpline
 62
7
  6
CONTINUOUS
 70
0
 71
3
 72
11
 73
7
 74
0
 42
0.0000001
 43
0.0000001
 44
0.0000000001
 40
0.0
 40
0.0
 40
0.0
 40
0.0
 40
0.2218865052
 40
0.4632413836
 40
0.7235723405
 40
1.0
 40
1.0
 40
1.0
 40
1.0
 10
15.6712809171
 20
11.6353957423
 30
0.0
 10
15.6722984719
 20
11.6359848093
 30
0.0
 10
15.6745387668
 20
11.6370194434
 30
0.0
 10
15.6782291246
 20
11.6380993752
 30
0.0
 10
15.6823105359
 20
11.638747924
 30
0.0
 10
15.6851572711
 20
11.6388863691
 30
0.0
 10
15.6866220439
 20
11.6388863691
 30
0.0
  0
SPLINE
  5
296
100
AcDbEntity
  8
0
100
AcDbSpline
 62
7
  6
CONTINUOUS
 70
0
 71
3
 72
11
 73
7
 74
0
 42
0.0000001
 43
0.0000001
 44
0.0000000001
 40
0.0
 40
0.0
 40
0.0
 40
0.0
 40
0.2342285481
 40
0.4753682253
 40
0.729152897
 40
1.0
 40
1.0
 40
1.0
 40
1.0
 10
16.217580389
 20
11.6280072951
 30
0.0
 10
16.2178102653
 20
11.6287496766
 30
0.0
 10
16.218440021
 20
11.6302108479
 30
0.0
 10
16.2198462615
 20
11.6321987433
 30
0.0
 10
16.2216919278
 20
11.6339644659
 30
0.0
 10
16.2231397788
 20
11.6349455082
 30
0.0
 10
16.2239175135
 20
11.6353957423
 30
0.0
  0
SPLINE
  5
297
100
AcDbEntity
  8
0
100
AcDbSpline
 62
7
  6
CONTINUOUS
 70
0
 71
3
 72
11
 73
7
 74
0
 42
0.0000001
 43
0.0000001
 44
0.0000000001
 40
0.0
 40
0.0
 40
0.0
 40
0.0
 40
0.2218865052
 40
0.4632413836
 40
0.7235723405
 40
1.0
 40
1.0
 40
1.0
 40
1.0
 10
16.2239175135
 20
11.6353957423
 30
0.0
 10
16.2249350683
 20
11.6359848093
 30
0.0
 10
16.2271753632
 20
11.6370194434
 30
0.0
 10
16.230865721
 20
11.6380993752
 30
0.0
 10
16.2349471323
 20
11.638747924
 30
0.0
 10
16.2377938676
 20
11.6388863691
 30
0.0
 10
16.2392586403
 20
11.6388863691
 30
0.0
  0
SPLINE
  5
298
100
AcDbEntity
  8
0
100
AcDbSpline
 62
7
  6
CONTINUOUS
 70
0
 71
3
 72
11
 73
7
 74
0
 42
0.0000001
 43
0.0000001
 44
0.0000000001
 40
0.0
 40
0.0
 40
0.0
 40
0.0
 40
0.2342285481
 40
0.4753682253
 40
0.729152897
 40
1.0
 40
1.0
 40
1.0
 40
1.0
 10
16.7702169854
 20
11.6280072951
 30
0.0
 10
16.7704468617
 20
11.6287496766
 30
0.0
 10
16.7710766174
 20
11.6302108479
 30
0.0
 10
16.7724828579
 20
11.6321987433
 30
0.0
 10
16.7743285242
 20
11.6339644659
 30
0.0
 10
16.7757763752
 20
11.6349455082
 30
0.0
 10
16.7765541099
 20
11.6353957423
 30
0.0
  0
SPLINE
  5
299
100
AcDbEntity
  8
0
100
AcDbSpline
 62
7
  6
CONTINUOUS
 70
0
 71
3
 72
11
 73
7
 74
0
 42
0.0000001
 43
0.0000001
 44
0.0000000001
 40
0.0
 40
0.0
 40
0.0
 40
0.0
 40
0.2218865052
 40
0.4632413836
 40
0.7235723405
 40
1.0
 40
1.0
 40
1.0
 40
1.0
 10
16.7765541099
 20
11.6353957423
 30
0.0
 10
16.7775716647
 20
11.6359848093
 30
0.0
 10
16.7798119596
 20
11.6370194434
 30
0.0
 10
16.7835023174
 20
11.6380993752
 30
0.0
 10
16.7875837287
 20
11.638747924
 30
0.0
 10
16.790430464
 20
11.6388863691
 30
0.0
 10
16.7918952367
 20
11.6388863691
 30
0.0
  0
SPLINE
  5
29A
100
AcDbEntity
  8
0
100
AcDbSpline
 62
7
  6
CONTINUOUS
 70
0
 71
3
 72
18
 73
14
 74
0
 42
0.0000001
 43
0.0000001
 44
0.0000000001
 40
0.0
 40
0.0
 40
0.0
 40
0.0
 40
0.155685154
 40
0.3030865072
 40
0.4409122557
 40
0.5688018112
 40
0.6291315383
 40
0.6871493952
 40
0.7968135695
 40
0.8491181837
 40
0.900149229
 40
0.9503063518
 40
1.0
 40
1.0
 40
1.0
 40
1.0
 10
13.9659550347
 20
11.5456448739
 30
0.0
 10
13.9679680843
 20
11.5456448739
 30
0.0
 10
13.9718899889
 20
11.545818681
 30
0.0
 10
13.9775428143
 20
11.5466351224
 30
0.0
 10
13.9827219658
 20
11.5479927804
 30
0.0
 10
13.9866416542
 20
11.5495866242
 30
0.0
 10
13.9894348981
 20
11.5511218453
 30
0.0
 10
13.9918954236
 20
11.5527499438
 30
0.0
 10
13.9940566324
 20
11.554631529
 30
0.0
 10
13.9958293752
 20
11.5567450532
 30
0.0
 10
13.9969348716
 20
11.5583985566
 30
0.0
 10
13.99782909
 20
11.5601371218
 30
0.0
 10
13.9982833841
 20
11.5613493724
 30
0.0
 10
13.9984731999
 20
11.5619632477
 30
0.0
  0
SPLINE
  5
29B
100
AcDbEntity
  8
0
100
AcDbSpline
 62
7
  6
CONTINUOUS
 70
0
 71
3
 72
15
 73
11
 74
0
 42
0.0000001
 43
0.0000001
 44
0.0000000001
 40
0.0
 40
0.0
 40
0.0
 40
0.0
 40
0.1148729079
 40
0.2360778514
 40
0.3619571684
 40
0.4908828982
 40
0.6210133039
 40
0.7504590024
 40
0.8774377529
 40
1.0
 40
1.0
 40
1.0
 40
1.0
 10
13.7445924367
 20
11.5648313805
 30
0.0
 10
13.7461967919
 20
11.563378796
 30
0.0
 10
13.7496727071
 20
11.5605872106
 30
0.0
 10
13.7554014998
 20
11.5568698561
 30
0.0
 10
13.7616847367
 20
11.5535767705
 30
0.0
 10
13.7683851552
 20
11.550779014
 30
0.0
 10
13.7753605975
 20
11.5485332639
 30
0.0
 10
13.7824646175
 20
11.5468892607
 30
0.0
 10
13.7895423698
 20
11.545883471
 30
0.0
 10
13.7942461616
 20
11.5456448739
 30
0.0
 10
13.7965552766
 20
11.5456448739
 30
0.0
  0
SPLINE
  5
29C
100
AcDbEntity
  8
0
100
AcDbSpline
 62
7
  6
CONTINUOUS
 70
0
 71
3
 72
18
 73
14
 74
0
 42
0.0000001
 43
0.0000001
 44
0.0000000001
 40
0.0
 40
0.0
 40
0.0
 40
0.0
 40
0.155685154
 40
0.3030865072
 40
0.4409122557
 40
0.5688018112
 40
0.6291315383
 40
0.6871493952
 40
0.7968135695
 40
0.8491181837
 40
0.900149229
 40
0.9503063518
 40
1.0
 40
1.0
 40
1.0
 40
1.0
 10
16.7291380167
 20
11.5456448739
 30
0.0
 10
16.7311510663
 20
11.5456448739
 30
0.0
 10
16.7350729709
 20
11.545818681
 30
0.0
 10
16.7407257964
 20
11.5466351224
 30
0.0
 10
16.7459049478
 20
11.5479927804
 30
0.0
 10
16.7498246362
 20
11.5495866242
 30
0.0
 10
16.7526178801
 20
11.5511218453
 30
0.0
 10
16.7550784056
 20
11.5527499438
 30
0.0
 10
16.7572396144
 20
11.554631529
 30
0.0
 10
16.7590123573
 20
11.5567450532
 30
0.0
 10
16.7601178536
 20
11.5583985566
 30
0.0
 10
16.761012072
 20
11.5601371218
 30
0.0
 10
16.7614663661
 20
11.5613493724
 30
0.0
 10
16.7616561819
 20
11.5619632477
 30
0.0
  0
SPLINE
  5
29D
100
AcDbEntity
  8
0
100
AcDbSpline
 62
7
  6
CONTINUOUS
 70
0
 71
3
 72
15
 73
11
 74
0
 42
0.0000001
 43
0.0000001
 44
0.0000000001
 40
0.0
 40
0.0
 40
0.0
 40
0.0
 40
0.1148729079
 40
0.2360778514
 40
0.3619571684
 40
0.4908828982
 40
0.6210133039
 40
0.7504590024
 40
0.8774377529
 40
1.0
 40
1.0
 40
1.0
 40
1.0
 10
16.5077754187
 20
11.5648313805
 30
0.0
 10
16.5093797739
 20
11.563378796
 30
0.0
 10
16.5128556891
 20
11.5605872106
 30
0.0
 10
16.5185844818
 20
11.5568698561
 30
0.0
 10
16.5248677187
 20
11.5535767705
 30
0.0
 10
16.5315681372
 20
11.550779014
 30
0.0
 10
16.5385435795
 20
11.5485332639
 30
0.0
 10
16.5456475995
 20
11.5468892607
 30
0.0
 10
16.5527253518
 20
11.545883471
 30
0.0
 10
16.5574291436
 20
11.5456448739
 30
0.0
 10
16.5597382586
 20
11.5456448739
 30
0.0
  0
SPLINE
  5
29E
100
AcDbEntity
  8
0
100
AcDbSpline
 62
7
  6
CONTINUOUS
 70
0
 71
3
 72
18
 73
14
 74
0
 42
0.0000001
 43
0.0000001
 44
0.0000000001
 40
0.0
 40
0.0
 40
0.0
 40
0.0
 40
0.155685154
 40
0.3030865072
 40
0.4409122557
 40
0.5688018112
 40
0.6291315383
 40
0.6871493952
 40
0.7968135695
 40
0.8491181837
 40
0.900149229
 40
0.9503063518
 40
1.0
 40
1.0
 40
1.0
 40
1.0
 10
16.1765014203
 20
11.5456448739
 30
0.0
 10
16.1785144699
 20
11.5456448739
 30
0.0
 10
16.1824363745
 20
11.545818681
 30
0.0
 10
16.1880892
 20
11.5466351224
 30
0.0
 10
16.1932683514
 20
11.5479927804
 30
0.0
 10
16.1971880398
 20
11.5495866242
 30
0.0
 10
16.1999812837
 20
11.5511218453
 30
0.0
 10
16.2024418092
 20
11.5527499438
 30
0.0
 10
16.204603018
 20
11.554631529
 30
0.0
 10
16.2063757609
 20
11.5567450532
 30
0.0
 10
16.2074812572
 20
11.5583985566
 30
0.0
 10
16.2083754756
 20
11.5601371218
 30
0.0
 10
16.2088297697
 20
11.5613493724
 30
0.0
 10
16.2090195855
 20
11.5619632477
 30
0.0
  0
SPLINE
  5
29F
100
AcDbEntity
  8
0
100
AcDbSpline
 62
7
  6
CONTINUOUS
 70
0
 71
3
 72
15
 73
11
 74
0
 42
0.0000001
 43
0.0000001
 44
0.0000000001
 40
0.0
 40
0.0
 40
0.0
 40
0.0
 40
0.1148729079
 40
0.2360778514
 40
0.3619571684
 40
0.4908828982
 40
0.6210133039
 40
0.7504590024
 40
0.8774377529
 40
1.0
 40
1.0
 40
1.0
 40
1.0
 10
15.9551388223
 20
11.5648313805
 30
0.0
 10
15.9567431775
 20
11.563378796
 30
0.0
 10
15.9602190927
 20
11.5605872106
 30
0.0
 10
15.9659478854
 20
11.5568698561
 30
0.0
 10
15.9722311223
 20
11.5535767705
 30
0.0
 10
15.9789315408
 20
11.550779014
 30
0.0
 10
15.9859069831
 20
11.5485332639
 30
0.0
 10
15.9930110031
 20
11.5468892607
 30
0.0
 10
16.0000887554
 20
11.545883471
 30
0.0
 10
16.0047925472
 20
11.5456448739
 30
0.0
 10
16.0071016622
 20
11.5456448739
 30
0.0
  0
SPLINE
  5
2A0
100
AcDbEntity
  8
0
100
AcDbSpline
 62
7
  6
CONTINUOUS
 70
0
 71
3
 72
18
 73
14
 74
0
 42
0.0000001
 43
0.0000001
 44
0.0000000001
 40
0.0
 40
0.0
 40
0.0
 40
0.0
 40
0.155685154
 40
0.3030865072
 40
0.4409122557
 40
0.5688018112
 40
0.6291315383
 40
0.6871493952
 40
0.7968135695
 40
0.8491181837
 40
0.900149229
 40
0.9503063518
 40
1.0
 40
1.0
 40
1.0
 40
1.0
 10
15.6238648239
 20
11.5456448739
 30
0.0
 10
15.6258778735
 20
11.5456448739
 30
0.0
 10
15.6297997781
 20
11.545818681
 30
0.0
 10
15.6354526036
 20
11.5466351224
 30
0.0
 10
15.640631755
 20
11.5479927804
 30
0.0
 10
15.6445514434
 20
11.5495866242
 30
0.0
 10
15.6473446873
 20
11.5511218453
 30
0.0
 10
15.6498052128
 20
11.5527499438
 30
0.0
 10
15.6519664216
 20
11.554631529
 30
0.0
 10
15.6537391644
 20
11.5567450532
 30
0.0
 10
15.6548446608
 20
11.5583985566
 30
0.0
 10
15.6557388792
 20
11.5601371218
 30
0.0
 10
15.6561931733
 20
11.5613493724
 30
0.0
 10
15.6563829891
 20
11.5619632477
 30
0.0
  0
SPLINE
  5
2A1
100
AcDbEntity
  8
0
100
AcDbSpline
 62
7
  6
CONTINUOUS
 70
0
 71
3
 72
15
 73
11
 74
0
 42
0.0000001
 43
0.0000001
 44
0.0000000001
 40
0.0
 40
0.0
 40
0.0
 40
0.0
 40
0.1148729079
 40
0.2360778514
 40
0.3619571684
 40
0.4908828982
 40
0.6210133039
 40
0.7504590024
 40
0.8774377529
 40
1.0
 40
1.0
 40
1.0
 40
1.0
 10
15.4025022259
 20
11.5648313805
 30
0.0
 10
15.4041065811
 20
11.563378796
 30
0.0
 10
15.4075824963
 20
11.5605872106
 30
0.0
 10
15.413311289
 20
11.5568698561
 30
0.0
 10
15.4195945259
 20
11.5535767705
 30
0.0
 10
15.4262949444
 20
11.550779014
 30
0.0
 10
15.4332703867
 20
11.5485332639
 30
0.0
 10
15.4403744067
 20
11.5468892607
 30
0.0
 10
15.447452159
 20
11.545883471
 30
0.0
 10
15.4521559508
 20
11.5456448739
 30
0.0
 10
15.4544650658
 20
11.5456448739
 30
0.0
  0
SPLINE
  5
2A2
100
AcDbEntity
  8
0
100
AcDbSpline
 62
7
  6
CONTINUOUS
 70
0
 71
3
 72
18
 73
14
 74
0
 42
0.0000001
 43
0.0000001
 44
0.0000000001
 40
0.0
 40
0.0
 40
0.0
 40
0.0
 40
0.155685154
 40
0.3030865072
 40
0.4409122557
 40
0.5688018112
 40
0.6291315383
 40
0.6871493952
 40
0.7968135695
 40
0.8491181837
 40
0.900149229
 40
0.9503063518
 40
1.0
 40
1.0
 40
1.0
 40
1.0
 10
15.0712282275
 20
11.5456448739
 30
0.0
 10
15.0732412771
 20
11.5456448739
 30
0.0
 10
15.0771631817
 20
11.545818681
 30
0.0
 10
15.0828160072
 20
11.5466351224
 30
0.0
 10
15.0879951586
 20
11.5479927804
 30
0.0
 10
15.091914847
 20
11.5495866242
 30
0.0
 10
15.0947080909
 20
11.5511218453
 30
0.0
 10
15.0971686164
 20
11.5527499438
 30
0.0
 10
15.0993298252
 20
11.554631529
 30
0.0
 10
15.101102568
 20
11.5567450532
 30
0.0
 10
15.1022080644
 20
11.5583985566
 30
0.0
 10
15.1031022828
 20
11.5601371218
 30
0.0
 10
15.1035565769
 20
11.5613493724
 30
0.0
 10
15.1037463927
 20
11.5619632477
 30
0.0
  0
SPLINE
  5
2A3
100
AcDbEntity
  8
0
100
AcDbSpline
 62
7
  6
CONTINUOUS
 70
0
 71
3
 72
15
 73
11
 74
0
 42
0.0000001
 43
0.0000001
 44
0.0000000001
 40
0.0
 40
0.0
 40
0.0
 40
0.0
 40
0.1148729079
 40
0.2360778514
 40
0.3619571684
 40
0.4908828982
 40
0.6210133039
 40
0.7504590024
 40
0.8774377529
 40
1.0
 40
1.0
 40
1.0
 40
1.0
 10
14.8498656295
 20
11.5648313805
 30
0.0
 10
14.8514699847
 20
11.563378796
 30
0.0
 10
14.8549458999
 20
11.5605872106
 30
0.0
 10
14.8606746926
 20
11.5568698561
 30
0.0
 10
14.8669579295
 20
11.5535767705
 30
0.0
 10
14.873658348
 20
11.550779014
 30
0.0
 10
14.8806337903
 20
11.5485332639
 30
0.0
 10
14.8877378103
 20
11.5468892607
 30
0.0
 10
14.8948155626
 20
11.545883471
 30
0.0
 10
14.8995193544
 20
11.5456448739
 30
0.0
 10
14.9018284694
 20
11.5456448739
 30
0.0
  0
SPLINE
  5
2A4
100
AcDbEntity
  8
0
100
AcDbSpline
 62
7
  6
CONTINUOUS
 70
0
 71
3
 72
18
 73
14
 74
0
 42
0.0000001
 43
0.0000001
 44
0.0000000001
 40
0.0
 40
0.0
 40
0.0
 40
0.0
 40
0.155685154
 40
0.3030865072
 40
0.4409122557
 40
0.5688018112
 40
0.6291315383
 40
0.6871493952
 40
0.7968135695
 40
0.8491181837
 40
0.900149229
 40
0.9503063518
 40
1.0
 40
1.0
 40
1.0
 40
1.0
 10
14.5185916311
 20
11.5456448739
 30
0.0
 10
14.5206046807
 20
11.5456448739
 30
0.0
 10
14.5245265853
 20
11.545818681
 30
0.0
 10
14.5301794107
 20
11.5466351224
 30
0.0
 10
14.5353585622
 20
11.5479927804
 30
0.0
 10
14.5392782506
 20
11.5495866242
 30
0.0
 10
14.5420714945
 20
11.5511218453
 30
0.0
 10
14.54453202
 20
11.5527499438
 30
0.0
 10
14.5466932288
 20
11.554631529
 30
0.0
 10
14.5484659716
 20
11.5567450532
 30
0.0
 10
14.549571468
 20
11.5583985566
 30
0.0
 10
14.5504656864
 20
11.5601371218
 30
0.0
 10
14.5509199805
 20
11.5613493724
 30
0.0
 10
14.5511097963
 20
11.5619632477
 30
0.0
  0
SPLINE
  5
2A5
100
AcDbEntity
  8
0
100
AcDbSpline
 62
7
  6
CONTINUOUS
 70
0
 71
3
 72
15
 73
11
 74
0
 42
0.0000001
 43
0.0000001
 44
0.0000000001
 40
0.0
 40
0.0
 40
0.0
 40
0.0
 40
0.1148729079
 40
0.2360778514
 40
0.3619571684
 40
0.4908828982
 40
0.6210133039
 40
0.7504590024
 40
0.8774377529
 40
1.0
 40
1.0
 40
1.0
 40
1.0
 10
14.2972290331
 20
11.5648313805
 30
0.0
 10
14.2988333883
 20
11.563378796
 30
0.0
 10
14.3023093035
 20
11.5605872106
 30
0.0
 10
14.3080380962
 20
11.5568698561
 30
0.0
 10
14.3143213331
 20
11.5535767705
 30
0.0
 10
14.3210217516
 20
11.550779014
 30
0.0
 10
14.3279971939
 20
11.5485332639
 30
0.0
 10
14.3351012139
 20
11.5468892607
 30
0.0
 10
14.3421789662
 20
11.545883471
 30
0.0
 10
14.346882758
 20
11.5456448739
 30
0.0
 10
14.349191873
 20
11.5456448739
 30
0.0
  0
SPLINE
  5
2A6
100
AcDbEntity
  8
0
100
AcDbSpline
 62
7
  6
CONTINUOUS
 70
0
 71
3
 72
15
 73
11
 74
0
 42
0.0000001
 43
0.0000001
 44
0.0000000001
 40
0.0
 40
0.0
 40
0.0
 40
0.0
 40
0.1224858165
 40
0.2495257466
 40
0.3790239792
 40
0.5091197222
 40
0.6380069699
 40
0.7639357835
 40
0.8851959786
 40
1.0
 40
1.0
 40
1.0
 40
1.0
 10
13.6422854966
 20
11.6388863691
 30
0.0
 10
13.6438239418
 20
11.6388863691
 30
0.0
 10
13.646959528
 20
11.6387264537
 30
0.0
 10
13.6516786834
 20
11.6380573006
 30
0.0
 10
13.6564154473
 20
11.6369601609
 30
0.0
 10
13.6610658394
 20
11.6354641837
 30
0.0
 10
13.6655320458
 20
11.6335980656
 30
0.0
 10
13.669722052
 20
11.631403127
 30
0.0
 10
13.6735407734
 20
11.6289233714
 30
0.0
 10
13.6758584645
 20
11.6270631706
 30
0.0
 10
13.6769273899
 20
11.6260953647
 30
0.0
  0
SPLINE
  5
2A7
100
AcDbEntity
  8
0
100
AcDbSpline
 62
7
  6
CONTINUOUS
 70
0
 71
3
 72
15
 73
11
 74
0
 42
0.0000001
 43
0.0000001
 44
0.0000000001
 40
0.0
 40
0.0
 40
0.0
 40
0.0
 40
0.1224858165
 40
0.2495257466
 40
0.3790239792
 40
0.5091197222
 40
0.6380069699
 40
0.7639357835
 40
0.8851959786
 40
1.0
 40
1.0
 40
1.0
 40
1.0
 10
14.194922093
 20
11.6388863691
 30
0.0
 10
14.1964605382
 20
11.6388863691
 30
0.0
 10
14.1995961244
 20
11.6387264537
 30
0.0
 10
14.2043152798
 20
11.6380573006
 30
0.0
 10
14.2090520437
 20
11.6369601609
 30
0.0
 10
14.2137024358
 20
11.6354641837
 30
0.0
 10
14.2181686422
 20
11.6335980656
 30
0.0
 10
14.2223586484
 20
11.631403127
 30
0.0
 10
14.2261773698
 20
11.6289233714
 30
0.0
 10
14.2284950609
 20
11.6270631706
 30
0.0
 10
14.2295639863
 20
11.6260953647
 30
0.0
  0
SPLINE
  5
2A8
100
AcDbEntity
  8
0
100
AcDbSpline
 62
7
  6
CONTINUOUS
 70
0
 71
3
 72
15
 73
11
 74
0
 42
0.0000001
 43
0.0000001
 44
0.0000000001
 40
0.0
 40
0.0
 40
0.0
 40
0.0
 40
0.1224858165
 40
0.2495257466
 40
0.3790239792
 40
0.5091197222
 40
0.6380069699
 40
0.7639357835
 40
0.8851959786
 40
1.0
 40
1.0
 40
1.0
 40
1.0
 10
14.7475586894
 20
11.6388863691
 30
0.0
 10
14.7490971346
 20
11.6388863691
 30
0.0
 10
14.7522327208
 20
11.6387264537
 30
0.0
 10
14.7569518762
 20
11.6380573006
 30
0.0
 10
14.7616886401
 20
11.6369601609
 30
0.0
 10
14.7663390322
 20
11.6354641837
 30
0.0
 10
14.7708052386
 20
11.6335980656
 30
0.0
 10
14.7749952448
 20
11.631403127
 30
0.0
 10
14.7788139662
 20
11.6289233714
 30
0.0
 10
14.7811316573
 20
11.6270631706
 30
0.0
 10
14.7822005827
 20
11.6260953647
 30
0.0
  0
SPLINE
  5
2A9
100
AcDbEntity
  8
0
100
AcDbSpline
 62
7
  6
CONTINUOUS
 70
0
 71
3
 72
15
 73
11
 74
0
 42
0.0000001
 43
0.0000001
 44
0.0000000001
 40
0.0
 40
0.0
 40
0.0
 40
0.0
 40
0.1224858165
 40
0.2495257466
 40
0.3790239792
 40
0.5091197222
 40
0.6380069699
 40
0.7639357835
 40
0.8851959786
 40
1.0
 40
1.0
 40
1.0
 40
1.0
 10
15.3001952858
 20
11.6388863691
 30
0.0
 10
15.301733731
 20
11.6388863691
 30
0.0
 10
15.3048693172
 20
11.6387264537
 30
0.0
 10
15.3095884726
 20
11.6380573006
 30
0.0
 10
15.3143252365
 20
11.6369601609
 30
0.0
 10
15.3189756286
 20
11.6354641837
 30
0.0
 10
15.323441835
 20
11.6335980656
 30
0.0
 10
15.3276318412
 20
11.631403127
 30
0.0
 10
15.3314505626
 20
11.6289233714
 30
0.0
 10
15.3337682537
 20
11.6270631706
 30
0.0
 10
15.3348371791
 20
11.6260953647
 30
0.0
  0
SPLINE
  5
2AA
100
AcDbEntity
  8
0
100
AcDbSpline
 62
7
  6
CONTINUOUS
 70
0
 71
3
 72
15
 73
11
 74
0
 42
0.0000001
 43
0.0000001
 44
0.0000000001
 40
0.0
 40
0.0
 40
0.0
 40
0.0
 40
0.1224858165
 40
0.2495257466
 40
0.3790239792
 40
0.5091197222
 40
0.6380069699
 40
0.7639357835
 40
0.8851959786
 40
1.0
 40
1.0
 40
1.0
 40
1.0
 10
15.8528318822
 20
11.6388863691
 30
0.0
 10
15.8543703274
 20
11.6388863691
 30
0.0
 10
15.8575059136
 20
11.6387264537
 30
0.0
 10
15.862225069
 20
11.6380573006
 30
0.0
 10
15.8669618329
 20
11.6369601609
 30
0.0
 10
15.871612225
 20
11.6354641837
 30
0.0
 10
15.8760784314
 20
11.6335980656
 30
0.0
 10
15.8802684377
 20
11.631403127
 30
0.0
 10
15.884087159
 20
11.6289233714
 30
0.0
 10
15.8864048501
 20
11.6270631706
 30
0.0
 10
15.8874737755
 20
11.6260953647
 30
0.0
  0
SPLINE
  5
2AB
100
AcDbEntity
  8
0
100
AcDbSpline
 62
7
  6
CONTINUOUS
 70
0
 71
3
 72
15
 73
11
 74
0
 42
0.0000001
 43
0.0000001
 44
0.0000000001
 40
0.0
 40
0.0
 40
0.0
 40
0.0
 40
0.1224858165
 40
0.2495257466
 40
0.3790239792
 40
0.5091197222
 40
0.6380069699
 40
0.7639357835
 40
0.8851959786
 40
1.0
 40
1.0
 40
1.0
 40
1.0
 10
16.4054684786
 20
11.6388863691
 30
0.0
 10
16.4070069238
 20
11.6388863691
 30
0.0
 10
16.41014251
 20
11.6387264537
 30
0.0
 10
16.4148616654
 20
11.6380573006
 30
0.0
 10
16.4195984293
 20
11.6369601609
 30
0.0
 10
16.4242488214
 20
11.6354641837
 30
0.0
 10
16.4287150278
 20
11.6335980656
 30
0.0
 10
16.4329050341
 20
11.631403127
 30
0.0
 10
16.4367237554
 20
11.6289233714
 30
0.0
 10
16.4390414465
 20
11.6270631706
 30
0.0
 10
16.4401103719
 20
11.6260953647
 30
0.0
  0
ENDSEC
  0
SECTION
  2
OBJECTS
  0
DICTIONARY
  5
C
100
AcDbDictionary
280
0
281
1
  3
ACAD_GROUP
350
D
  3
ACAD_MLINESTYLE
350
17
  3
ACAD_LAYOUT
350
1A
  3
ACAD_PLOTSETTINGS
350
19
  3
ACAD_PLOTSTYLENAME
350
E
  0
DICTIONARY
  5
D
102
{ACAD_REACTORS
330
C
102
}
100
AcDbDictionary
280
0
281
1
  0
ACDBDICTIONARYWDFLT
  5
E
102
{ACAD_REACTORS
330
C
102
}
100
AcDbDictionary
281
1
  3
Normal
350
F
100
AcDbDictionaryWithDefault
340
F
  0
DICTIONARY
  5
17
102
{ACAD_REACTORS
330
C
102
}
100
AcDbDictionary
280
0
281
1
  3
Standard
350
18
  0
DICTIONARY
  5
19
102
{ACAD_REACTORS
330
C
102
}
100
AcDbDictionary
281
1
  0
DICTIONARY
  5
1A
102
{ACAD_REACTORS
330
C
102
}
100
AcDbDictionary
281
1
  3
Model
350
2AC
  3
Layout1
350
2AD
  0
ACDBPLACEHOLDER
  5
F
102
{ACAD_REACTORS
330
E
102
}
  0
MLINESTYLE
  5
18
102
{ACAD_REACTORS
330
17
102
}
100
AcDbMlineStyle
  2
STANDARD
 70
0
  3

 62
256
 51
90.0
 52
90.0
 71
2
 49
0.5
 62
256
  6
BYLAYER
 49
-0.5
 62
256
  6
BYLAYER
  0
LAYOUT
  5
2AC
102
{ACAD_REACTORS
330
1A
102
}
100
AcDbPlotSettings
  1

  2
none_device
  4
ANSI_C_(22.00_x_17.00_Inches)
  6

 40
0.0
 41
0.0
 42
0.0
 43
0.0
 44
558.8
 45
431.8
 46
0.0
 47
0.0
 48
0.0
 49
0.0
140
0.0
141
0.0
142
1.0
143
1.0
 70
1024
 72
0
 73
0
 74
0
  7

 75
0
147
1.0
148
0.0
149
0.0
100
AcDbLayout
  1
Model
 70
0
 71
0
 10
0.0
 20
0.0
 11
22.0
 21
17.0
 12
0.0
 22
0.0
 32
0.0
 14
0.0
 24
0.0
 34
0.0
 15
0.0
 25
0.0
 35
0.0
146
0.0
 13
0.0
 23
0.0
 33
0.0
 16
1.0
 26
0.0
 36
0.0
 17
0.0
 27
1.0
 37
0.0
 76
0
330
216
345
0
346
0
  0
LAYOUT
  5
2AD
102
{ACAD_REACTORS
330
1A
102
}
100
AcDbPlotSettings
  1

  2
none_device
  4
ANSI_C_(22.00_x_17.00_Inches)
  6

 40
0.0
 41
0.0
 42
0.0
 43
0.0
 44
558.8
 45
431.8
 46
0.0
 47
0.0
 48
0.0
 49
0.0
140
0.0
141
0.0
142
1.0
143
1.0
 70
0
 72
0
 73
0
 74
0
  7

 75
0
147
1.0
148
0.0
149
0.0
100
AcDbLayout
  1
Layout1
 70
0
 71
1
 10
0.0
 20
0.0
 11
22.0
 21
17.0
 12
0.0
 22
0.0
 32
0.0
 14
0.0
 24
0.0
 34
0.0
 15
0.0
 25
0.0
 35
0.0
146
0.0
 13
0.0
 23
0.0
 33
0.0
 16
1.0
 26
0.0
 36
0.0
 17
0.0
 27
1.0
 37
0.0
 76
0
330
217
345
0
346
0
  0
ENDSEC
  0
EOF