999
DXF file: _cgs_temp_output.dxf
999
Pro/ENGINEER 2016360 by Parametric Technology Corporation
  0
SECTION
  2
HEADER
  9
$ACADVER
  1
AC1021
  9
$DWGCODEPAGE
  3
ANSI_1252
  9
$EXTMAX
 10
22.0
 20
17.0
 30
0.0
  9
$EXTMIN
 10
0.0
 20
0.0
 30
0.0
  9
$LIMMIN
 10
0.0
 20
0.0
  9
$LIMMAX
 10
22.0
 20
17.0
  9
$VIEWCTR
 10
11.0
 20
8.5
  9
$VIEWSIZE
 40
17.0
  9
$CLAYER
  8
0
  9
$LTSCALE
 40
1.21
  9
$CELTYPE
  6
BYLAYER
  9
$DIMSCALE
 40
1.0
  9
$DIMASZ
 40
0.1875
  9
$DIMEXO
 40
0.0625
  9
$DIMDLI
 40
0.836
  9
$DIMEXE
 40
0.125
  9
$DIMCEN
 40
0.198
  9
$DIMLFAC
 40
1.0
  9
$DIMBLK
  1
_CLOSED
  9
$DIMALT
 70
0
  9
$DIMALTF
 40
25.4
  9
$DIMTXT
 40
0.15625
  9
$DIMTOL
 70
0
  9
$DIMLIM
 70
0
  9
$DIMTFAC
 40
1.0
  9
$DIMGAP
 40
0.09
  9
$DIMDSEP
 70
46
  9
$AUNITS
 70
0
  9
$PDMODE
 70
3
  9
$PDSIZE
 40
0.3125
  9
$HANDSEED
  5
2AE
  9
$TILEMODE
 70
1
  9
$MEASUREMENT
 70
0
  9
$INSUNITS
 70
1
  0
ENDSEC
  0
SECTION
  2
CLASSES
  0
CLASS
  1
ACDBDICTIONARYWDFLT
  2
AcDbDictionaryWithDefault
  3
AutoCAD 2000
 90
0
 91
1
280
0
281
0
  0
CLASS
  1
ACDBPLACEHOLDER
  2
AcDbPlaceHolder
  3
AutoCAD 2000
 90
0
 91
1
280
0
281
0
  0
CLASS
  1
LAYOUT
  2
AcDbLayout
  3
AutoCAD 2000
 90
0
 91
0
280
0
281
0
  0
ENDSEC
  0
SECTION
  2
TABLES
  0
TABLE
  2
VPORT
  5
8
100
AcDbSymbolTable
 70
2
  0
VPORT
  5
1F4
100
AcDbSymbolTableRecord
100
AcDbViewportTableRecord
  2
*ACTIVE
 70
0
 10
0.0
 20
0.0
 11
1.0
 21
1.0
 12
11.0
 22
8.5
 13
0.0
 23
0.0
 14
1.0
 24
1.0
 15
0.0
 25
0.0
 16
0.0
 26
0.0
 36
1.0
 17
0.0
 27
0.0
 37
0.0
 40
17.0
 41
1.2941176471
 42
50.0
 43
0.0
 44
0.0
 50
0.0
 51
0.0
 71
0
 72
100
 73
1
 74
1
 75
0
 76
0
 77
0
 78
0
  0
ENDTAB
  0
TABLE
  2
LTYPE
  5
5
100
AcDbSymbolTable
 70
6
  0
LTYPE
  5
14
100
AcDbSymbolTableRecord
100
AcDbLinetypeTableRecord
  2
BYBLOCK
 70
0
  3

 72
65
 73
0
 40
0.0
  0
LTYPE
  5
15
100
AcDbSymbolTableRecord
100
AcDbLinetypeTableRecord
  2
BYLAYER
 70
0
  3

 72
65
 73
0
 40
0.0
  0
LTYPE
  5
16
100
AcDbSymbolTableRecord
100
AcDbLinetypeTableRecord
  2
CONTINUOUS
 70
64
  3
Solid line
 72
65
 73
0
 40
0.0
  0
LTYPE
  5
1F5
100
AcDbSymbolTableRecord
100
AcDbLinetypeTableRecord
  2
CENTER
 70
64
  3
____ _ ____ _ ____ _ ____ _ ____ _ ____ _ ____
 72
65
 73
4
 40
0.6
 49
0.375
 74
0
 49
-0.075
 74
0
 49
0.075
 74
0
 49
-0.075
 74
0
  0
LTYPE
  5
1F6
100
AcDbSymbolTableRecord
100
AcDbLinetypeTableRecord
  2
HIDDEN
 70
64
  3
- - - - - - - - - - - - - - - - - - - -
 72
65
 73
2
 40
0.2
 49
0.1
 74
0
 49
-0.1
 74
0
  0
LTYPE
  5
1F7
100
AcDbSymbolTableRecord
100
AcDbLinetypeTableRecord
  2
PHANTOM
 70
64
  3
_____ _ _ _____ _ _ _____ _ _ _____
 72
65
 73
6
 40
0.8
 49
0.45
 74
0
 49
-0.05
 74
0
 49
0.1
 74
0
 49
-0.05
 74
0
 49
0.1
 74
0
 49
-0.05
 74
0
  0
LTYPE
  5
1F8
100
AcDbSymbolTableRecord
100
AcDbLinetypeTableRecord
  2
DOT
 70
64
  3
. . . . . . . . . . . . . . . . . . . .
 72
65
 73
2
 40
0.2
 49
0.1
 74
0
 49
-0.1
 74
0
  0
LTYPE
  5
1F9
100
AcDbSymbolTableRecord
100
AcDbLinetypeTableRecord
  2
DASHED
 70
64
  3
- - - - - - - - - - - - - - - - - - - -
 72
65
 73
2
 40
0.2
 49
0.1
 74
0
 49
-0.1
 74
0
  0
ENDTAB
  0
TABLE
  2
LAYER
  5
2
100
AcDbSymbolTable
 70
36
  0
LAYER
  5
10
100
AcDbSymbolTableRecord
100
AcDbLayerTableRecord
  2
0
 70
0
 62
7
  6
CONTINUOUS
370
-3
390
F
  0
LAYER
  5
1FA
100
AcDbSymbolTableRecord
100
AcDbLayerTableRecord
  2
DEFAULT_1
 70
0
 62
7
  6
CENTER
370
-3
390
F
  0
LAYER
  5
1FB
100
AcDbSymbolTableRecord
100
AcDbLayerTableRecord
  2
DEFAULT_2
 70
0
 62
8
  6
HIDDEN
370
-3
390
F
  0
LAYER
  5
1FC
100
AcDbSymbolTableRecord
100
AcDbLayerTableRecord
  2
DEFAULT_3
 70
0
 62
7
  6
PHANTOM
370
-3
390
F
  0
LAYER
  5
1FD
100
AcDbSymbolTableRecord
100
AcDbLayerTableRecord
  2
01_ALL_DTM_PLN
 70
0
 62
7
  6
CONTINUOUS
370
-3
390
F
  0
LAYER
  5
1FE
100
AcDbSymbolTableRecord
100
AcDbLayerTableRecord
  2
01__ASM_ALL_DTM_PLN
 70
0
 62
7
  6
CONTINUOUS
370
-3
390
F
  0
LAYER
  5
1FF
100
AcDbSymbolTableRecord
100
AcDbLayerTableRecord
  2
01__ASM_DEF_DTM_PLN
 70
0
 62
7
  6
CONTINUOUS
370
-3
390
F
  0
LAYER
  5
200
100
AcDbSymbolTableRecord
100
AcDbLayerTableRecord
  2
01___PRT_ALL_DTM_PLN
 70
0
 62
7
  6
CONTINUOUS
370
-3
390
F
  0
LAYER
  5
201
100
AcDbSymbolTableRecord
100
AcDbLayerTableRecord
  2
01___PRT_DEF_DTM_PLN
 70
0
 62
7
  6
CONTINUOUS
370
-3
390
F
  0
LAYER
  5
202
100
AcDbSymbolTableRecord
100
AcDbLayerTableRecord
  2
02_ALL_AXES
 70
0
 62
7
  6
CONTINUOUS
370
-3
390
F
  0
LAYER
  5
203
100
AcDbSymbolTableRecord
100
AcDbLayerTableRecord
  2
02__ASM_ALL_AXES
 70
0
 62
7
  6
CONTINUOUS
370
-3
390
F
  0
LAYER
  5
204
100
AcDbSymbolTableRecord
100
AcDbLayerTableRecord
  2
02___PRT_ALL_AXES
 70
0
 62
7
  6
CONTINUOUS
370
-3
390
F
  0
LAYER
  5
205
100
AcDbSymbolTableRecord
100
AcDbLayerTableRecord
  2
03_ALL_CURVES
 70
0
 62
7
  6
CONTINUOUS
370
-3
390
F
  0
LAYER
  5
206
100
AcDbSymbolTableRecord
100
AcDbLayerTableRecord
  2
03__ASM_ALL_CURVES
 70
0
 62
7
  6
CONTINUOUS
370
-3
390
F
  0
LAYER
  5
207
100
AcDbSymbolTableRecord
100
AcDbLayerTableRecord
  2
03___PRT_ALL_CURVES
 70
0
 62
7
  6
CONTINUOUS
370
-3
390
F
  0
LAYER
  5
208
100
AcDbSymbolTableRecord
100
AcDbLayerTableRecord
  2
04_ALL_DTM_PNT
 70
0
 62
7
  6
CONTINUOUS
370
-3
390
F
  0
LAYER
  5
209
100
AcDbSymbolTableRecord
100
AcDbLayerTableRecord
  2
04__ASM_ALL_DTM_PNT
 70
0
 62
7
  6
CONTINUOUS
370
-3
390
F
  0
LAYER
  5
20A
100
AcDbSymbolTableRecord
100
AcDbLayerTableRecord
  2
04___PRT_ALL_DTM_PNT
 70
0
 62
7
  6
CONTINUOUS
370
-3
390
F
  0
LAYER
  5
20B
100
AcDbSymbolTableRecord
100
AcDbLayerTableRecord
  2
05_ALL_DTM_CSYS
 70
0
 62
7
  6
CONTINUOUS
370
-3
390
F
  0
LAYER
  5
20C
100
AcDbSymbolTableRecord
100
AcDbLayerTableRecord
  2
05__ASM_ALL_DTM_CSYS
 70
0
 62
7
  6
CONTINUOUS
370
-3
390
F
  0
LAYER
  5
20D
100
AcDbSymbolTableRecord
100
AcDbLayerTableRecord
  2
05__ASM_DEF_DTM_CSYS
 70
0
 62
7
  6
CONTINUOUS
370
-3
390
F
  0
LAYER
  5
20E
100
AcDbSymbolTableRecord
100
AcDbLayerTableRecord
  2
05___PRT_ALL_DTM_CSYS
 70
0
 62
7
  6
CONTINUOUS
370
-3
390
F
  0
LAYER
  5
20F
100
AcDbSymbolTableRecord
100
AcDbLayerTableRecord
  2
05___PRT_DEF_DTM_CSYS
 70
0
 62
7
  6
CONTINUOUS
370
-3
390
F
  0
LAYER
  5
210
100
AcDbSymbolTableRecord
100
AcDbLayerTableRecord
  2
06_ALL_SURFS
 70
0
 62
7
  6
CONTINUOUS
370
-3
390
F
  0
LAYER
  5
211
100
AcDbSymbolTableRecord
100
AcDbLayerTableRecord
  2
06__ASM_ALL_SURFS
 70
0
 62
7
  6
CONTINUOUS
370
-3
390
F
  0
LAYER
  5
212
100
AcDbSymbolTableRecord
100
AcDbLayerTableRecord
  2
06___PRT_ALL_SURFS
 70
0
 62
7
  6
CONTINUOUS
370
-3
390
F
  0
LAYER
  5
213
100
AcDbSymbolTableRecord
100
AcDbLayerTableRecord
  2
07__ASM_ALL_SKELETONS
 70
0
 62
7
  6
CONTINUOUS
370
-3
390
F
  0
ENDTAB
  0
TABLE
  2
STYLE
  5
3
100
AcDbSymbolTable
 70
1
  0
STYLE
  5
11
100
AcDbSymbolTableRecord
100
AcDbTextStyleTableRecord
  2
STANDARD
 70
0
 40
0.0
 41
0.8
 50
0.0
 71
0
 42
0.2
  3
txt
  4

  0
STYLE
  5
214
100
AcDbSymbolTableRecord
100
AcDbTextStyleTableRecord
  2
TEXTSTYLE_1
 70
0
 40
0.0
 41
0.8
 50
0.0
 71
0
 42
0.2
  3
gdt
  4

  0
ENDTAB
  0
TABLE
  2
VIEW
  5
6
100
AcDbSymbolTable
 70
0
  0
ENDTAB
  0
TABLE
  2
UCS
  5
7
100
AcDbSymbolTable
 70
0
  0
ENDTAB
  0
TABLE
  2
APPID
  5
9
100
AcDbSymbolTable
 70
1
  0
APPID
  5
215
100
AcDbSymbolTableRecord
100
AcDbRegAppTableRecord
  2
ACAD
 70
0
  0
ENDTAB
  0
TABLE
  2
BLOCK_RECORD
  5
1
100
AcDbSymbolTable
 70
0
  0
BLOCK_RECORD
  5
216
100
AcDbSymbolTableRecord
100
AcDbBlockTableRecord
  2
*Model_Space
  0
BLOCK_RECORD
  5
217
100
AcDbSymbolTableRecord
100
AcDbBlockTableRecord
  2
*Paper_Space
  0
ENDTAB
  0
TABLE
  2
DIMSTYLE
  5
A
100
AcDbSymbolTable
 70
1
100
AcDbDimStyleTable
 71
0
  0
DIMSTYLE
105
218
100
AcDbSymbolTableRecord
100
AcDbDimStyleTableRecord
  2
STANDARD
 70
0
  3

  4

 40
1.0
 41
0.1875
 42
0.0625
 43
0.38
 44
0.125
 45
0.0
 46
0.0
 47
0.0001
 48
0.0001
140
0.15625
141
0.09
142
0.0
143
25.4
144
1.0
145
0.0
146
1.0
147
0.09
 71
0.0
 72
0.0
 73
1
 74
1
 75
0
 76
0
 77
0
 78
4
 79
1
170
0
171
3
172
0
173
0
174
0
175
0
176
0
177
0
178
0
270
2
179
4
271
4
272
4
273
2
274
2
275
0
280
0
281
0
282
0
283
1
284
4
285
0
286
0
287
3
288
0
340
11
278
46
  0
ENDTAB
  0
ENDSEC
  0
SECTION
  2
BLOCKS
  0
BLOCK
  5
20
100
AcDbEntity
  8
0
100
AcDbBlockBegin
  2
*Model_Space
 70
0
 10
0.0
 20
0.0
 30
0.0
  3
*Model_Space
  1

  0
ENDBLK
  5
21
100
AcDbEntity
  8
0
100
AcDbBlockEnd
  0
BLOCK
  5
1C
100
AcDbEntity
  8
0
100
AcDbBlockBegin
  2
*Paper_Space
 70
0
 10
0.0
 20
0.0
 30
0.0
  3
*Paper_Space
  1

  0
ENDBLK
  5
1D
100
AcDbEntity
  8
0
100
AcDbBlockEnd
  0
ENDSEC
  0
SECTION
  2
ENTITIES
  0
MTEXT
  5
219
100
AcDbEntity
  8
0
100
AcDbMText
 62
7
  6
CONTINUOUS
  7
STANDARD
 71
1
 72
1
 10
15.9560215477
 20
0.9479130325
 30
0.0
 11
1.0
 21
0.0
 31
0.0
 44
0.9
  1
SCALE: 1:3.000
 40
0.3
 41
3.36
  0
LINE
  5
21A
100
AcDbEntity
  8
0
100
AcDbLine
 62
7
  6
CONTINUOUS
 10
0.0
 20
0.0
 11
0.0
 21
17.0
  0
LINE
  5
21B
100
AcDbEntity
  8
0
100
AcDbLine
 62
7
  6
CONTINUOUS
 10
0.0
 20
0.0
 11
22.0
 21
0.0
  0
LINE
  5
21C
100
AcDbEntity
  8
0
100
AcDbLine
 62
7
  6
CONTINUOUS
 10
0.0
 20
17.0
 11
22.0
 21
17.0
  0
LINE
  5
21D
100
AcDbEntity
  8
0
100
AcDbLine
 62
7
  6
CONTINUOUS
 10
22.0
 20
0.0
 11
22.0
 21
17.0
  0
LINE
  5
21E
100
AcDbEntity
  8
0
100
AcDbLine
 62
7
  6
CONTINUOUS
 10
4.3303672762
 20
5.6551198968
 11
4.3303672762
 21
5.5351198968
  0
LINE
  5
21F
100
AcDbEntity
  8
0
100
AcDbLine
 62
7
  6
CONTINUOUS
 10
4.4513906393
 20
5.5145426778
 11
4.4922142658
 21
5.4159857251
  0
LINE
  5
220
100
AcDbEntity
  8
0
100
AcDbLine
 62
7
  6
CONTINUOUS
 10
4.7685202865
 20
5.4159857251
 11
4.809343913
 21
5.5145426778
  0
LINE
  5
221
100
AcDbEntity
  8
0
100
AcDbLine
 62
7
  6
CONTINUOUS
 10
5.0513906393
 20
5.5145426778
 11
5.0922142658
 21
5.4159857251
  0
LINE
  5
222
100
AcDbEntity
  8
0
100
AcDbLine
 62
7
  6
CONTINUOUS
 10
5.3685202865
 20
5.4159857251
 11
5.409343913
 21
5.5145426778
  0
LINE
  5
223
100
AcDbEntity
  8
0
100
AcDbLine
 62
7
  6
CONTINUOUS
 10
5.6513906393
 20
5.5145426778
 11
5.6922142658
 21
5.4159857251
  0
LINE
  5
224
100
AcDbEntity
  8
0
100
AcDbLine
 62
7
  6
CONTINUOUS
 10
5.9685202865
 20
5.4159857251
 11
6.009343913
 21
5.5145426778
  0
LINE
  5
225
100
AcDbEntity
  8
0
100
AcDbLine
 62
7
  6
CONTINUOUS
 10
4.5384082424
 20
5.3851198968
 11
4.7223263099
 21
5.3851198968
  0
LINE
  5
226
100
AcDbEntity
  8
0
100
AcDbLine
 62
7
  6
CONTINUOUS
 10
5.1384082424
 20
5.3851198968
 11
5.3223263099
 21
5.3851198968
  0
LINE
  5
227
100
AcDbEntity
  8
0
100
AcDbLine
 62
7
  6
CONTINUOUS
 10
5.7384082424
 20
5.3851198968
 11
5.9223263099
 21
5.3851198968
  0
LINE
  5
228
100
AcDbEntity
  8
0
100
AcDbLine
 62
7
  6
CONTINUOUS
 10
6.3384082424
 20
5.3851198968
 11
6.5223263099
 21
5.3851198968
  0
LINE
  5
229
100
AcDbEntity
  8
0
100
AcDbLine
 62
7
  6
CONTINUOUS
 10
6.9384082424
 20
5.3851198968
 11
7.1223263099
 21
5.3851198968
  0
LINE
  5
22A
100
AcDbEntity
  8
0
100
AcDbLine
 62
7
  6
CONTINUOUS
 10
7.5384082424
 20
5.3851198968
 11
7.7223263099
 21
5.3851198968
  0
LINE
  5
22B
100
AcDbEntity
  8
0
100
AcDbLine
 62
7
  6
CONTINUOUS
 10
4.3303672762
 20
5.5351198968
 11
4.4205946549
 21
5.5351198968
  0
LINE
  5
22C
100
AcDbEntity
  8
0
100
AcDbLine
 62
7
  6
CONTINUOUS
 10
4.8401398974
 20
5.5351198968
 11
5.0205946549
 21
5.5351198968
  0
LINE
  5
22D
100
AcDbEntity
  8
0
100
AcDbLine
 62
7
  6
CONTINUOUS
 10
5.4401398974
 20
5.5351198968
 11
5.6205946549
 21
5.5351198968
  0
LINE
  5
22E
100
AcDbEntity
  8
0
100
AcDbLine
 62
7
  6
CONTINUOUS
 10
6.0401398974
 20
5.5351198968
 11
6.2205946549
 21
5.5351198968
  0
LINE
  5
22F
100
AcDbEntity
  8
0
100
AcDbLine
 62
7
  6
CONTINUOUS
 10
6.6401398974
 20
5.5351198968
 11
6.8205946549
 21
5.5351198968
  0
LINE
  5
230
100
AcDbEntity
  8
0
100
AcDbLine
 62
7
  6
CONTINUOUS
 10
7.2401398974
 20
5.5351198968
 11
7.4205946549
 21
5.5351198968
  0
LINE
  5
231
100
AcDbEntity
  8
0
100
AcDbLine
 62
7
  6
CONTINUOUS
 10
7.8401398974
 20
5.5351198968
 11
7.9303672762
 21
5.5351198968
  0
LINE
  5
232
100
AcDbEntity
  8
0
100
AcDbLine
 62
7
  6
CONTINUOUS
 10
7.9303672762
 20
5.6551198968
 11
4.3303672762
 21
5.6551198968
  0
LINE
  5
233
100
AcDbEntity
  8
0
100
AcDbLine
 62
7
  6
CONTINUOUS
 10
6.2513906393
 20
5.5145426778
 11
6.2922142658
 21
5.4159857251
  0
LINE
  5
234
100
AcDbEntity
  8
0
100
AcDbLine
 62
7
  6
CONTINUOUS
 10
6.5685202865
 20
5.4159857251
 11
6.609343913
 21
5.5145426778
  0
LINE
  5
235
100
AcDbEntity
  8
0
100
AcDbLine
 62
7
  6
CONTINUOUS
 10
6.8513906393
 20
5.5145426778
 11
6.8922142658
 21
5.4159857251
  0
LINE
  5
236
100
AcDbEntity
  8
0
100
AcDbLine
 62
7
  6
CONTINUOUS
 10
7.1685202865
 20
5.4159857251
 11
7.209343913
 21
5.5145426778
  0
LINE
  5
237
100
AcDbEntity
  8
0
100
AcDbLine
 62
7
  6
CONTINUOUS
 10
7.4513906393
 20
5.5145426778
 11
7.4922142658
 21
5.4159857251
  0
LINE
  5
238
100
AcDbEntity
  8
0
100
AcDbLine
 62
7
  6
CONTINUOUS
 10
7.7685202865
 20
5.4159857251
 11
7.809343913
 21
5.5145426778
  0
LINE
  5
239
100
AcDbEntity
  8
0
100
AcDbLine
 62
7
  6
CONTINUOUS
 10
7.9303672762
 20
5.5351198968
 11
7.9303672762
 21
5.6551198968
  0
LINE
  5
23A
100
AcDbEntity
  8
0
100
AcDbLine
 62
7
  6
CONTINUOUS
 10
4.2708720839
 20
13.3500477814
 11
4.2708720839
 21
11.8500477814
  0
LINE
  5
23B
100
AcDbEntity
  8
0
100
AcDbLine
 62
7
  6
CONTINUOUS
 10
7.8708720839
 20
11.8500477814
 11
4.2708720839
 21
11.8500477814
  0
LINE
  5
23C
100
AcDbEntity
  8
0
100
AcDbLine
 62
7
  6
CONTINUOUS
 10
4.2708720839
 20
13.3500477814
 11
7.8708720839
 21
13.3500477814
  0
LINE
  5
23D
100
AcDbEntity
  8
0
100
AcDbLine
 62
7
  6
CONTINUOUS
 10
7.8708720839
 20
13.3500477814
 11
7.8708720839
 21
11.8500477814
  0
LINE
  5
23E
100
AcDbEntity
  8
0
100
AcDbLine
 62
7
  6
CONTINUOUS
 10
14.8103552569
 20
5.3256247044
 11
14.8103552569
 21
5.5956247044
  0
LINE
  5
23F
100
AcDbEntity
  8
0
100
AcDbLine
 62
7
  6
CONTINUOUS
 10
14.8103552569
 20
5.3256247044
 11
16.3103552569
 21
5.3256247044
  0
LINE
  5
240
100
AcDbEntity
  8
0
100
AcDbLine
 62
7
  6
CONTINUOUS
 10
16.3103552569
 20
5.4756247044
 11
14.8103552569
 21
5.4756247044
  0
LINE
  5
241
100
AcDbEntity
  8
0
100
AcDbLine
 62
7
  6
CONTINUOUS
 10
16.3103552569
 20
5.5956247044
 11
14.8103552569
 21
5.5956247044
  0
LINE
  5
242
100
AcDbEntity
  8
0
100
AcDbLine
 62
7
  6
CONTINUOUS
 10
16.3103552569
 20
5.3256247044
 11
16.3103552569
 21
5.5956247044
  0
LINE
  5
243
100
AcDbEntity
  8
0
100
AcDbLine
 62
7
  6
CONTINUOUS
 10
13.6133504247
 20
12.0072271564
 11
13.6499554487
 21
11.9326339602
  0
LINE
  5
244
100
AcDbEntity
  8
0
100
AcDbLine
 62
7
  6
CONTINUOUS
 10
13.9764499098
 20
13.1822175208
 11
13.6133504247
 21
12.0072271564
  0
LINE
  5
245
100
AcDbEntity
  8
0
100
AcDbLine
 62
7
  6
CONTINUOUS
 10
13.7677022611
 20
11.9198429558
 11
13.8353673079
 21
11.8585789716
  0
LINE
  5
246
100
AcDbEntity
  8
0
100
AcDbLine
 62
7
  6
CONTINUOUS
 10
14.0898620061
 20
11.8585789716
 11
14.0973990592
 21
11.9198429558
  0
LINE
  5
247
100
AcDbEntity
  8
0
100
AcDbLine
 62
7
  6
CONTINUOUS
 10
14.0892531208
 20
11.8557092781
 11
14.0898620061
 21
11.8585789716
  0
LINE
  5
248
100
AcDbEntity
  8
0
100
AcDbLine
 62
7
  6
CONTINUOUS
 10
14.0973990592
 20
11.9198429558
 11
14.0978121881
 21
11.9217538614
  0
LINE
  5
249
100
AcDbEntity
  8
0
100
AcDbLine
 62
7
  6
CONTINUOUS
 10
14.3203388575
 20
11.9198429558
 11
14.3880039043
 21
11.8585789716
  0
LINE
  5
24A
100
AcDbEntity
  8
0
100
AcDbLine
 62
7
  6
CONTINUOUS
 10
14.0901114313
 20
11.8585018933
 11
14.112802948
 21
11.9319316682
  0
LINE
  5
24B
100
AcDbEntity
  8
0
100
AcDbLine
 62
7
  6
CONTINUOUS
 10
14.8729754539
 20
11.9198429558
 11
14.9406405007
 21
11.8585789716
  0
LINE
  5
24C
100
AcDbEntity
  8
0
100
AcDbLine
 62
7
  6
CONTINUOUS
 10
14.6424986025
 20
11.8585789716
 11
14.6500356556
 21
11.9198429558
  0
LINE
  5
24D
100
AcDbEntity
  8
0
100
AcDbLine
 62
7
  6
CONTINUOUS
 10
14.6418897172
 20
11.8557092781
 11
14.6424986025
 21
11.8585789716
  0
LINE
  5
24E
100
AcDbEntity
  8
0
100
AcDbLine
 62
7
  6
CONTINUOUS
 10
14.6500356556
 20
11.9198429558
 11
14.6504487845
 21
11.9217538614
  0
LINE
  5
24F
100
AcDbEntity
  8
0
100
AcDbLine
 62
7
  6
CONTINUOUS
 10
13.8873301479
 20
11.839392465
 11
14.0567299059
 21
11.839392465
  0
LINE
  5
250
100
AcDbEntity
  8
0
100
AcDbLine
 62
7
  6
CONTINUOUS
 10
14.4399667443
 20
11.839392465
 11
14.6093665023
 21
11.839392465
  0
LINE
  5
251
100
AcDbEntity
  8
0
100
AcDbLine
 62
7
  6
CONTINUOUS
 10
14.9926033407
 20
11.839392465
 11
15.1620030987
 21
11.839392465
  0
LINE
  5
252
100
AcDbEntity
  8
0
100
AcDbLine
 62
7
  6
CONTINUOUS
 10
15.5452399371
 20
11.839392465
 11
15.7146396951
 21
11.839392465
  0
LINE
  5
253
100
AcDbEntity
  8
0
100
AcDbLine
 62
7
  6
CONTINUOUS
 10
16.0978765335
 20
11.839392465
 11
16.2672762915
 21
11.839392465
  0
LINE
  5
254
100
AcDbEntity
  8
0
100
AcDbLine
 62
7
  6
CONTINUOUS
 10
16.6505131299
 20
11.839392465
 11
16.8199128879
 21
11.839392465
  0
LINE
  5
255
100
AcDbEntity
  8
0
100
AcDbLine
 62
7
  6
CONTINUOUS
 10
14.6427480277
 20
11.8585018933
 11
14.6654395444
 21
11.9319316682
  0
LINE
  5
256
100
AcDbEntity
  8
0
100
AcDbLine
 62
7
  6
CONTINUOUS
 10
13.6499554487
 20
11.9326339602
 11
13.7330603679
 21
11.9326339602
  0
LINE
  5
257
100
AcDbEntity
  8
0
100
AcDbLine
 62
7
  6
CONTINUOUS
 10
14.119487126
 20
11.9326339602
 11
14.2856969643
 21
11.9326339602
  0
LINE
  5
258
100
AcDbEntity
  8
0
100
AcDbLine
 62
7
  6
CONTINUOUS
 10
14.6721237224
 20
11.9326339602
 11
14.8383335607
 21
11.9326339602
  0
LINE
  5
259
100
AcDbEntity
  8
0
100
AcDbLine
 62
7
  6
CONTINUOUS
 10
15.2247603188
 20
11.9326339602
 11
15.3909701571
 21
11.9326339602
  0
LINE
  5
25A
100
AcDbEntity
  8
0
100
AcDbLine
 62
7
  6
CONTINUOUS
 10
15.7773969152
 20
11.9326339602
 11
15.9436067535
 21
11.9326339602
  0
LINE
  5
25B
100
AcDbEntity
  8
0
100
AcDbLine
 62
7
  6
CONTINUOUS
 10
16.3300335116
 20
11.9326339602
 11
16.4962433499
 21
11.9326339602
  0
LINE
  5
25C
100
AcDbEntity
  8
0
100
AcDbLine
 62
7
  6
CONTINUOUS
 10
16.882670108
 20
11.9326339602
 11
16.9657750271
 21
11.9326339602
  0
LINE
  5
25D
100
AcDbEntity
  8
0
100
AcDbLine
 62
7
  6
CONTINUOUS
 10
16.9291700031
 20
12.0072271564
 11
13.6133504247
 21
12.0072271564
  0
LINE
  5
25E
100
AcDbEntity
  8
0
100
AcDbLine
 62
7
  6
CONTINUOUS
 10
15.4256120504
 20
11.9198429558
 11
15.4932770971
 21
11.8585789716
  0
LINE
  5
25F
100
AcDbEntity
  8
0
100
AcDbLine
 62
7
  6
CONTINUOUS
 10
15.1951351989
 20
11.8585789716
 11
15.202672252
 21
11.9198429558
  0
LINE
  5
260
100
AcDbEntity
  8
0
100
AcDbLine
 62
7
  6
CONTINUOUS
 10
15.1945263136
 20
11.8557092781
 11
15.1951351989
 21
11.8585789716
  0
LINE
  5
261
100
AcDbEntity
  8
0
100
AcDbLine
 62
7
  6
CONTINUOUS
 10
15.202672252
 20
11.9198429558
 11
15.203085381
 21
11.9217538614
  0
LINE
  5
262
100
AcDbEntity
  8
0
100
AcDbLine
 62
7
  6
CONTINUOUS
 10
15.1953846241
 20
11.8585018933
 11
15.2180761408
 21
11.9319316682
  0
LINE
  5
263
100
AcDbEntity
  8
0
100
AcDbLine
 62
7
  6
CONTINUOUS
 10
15.9782486468
 20
11.9198429558
 11
16.0459136936
 21
11.8585789716
  0
LINE
  5
264
100
AcDbEntity
  8
0
100
AcDbLine
 62
7
  6
CONTINUOUS
 10
16.5308852432
 20
11.9198429558
 11
16.59855029
 21
11.8585789716
  0
LINE
  5
265
100
AcDbEntity
  8
0
100
AcDbLine
 62
7
  6
CONTINUOUS
 10
15.7477717953
 20
11.8585789716
 11
15.7553088484
 21
11.9198429558
  0
LINE
  5
266
100
AcDbEntity
  8
0
100
AcDbLine
 62
7
  6
CONTINUOUS
 10
15.74716291
 20
11.8557092781
 11
15.7477717953
 21
11.8585789716
  0
LINE
  5
267
100
AcDbEntity
  8
0
100
AcDbLine
 62
7
  6
CONTINUOUS
 10
15.7553088484
 20
11.9198429558
 11
15.7557219774
 21
11.9217538614
  0
LINE
  5
268
100
AcDbEntity
  8
0
100
AcDbLine
 62
7
  6
CONTINUOUS
 10
15.7480212205
 20
11.8585018933
 11
15.7707127372
 21
11.9319316682
  0
LINE
  5
269
100
AcDbEntity
  8
0
100
AcDbLine
 62
7
  6
CONTINUOUS
 10
13.9764499098
 20
13.1822175208
 11
17.2922694882
 21
13.1822175208
  0
LINE
  5
26A
100
AcDbEntity
  8
0
100
AcDbLine
 62
7
  6
CONTINUOUS
 10
16.3004083917
 20
11.8585789716
 11
16.3079454448
 21
11.9198429558
  0
LINE
  5
26B
100
AcDbEntity
  8
0
100
AcDbLine
 62
7
  6
CONTINUOUS
 10
16.2997995064
 20
11.8557092781
 11
16.3004083917
 21
11.8585789716
  0
LINE
  5
26C
100
AcDbEntity
  8
0
100
AcDbLine
 62
7
  6
CONTINUOUS
 10
16.3079454448
 20
11.9198429558
 11
16.3083585738
 21
11.9217538614
  0
LINE
  5
26D
100
AcDbEntity
  8
0
100
AcDbLine
 62
7
  6
CONTINUOUS
 10
16.3006578169
 20
11.8585018933
 11
16.3233493336
 21
11.9319316682
  0
LINE
  5
26E
100
AcDbEntity
  8
0
100
AcDbLine
 62
7
  6
CONTINUOUS
 10
16.9657750271
 20
11.9326339602
 11
16.9291700031
 21
12.0072271564
  0
LINE
  5
26F
100
AcDbEntity
  8
0
100
AcDbLine
 62
7
  6
CONTINUOUS
 10
16.8530449881
 20
11.8585789716
 11
16.8605820412
 21
11.9198429558
  0
LINE
  5
270
100
AcDbEntity
  8
0
100
AcDbLine
 62
7
  6
CONTINUOUS
 10
16.8524361028
 20
11.8557092781
 11
16.8530449881
 21
11.8585789716
  0
LINE
  5
271
100
AcDbEntity
  8
0
100
AcDbLine
 62
7
  6
CONTINUOUS
 10
16.8605820412
 20
11.9198429558
 11
16.8609951702
 21
11.9217538614
  0
LINE
  5
272
100
AcDbEntity
  8
0
100
AcDbLine
 62
7
  6
CONTINUOUS
 10
16.8532944133
 20
11.8585018933
 11
16.87598593
 21
11.9319316682
  0
LINE
  5
273
100
AcDbEntity
  8
0
100
AcDbLine
 62
7
  6
CONTINUOUS
 10
17.2922694882
 20
13.1822175208
 11
16.9291700031
 21
12.0072271564
  0
LINE
  5
274
100
AcDbEntity
  8
0
100
AcDbLine
 62
7
  6
CONTINUOUS
 10
17.3288745122
 20
13.1076243247
 11
16.9657750271
 21
11.9326339602
  0
LINE
  5
275
100
AcDbEntity
  8
0
100
AcDbLine
 62
7
  6
CONTINUOUS
 10
17.3288745122
 20
13.1076243247
 11
17.2922694882
 21
13.1822175208
  0
ARC
  5
276
100
AcDbEntity
  8
0
100
AcDbCircle
 62
7
  6
CONTINUOUS
 10
5.1384082424
 20
5.4351198968
 40
0.05
100
AcDbArc
 50
202.5
 51
270.0
  0
ARC
  5
277
100
AcDbEntity
  8
0
100
AcDbCircle
 62
7
  6
CONTINUOUS
 10
5.3223263099
 20
5.4351198968
 40
0.05
100
AcDbArc
 50
270.0
 51
337.5
  0
ARC
  5
278
100
AcDbEntity
  8
0
100
AcDbCircle
 62
7
  6
CONTINUOUS
 10
5.7384082424
 20
5.4351198968
 40
0.05
100
AcDbArc
 50
202.5
 51
270.0
  0
ARC
  5
279
100
AcDbEntity
  8
0
100
AcDbCircle
 62
7
  6
CONTINUOUS
 10
5.9223263099
 20
5.4351198968
 40
0.05
100
AcDbArc
 50
270.0
 51
337.5
  0
ARC
  5
27A
100
AcDbEntity
  8
0
100
AcDbCircle
 62
7
  6
CONTINUOUS
 10
6.3384082424
 20
5.4351198968
 40
0.05
100
AcDbArc
 50
202.5
 51
270.0
  0
ARC
  5
27B
100
AcDbEntity
  8
0
100
AcDbCircle
 62
7
  6
CONTINUOUS
 10
6.5223263099
 20
5.4351198968
 40
0.05
100
AcDbArc
 50
270.0
 51
337.5
  0
ARC
  5
27C
100
AcDbEntity
  8
0
100
AcDbCircle
 62
7
  6
CONTINUOUS
 10
4.7223263099
 20
5.4351198968
 40
0.05
100
AcDbArc
 50
270.0
 51
337.5
  0
ARC
  5
27D
100
AcDbEntity
  8
0
100
AcDbCircle
 62
7
  6
CONTINUOUS
 10
4.5384082424
 20
5.4351198968
 40
0.05
100
AcDbArc
 50
202.5
 51
270.0
  0
ARC
  5
27E
100
AcDbEntity
  8
0
100
AcDbCircle
 62
7
  6
CONTINUOUS
 10
7.7223263099
 20
5.4351198968
 40
0.05
100
AcDbArc
 50
270.0
 51
337.5
  0
ARC
  5
27F
100
AcDbEntity
  8
0
100
AcDbCircle
 62
7
  6
CONTINUOUS
 10
7.5384082424
 20
5.4351198968
 40
0.05
100
AcDbArc
 50
202.5
 51
270.0
  0
ARC
  5
280
100
AcDbEntity
  8
0
100
AcDbCircle
 62
7
  6
CONTINUOUS
 10
7.1223263099
 20
5.4351198968
 40
0.05
100
AcDbArc
 50
270.0
 51
337.5
  0
ARC
  5
281
100
AcDbEntity
  8
0
100
AcDbCircle
 62
7
  6
CONTINUOUS
 10
6.9384082424
 20
5.4351198968
 40
0.05
100
AcDbArc
 50
202.5
 51
270.0
  0
ARC
  5
282
100
AcDbEntity
  8
0
100
AcDbCircle
 62
7
  6
CONTINUOUS
 10
4.8401398974
 20
5.5017865634
 40
0.0333333333
100
AcDbArc
 50
90.0
 51
157.5
  0
ARC
  5
283
100
AcDbEntity
  8
0
100
AcDbCircle
 62
7
  6
CONTINUOUS
 10
4.4205946549
 20
5.5017865634
 40
0.0333333333
100
AcDbArc
 50
22.5
 51
90.0
  0
ARC
  5
284
100
AcDbEntity
  8
0
100
AcDbCircle
 62
7
  6
CONTINUOUS
 10
5.4401398974
 20
5.5017865634
 40
0.0333333333
100
AcDbArc
 50
90.0
 51
157.5
  0
ARC
  5
285
100
AcDbEntity
  8
0
100
AcDbCircle
 62
7
  6
CONTINUOUS
 10
5.0205946549
 20
5.5017865634
 40
0.0333333333
100
AcDbArc
 50
22.5
 51
90.0
  0
ARC
  5
286
100
AcDbEntity
  8
0
100
AcDbCircle
 62
7
  6
CONTINUOUS
 10
6.0401398974
 20
5.5017865634
 40
0.0333333333
100
AcDbArc
 50
90.0
 51
157.5
  0
ARC
  5
287
100
AcDbEntity
  8
0
100
AcDbCircle
 62
7
  6
CONTINUOUS
 10
5.6205946549
 20
5.5017865634
 40
0.0333333333
100
AcDbArc
 50
22.5
 51
90.0
  0
ARC
  5
288
100
AcDbEntity
  8
0
100
AcDbCircle
 62
7
  6
CONTINUOUS
 10
6.6401398974
 20
5.5017865634
 40
0.0333333333
100
AcDbArc
 50
90.0
 51
157.5
  0
ARC
  5
289
100
AcDbEntity
  8
0
100
AcDbCircle
 62
7
  6
CONTINUOUS
 10
6.2205946549
 20
5.5017865634
 40
0.0333333333
100
AcDbArc
 50
22.5
 51
90.0
  0
ARC
  5
28A
100
AcDbEntity
  8
0
100
AcDbCircle
 62
7
  6
CONTINUOUS
 10
7.2401398974
 20
5.5017865634
 40
0.0333333333
100
AcDbArc
 50
90.0
 51
157.5
  0
ARC
  5
28B
100
AcDbEntity
  8
0
100
AcDbCircle
 62
7
  6
CONTINUOUS
 10
6.8205946549
 20
5.5017865634
 40
0.0333333333
100
AcDbArc
 50
22.5
 51
90.0
  0
ARC
  5
28C
100
AcDbEntity
  8
0
100
AcDbCircle
 62
7
  6
CONTINUOUS
 10
7.8401398974
 20
5.5017865634
 40
0.0333333333
100
AcDbArc
 50
90.0
 51
157.5
  0
ARC
  5
28D
100
AcDbEntity
  8
0
100
AcDbCircle
 62
7
  6
CONTINUOUS
 10
7.4205946549
 20
5.5017865634
 40
0.0333333333
100
AcDbArc
 50
22.5
 51
90.0
  0
SPLINE
  5
28E
100
AcDbEntity
  8
0
100
AcDbSpline
 62
7
  6
CONTINUOUS
 70
0
 71
3
 72
12
 73
8
 74
0
 42
0.0000001
 43
0.0000001
 44
0.0000000001
 40
0.0
 40
0.0
 40
0.0
 40
0.0
 40
0.23415663
 40
0.3536047237
 40
0.475525219
 40
0.7292335401
 40
1.0
 40
1.0
 40
1.0
 40
1.0
 10
14.0978088727
 20
11.9217548866
 30
0.0
 10
14.0980387495
 20
11.9224972735
 30
0.0
 10
14.0985081234
 20
11.9235852226
 30
0.0
 10
14.0993498857
 20
11.9249224269
 30
0.0
 10
14.1003617885
 20
11.9262204127
 30
0.0
 10
14.1019205653
 20
11.9277124035
 30
0.0
 10
14.1033683467
 20
11.9286931535
 30
0.0
 10
14.1041460967
 20
11.9291433899
 30
0.0
  0
SPLINE
  5
28F
100
AcDbEntity
  8
0
100
AcDbSpline
 62
7
  6
CONTINUOUS
 70
0
 71
3
 72
11
 73
7
 74
0
 42
0.0000001
 43
0.0000001
 44
0.0000000001
 40
0.0
 40
0.0
 40
0.0
 40
0.0
 40
0.2218880022
 40
0.463243303
 40
0.7235731695
 40
1.0
 40
1.0
 40
1.0
 40
1.0
 10
14.1041460967
 20
11.9291433899
 30
0.0
 10
14.1051636548
 20
11.9297324503
 30
0.0
 10
14.1074039501
 20
11.9307670656
 30
0.0
 10
14.1110942873
 20
11.9318469841
 30
0.0
 10
14.1151756629
 20
11.9324955226
 30
0.0
 10
14.118022368
 20
11.9326339602
 30
0.0
 10
14.119487126
 20
11.9326339602
 30
0.0
  0
SPLINE
  5
290
100
AcDbEntity
  8
0
100
AcDbSpline
 62
7
  6
CONTINUOUS
 70
0
 71
3
 72
12
 73
8
 74
0
 42
0.0000001
 43
0.0000001
 44
0.0000000001
 40
0.0
 40
0.0
 40
0.0
 40
0.0
 40
0.23415663
 40
0.3536047237
 40
0.475525219
 40
0.7292335401
 40
1.0
 40
1.0
 40
1.0
 40
1.0
 10
14.6504454691
 20
11.9217548866
 30
0.0
 10
14.6506753459
 20
11.9224972735
 30
0.0
 10
14.6511447198
 20
11.9235852226
 30
0.0
 10
14.6519864821
 20
11.9249224269
 30
0.0
 10
14.652998385
 20
11.9262204127
 30
0.0
 10
14.6545571617
 20
11.9277124035
 30
0.0
 10
14.6560049431
 20
11.9286931535
 30
0.0
 10
14.6567826931
 20
11.9291433899
 30
0.0
  0
SPLINE
  5
291
100
AcDbEntity
  8
0
100
AcDbSpline
 62
7
  6
CONTINUOUS
 70
0
 71
3
 72
11
 73
7
 74
0
 42
0.0000001
 43
0.0000001
 44
0.0000000001
 40
0.0
 40
0.0
 40
0.0
 40
0.0
 40
0.2218880022
 40
0.463243303
 40
0.7235731695
 40
1.0
 40
1.0
 40
1.0
 40
1.0
 10
14.6567826931
 20
11.9291433899
 30
0.0
 10
14.6578002512
 20
11.9297324503
 30
0.0
 10
14.6600405465
 20
11.9307670656
 30
0.0
 10
14.6637308837
 20
11.9318469841
 30
0.0
 10
14.6678122593
 20
11.9324955226
 30
0.0
 10
14.6706589644
 20
11.9326339602
 30
0.0
 10
14.6721237224
 20
11.9326339602
 30
0.0
  0
SPLINE
  5
292
100
AcDbEntity
  8
0
100
AcDbSpline
 62
7
  6
CONTINUOUS
 70
0
 71
3
 72
12
 73
8
 74
0
 42
0.0000001
 43
0.0000001
 44
0.0000000001
 40
0.0
 40
0.0
 40
0.0
 40
0.0
 40
0.23415663
 40
0.3536047237
 40
0.475525219
 40
0.7292335401
 40
1.0
 40
1.0
 40
1.0
 40
1.0
 10
15.2030820655
 20
11.9217548866
 30
0.0
 10
15.2033119423
 20
11.9224972735
 30
0.0
 10
15.2037813162
 20
11.9235852226
 30
0.0
 10
15.2046230785
 20
11.9249224269
 30
0.0
 10
15.2056349814
 20
11.9262204127
 30
0.0
 10
15.2071937581
 20
11.9277124035
 30
0.0
 10
15.2086415395
 20
11.9286931535
 30
0.0
 10
15.2094192895
 20
11.9291433899
 30
0.0
  0
SPLINE
  5
293
100
AcDbEntity
  8
0
100
AcDbSpline
 62
7
  6
CONTINUOUS
 70
0
 71
3
 72
11
 73
7
 74
0
 42
0.0000001
 43
0.0000001
 44
0.0000000001
 40
0.0
 40
0.0
 40
0.0
 40
0.0
 40
0.2218880022
 40
0.463243303
 40
0.7235731695
 40
1.0
 40
1.0
 40
1.0
 40
1.0
 10
15.2094192895
 20
11.9291433899
 30
0.0
 10
15.2104368476
 20
11.9297324503
 30
0.0
 10
15.2126771429
 20
11.9307670656
 30
0.0
 10
15.2163674801
 20
11.9318469841
 30
0.0
 10
15.2204488557
 20
11.9324955226
 30
0.0
 10
15.2232955608
 20
11.9326339602
 30
0.0
 10
15.2247603188
 20
11.9326339602
 30
0.0
  0
SPLINE
  5
294
100
AcDbEntity
  8
0
100
AcDbSpline
 62
7
  6
CONTINUOUS
 70
0
 71
3
 72
12
 73
8
 74
0
 42
0.0000001
 43
0.0000001
 44
0.0000000001
 40
0.0
 40
0.0
 40
0.0
 40
0.0
 40
0.23415663
 40
0.3536047237
 40
0.475525219
 40
0.7292335401
 40
1.0
 40
1.0
 40
1.0
 40
1.0
 10
15.7557186619
 20
11.9217548866
 30
0.0
 10
15.7559485387
 20
11.9224972735
 30
0.0
 10
15.7564179126
 20
11.9235852226
 30
0.0
 10
15.7572596749
 20
11.9249224269
 30
0.0
 10
15.7582715778
 20
11.9262204127
 30
0.0
 10
15.7598303545
 20
11.9277124035
 30
0.0
 10
15.7612781359
 20
11.9286931535
 30
0.0
 10
15.7620558859
 20
11.9291433899
 30
0.0
  0
SPLINE
  5
295
100
AcDbEntity
  8
0
100
AcDbSpline
 62
7
  6
CONTINUOUS
 70
0
 71
3
 72
11
 73
7
 74
0
 42
0.0000001
 43
0.0000001
 44
0.0000000001
 40
0.0
 40
0.0
 40
0.0
 40
0.0
 40
0.2218880022
 40
0.463243303
 40
0.7235731695
 40
1.0
 40
1.0
 40
1.0
 40
1.0
 10
15.7620558859
 20
11.9291433899
 30
0.0
 10
15.763073444
 20
11.9297324503
 30
0.0
 10
15.7653137393
 20
11.9307670656
 30
0.0
 10
15.7690040765
 20
11.9318469841
 30
0.0
 10
15.7730854521
 20
11.9324955226
 30
0.0
 10
15.7759321572
 20
11.9326339602
 30
0.0
 10
15.7773969152
 20
11.9326339602
 30
0.0
  0
SPLINE
  5
296
100
AcDbEntity
  8
0
100
AcDbSpline
 62
7
  6
CONTINUOUS
 70
0
 71
3
 72
12
 73
8
 74
0
 42
0.0000001
 43
0.0000001
 44
0.0000000001
 40
0.0
 40
0.0
 40
0.0
 40
0.0
 40
0.23415663
 40
0.3536047237
 40
0.475525219
 40
0.7292335401
 40
1.0
 40
1.0
 40
1.0
 40
1.0
 10
16.3083552583
 20
11.9217548866
 30
0.0
 10
16.3085851351
 20
11.9224972735
 30
0.0
 10
16.309054509
 20
11.9235852226
 30
0.0
 10
16.3098962713
 20
11.9249224269
 30
0.0
 10
16.3109081742
 20
11.9262204127
 30
0.0
 10
16.3124669509
 20
11.9277124035
 30
0.0
 10
16.3139147323
 20
11.9286931535
 30
0.0
 10
16.3146924823
 20
11.9291433899
 30
0.0
  0
SPLINE
  5
297
100
AcDbEntity
  8
0
100
AcDbSpline
 62
7
  6
CONTINUOUS
 70
0
 71
3
 72
11
 73
7
 74
0
 42
0.0000001
 43
0.0000001
 44
0.0000000001
 40
0.0
 40
0.0
 40
0.0
 40
0.0
 40
0.2218880022
 40
0.463243303
 40
0.7235731695
 40
1.0
 40
1.0
 40
1.0
 40
1.0
 10
16.3146924823
 20
11.9291433899
 30
0.0
 10
16.3157100404
 20
11.9297324503
 30
0.0
 10
16.3179503357
 20
11.9307670656
 30
0.0
 10
16.3216406729
 20
11.9318469841
 30
0.0
 10
16.3257220485
 20
11.9324955226
 30
0.0
 10
16.3285687536
 20
11.9326339602
 30
0.0
 10
16.3300335116
 20
11.9326339602
 30
0.0
  0
SPLINE
  5
298
100
AcDbEntity
  8
0
100
AcDbSpline
 62
7
  6
CONTINUOUS
 70
0
 71
3
 72
12
 73
8
 74
0
 42
0.0000001
 43
0.0000001
 44
0.0000000001
 40
0.0
 40
0.0
 40
0.0
 40
0.0
 40
0.23415663
 40
0.3536047237
 40
0.475525219
 40
0.7292335401
 40
1.0
 40
1.0
 40
1.0
 40
1.0
 10
16.8609918547
 20
11.9217548866
 30
0.0
 10
16.8612217315
 20
11.9224972735
 30
0.0
 10
16.8616911054
 20
11.9235852226
 30
0.0
 10
16.8625328677
 20
11.9249224269
 30
0.0
 10
16.8635447706
 20
11.9262204127
 30
0.0
 10
16.8651035474
 20
11.9277124035
 30
0.0
 10
16.8665513287
 20
11.9286931535
 30
0.0
 10
16.8673290787
 20
11.9291433899
 30
0.0
  0
SPLINE
  5
299
100
AcDbEntity
  8
0
100
AcDbSpline
 62
7
  6
CONTINUOUS
 70
0
 71
3
 72
11
 73
7
 74
0
 42
0.0000001
 43
0.0000001
 44
0.0000000001
 40
0.0
 40
0.0
 40
0.0
 40
0.0
 40
0.2218880022
 40
0.463243303
 40
0.7235731695
 40
1.0
 40
1.0
 40
1.0
 40
1.0
 10
16.8673290787
 20
11.9291433899
 30
0.0
 10
16.8683466368
 20
11.9297324503
 30
0.0
 10
16.8705869321
 20
11.9307670656
 30
0.0
 10
16.8742772693
 20
11.9318469841
 30
0.0
 10
16.8783586449
 20
11.9324955226
 30
0.0
 10
16.88120535
 20
11.9326339602
 30
0.0
 10
16.882670108
 20
11.9326339602
 30
0.0
  0
SPLINE
  5
29A
100
AcDbEntity
  8
0
100
AcDbSpline
 62
7
  6
CONTINUOUS
 70
0
 71
3
 72
20
 73
16
 74
0
 42
0.0000001
 43
0.0000001
 44
0.0000000001
 40
0.0
 40
0.0
 40
0.0
 40
0.0
 40
0.1556555428
 40
0.3030289256
 40
0.3731920445
 40
0.4408921189
 40
0.5687572131
 40
0.6290753525
 40
0.6870820781
 40
0.7429310333
 40
0.7968521262
 40
0.8491468596
 40
0.9001682478
 40
0.9503158311
 40
1.0
 40
1.0
 40
1.0
 40
1.0
 10
14.0567299059
 20
11.839392465
 30
0.0
 10
14.058742956
 20
11.839392465
 30
0.0
 10
14.0626645934
 20
11.8395663291
 30
0.0
 10
14.0674510636
 20
11.8402573022
 30
0.0
 10
14.0710451046
 20
11.8410981805
 30
0.0
 10
14.0743390223
 20
11.8420826255
 30
0.0
 10
14.0774167399
 20
11.8433344063
 30
0.0
 10
14.0802095763
 20
11.8448692288
 30
0.0
 10
14.082090306
 20
11.8461140407
 30
0.0
 10
14.0837881199
 20
11.8474701198
 30
0.0
 10
14.0852949686
 20
11.8489319313
 30
0.0
 10
14.0866043423
 20
11.8504926962
 30
0.0
 10
14.0877097173
 20
11.8521461337
 30
0.0
 10
14.0886039696
 20
11.8538847169
 30
0.0
 10
14.0890582563
 20
11.8550969636
 30
0.0
 10
14.0892480718
 20
11.8557108387
 30
0.0
  0
SPLINE
  5
29B
100
AcDbEntity
  8
0
100
AcDbSpline
 62
7
  6
CONTINUOUS
 70
0
 71
3
 72
15
 73
11
 74
0
 42
0.0000001
 43
0.0000001
 44
0.0000000001
 40
0.0
 40
0.0
 40
0.0
 40
0.0
 40
0.1148729391
 40
0.2360779724
 40
0.361957312
 40
0.4908828509
 40
0.6210131344
 40
0.750458987
 40
0.8774377978
 40
1.0
 40
1.0
 40
1.0
 40
1.0
 10
13.8353673079
 20
11.8585789716
 30
0.0
 10
13.8369716636
 20
11.8571263867
 30
0.0
 10
13.8404475808
 20
11.8543348002
 30
0.0
 10
13.8461763759
 20
11.8506174443
 30
0.0
 10
13.8524596121
 20
11.8473243608
 30
0.0
 10
13.8591600245
 20
11.8445266037
 30
0.0
 10
13.8661354648
 20
11.842280857
 30
0.0
 10
13.8732394863
 20
11.8406368532
 30
0.0
 10
13.8803172415
 20
11.8396310609
 30
0.0
 10
13.8850210337
 20
11.839392465
 30
0.0
 10
13.8873301479
 20
11.839392465
 30
0.0
  0
SPLINE
  5
29C
100
AcDbEntity
  8
0
100
AcDbSpline
 62
7
  6
CONTINUOUS
 70
0
 71
3
 72
20
 73
16
 74
0
 42
0.0000001
 43
0.0000001
 44
0.0000000001
 40
0.0
 40
0.0
 40
0.0
 40
0.0
 40
0.1556555428
 40
0.3030289256
 40
0.3731920445
 40
0.4408921189
 40
0.5687572131
 40
0.6290753525
 40
0.6870820781
 40
0.7429310333
 40
0.7968521262
 40
0.8491468596
 40
0.9001682478
 40
0.9503158311
 40
1.0
 40
1.0
 40
1.0
 40
1.0
 10
16.8199128879
 20
11.839392465
 30
0.0
 10
16.821925938
 20
11.839392465
 30
0.0
 10
16.8258475754
 20
11.8395663291
 30
0.0
 10
16.8306340456
 20
11.8402573022
 30
0.0
 10
16.8342280866
 20
11.8410981805
 30
0.0
 10
16.8375220043
 20
11.8420826255
 30
0.0
 10
16.8405997219
 20
11.8433344063
 30
0.0
 10
16.8433925583
 20
11.8448692288
 30
0.0
 10
16.845273288
 20
11.8461140407
 30
0.0
 10
16.8469711019
 20
11.8474701198
 30
0.0
 10
16.8484779506
 20
11.8489319313
 30
0.0
 10
16.8497873243
 20
11.8504926962
 30
0.0
 10
16.8508926993
 20
11.8521461337
 30
0.0
 10
16.8517869517
 20
11.8538847169
 30
0.0
 10
16.8522412383
 20
11.8550969636
 30
0.0
 10
16.8524310538
 20
11.8557108387
 30
0.0
  0
SPLINE
  5
29D
100
AcDbEntity
  8
0
100
AcDbSpline
 62
7
  6
CONTINUOUS
 70
0
 71
3
 72
15
 73
11
 74
0
 42
0.0000001
 43
0.0000001
 44
0.0000000001
 40
0.0
 40
0.0
 40
0.0
 40
0.0
 40
0.1148729391
 40
0.2360779724
 40
0.361957312
 40
0.4908828509
 40
0.6210131344
 40
0.750458987
 40
0.8774377978
 40
1.0
 40
1.0
 40
1.0
 40
1.0
 10
16.59855029
 20
11.8585789716
 30
0.0
 10
16.6001546456
 20
11.8571263867
 30
0.0
 10
16.6036305628
 20
11.8543348002
 30
0.0
 10
16.6093593579
 20
11.8506174443
 30
0.0
 10
16.6156425941
 20
11.8473243608
 30
0.0
 10
16.6223430065
 20
11.8445266037
 30
0.0
 10
16.6293184468
 20
11.842280857
 30
0.0
 10
16.6364224683
 20
11.8406368532
 30
0.0
 10
16.6435002236
 20
11.8396310609
 30
0.0
 10
16.6482040157
 20
11.839392465
 30
0.0
 10
16.6505131299
 20
11.839392465
 30
0.0
  0
SPLINE
  5
29E
100
AcDbEntity
  8
0
100
AcDbSpline
 62
7
  6
CONTINUOUS
 70
0
 71
3
 72
20
 73
16
 74
0
 42
0.0000001
 43
0.0000001
 44
0.0000000001
 40
0.0
 40
0.0
 40
0.0
 40
0.0
 40
0.1556555428
 40
0.3030289256
 40
0.3731920445
 40
0.4408921189
 40
0.5687572131
 40
0.6290753525
 40
0.6870820781
 40
0.7429310333
 40
0.7968521262
 40
0.8491468596
 40
0.9001682478
 40
0.9503158311
 40
1.0
 40
1.0
 40
1.0
 40
1.0
 10
16.2672762915
 20
11.839392465
 30
0.0
 10
16.2692893416
 20
11.839392465
 30
0.0
 10
16.273210979
 20
11.8395663291
 30
0.0
 10
16.2779974492
 20
11.8402573022
 30
0.0
 10
16.2815914902
 20
11.8410981805
 30
0.0
 10
16.2848854079
 20
11.8420826255
 30
0.0
 10
16.2879631255
 20
11.8433344063
 30
0.0
 10
16.2907559619
 20
11.8448692288
 30
0.0
 10
16.2926366916
 20
11.8461140407
 30
0.0
 10
16.2943345055
 20
11.8474701198
 30
0.0
 10
16.2958413542
 20
11.8489319313
 30
0.0
 10
16.2971507279
 20
11.8504926962
 30
0.0
 10
16.2982561029
 20
11.8521461337
 30
0.0
 10
16.2991503553
 20
11.8538847169
 30
0.0
 10
16.2996046419
 20
11.8550969636
 30
0.0
 10
16.2997944574
 20
11.8557108387
 30
0.0
  0
SPLINE
  5
29F
100
AcDbEntity
  8
0
100
AcDbSpline
 62
7
  6
CONTINUOUS
 70
0
 71
3
 72
15
 73
11
 74
0
 42
0.0000001
 43
0.0000001
 44
0.0000000001
 40
0.0
 40
0.0
 40
0.0
 40
0.0
 40
0.1148729391
 40
0.2360779724
 40
0.361957312
 40
0.4908828509
 40
0.6210131344
 40
0.750458987
 40
0.8774377978
 40
1.0
 40
1.0
 40
1.0
 40
1.0
 10
16.0459136936
 20
11.8585789716
 30
0.0
 10
16.0475180492
 20
11.8571263867
 30
0.0
 10
16.0509939664
 20
11.8543348002
 30
0.0
 10
16.0567227615
 20
11.8506174443
 30
0.0
 10
16.0630059977
 20
11.8473243608
 30
0.0
 10
16.0697064101
 20
11.8445266037
 30
0.0
 10
16.0766818504
 20
11.842280857
 30
0.0
 10
16.0837858719
 20
11.8406368532
 30
0.0
 10
16.0908636272
 20
11.8396310609
 30
0.0
 10
16.0955674193
 20
11.839392465
 30
0.0
 10
16.0978765335
 20
11.839392465
 30
0.0
  0
SPLINE
  5
2A0
100
AcDbEntity
  8
0
100
AcDbSpline
 62
7
  6
CONTINUOUS
 70
0
 71
3
 72
20
 73
16
 74
0
 42
0.0000001
 43
0.0000001
 44
0.0000000001
 40
0.0
 40
0.0
 40
0.0
 40
0.0
 40
0.1556555428
 40
0.3030289256
 40
0.3731920445
 40
0.4408921189
 40
0.5687572131
 40
0.6290753525
 40
0.6870820781
 40
0.7429310333
 40
0.7968521262
 40
0.8491468596
 40
0.9001682478
 40
0.9503158311
 40
1.0
 40
1.0
 40
1.0
 40
1.0
 10
15.7146396951
 20
11.839392465
 30
0.0
 10
15.7166527452
 20
11.839392465
 30
0.0
 10
15.7205743826
 20
11.8395663291
 30
0.0
 10
15.7253608528
 20
11.8402573022
 30
0.0
 10
15.7289548938
 20
11.8410981805
 30
0.0
 10
15.7322488115
 20
11.8420826255
 30
0.0
 10
15.7353265291
 20
11.8433344063
 30
0.0
 10
15.7381193655
 20
11.8448692288
 30
0.0
 10
15.7400000952
 20
11.8461140407
 30
0.0
 10
15.7416979091
 20
11.8474701198
 30
0.0
 10
15.7432047578
 20
11.8489319313
 30
0.0
 10
15.7445141315
 20
11.8504926962
 30
0.0
 10
15.7456195065
 20
11.8521461337
 30
0.0
 10
15.7465137589
 20
11.8538847169
 30
0.0
 10
15.7469680455
 20
11.8550969636
 30
0.0
 10
15.747157861
 20
11.8557108387
 30
0.0
  0
SPLINE
  5
2A1
100
AcDbEntity
  8
0
100
AcDbSpline
 62
7
  6
CONTINUOUS
 70
0
 71
3
 72
15
 73
11
 74
0
 42
0.0000001
 43
0.0000001
 44
0.0000000001
 40
0.0
 40
0.0
 40
0.0
 40
0.0
 40
0.1148729391
 40
0.2360779724
 40
0.361957312
 40
0.4908828509
 40
0.6210131344
 40
0.750458987
 40
0.8774377978
 40
1.0
 40
1.0
 40
1.0
 40
1.0
 10
15.4932770971
 20
11.8585789716
 30
0.0
 10
15.4948814528
 20
11.8571263867
 30
0.0
 10
15.49835737
 20
11.8543348002
 30
0.0
 10
15.5040861651
 20
11.8506174443
 30
0.0
 10
15.5103694013
 20
11.8473243608
 30
0.0
 10
15.5170698137
 20
11.8445266037
 30
0.0
 10
15.524045254
 20
11.842280857
 30
0.0
 10
15.5311492755
 20
11.8406368532
 30
0.0
 10
15.5382270307
 20
11.8396310609
 30
0.0
 10
15.5429308229
 20
11.839392465
 30
0.0
 10
15.5452399371
 20
11.839392465
 30
0.0
  0
SPLINE
  5
2A2
100
AcDbEntity
  8
0
100
AcDbSpline
 62
7
  6
CONTINUOUS
 70
0
 71
3
 72
20
 73
16
 74
0
 42
0.0000001
 43
0.0000001
 44
0.0000000001
 40
0.0
 40
0.0
 40
0.0
 40
0.0
 40
0.1556555428
 40
0.3030289256
 40
0.3731920445
 40
0.4408921189
 40
0.5687572131
 40
0.6290753525
 40
0.6870820781
 40
0.7429310333
 40
0.7968521262
 40
0.8491468596
 40
0.9001682478
 40
0.9503158311
 40
1.0
 40
1.0
 40
1.0
 40
1.0
 10
15.1620030987
 20
11.839392465
 30
0.0
 10
15.1640161488
 20
11.839392465
 30
0.0
 10
15.1679377862
 20
11.8395663291
 30
0.0
 10
15.1727242564
 20
11.8402573022
 30
0.0
 10
15.1763182974
 20
11.8410981805
 30
0.0
 10
15.1796122151
 20
11.8420826255
 30
0.0
 10
15.1826899327
 20
11.8433344063
 30
0.0
 10
15.1854827691
 20
11.8448692288
 30
0.0
 10
15.1873634988
 20
11.8461140407
 30
0.0
 10
15.1890613127
 20
11.8474701198
 30
0.0
 10
15.1905681614
 20
11.8489319313
 30
0.0
 10
15.1918775351
 20
11.8504926962
 30
0.0
 10
15.1929829101
 20
11.8521461337
 30
0.0
 10
15.1938771625
 20
11.8538847169
 30
0.0
 10
15.1943314491
 20
11.8550969636
 30
0.0
 10
15.1945212646
 20
11.8557108387
 30
0.0
  0
SPLINE
  5
2A3
100
AcDbEntity
  8
0
100
AcDbSpline
 62
7
  6
CONTINUOUS
 70
0
 71
3
 72
15
 73
11
 74
0
 42
0.0000001
 43
0.0000001
 44
0.0000000001
 40
0.0
 40
0.0
 40
0.0
 40
0.0
 40
0.1148729391
 40
0.2360779724
 40
0.361957312
 40
0.4908828509
 40
0.6210131344
 40
0.750458987
 40
0.8774377978
 40
1.0
 40
1.0
 40
1.0
 40
1.0
 10
14.9406405007
 20
11.8585789716
 30
0.0
 10
14.9422448564
 20
11.8571263867
 30
0.0
 10
14.9457207736
 20
11.8543348002
 30
0.0
 10
14.9514495687
 20
11.8506174443
 30
0.0
 10
14.9577328049
 20
11.8473243608
 30
0.0
 10
14.9644332173
 20
11.8445266037
 30
0.0
 10
14.9714086576
 20
11.842280857
 30
0.0
 10
14.9785126791
 20
11.8406368532
 30
0.0
 10
14.9855904343
 20
11.8396310609
 30
0.0
 10
14.9902942265
 20
11.839392465
 30
0.0
 10
14.9926033407
 20
11.839392465
 30
0.0
  0
SPLINE
  5
2A4
100
AcDbEntity
  8
0
100
AcDbSpline
 62
7
  6
CONTINUOUS
 70
0
 71
3
 72
20
 73
16
 74
0
 42
0.0000001
 43
0.0000001
 44
0.0000000001
 40
0.0
 40
0.0
 40
0.0
 40
0.0
 40
0.1556555428
 40
0.3030289256
 40
0.3731920445
 40
0.4408921189
 40
0.5687572131
 40
0.6290753525
 40
0.6870820781
 40
0.7429310333
 40
0.7968521262
 40
0.8491468596
 40
0.9001682478
 40
0.9503158311
 40
1.0
 40
1.0
 40
1.0
 40
1.0
 10
14.6093665023
 20
11.839392465
 30
0.0
 10
14.6113795524
 20
11.839392465
 30
0.0
 10
14.6153011898
 20
11.8395663291
 30
0.0
 10
14.62008766
 20
11.8402573022
 30
0.0
 10
14.623681701
 20
11.8410981805
 30
0.0
 10
14.6269756187
 20
11.8420826255
 30
0.0
 10
14.6300533363
 20
11.8433344063
 30
0.0
 10
14.6328461727
 20
11.8448692288
 30
0.0
 10
14.6347269024
 20
11.8461140407
 30
0.0
 10
14.6364247163
 20
11.8474701198
 30
0.0
 10
14.637931565
 20
11.8489319313
 30
0.0
 10
14.6392409387
 20
11.8504926962
 30
0.0
 10
14.6403463137
 20
11.8521461337
 30
0.0
 10
14.641240566
 20
11.8538847169
 30
0.0
 10
14.6416948527
 20
11.8550969636
 30
0.0
 10
14.6418846682
 20
11.8557108387
 30
0.0
  0
SPLINE
  5
2A5
100
AcDbEntity
  8
0
100
AcDbSpline
 62
7
  6
CONTINUOUS
 70
0
 71
3
 72
15
 73
11
 74
0
 42
0.0000001
 43
0.0000001
 44
0.0000000001
 40
0.0
 40
0.0
 40
0.0
 40
0.0
 40
0.1148729391
 40
0.2360779724
 40
0.361957312
 40
0.4908828509
 40
0.6210131344
 40
0.750458987
 40
0.8774377978
 40
1.0
 40
1.0
 40
1.0
 40
1.0
 10
14.3880039043
 20
11.8585789716
 30
0.0
 10
14.38960826
 20
11.8571263867
 30
0.0
 10
14.3930841772
 20
11.8543348002
 30
0.0
 10
14.3988129723
 20
11.8506174443
 30
0.0
 10
14.4050962085
 20
11.8473243608
 30
0.0
 10
14.4117966209
 20
11.8445266037
 30
0.0
 10
14.4187720612
 20
11.842280857
 30
0.0
 10
14.4258760827
 20
11.8406368532
 30
0.0
 10
14.4329538379
 20
11.8396310609
 30
0.0
 10
14.4376576301
 20
11.839392465
 30
0.0
 10
14.4399667443
 20
11.839392465
 30
0.0
  0
SPLINE
  5
2A6
100
AcDbEntity
  8
0
100
AcDbSpline
 62
7
  6
CONTINUOUS
 70
0
 71
3
 72
15
 73
11
 74
0
 42
0.0000001
 43
0.0000001
 44
0.0000000001
 40
0.0
 40
0.0
 40
0.0
 40
0.0
 40
0.1224855713
 40
0.2495251411
 40
0.3790234854
 40
0.5091197558
 40
0.6380075988
 40
0.7639365826
 40
0.8851963128
 40
1.0
 40
1.0
 40
1.0
 40
1.0
 10
13.7330603679
 20
11.9326339602
 30
0.0
 10
13.73459881
 20
11.9326339602
 30
0.0
 10
13.7377343888
 20
11.9324740485
 30
0.0
 10
13.7424535381
 20
11.9318048951
 30
0.0
 10
13.7471903051
 20
11.930707754
 30
0.0
 10
13.7518407134
 20
11.929211776
 30
0.0
 10
13.7563069325
 20
11.9273456458
 30
0.0
 10
13.7604969428
 20
11.9251507073
 30
0.0
 10
13.7643156589
 20
11.9226709575
 30
0.0
 10
13.7666333388
 20
11.9208107589
 30
0.0
 10
13.7677022611
 20
11.9198429558
 30
0.0
  0
SPLINE
  5
2A7
100
AcDbEntity
  8
0
100
AcDbSpline
 62
7
  6
CONTINUOUS
 70
0
 71
3
 72
15
 73
11
 74
0
 42
0.0000001
 43
0.0000001
 44
0.0000000001
 40
0.0
 40
0.0
 40
0.0
 40
0.0
 40
0.1224855713
 40
0.2495251411
 40
0.3790234854
 40
0.5091197558
 40
0.6380075988
 40
0.7639365826
 40
0.8851963128
 40
1.0
 40
1.0
 40
1.0
 40
1.0
 10
14.2856969643
 20
11.9326339602
 30
0.0
 10
14.2872354064
 20
11.9326339602
 30
0.0
 10
14.2903709852
 20
11.9324740485
 30
0.0
 10
14.2950901345
 20
11.9318048951
 30
0.0
 10
14.2998269015
 20
11.930707754
 30
0.0
 10
14.3044773098
 20
11.929211776
 30
0.0
 10
14.3089435289
 20
11.9273456458
 30
0.0
 10
14.3131335392
 20
11.9251507073
 30
0.0
 10
14.3169522553
 20
11.9226709575
 30
0.0
 10
14.3192699352
 20
11.9208107589
 30
0.0
 10
14.3203388575
 20
11.9198429558
 30
0.0
  0
SPLINE
  5
2A8
100
AcDbEntity
  8
0
100
AcDbSpline
 62
7
  6
CONTINUOUS
 70
0
 71
3
 72
15
 73
11
 74
0
 42
0.0000001
 43
0.0000001
 44
0.0000000001
 40
0.0
 40
0.0
 40
0.0
 40
0.0
 40
0.1224855713
 40
0.2495251411
 40
0.3790234854
 40
0.5091197558
 40
0.6380075988
 40
0.7639365826
 40
0.8851963128
 40
1.0
 40
1.0
 40
1.0
 40
1.0
 10
14.8383335607
 20
11.9326339602
 30
0.0
 10
14.8398720028
 20
11.9326339602
 30
0.0
 10
14.8430075816
 20
11.9324740485
 30
0.0
 10
14.8477267309
 20
11.9318048951
 30
0.0
 10
14.8524634979
 20
11.930707754
 30
0.0
 10
14.8571139062
 20
11.929211776
 30
0.0
 10
14.8615801253
 20
11.9273456458
 30
0.0
 10
14.8657701356
 20
11.9251507073
 30
0.0
 10
14.8695888517
 20
11.9226709575
 30
0.0
 10
14.8719065316
 20
11.9208107589
 30
0.0
 10
14.8729754539
 20
11.9198429558
 30
0.0
  0
SPLINE
  5
2A9
100
AcDbEntity
  8
0
100
AcDbSpline
 62
7
  6
CONTINUOUS
 70
0
 71
3
 72
15
 73
11
 74
0
 42
0.0000001
 43
0.0000001
 44
0.0000000001
 40
0.0
 40
0.0
 40
0.0
 40
0.0
 40
0.1224855713
 40
0.2495251411
 40
0.3790234854
 40
0.5091197558
 40
0.6380075988
 40
0.7639365826
 40
0.8851963128
 40
1.0
 40
1.0
 40
1.0
 40
1.0
 10
15.3909701571
 20
11.9326339602
 30
0.0
 10
15.3925085992
 20
11.9326339602
 30
0.0
 10
15.395644178
 20
11.9324740485
 30
0.0
 10
15.4003633273
 20
11.9318048951
 30
0.0
 10
15.4051000943
 20
11.930707754
 30
0.0
 10
15.4097505026
 20
11.929211776
 30
0.0
 10
15.4142167217
 20
11.9273456458
 30
0.0
 10
15.418406732
 20
11.9251507073
 30
0.0
 10
15.4222254481
 20
11.9226709575
 30
0.0
 10
15.424543128
 20
11.9208107589
 30
0.0
 10
15.4256120504
 20
11.9198429558
 30
0.0
  0
SPLINE
  5
2AA
100
AcDbEntity
  8
0
100
AcDbSpline
 62
7
  6
CONTINUOUS
 70
0
 71
3
 72
15
 73
11
 74
0
 42
0.0000001
 43
0.0000001
 44
0.0000000001
 40
0.0
 40
0.0
 40
0.0
 40
0.0
 40
0.1224855713
 40
0.2495251411
 40
0.3790234854
 40
0.5091197558
 40
0.6380075988
 40
0.7639365826
 40
0.8851963128
 40
1.0
 40
1.0
 40
1.0
 40
1.0
 10
15.9436067535
 20
11.9326339602
 30
0.0
 10
15.9451451956
 20
11.9326339602
 30
0.0
 10
15.9482807744
 20
11.9324740485
 30
0.0
 10
15.9529999237
 20
11.9318048951
 30
0.0
 10
15.9577366907
 20
11.930707754
 30
0.0
 10
15.962387099
 20
11.929211776
 30
0.0
 10
15.9668533181
 20
11.9273456458
 30
0.0
 10
15.9710433284
 20
11.9251507073
 30
0.0
 10
15.9748620445
 20
11.9226709575
 30
0.0
 10
15.9771797244
 20
11.9208107589
 30
0.0
 10
15.9782486468
 20
11.9198429558
 30
0.0
  0
SPLINE
  5
2AB
100
AcDbEntity
  8
0
100
AcDbSpline
 62
7
  6
CONTINUOUS
 70
0
 71
3
 72
15
 73
11
 74
0
 42
0.0000001
 43
0.0000001
 44
0.0000000001
 40
0.0
 40
0.0
 40
0.0
 40
0.0
 40
0.1224855713
 40
0.2495251411
 40
0.3790234854
 40
0.5091197558
 40
0.6380075988
 40
0.7639365826
 40
0.8851963128
 40
1.0
 40
1.0
 40
1.0
 40
1.0
 10
16.4962433499
 20
11.9326339602
 30
0.0
 10
16.497781792
 20
11.9326339602
 30
0.0
 10
16.5009173708
 20
11.9324740485
 30
0.0
 10
16.5056365201
 20
11.9318048951
 30
0.0
 10
16.5103732871
 20
11.930707754
 30
0.0
 10
16.5150236954
 20
11.929211776
 30
0.0
 10
16.5194899145
 20
11.9273456458
 30
0.0
 10
16.5236799248
 20
11.9251507073
 30
0.0
 10
16.5274986409
 20
11.9226709575
 30
0.0
 10
16.5298163208
 20
11.9208107589
 30
0.0
 10
16.5308852432
 20
11.9198429558
 30
0.0
  0
ENDSEC
  0
SECTION
  2
OBJECTS
  0
DICTIONARY
  5
C
100
AcDbDictionary
280
0
281
1
  3
ACAD_GROUP
350
D
  3
ACAD_MLINESTYLE
350
17
  3
ACAD_LAYOUT
350
1A
  3
ACAD_PLOTSETTINGS
350
19
  3
ACAD_PLOTSTYLENAME
350
E
  0
DICTIONARY
  5
D
102
{ACAD_REACTORS
330
C
102
}
100
AcDbDictionary
280
0
281
1
  0
ACDBDICTIONARYWDFLT
  5
E
102
{ACAD_REACTORS
330
C
102
}
100
AcDbDictionary
281
1
  3
Normal
350
F
100
AcDbDictionaryWithDefault
340
F
  0
DICTIONARY
  5
17
102
{ACAD_REACTORS
330
C
102
}
100
AcDbDictionary
280
0
281
1
  3
Standard
350
18
  0
DICTIONARY
  5
19
102
{ACAD_REACTORS
330
C
102
}
100
AcDbDictionary
281
1
  0
DICTIONARY
  5
1A
102
{ACAD_REACTORS
330
C
102
}
100
AcDbDictionary
281
1
  3
Model
350
2AC
  3
Layout1
350
2AD
  0
ACDBPLACEHOLDER
  5
F
102
{ACAD_REACTORS
330
E
102
}
  0
MLINESTYLE
  5
18
102
{ACAD_REACTORS
330
17
102
}
100
AcDbMlineStyle
  2
STANDARD
 70
0
  3

 62
256
 51
90.0
 52
90.0
 71
2
 49
0.5
 62
256
  6
BYLAYER
 49
-0.5
 62
256
  6
BYLAYER
  0
LAYOUT
  5
2AC
102
{ACAD_REACTORS
330
1A
102
}
100
AcDbPlotSettings
  1

  2
none_device
  4
ANSI_C_(22.00_x_17.00_Inches)
  6

 40
0.0
 41
0.0
 42
0.0
 43
0.0
 44
558.8
 45
431.8
 46
0.0
 47
0.0
 48
0.0
 49
0.0
140
0.0
141
0.0
142
1.0
143
1.0
 70
1024
 72
0
 73
0
 74
0
  7

 75
0
147
1.0
148
0.0
149
0.0
100
AcDbLayout
  1
Model
 70
0
 71
0
 10
0.0
 20
0.0
 11
22.0
 21
17.0
 12
0.0
 22
0.0
 32
0.0
 14
0.0
 24
0.0
 34
0.0
 15
0.0
 25
0.0
 35
0.0
146
0.0
 13
0.0
 23
0.0
 33
0.0
 16
1.0
 26
0.0
 36
0.0
 17
0.0
 27
1.0
 37
0.0
 76
0
330
216
345
0
346
0
  0
LAYOUT
  5
2AD
102
{ACAD_REACTORS
330
1A
102
}
100
AcDbPlotSettings
  1

  2
none_device
  4
ANSI_C_(22.00_x_17.00_Inches)
  6

 40
0.0
 41
0.0
 42
0.0
 43
0.0
 44
558.8
 45
431.8
 46
0.0
 47
0.0
 48
0.0
 49
0.0
140
0.0
141
0.0
142
1.0
143
1.0
 70
0
 72
0
 73
0
 74
0
  7

 75
0
147
1.0
148
0.0
149
0.0
100
AcDbLayout
  1
Layout1
 70
0
 71
1
 10
0.0
 20
0.0
 11
22.0
 21
17.0
 12
0.0
 22
0.0
 32
0.0
 14
0.0
 24
0.0
 34
0.0
 15
0.0
 25
0.0
 35
0.0
146
0.0
 13
0.0
 23
0.0
 33
0.0
 16
1.0
 26
0.0
 36
0.0
 17
0.0
 27
1.0
 37
0.0
 76
0
330
217
345
0
346
0
  0
ENDSEC
  0
EOF