999
DXF file: _cgs_temp_output.dxf
999
Pro/ENGINEER 2016360 by Parametric Technology Corporation
  0
SECTION
  2
HEADER
  9
$ACADVER
  1
AC1021
  9
$DWGCODEPAGE
  3
ANSI_1252
  9
$EXTMAX
 10
22.0
 20
17.0
 30
0.0
  9
$EXTMIN
 10
0.0
 20
0.0
 30
0.0
  9
$LIMMIN
 10
0.0
 20
0.0
  9
$LIMMAX
 10
22.0
 20
17.0
  9
$VIEWCTR
 10
11.0
 20
8.5
  9
$VIEWSIZE
 40
17.0
  9
$CLAYER
  8
0
  9
$LTSCALE
 40
1.21
  9
$CELTYPE
  6
BYLAYER
  9
$DIMSCALE
 40
1.0
  9
$DIMASZ
 40
0.1875
  9
$DIMEXO
 40
0.0625
  9
$DIMDLI
 40
0.836
  9
$DIMEXE
 40
0.125
  9
$DIMCEN
 40
0.198
  9
$DIMLFAC
 40
1.0
  9
$DIMBLK
  1
_CLOSED
  9
$DIMALT
 70
0
  9
$DIMALTF
 40
25.4
  9
$DIMTXT
 40
0.15625
  9
$DIMTOL
 70
0
  9
$DIMLIM
 70
0
  9
$DIMTFAC
 40
1.0
  9
$DIMGAP
 40
0.09
  9
$DIMDSEP
 70
46
  9
$AUNITS
 70
0
  9
$PDMODE
 70
3
  9
$PDSIZE
 40
0.3125
  9
$HANDSEED
  5
2AE
  9
$TILEMODE
 70
1
  9
$MEASUREMENT
 70
0
  9
$INSUNITS
 70
1
  0
ENDSEC
  0
SECTION
  2
CLASSES
  0
CLASS
  1
ACDBDICTIONARYWDFLT
  2
AcDbDictionaryWithDefault
  3
AutoCAD 2000
 90
0
 91
1
280
0
281
0
  0
CLASS
  1
ACDBPLACEHOLDER
  2
AcDbPlaceHolder
  3
AutoCAD 2000
 90
0
 91
1
280
0
281
0
  0
CLASS
  1
LAYOUT
  2
AcDbLayout
  3
AutoCAD 2000
 90
0
 91
0
280
0
281
0
  0
ENDSEC
  0
SECTION
  2
TABLES
  0
TABLE
  2
VPORT
  5
8
100
AcDbSymbolTable
 70
2
  0
VPORT
  5
1F4
100
AcDbSymbolTableRecord
100
AcDbViewportTableRecord
  2
*ACTIVE
 70
0
 10
0.0
 20
0.0
 11
1.0
 21
1.0
 12
11.0
 22
8.5
 13
0.0
 23
0.0
 14
1.0
 24
1.0
 15
0.0
 25
0.0
 16
0.0
 26
0.0
 36
1.0
 17
0.0
 27
0.0
 37
0.0
 40
17.0
 41
1.2941176471
 42
50.0
 43
0.0
 44
0.0
 50
0.0
 51
0.0
 71
0
 72
100
 73
1
 74
1
 75
0
 76
0
 77
0
 78
0
  0
ENDTAB
  0
TABLE
  2
LTYPE
  5
5
100
AcDbSymbolTable
 70
6
  0
LTYPE
  5
14
100
AcDbSymbolTableRecord
100
AcDbLinetypeTableRecord
  2
BYBLOCK
 70
0
  3

 72
65
 73
0
 40
0.0
  0
LTYPE
  5
15
100
AcDbSymbolTableRecord
100
AcDbLinetypeTableRecord
  2
BYLAYER
 70
0
  3

 72
65
 73
0
 40
0.0
  0
LTYPE
  5
16
100
AcDbSymbolTableRecord
100
AcDbLinetypeTableRecord
  2
CONTINUOUS
 70
64
  3
Solid line
 72
65
 73
0
 40
0.0
  0
LTYPE
  5
1F5
100
AcDbSymbolTableRecord
100
AcDbLinetypeTableRecord
  2
CENTER
 70
64
  3
____ _ ____ _ ____ _ ____ _ ____ _ ____ _ ____
 72
65
 73
4
 40
0.6
 49
0.375
 74
0
 49
-0.075
 74
0
 49
0.075
 74
0
 49
-0.075
 74
0
  0
LTYPE
  5
1F6
100
AcDbSymbolTableRecord
100
AcDbLinetypeTableRecord
  2
HIDDEN
 70
64
  3
- - - - - - - - - - - - - - - - - - - -
 72
65
 73
2
 40
0.2
 49
0.1
 74
0
 49
-0.1
 74
0
  0
LTYPE
  5
1F7
100
AcDbSymbolTableRecord
100
AcDbLinetypeTableRecord
  2
PHANTOM
 70
64
  3
_____ _ _ _____ _ _ _____ _ _ _____
 72
65
 73
6
 40
0.8
 49
0.45
 74
0
 49
-0.05
 74
0
 49
0.1
 74
0
 49
-0.05
 74
0
 49
0.1
 74
0
 49
-0.05
 74
0
  0
LTYPE
  5
1F8
100
AcDbSymbolTableRecord
100
AcDbLinetypeTableRecord
  2
DOT
 70
64
  3
. . . . . . . . . . . . . . . . . . . .
 72
65
 73
2
 40
0.2
 49
0.1
 74
0
 49
-0.1
 74
0
  0
LTYPE
  5
1F9
100
AcDbSymbolTableRecord
100
AcDbLinetypeTableRecord
  2
DASHED
 70
64
  3
- - - - - - - - - - - - - - - - - - - -
 72
65
 73
2
 40
0.2
 49
0.1
 74
0
 49
-0.1
 74
0
  0
ENDTAB
  0
TABLE
  2
LAYER
  5
2
100
AcDbSymbolTable
 70
36
  0
LAYER
  5
10
100
AcDbSymbolTableRecord
100
AcDbLayerTableRecord
  2
0
 70
0
 62
7
  6
CONTINUOUS
370
-3
390
F
  0
LAYER
  5
1FA
100
AcDbSymbolTableRecord
100
AcDbLayerTableRecord
  2
DEFAULT_1
 70
0
 62
7
  6
CENTER
370
-3
390
F
  0
LAYER
  5
1FB
100
AcDbSymbolTableRecord
100
AcDbLayerTableRecord
  2
DEFAULT_2
 70
0
 62
8
  6
HIDDEN
370
-3
390
F
  0
LAYER
  5
1FC
100
AcDbSymbolTableRecord
100
AcDbLayerTableRecord
  2
DEFAULT_3
 70
0
 62
7
  6
PHANTOM
370
-3
390
F
  0
LAYER
  5
1FD
100
AcDbSymbolTableRecord
100
AcDbLayerTableRecord
  2
01_ALL_DTM_PLN
 70
0
 62
7
  6
CONTINUOUS
370
-3
390
F
  0
LAYER
  5
1FE
100
AcDbSymbolTableRecord
100
AcDbLayerTableRecord
  2
01__ASM_ALL_DTM_PLN
 70
0
 62
7
  6
CONTINUOUS
370
-3
390
F
  0
LAYER
  5
1FF
100
AcDbSymbolTableRecord
100
AcDbLayerTableRecord
  2
01__ASM_DEF_DTM_PLN
 70
0
 62
7
  6
CONTINUOUS
370
-3
390
F
  0
LAYER
  5
200
100
AcDbSymbolTableRecord
100
AcDbLayerTableRecord
  2
01___PRT_ALL_DTM_PLN
 70
0
 62
7
  6
CONTINUOUS
370
-3
390
F
  0
LAYER
  5
201
100
AcDbSymbolTableRecord
100
AcDbLayerTableRecord
  2
01___PRT_DEF_DTM_PLN
 70
0
 62
7
  6
CONTINUOUS
370
-3
390
F
  0
LAYER
  5
202
100
AcDbSymbolTableRecord
100
AcDbLayerTableRecord
  2
02_ALL_AXES
 70
0
 62
7
  6
CONTINUOUS
370
-3
390
F
  0
LAYER
  5
203
100
AcDbSymbolTableRecord
100
AcDbLayerTableRecord
  2
02__ASM_ALL_AXES
 70
0
 62
7
  6
CONTINUOUS
370
-3
390
F
  0
LAYER
  5
204
100
AcDbSymbolTableRecord
100
AcDbLayerTableRecord
  2
02___PRT_ALL_AXES
 70
0
 62
7
  6
CONTINUOUS
370
-3
390
F
  0
LAYER
  5
205
100
AcDbSymbolTableRecord
100
AcDbLayerTableRecord
  2
03_ALL_CURVES
 70
0
 62
7
  6
CONTINUOUS
370
-3
390
F
  0
LAYER
  5
206
100
AcDbSymbolTableRecord
100
AcDbLayerTableRecord
  2
03__ASM_ALL_CURVES
 70
0
 62
7
  6
CONTINUOUS
370
-3
390
F
  0
LAYER
  5
207
100
AcDbSymbolTableRecord
100
AcDbLayerTableRecord
  2
03___PRT_ALL_CURVES
 70
0
 62
7
  6
CONTINUOUS
370
-3
390
F
  0
LAYER
  5
208
100
AcDbSymbolTableRecord
100
AcDbLayerTableRecord
  2
04_ALL_DTM_PNT
 70
0
 62
7
  6
CONTINUOUS
370
-3
390
F
  0
LAYER
  5
209
100
AcDbSymbolTableRecord
100
AcDbLayerTableRecord
  2
04__ASM_ALL_DTM_PNT
 70
0
 62
7
  6
CONTINUOUS
370
-3
390
F
  0
LAYER
  5
20A
100
AcDbSymbolTableRecord
100
AcDbLayerTableRecord
  2
04___PRT_ALL_DTM_PNT
 70
0
 62
7
  6
CONTINUOUS
370
-3
390
F
  0
LAYER
  5
20B
100
AcDbSymbolTableRecord
100
AcDbLayerTableRecord
  2
05_ALL_DTM_CSYS
 70
0
 62
7
  6
CONTINUOUS
370
-3
390
F
  0
LAYER
  5
20C
100
AcDbSymbolTableRecord
100
AcDbLayerTableRecord
  2
05__ASM_ALL_DTM_CSYS
 70
0
 62
7
  6
CONTINUOUS
370
-3
390
F
  0
LAYER
  5
20D
100
AcDbSymbolTableRecord
100
AcDbLayerTableRecord
  2
05__ASM_DEF_DTM_CSYS
 70
0
 62
7
  6
CONTINUOUS
370
-3
390
F
  0
LAYER
  5
20E
100
AcDbSymbolTableRecord
100
AcDbLayerTableRecord
  2
05___PRT_ALL_DTM_CSYS
 70
0
 62
7
  6
CONTINUOUS
370
-3
390
F
  0
LAYER
  5
20F
100
AcDbSymbolTableRecord
100
AcDbLayerTableRecord
  2
05___PRT_DEF_DTM_CSYS
 70
0
 62
7
  6
CONTINUOUS
370
-3
390
F
  0
LAYER
  5
210
100
AcDbSymbolTableRecord
100
AcDbLayerTableRecord
  2
06_ALL_SURFS
 70
0
 62
7
  6
CONTINUOUS
370
-3
390
F
  0
LAYER
  5
211
100
AcDbSymbolTableRecord
100
AcDbLayerTableRecord
  2
06__ASM_ALL_SURFS
 70
0
 62
7
  6
CONTINUOUS
370
-3
390
F
  0
LAYER
  5
212
100
AcDbSymbolTableRecord
100
AcDbLayerTableRecord
  2
06___PRT_ALL_SURFS
 70
0
 62
7
  6
CONTINUOUS
370
-3
390
F
  0
LAYER
  5
213
100
AcDbSymbolTableRecord
100
AcDbLayerTableRecord
  2
07__ASM_ALL_SKELETONS
 70
0
 62
7
  6
CONTINUOUS
370
-3
390
F
  0
ENDTAB
  0
TABLE
  2
STYLE
  5
3
100
AcDbSymbolTable
 70
1
  0
STYLE
  5
11
100
AcDbSymbolTableRecord
100
AcDbTextStyleTableRecord
  2
STANDARD
 70
0
 40
0.0
 41
0.8
 50
0.0
 71
0
 42
0.2
  3
txt
  4

  0
STYLE
  5
214
100
AcDbSymbolTableRecord
100
AcDbTextStyleTableRecord
  2
TEXTSTYLE_1
 70
0
 40
0.0
 41
0.8
 50
0.0
 71
0
 42
0.2
  3
gdt
  4

  0
ENDTAB
  0
TABLE
  2
VIEW
  5
6
100
AcDbSymbolTable
 70
0
  0
ENDTAB
  0
TABLE
  2
UCS
  5
7
100
AcDbSymbolTable
 70
0
  0
ENDTAB
  0
TABLE
  2
APPID
  5
9
100
AcDbSymbolTable
 70
1
  0
APPID
  5
215
100
AcDbSymbolTableRecord
100
AcDbRegAppTableRecord
  2
ACAD
 70
0
  0
ENDTAB
  0
TABLE
  2
BLOCK_RECORD
  5
1
100
AcDbSymbolTable
 70
0
  0
BLOCK_RECORD
  5
216
100
AcDbSymbolTableRecord
100
AcDbBlockTableRecord
  2
*Model_Space
  0
BLOCK_RECORD
  5
217
100
AcDbSymbolTableRecord
100
AcDbBlockTableRecord
  2
*Paper_Space
  0
ENDTAB
  0
TABLE
  2
DIMSTYLE
  5
A
100
AcDbSymbolTable
 70
1
100
AcDbDimStyleTable
 71
0
  0
DIMSTYLE
105
218
100
AcDbSymbolTableRecord
100
AcDbDimStyleTableRecord
  2
STANDARD
 70
0
  3

  4

 40
1.0
 41
0.1875
 42
0.0625
 43
0.38
 44
0.125
 45
0.0
 46
0.0
 47
0.0001
 48
0.0001
140
0.15625
141
0.09
142
0.0
143
25.4
144
1.0
145
0.0
146
1.0
147
0.09
 71
0.0
 72
0.0
 73
1
 74
1
 75
0
 76
0
 77
0
 78
4
 79
1
170
0
171
3
172
0
173
0
174
0
175
0
176
0
177
0
178
0
270
2
179
4
271
4
272
4
273
2
274
2
275
0
280
0
281
0
282
0
283
1
284
4
285
0
286
0
287
3
288
0
340
11
278
46
  0
ENDTAB
  0
ENDSEC
  0
SECTION
  2
BLOCKS
  0
BLOCK
  5
20
100
AcDbEntity
  8
0
100
AcDbBlockBegin
  2
*Model_Space
 70
0
 10
0.0
 20
0.0
 30
0.0
  3
*Model_Space
  1

  0
ENDBLK
  5
21
100
AcDbEntity
  8
0
100
AcDbBlockEnd
  0
BLOCK
  5
1C
100
AcDbEntity
  8
0
100
AcDbBlockBegin
  2
*Paper_Space
 70
0
 10
0.0
 20
0.0
 30
0.0
  3
*Paper_Space
  1

  0
ENDBLK
  5
1D
100
AcDbEntity
  8
0
100
AcDbBlockEnd
  0
ENDSEC
  0
SECTION
  2
ENTITIES
  0
MTEXT
  5
219
100
AcDbEntity
  8
0
100
AcDbMText
 62
7
  6
CONTINUOUS
  7
STANDARD
 71
1
 72
1
 10
15.9560215477
 20
0.9479130325
 30
0.0
 11
1.0
 21
0.0
 31
0.0
 44
0.9
  1
SCALE: 1:3.000
 40
0.3
 41
3.36
  0
LINE
  5
21A
100
AcDbEntity
  8
0
100
AcDbLine
 62
7
  6
CONTINUOUS
 10
0.0
 20
0.0
 11
0.0
 21
17.0
  0
LINE
  5
21B
100
AcDbEntity
  8
0
100
AcDbLine
 62
7
  6
CONTINUOUS
 10
0.0
 20
0.0
 11
22.0
 21
0.0
  0
LINE
  5
21C
100
AcDbEntity
  8
0
100
AcDbLine
 62
7
  6
CONTINUOUS
 10
0.0
 20
17.0
 11
22.0
 21
17.0
  0
LINE
  5
21D
100
AcDbEntity
  8
0
100
AcDbLine
 62
7
  6
CONTINUOUS
 10
22.0
 20
0.0
 11
22.0
 21
17.0
  0
LINE
  5
21E
100
AcDbEntity
  8
0
100
AcDbLine
 62
7
  6
CONTINUOUS
 10
4.3303672762
 20
5.6551198968
 11
4.3303672762
 21
5.5351198968
  0
LINE
  5
21F
100
AcDbEntity
  8
0
100
AcDbLine
 62
7
  6
CONTINUOUS
 10
4.4513906393
 20
5.5145426778
 11
4.4922142658
 21
5.4159857251
  0
LINE
  5
220
100
AcDbEntity
  8
0
100
AcDbLine
 62
7
  6
CONTINUOUS
 10
4.7685202865
 20
5.4159857251
 11
4.809343913
 21
5.5145426778
  0
LINE
  5
221
100
AcDbEntity
  8
0
100
AcDbLine
 62
7
  6
CONTINUOUS
 10
5.0513906393
 20
5.5145426778
 11
5.0922142658
 21
5.4159857251
  0
LINE
  5
222
100
AcDbEntity
  8
0
100
AcDbLine
 62
7
  6
CONTINUOUS
 10
5.3685202865
 20
5.4159857251
 11
5.409343913
 21
5.5145426778
  0
LINE
  5
223
100
AcDbEntity
  8
0
100
AcDbLine
 62
7
  6
CONTINUOUS
 10
5.6513906393
 20
5.5145426778
 11
5.6922142658
 21
5.4159857251
  0
LINE
  5
224
100
AcDbEntity
  8
0
100
AcDbLine
 62
7
  6
CONTINUOUS
 10
5.9685202865
 20
5.4159857251
 11
6.009343913
 21
5.5145426778
  0
LINE
  5
225
100
AcDbEntity
  8
0
100
AcDbLine
 62
7
  6
CONTINUOUS
 10
4.5384082424
 20
5.3851198968
 11
4.7223263099
 21
5.3851198968
  0
LINE
  5
226
100
AcDbEntity
  8
0
100
AcDbLine
 62
7
  6
CONTINUOUS
 10
5.1384082424
 20
5.3851198968
 11
5.3223263099
 21
5.3851198968
  0
LINE
  5
227
100
AcDbEntity
  8
0
100
AcDbLine
 62
7
  6
CONTINUOUS
 10
5.7384082424
 20
5.3851198968
 11
5.9223263099
 21
5.3851198968
  0
LINE
  5
228
100
AcDbEntity
  8
0
100
AcDbLine
 62
7
  6
CONTINUOUS
 10
6.3384082424
 20
5.3851198968
 11
6.5223263099
 21
5.3851198968
  0
LINE
  5
229
100
AcDbEntity
  8
0
100
AcDbLine
 62
7
  6
CONTINUOUS
 10
6.9384082424
 20
5.3851198968
 11
7.1223263099
 21
5.3851198968
  0
LINE
  5
22A
100
AcDbEntity
  8
0
100
AcDbLine
 62
7
  6
CONTINUOUS
 10
7.5384082424
 20
5.3851198968
 11
7.7223263099
 21
5.3851198968
  0
LINE
  5
22B
100
AcDbEntity
  8
0
100
AcDbLine
 62
7
  6
CONTINUOUS
 10
4.3303672762
 20
5.5351198968
 11
4.4205946549
 21
5.5351198968
  0
LINE
  5
22C
100
AcDbEntity
  8
0
100
AcDbLine
 62
7
  6
CONTINUOUS
 10
4.8401398974
 20
5.5351198968
 11
5.0205946549
 21
5.5351198968
  0
LINE
  5
22D
100
AcDbEntity
  8
0
100
AcDbLine
 62
7
  6
CONTINUOUS
 10
5.4401398974
 20
5.5351198968
 11
5.6205946549
 21
5.5351198968
  0
LINE
  5
22E
100
AcDbEntity
  8
0
100
AcDbLine
 62
7
  6
CONTINUOUS
 10
6.0401398974
 20
5.5351198968
 11
6.2205946549
 21
5.5351198968
  0
LINE
  5
22F
100
AcDbEntity
  8
0
100
AcDbLine
 62
7
  6
CONTINUOUS
 10
6.6401398974
 20
5.5351198968
 11
6.8205946549
 21
5.5351198968
  0
LINE
  5
230
100
AcDbEntity
  8
0
100
AcDbLine
 62
7
  6
CONTINUOUS
 10
7.2401398974
 20
5.5351198968
 11
7.4205946549
 21
5.5351198968
  0
LINE
  5
231
100
AcDbEntity
  8
0
100
AcDbLine
 62
7
  6
CONTINUOUS
 10
7.8401398974
 20
5.5351198968
 11
7.9303672762
 21
5.5351198968
  0
LINE
  5
232
100
AcDbEntity
  8
0
100
AcDbLine
 62
7
  6
CONTINUOUS
 10
7.9303672762
 20
5.6551198968
 11
4.3303672762
 21
5.6551198968
  0
LINE
  5
233
100
AcDbEntity
  8
0
100
AcDbLine
 62
7
  6
CONTINUOUS
 10
6.2513906393
 20
5.5145426778
 11
6.2922142658
 21
5.4159857251
  0
LINE
  5
234
100
AcDbEntity
  8
0
100
AcDbLine
 62
7
  6
CONTINUOUS
 10
6.5685202865
 20
5.4159857251
 11
6.609343913
 21
5.5145426778
  0
LINE
  5
235
100
AcDbEntity
  8
0
100
AcDbLine
 62
7
  6
CONTINUOUS
 10
6.8513906393
 20
5.5145426778
 11
6.8922142658
 21
5.4159857251
  0
LINE
  5
236
100
AcDbEntity
  8
0
100
AcDbLine
 62
7
  6
CONTINUOUS
 10
7.1685202865
 20
5.4159857251
 11
7.209343913
 21
5.5145426778
  0
LINE
  5
237
100
AcDbEntity
  8
0
100
AcDbLine
 62
7
  6
CONTINUOUS
 10
7.4513906393
 20
5.5145426778
 11
7.4922142658
 21
5.4159857251
  0
LINE
  5
238
100
AcDbEntity
  8
0
100
AcDbLine
 62
7
  6
CONTINUOUS
 10
7.7685202865
 20
5.4159857251
 11
7.809343913
 21
5.5145426778
  0
LINE
  5
239
100
AcDbEntity
  8
0
100
AcDbLine
 62
7
  6
CONTINUOUS
 10
7.9303672762
 20
5.5351198968
 11
7.9303672762
 21
5.6551198968
  0
LINE
  5
23A
100
AcDbEntity
  8
0
100
AcDbLine
 62
7
  6
CONTINUOUS
 10
4.2708720839
 20
13.1550477814
 11
4.2708720839
 21
12.0450477814
  0
LINE
  5
23B
100
AcDbEntity
  8
0
100
AcDbLine
 62
7
  6
CONTINUOUS
 10
7.8708720839
 20
12.0450477814
 11
4.2708720839
 21
12.0450477814
  0
LINE
  5
23C
100
AcDbEntity
  8
0
100
AcDbLine
 62
7
  6
CONTINUOUS
 10
4.2708720839
 20
13.1550477814
 11
7.8708720839
 21
13.1550477814
  0
LINE
  5
23D
100
AcDbEntity
  8
0
100
AcDbLine
 62
7
  6
CONTINUOUS
 10
7.8708720839
 20
13.1550477814
 11
7.8708720839
 21
12.0450477814
  0
LINE
  5
23E
100
AcDbEntity
  8
0
100
AcDbLine
 62
7
  6
CONTINUOUS
 10
15.0053552569
 20
5.3256247044
 11
15.0053552569
 21
5.5956247044
  0
LINE
  5
23F
100
AcDbEntity
  8
0
100
AcDbLine
 62
7
  6
CONTINUOUS
 10
15.0053552569
 20
5.3256247044
 11
16.1153552569
 21
5.3256247044
  0
LINE
  5
240
100
AcDbEntity
  8
0
100
AcDbLine
 62
7
  6
CONTINUOUS
 10
16.1153552569
 20
5.4756247044
 11
15.0053552569
 21
5.4756247044
  0
LINE
  5
241
100
AcDbEntity
  8
0
100
AcDbLine
 62
7
  6
CONTINUOUS
 10
16.1153552569
 20
5.5956247044
 11
15.0053552569
 21
5.5956247044
  0
LINE
  5
242
100
AcDbEntity
  8
0
100
AcDbLine
 62
7
  6
CONTINUOUS
 10
16.1153552569
 20
5.3256247044
 11
16.1153552569
 21
5.5956247044
  0
LINE
  5
243
100
AcDbEntity
  8
0
100
AcDbLine
 62
7
  6
CONTINUOUS
 10
13.6605533578
 20
12.1599759038
 11
13.6971583818
 21
12.0853827076
  0
LINE
  5
244
100
AcDbEntity
  8
0
100
AcDbLine
 62
7
  6
CONTINUOUS
 10
13.9292469768
 20
13.0294687735
 11
13.6605533578
 21
12.1599759038
  0
LINE
  5
245
100
AcDbEntity
  8
0
100
AcDbLine
 62
7
  6
CONTINUOUS
 10
13.8149051942
 20
12.0725917032
 11
13.882570241
 21
12.0113277189
  0
LINE
  5
246
100
AcDbEntity
  8
0
100
AcDbLine
 62
7
  6
CONTINUOUS
 10
14.1370649391
 20
12.0113277189
 11
14.1446019923
 21
12.0725917032
  0
LINE
  5
247
100
AcDbEntity
  8
0
100
AcDbLine
 62
7
  6
CONTINUOUS
 10
14.136456086
 20
12.0084580156
 11
14.1370649391
 21
12.0113277189
  0
LINE
  5
248
100
AcDbEntity
  8
0
100
AcDbLine
 62
7
  6
CONTINUOUS
 10
14.1446019923
 20
12.0725917032
 11
14.1450149874
 21
12.0745026501
  0
LINE
  5
249
100
AcDbEntity
  8
0
100
AcDbLine
 62
7
  6
CONTINUOUS
 10
14.1373143644
 20
12.0112506407
 11
14.1600059251
 21
12.0846805583
  0
LINE
  5
24A
100
AcDbEntity
  8
0
100
AcDbLine
 62
7
  6
CONTINUOUS
 10
14.3675417906
 20
12.0725917032
 11
14.4352068374
 21
12.0113277189
  0
LINE
  5
24B
100
AcDbEntity
  8
0
100
AcDbLine
 62
7
  6
CONTINUOUS
 10
14.6897015355
 20
12.0113277189
 11
14.6972385887
 21
12.0725917032
  0
LINE
  5
24C
100
AcDbEntity
  8
0
100
AcDbLine
 62
7
  6
CONTINUOUS
 10
14.6890926824
 20
12.0084580156
 11
14.6897015355
 21
12.0113277189
  0
LINE
  5
24D
100
AcDbEntity
  8
0
100
AcDbLine
 62
7
  6
CONTINUOUS
 10
14.6972385887
 20
12.0725917032
 11
14.6976515838
 21
12.0745026501
  0
LINE
  5
24E
100
AcDbEntity
  8
0
100
AcDbLine
 62
7
  6
CONTINUOUS
 10
14.920178387
 20
12.0725917032
 11
14.9878434338
 21
12.0113277189
  0
LINE
  5
24F
100
AcDbEntity
  8
0
100
AcDbLine
 62
7
  6
CONTINUOUS
 10
14.6899509608
 20
12.0112506407
 11
14.7126425215
 21
12.0846805583
  0
LINE
  5
250
100
AcDbEntity
  8
0
100
AcDbLine
 62
7
  6
CONTINUOUS
 10
13.9345330809
 20
11.9921412123
 11
14.103932839
 21
11.9921412123
  0
LINE
  5
251
100
AcDbEntity
  8
0
100
AcDbLine
 62
7
  6
CONTINUOUS
 10
14.4871696773
 20
11.9921412123
 11
14.6565694354
 21
11.9921412123
  0
LINE
  5
252
100
AcDbEntity
  8
0
100
AcDbLine
 62
7
  6
CONTINUOUS
 10
15.0398062737
 20
11.9921412123
 11
15.2092060318
 21
11.9921412123
  0
LINE
  5
253
100
AcDbEntity
  8
0
100
AcDbLine
 62
7
  6
CONTINUOUS
 10
15.5924428701
 20
11.9921412123
 11
15.7618426282
 21
11.9921412123
  0
LINE
  5
254
100
AcDbEntity
  8
0
100
AcDbLine
 62
7
  6
CONTINUOUS
 10
16.1450794665
 20
11.9921412123
 11
16.3144792246
 21
11.9921412123
  0
LINE
  5
255
100
AcDbEntity
  8
0
100
AcDbLine
 62
7
  6
CONTINUOUS
 10
16.6977160629
 20
11.9921412123
 11
16.867115821
 21
11.9921412123
  0
LINE
  5
256
100
AcDbEntity
  8
0
100
AcDbLine
 62
7
  6
CONTINUOUS
 10
13.6971583818
 20
12.0853827076
 11
13.7802633009
 21
12.0853827076
  0
LINE
  5
257
100
AcDbEntity
  8
0
100
AcDbLine
 62
7
  6
CONTINUOUS
 10
14.166690059
 20
12.0853827076
 11
14.3328998973
 21
12.0853827076
  0
LINE
  5
258
100
AcDbEntity
  8
0
100
AcDbLine
 62
7
  6
CONTINUOUS
 10
14.7193266554
 20
12.0853827076
 11
14.8855364937
 21
12.0853827076
  0
LINE
  5
259
100
AcDbEntity
  8
0
100
AcDbLine
 62
7
  6
CONTINUOUS
 10
15.2719632518
 20
12.0853827076
 11
15.4381730901
 21
12.0853827076
  0
LINE
  5
25A
100
AcDbEntity
  8
0
100
AcDbLine
 62
7
  6
CONTINUOUS
 10
15.8245998482
 20
12.0853827076
 11
15.9908096865
 21
12.0853827076
  0
LINE
  5
25B
100
AcDbEntity
  8
0
100
AcDbLine
 62
7
  6
CONTINUOUS
 10
16.3772364446
 20
12.0853827076
 11
16.5434462829
 21
12.0853827076
  0
LINE
  5
25C
100
AcDbEntity
  8
0
100
AcDbLine
 62
7
  6
CONTINUOUS
 10
16.929873041
 20
12.0853827076
 11
17.0129779602
 21
12.0853827076
  0
LINE
  5
25D
100
AcDbEntity
  8
0
100
AcDbLine
 62
7
  6
CONTINUOUS
 10
16.9763729362
 20
12.1599759038
 11
13.6605533578
 21
12.1599759038
  0
LINE
  5
25E
100
AcDbEntity
  8
0
100
AcDbLine
 62
7
  6
CONTINUOUS
 10
15.4728149834
 20
12.0725917032
 11
15.5404800302
 21
12.0113277189
  0
LINE
  5
25F
100
AcDbEntity
  8
0
100
AcDbLine
 62
7
  6
CONTINUOUS
 10
15.2423381319
 20
12.0113277189
 11
15.2498751851
 21
12.0725917032
  0
LINE
  5
260
100
AcDbEntity
  8
0
100
AcDbLine
 62
7
  6
CONTINUOUS
 10
15.2417292788
 20
12.0084580156
 11
15.2423381319
 21
12.0113277189
  0
LINE
  5
261
100
AcDbEntity
  8
0
100
AcDbLine
 62
7
  6
CONTINUOUS
 10
15.2498751851
 20
12.0725917032
 11
15.2502881802
 21
12.0745026501
  0
LINE
  5
262
100
AcDbEntity
  8
0
100
AcDbLine
 62
7
  6
CONTINUOUS
 10
15.2425875572
 20
12.0112506407
 11
15.2652791179
 21
12.0846805583
  0
LINE
  5
263
100
AcDbEntity
  8
0
100
AcDbLine
 62
7
  6
CONTINUOUS
 10
16.0254515798
 20
12.0725917032
 11
16.0931166266
 21
12.0113277189
  0
LINE
  5
264
100
AcDbEntity
  8
0
100
AcDbLine
 62
7
  6
CONTINUOUS
 10
15.7949747283
 20
12.0113277189
 11
15.8025117815
 21
12.0725917032
  0
LINE
  5
265
100
AcDbEntity
  8
0
100
AcDbLine
 62
7
  6
CONTINUOUS
 10
15.7943658752
 20
12.0084580156
 11
15.7949747283
 21
12.0113277189
  0
LINE
  5
266
100
AcDbEntity
  8
0
100
AcDbLine
 62
7
  6
CONTINUOUS
 10
15.8025117815
 20
12.0725917032
 11
15.8029247766
 21
12.0745026501
  0
LINE
  5
267
100
AcDbEntity
  8
0
100
AcDbLine
 62
7
  6
CONTINUOUS
 10
15.7952241536
 20
12.0112506407
 11
15.8179157143
 21
12.0846805583
  0
LINE
  5
268
100
AcDbEntity
  8
0
100
AcDbLine
 62
7
  6
CONTINUOUS
 10
13.9292469768
 20
13.0294687735
 11
17.2450665552
 21
13.0294687735
  0
LINE
  5
269
100
AcDbEntity
  8
0
100
AcDbLine
 62
7
  6
CONTINUOUS
 10
16.5780881762
 20
12.0725917032
 11
16.645753223
 21
12.0113277189
  0
LINE
  5
26A
100
AcDbEntity
  8
0
100
AcDbLine
 62
7
  6
CONTINUOUS
 10
16.3476113247
 20
12.0113277189
 11
16.3551483779
 21
12.0725917032
  0
LINE
  5
26B
100
AcDbEntity
  8
0
100
AcDbLine
 62
7
  6
CONTINUOUS
 10
16.3470024716
 20
12.0084580156
 11
16.3476113247
 21
12.0113277189
  0
LINE
  5
26C
100
AcDbEntity
  8
0
100
AcDbLine
 62
7
  6
CONTINUOUS
 10
16.3551483779
 20
12.0725917032
 11
16.355561373
 21
12.0745026501
  0
LINE
  5
26D
100
AcDbEntity
  8
0
100
AcDbLine
 62
7
  6
CONTINUOUS
 10
16.34786075
 20
12.0112506407
 11
16.3705523108
 21
12.0846805583
  0
LINE
  5
26E
100
AcDbEntity
  8
0
100
AcDbLine
 62
7
  6
CONTINUOUS
 10
17.0129779602
 20
12.0853827076
 11
16.9763729362
 21
12.1599759038
  0
LINE
  5
26F
100
AcDbEntity
  8
0
100
AcDbLine
 62
7
  6
CONTINUOUS
 10
16.9002479211
 20
12.0113277189
 11
16.9077849743
 21
12.0725917032
  0
LINE
  5
270
100
AcDbEntity
  8
0
100
AcDbLine
 62
7
  6
CONTINUOUS
 10
16.899639068
 20
12.0084580156
 11
16.9002479211
 21
12.0113277189
  0
LINE
  5
271
100
AcDbEntity
  8
0
100
AcDbLine
 62
7
  6
CONTINUOUS
 10
16.9077849743
 20
12.0725917032
 11
16.9081979694
 21
12.0745026501
  0
LINE
  5
272
100
AcDbEntity
  8
0
100
AcDbLine
 62
7
  6
CONTINUOUS
 10
16.9004973464
 20
12.0112506407
 11
16.9231889072
 21
12.0846805583
  0
LINE
  5
273
100
AcDbEntity
  8
0
100
AcDbLine
 62
7
  6
CONTINUOUS
 10
17.2450665552
 20
13.0294687735
 11
16.9763729362
 21
12.1599759038
  0
LINE
  5
274
100
AcDbEntity
  8
0
100
AcDbLine
 62
7
  6
CONTINUOUS
 10
17.2816715792
 20
12.9548755773
 11
17.0129779602
 21
12.0853827076
  0
LINE
  5
275
100
AcDbEntity
  8
0
100
AcDbLine
 62
7
  6
CONTINUOUS
 10
17.2816715792
 20
12.9548755773
 11
17.2450665552
 21
13.0294687735
  0
ARC
  5
276
100
AcDbEntity
  8
0
100
AcDbCircle
 62
7
  6
CONTINUOUS
 10
5.1384082424
 20
5.4351198968
 40
0.05
100
AcDbArc
 50
202.5
 51
270.0
  0
ARC
  5
277
100
AcDbEntity
  8
0
100
AcDbCircle
 62
7
  6
CONTINUOUS
 10
5.3223263099
 20
5.4351198968
 40
0.05
100
AcDbArc
 50
270.0
 51
337.5
  0
ARC
  5
278
100
AcDbEntity
  8
0
100
AcDbCircle
 62
7
  6
CONTINUOUS
 10
5.7384082424
 20
5.4351198968
 40
0.05
100
AcDbArc
 50
202.5
 51
270.0
  0
ARC
  5
279
100
AcDbEntity
  8
0
100
AcDbCircle
 62
7
  6
CONTINUOUS
 10
5.9223263099
 20
5.4351198968
 40
0.05
100
AcDbArc
 50
270.0
 51
337.5
  0
ARC
  5
27A
100
AcDbEntity
  8
0
100
AcDbCircle
 62
7
  6
CONTINUOUS
 10
6.3384082424
 20
5.4351198968
 40
0.05
100
AcDbArc
 50
202.5
 51
270.0
  0
ARC
  5
27B
100
AcDbEntity
  8
0
100
AcDbCircle
 62
7
  6
CONTINUOUS
 10
6.5223263099
 20
5.4351198968
 40
0.05
100
AcDbArc
 50
270.0
 51
337.5
  0
ARC
  5
27C
100
AcDbEntity
  8
0
100
AcDbCircle
 62
7
  6
CONTINUOUS
 10
4.7223263099
 20
5.4351198968
 40
0.05
100
AcDbArc
 50
270.0
 51
337.5
  0
ARC
  5
27D
100
AcDbEntity
  8
0
100
AcDbCircle
 62
7
  6
CONTINUOUS
 10
4.5384082424
 20
5.4351198968
 40
0.05
100
AcDbArc
 50
202.5
 51
270.0
  0
ARC
  5
27E
100
AcDbEntity
  8
0
100
AcDbCircle
 62
7
  6
CONTINUOUS
 10
7.7223263099
 20
5.4351198968
 40
0.05
100
AcDbArc
 50
270.0
 51
337.5
  0
ARC
  5
27F
100
AcDbEntity
  8
0
100
AcDbCircle
 62
7
  6
CONTINUOUS
 10
7.5384082424
 20
5.4351198968
 40
0.05
100
AcDbArc
 50
202.5
 51
270.0
  0
ARC
  5
280
100
AcDbEntity
  8
0
100
AcDbCircle
 62
7
  6
CONTINUOUS
 10
7.1223263099
 20
5.4351198968
 40
0.05
100
AcDbArc
 50
270.0
 51
337.5
  0
ARC
  5
281
100
AcDbEntity
  8
0
100
AcDbCircle
 62
7
  6
CONTINUOUS
 10
6.9384082424
 20
5.4351198968
 40
0.05
100
AcDbArc
 50
202.5
 51
270.0
  0
ARC
  5
282
100
AcDbEntity
  8
0
100
AcDbCircle
 62
7
  6
CONTINUOUS
 10
4.8401398974
 20
5.5017865634
 40
0.0333333333
100
AcDbArc
 50
90.0
 51
157.5
  0
ARC
  5
283
100
AcDbEntity
  8
0
100
AcDbCircle
 62
7
  6
CONTINUOUS
 10
4.4205946549
 20
5.5017865634
 40
0.0333333333
100
AcDbArc
 50
22.5
 51
90.0
  0
ARC
  5
284
100
AcDbEntity
  8
0
100
AcDbCircle
 62
7
  6
CONTINUOUS
 10
5.4401398974
 20
5.5017865634
 40
0.0333333333
100
AcDbArc
 50
90.0
 51
157.5
  0
ARC
  5
285
100
AcDbEntity
  8
0
100
AcDbCircle
 62
7
  6
CONTINUOUS
 10
5.0205946549
 20
5.5017865634
 40
0.0333333333
100
AcDbArc
 50
22.5
 51
90.0
  0
ARC
  5
286
100
AcDbEntity
  8
0
100
AcDbCircle
 62
7
  6
CONTINUOUS
 10
6.0401398974
 20
5.5017865634
 40
0.0333333333
100
AcDbArc
 50
90.0
 51
157.5
  0
ARC
  5
287
100
AcDbEntity
  8
0
100
AcDbCircle
 62
7
  6
CONTINUOUS
 10
5.6205946549
 20
5.5017865634
 40
0.0333333333
100
AcDbArc
 50
22.5
 51
90.0
  0
ARC
  5
288
100
AcDbEntity
  8
0
100
AcDbCircle
 62
7
  6
CONTINUOUS
 10
6.6401398974
 20
5.5017865634
 40
0.0333333333
100
AcDbArc
 50
90.0
 51
157.5
  0
ARC
  5
289
100
AcDbEntity
  8
0
100
AcDbCircle
 62
7
  6
CONTINUOUS
 10
6.2205946549
 20
5.5017865634
 40
0.0333333333
100
AcDbArc
 50
22.5
 51
90.0
  0
ARC
  5
28A
100
AcDbEntity
  8
0
100
AcDbCircle
 62
7
  6
CONTINUOUS
 10
7.2401398974
 20
5.5017865634
 40
0.0333333333
100
AcDbArc
 50
90.0
 51
157.5
  0
ARC
  5
28B
100
AcDbEntity
  8
0
100
AcDbCircle
 62
7
  6
CONTINUOUS
 10
6.8205946549
 20
5.5017865634
 40
0.0333333333
100
AcDbArc
 50
22.5
 51
90.0
  0
ARC
  5
28C
100
AcDbEntity
  8
0
100
AcDbCircle
 62
7
  6
CONTINUOUS
 10
7.8401398974
 20
5.5017865634
 40
0.0333333333
100
AcDbArc
 50
90.0
 51
157.5
  0
ARC
  5
28D
100
AcDbEntity
  8
0
100
AcDbCircle
 62
7
  6
CONTINUOUS
 10
7.4205946549
 20
5.5017865634
 40
0.0333333333
100
AcDbArc
 50
22.5
 51
90.0
  0
SPLINE
  5
28E
100
AcDbEntity
  8
0
100
AcDbSpline
 62
7
  6
CONTINUOUS
 70
0
 71
3
 72
9
 73
5
 74
0
 42
0.0000001
 43
0.0000001
 44
0.0000000001
 40
0.0
 40
0.0
 40
0.0
 40
0.0
 40
0.4953322549
 40
1.0
 40
1.0
 40
1.0
 40
1.0
 10
14.1450118051
 20
12.0745036342
 30
0.0
 10
14.1451922557
 20
12.0750864002
 30
0.0
 10
14.145655941
 20
12.076234313
 30
0.0
 10
14.1463010617
 20
12.0772904384
 30
0.0
 10
14.1466651529
 20
12.0777942016
 30
0.0
  0
SPLINE
  5
28F
100
AcDbEntity
  8
0
100
AcDbSpline
 62
7
  6
CONTINUOUS
 70
0
 71
3
 72
14
 73
10
 74
0
 42
0.0000001
 43
0.0000001
 44
0.0000000001
 40
0.0
 40
0.0
 40
0.0
 40
0.0
 40
0.1008723256
 40
0.2072985942
 40
0.3205384448
 40
0.4413698664
 40
0.706311135
 40
0.8500858225
 40
1.0
 40
1.0
 40
1.0
 40
1.0
 10
14.1466651529
 20
12.0777942016
 30
0.0
 10
14.1471015608
 20
12.0783980238
 30
0.0
 10
14.1481156323
 20
12.0795572516
 30
0.0
 10
14.1499503882
 20
12.0810670492
 30
0.0
 10
14.1521094233
 20
12.0823722523
 30
0.0
 10
14.1554876508
 20
12.0838652206
 30
0.0
 10
14.1593125529
 20
12.0848216684
 30
0.0
 10
14.1634121585
 20
12.0853025849
 30
0.0
 10
14.1655828288
 20
12.0853827076
 30
0.0
 10
14.166690059
 20
12.0853827076
 30
0.0
  0
SPLINE
  5
290
100
AcDbEntity
  8
0
100
AcDbSpline
 62
7
  6
CONTINUOUS
 70
0
 71
3
 72
9
 73
5
 74
0
 42
0.0000001
 43
0.0000001
 44
0.0000000001
 40
0.0
 40
0.0
 40
0.0
 40
0.0
 40
0.4953322549
 40
1.0
 40
1.0
 40
1.0
 40
1.0
 10
14.6976484015
 20
12.0745036342
 30
0.0
 10
14.6978288521
 20
12.0750864002
 30
0.0
 10
14.6982925374
 20
12.076234313
 30
0.0
 10
14.6989376581
 20
12.0772904384
 30
0.0
 10
14.6993017493
 20
12.0777942016
 30
0.0
  0
SPLINE
  5
291
100
AcDbEntity
  8
0
100
AcDbSpline
 62
7
  6
CONTINUOUS
 70
0
 71
3
 72
14
 73
10
 74
0
 42
0.0000001
 43
0.0000001
 44
0.0000000001
 40
0.0
 40
0.0
 40
0.0
 40
0.0
 40
0.1008723256
 40
0.2072985942
 40
0.3205384448
 40
0.4413698664
 40
0.706311135
 40
0.8500858225
 40
1.0
 40
1.0
 40
1.0
 40
1.0
 10
14.6993017493
 20
12.0777942016
 30
0.0
 10
14.6997381572
 20
12.0783980238
 30
0.0
 10
14.7007522287
 20
12.0795572516
 30
0.0
 10
14.7025869846
 20
12.0810670492
 30
0.0
 10
14.7047460197
 20
12.0823722523
 30
0.0
 10
14.7081242472
 20
12.0838652206
 30
0.0
 10
14.7119491493
 20
12.0848216684
 30
0.0
 10
14.7160487549
 20
12.0853025849
 30
0.0
 10
14.7182194252
 20
12.0853827076
 30
0.0
 10
14.7193266554
 20
12.0853827076
 30
0.0
  0
SPLINE
  5
292
100
AcDbEntity
  8
0
100
AcDbSpline
 62
7
  6
CONTINUOUS
 70
0
 71
3
 72
9
 73
5
 74
0
 42
0.0000001
 43
0.0000001
 44
0.0000000001
 40
0.0
 40
0.0
 40
0.0
 40
0.0
 40
0.4953322549
 40
1.0
 40
1.0
 40
1.0
 40
1.0
 10
15.2502849979
 20
12.0745036342
 30
0.0
 10
15.2504654485
 20
12.0750864002
 30
0.0
 10
15.2509291338
 20
12.076234313
 30
0.0
 10
15.2515742545
 20
12.0772904384
 30
0.0
 10
15.2519383457
 20
12.0777942016
 30
0.0
  0
SPLINE
  5
293
100
AcDbEntity
  8
0
100
AcDbSpline
 62
7
  6
CONTINUOUS
 70
0
 71
3
 72
14
 73
10
 74
0
 42
0.0000001
 43
0.0000001
 44
0.0000000001
 40
0.0
 40
0.0
 40
0.0
 40
0.0
 40
0.1008723256
 40
0.2072985942
 40
0.3205384448
 40
0.4413698664
 40
0.706311135
 40
0.8500858225
 40
1.0
 40
1.0
 40
1.0
 40
1.0
 10
15.2519383457
 20
12.0777942016
 30
0.0
 10
15.2523747536
 20
12.0783980238
 30
0.0
 10
15.2533888251
 20
12.0795572516
 30
0.0
 10
15.255223581
 20
12.0810670492
 30
0.0
 10
15.2573826161
 20
12.0823722523
 30
0.0
 10
15.2607608436
 20
12.0838652206
 30
0.0
 10
15.2645857457
 20
12.0848216684
 30
0.0
 10
15.2686853513
 20
12.0853025849
 30
0.0
 10
15.2708560216
 20
12.0853827076
 30
0.0
 10
15.2719632518
 20
12.0853827076
 30
0.0
  0
SPLINE
  5
294
100
AcDbEntity
  8
0
100
AcDbSpline
 62
7
  6
CONTINUOUS
 70
0
 71
3
 72
9
 73
5
 74
0
 42
0.0000001
 43
0.0000001
 44
0.0000000001
 40
0.0
 40
0.0
 40
0.0
 40
0.0
 40
0.4953322549
 40
1.0
 40
1.0
 40
1.0
 40
1.0
 10
15.8029215943
 20
12.0745036342
 30
0.0
 10
15.8031020449
 20
12.0750864002
 30
0.0
 10
15.8035657302
 20
12.076234313
 30
0.0
 10
15.8042108509
 20
12.0772904384
 30
0.0
 10
15.8045749421
 20
12.0777942016
 30
0.0
  0
SPLINE
  5
295
100
AcDbEntity
  8
0
100
AcDbSpline
 62
7
  6
CONTINUOUS
 70
0
 71
3
 72
14
 73
10
 74
0
 42
0.0000001
 43
0.0000001
 44
0.0000000001
 40
0.0
 40
0.0
 40
0.0
 40
0.0
 40
0.1008723256
 40
0.2072985942
 40
0.3205384448
 40
0.4413698664
 40
0.706311135
 40
0.8500858225
 40
1.0
 40
1.0
 40
1.0
 40
1.0
 10
15.8045749421
 20
12.0777942016
 30
0.0
 10
15.8050113501
 20
12.0783980238
 30
0.0
 10
15.8060254215
 20
12.0795572516
 30
0.0
 10
15.8078601774
 20
12.0810670492
 30
0.0
 10
15.8100192125
 20
12.0823722523
 30
0.0
 10
15.81339744
 20
12.0838652206
 30
0.0
 10
15.8172223421
 20
12.0848216684
 30
0.0
 10
15.8213219477
 20
12.0853025849
 30
0.0
 10
15.823492618
 20
12.0853827076
 30
0.0
 10
15.8245998482
 20
12.0853827076
 30
0.0
  0
SPLINE
  5
296
100
AcDbEntity
  8
0
100
AcDbSpline
 62
7
  6
CONTINUOUS
 70
0
 71
3
 72
9
 73
5
 74
0
 42
0.0000001
 43
0.0000001
 44
0.0000000001
 40
0.0
 40
0.0
 40
0.0
 40
0.0
 40
0.4953322549
 40
1.0
 40
1.0
 40
1.0
 40
1.0
 10
16.3555581907
 20
12.0745036342
 30
0.0
 10
16.3557386413
 20
12.0750864002
 30
0.0
 10
16.3562023266
 20
12.076234313
 30
0.0
 10
16.3568474473
 20
12.0772904384
 30
0.0
 10
16.3572115385
 20
12.0777942016
 30
0.0
  0
SPLINE
  5
297
100
AcDbEntity
  8
0
100
AcDbSpline
 62
7
  6
CONTINUOUS
 70
0
 71
3
 72
14
 73
10
 74
0
 42
0.0000001
 43
0.0000001
 44
0.0000000001
 40
0.0
 40
0.0
 40
0.0
 40
0.0
 40
0.1008723256
 40
0.2072985942
 40
0.3205384448
 40
0.4413698664
 40
0.706311135
 40
0.8500858225
 40
1.0
 40
1.0
 40
1.0
 40
1.0
 10
16.3572115385
 20
12.0777942016
 30
0.0
 10
16.3576479465
 20
12.0783980238
 30
0.0
 10
16.3586620179
 20
12.0795572516
 30
0.0
 10
16.3604967738
 20
12.0810670492
 30
0.0
 10
16.3626558089
 20
12.0823722523
 30
0.0
 10
16.3660340364
 20
12.0838652206
 30
0.0
 10
16.3698589385
 20
12.0848216684
 30
0.0
 10
16.3739585441
 20
12.0853025849
 30
0.0
 10
16.3761292144
 20
12.0853827076
 30
0.0
 10
16.3772364446
 20
12.0853827076
 30
0.0
  0
SPLINE
  5
298
100
AcDbEntity
  8
0
100
AcDbSpline
 62
7
  6
CONTINUOUS
 70
0
 71
3
 72
9
 73
5
 74
0
 42
0.0000001
 43
0.0000001
 44
0.0000000001
 40
0.0
 40
0.0
 40
0.0
 40
0.0
 40
0.4953322549
 40
1.0
 40
1.0
 40
1.0
 40
1.0
 10
16.9081947871
 20
12.0745036342
 30
0.0
 10
16.9083752377
 20
12.0750864002
 30
0.0
 10
16.908838923
 20
12.076234313
 30
0.0
 10
16.9094840437
 20
12.0772904384
 30
0.0
 10
16.9098481349
 20
12.0777942016
 30
0.0
  0
SPLINE
  5
299
100
AcDbEntity
  8
0
100
AcDbSpline
 62
7
  6
CONTINUOUS
 70
0
 71
3
 72
14
 73
10
 74
0
 42
0.0000001
 43
0.0000001
 44
0.0000000001
 40
0.0
 40
0.0
 40
0.0
 40
0.0
 40
0.1008723256
 40
0.2072985942
 40
0.3205384448
 40
0.4413698664
 40
0.706311135
 40
0.8500858225
 40
1.0
 40
1.0
 40
1.0
 40
1.0
 10
16.9098481349
 20
12.0777942016
 30
0.0
 10
16.9102845429
 20
12.0783980238
 30
0.0
 10
16.9112986143
 20
12.0795572516
 30
0.0
 10
16.9131333702
 20
12.0810670492
 30
0.0
 10
16.9152924053
 20
12.0823722523
 30
0.0
 10
16.9186706328
 20
12.0838652206
 30
0.0
 10
16.9224955349
 20
12.0848216684
 30
0.0
 10
16.9265951405
 20
12.0853025849
 30
0.0
 10
16.9287658108
 20
12.0853827076
 30
0.0
 10
16.929873041
 20
12.0853827076
 30
0.0
  0
SPLINE
  5
29A
100
AcDbEntity
  8
0
100
AcDbSpline
 62
7
  6
CONTINUOUS
 70
0
 71
3
 72
20
 73
16
 74
0
 42
0.0000001
 43
0.0000001
 44
0.0000000001
 40
0.0
 40
0.0
 40
0.0
 40
0.0
 40
0.1556555628
 40
0.3030289917
 40
0.3731921196
 40
0.4408921881
 40
0.5687572304
 40
0.6290753305
 40
0.687082023
 40
0.7429309653
 40
0.7968520721
 40
0.8491468311
 40
0.9001682412
 40
0.9503158325
 40
1.0
 40
1.0
 40
1.0
 40
1.0
 10
14.103932839
 20
11.9921412123
 30
0.0
 10
14.1059458893
 20
11.9921412123
 30
0.0
 10
14.1098675275
 20
11.9923150767
 30
0.0
 10
14.1146539987
 20
11.9930060499
 30
0.0
 10
14.1182480403
 20
11.9938469287
 30
0.0
 10
14.1215419573
 20
11.9948313739
 30
0.0
 10
14.1246196738
 20
11.9960831537
 30
0.0
 10
14.127412509
 20
11.9976179752
 30
0.0
 10
14.1292932378
 20
11.9988627866
 30
0.0
 10
14.130991051
 20
12.0002188658
 30
0.0
 10
14.1324978999
 20
12.0016806776
 30
0.0
 10
14.1338072744
 20
12.0032414429
 30
0.0
 10
14.1349126502
 20
12.0048948807
 30
0.0
 10
14.1358069029
 20
12.0066334641
 30
0.0
 10
14.1362611896
 20
12.0078457109
 30
0.0
 10
14.136451005
 20
12.008459586
 30
0.0
  0
SPLINE
  5
29B
100
AcDbEntity
  8
0
100
AcDbSpline
 62
7
  6
CONTINUOUS
 70
0
 71
3
 72
15
 73
11
 74
0
 42
0.0000001
 43
0.0000001
 44
0.0000000001
 40
0.0
 40
0.0
 40
0.0
 40
0.0
 40
0.1148729593
 40
0.2360780317
 40
0.3619573699
 40
0.4908828321
 40
0.6210130642
 40
0.7504589643
 40
0.877437805
 40
1.0
 40
1.0
 40
1.0
 40
1.0
 10
13.882570241
 20
12.0113277189
 30
0.0
 10
13.884174597
 20
12.0098751339
 30
0.0
 10
13.8876505152
 20
12.0070835468
 30
0.0
 10
13.8933793112
 20
12.0033661903
 30
0.0
 10
13.8996625471
 20
12.0000731078
 30
0.0
 10
13.9063629567
 20
11.9972753506
 30
0.0
 10
13.9133383959
 20
11.9950296053
 30
0.0
 10
13.9204424178
 20
11.993385601
 30
0.0
 10
13.9275201743
 20
11.992379808
 30
0.0
 10
13.9322239669
 20
11.9921412123
 30
0.0
 10
13.9345330809
 20
11.9921412123
 30
0.0
  0
SPLINE
  5
29C
100
AcDbEntity
  8
0
100
AcDbSpline
 62
7
  6
CONTINUOUS
 70
0
 71
3
 72
20
 73
16
 74
0
 42
0.0000001
 43
0.0000001
 44
0.0000000001
 40
0.0
 40
0.0
 40
0.0
 40
0.0
 40
0.1556555628
 40
0.3030289917
 40
0.3731921196
 40
0.4408921881
 40
0.5687572304
 40
0.6290753305
 40
0.687082023
 40
0.7429309653
 40
0.7968520721
 40
0.8491468311
 40
0.9001682412
 40
0.9503158325
 40
1.0
 40
1.0
 40
1.0
 40
1.0
 10
16.867115821
 20
11.9921412123
 30
0.0
 10
16.8691288713
 20
11.9921412123
 30
0.0
 10
16.8730505095
 20
11.9923150767
 30
0.0
 10
16.8778369807
 20
11.9930060499
 30
0.0
 10
16.8814310224
 20
11.9938469287
 30
0.0
 10
16.8847249393
 20
11.9948313739
 30
0.0
 10
16.8878026558
 20
11.9960831537
 30
0.0
 10
16.890595491
 20
11.9976179752
 30
0.0
 10
16.8924762198
 20
11.9988627866
 30
0.0
 10
16.894174033
 20
12.0002188658
 30
0.0
 10
16.8956808819
 20
12.0016806776
 30
0.0
 10
16.8969902564
 20
12.0032414429
 30
0.0
 10
16.8980956322
 20
12.0048948807
 30
0.0
 10
16.8989898849
 20
12.0066334641
 30
0.0
 10
16.8994441716
 20
12.0078457109
 30
0.0
 10
16.899633987
 20
12.008459586
 30
0.0
  0
SPLINE
  5
29D
100
AcDbEntity
  8
0
100
AcDbSpline
 62
7
  6
CONTINUOUS
 70
0
 71
3
 72
15
 73
11
 74
0
 42
0.0000001
 43
0.0000001
 44
0.0000000001
 40
0.0
 40
0.0
 40
0.0
 40
0.0
 40
0.1148729593
 40
0.2360780317
 40
0.3619573699
 40
0.4908828321
 40
0.6210130642
 40
0.7504589643
 40
0.877437805
 40
1.0
 40
1.0
 40
1.0
 40
1.0
 10
16.645753223
 20
12.0113277189
 30
0.0
 10
16.647357579
 20
12.0098751339
 30
0.0
 10
16.6508334972
 20
12.0070835468
 30
0.0
 10
16.6565622932
 20
12.0033661903
 30
0.0
 10
16.6628455291
 20
12.0000731078
 30
0.0
 10
16.6695459387
 20
11.9972753506
 30
0.0
 10
16.6765213779
 20
11.9950296053
 30
0.0
 10
16.6836253998
 20
11.993385601
 30
0.0
 10
16.6907031563
 20
11.992379808
 30
0.0
 10
16.6954069489
 20
11.9921412123
 30
0.0
 10
16.6977160629
 20
11.9921412123
 30
0.0
  0
SPLINE
  5
29E
100
AcDbEntity
  8
0
100
AcDbSpline
 62
7
  6
CONTINUOUS
 70
0
 71
3
 72
20
 73
16
 74
0
 42
0.0000001
 43
0.0000001
 44
0.0000000001
 40
0.0
 40
0.0
 40
0.0
 40
0.0
 40
0.1556555628
 40
0.3030289917
 40
0.3731921196
 40
0.4408921881
 40
0.5687572304
 40
0.6290753305
 40
0.687082023
 40
0.7429309653
 40
0.7968520721
 40
0.8491468311
 40
0.9001682412
 40
0.9503158325
 40
1.0
 40
1.0
 40
1.0
 40
1.0
 10
16.3144792246
 20
11.9921412123
 30
0.0
 10
16.3164922749
 20
11.9921412123
 30
0.0
 10
16.3204139131
 20
11.9923150767
 30
0.0
 10
16.3252003843
 20
11.9930060499
 30
0.0
 10
16.3287944259
 20
11.9938469287
 30
0.0
 10
16.3320883429
 20
11.9948313739
 30
0.0
 10
16.3351660594
 20
11.9960831537
 30
0.0
 10
16.3379588946
 20
11.9976179752
 30
0.0
 10
16.3398396234
 20
11.9988627866
 30
0.0
 10
16.3415374366
 20
12.0002188658
 30
0.0
 10
16.3430442855
 20
12.0016806776
 30
0.0
 10
16.34435366
 20
12.0032414429
 30
0.0
 10
16.3454590358
 20
12.0048948807
 30
0.0
 10
16.3463532885
 20
12.0066334641
 30
0.0
 10
16.3468075752
 20
12.0078457109
 30
0.0
 10
16.3469973906
 20
12.008459586
 30
0.0
  0
SPLINE
  5
29F
100
AcDbEntity
  8
0
100
AcDbSpline
 62
7
  6
CONTINUOUS
 70
0
 71
3
 72
15
 73
11
 74
0
 42
0.0000001
 43
0.0000001
 44
0.0000000001
 40
0.0
 40
0.0
 40
0.0
 40
0.0
 40
0.1148729593
 40
0.2360780317
 40
0.3619573699
 40
0.4908828321
 40
0.6210130642
 40
0.7504589643
 40
0.877437805
 40
1.0
 40
1.0
 40
1.0
 40
1.0
 10
16.0931166266
 20
12.0113277189
 30
0.0
 10
16.0947209826
 20
12.0098751339
 30
0.0
 10
16.0981969008
 20
12.0070835468
 30
0.0
 10
16.1039256968
 20
12.0033661903
 30
0.0
 10
16.1102089327
 20
12.0000731078
 30
0.0
 10
16.1169093423
 20
11.9972753506
 30
0.0
 10
16.1238847815
 20
11.9950296053
 30
0.0
 10
16.1309888034
 20
11.993385601
 30
0.0
 10
16.1380665599
 20
11.992379808
 30
0.0
 10
16.1427703525
 20
11.9921412123
 30
0.0
 10
16.1450794665
 20
11.9921412123
 30
0.0
  0
SPLINE
  5
2A0
100
AcDbEntity
  8
0
100
AcDbSpline
 62
7
  6
CONTINUOUS
 70
0
 71
3
 72
20
 73
16
 74
0
 42
0.0000001
 43
0.0000001
 44
0.0000000001
 40
0.0
 40
0.0
 40
0.0
 40
0.0
 40
0.1556555628
 40
0.3030289917
 40
0.3731921196
 40
0.4408921881
 40
0.5687572304
 40
0.6290753305
 40
0.687082023
 40
0.7429309653
 40
0.7968520721
 40
0.8491468311
 40
0.9001682412
 40
0.9503158325
 40
1.0
 40
1.0
 40
1.0
 40
1.0
 10
15.7618426282
 20
11.9921412123
 30
0.0
 10
15.7638556785
 20
11.9921412123
 30
0.0
 10
15.7677773167
 20
11.9923150767
 30
0.0
 10
15.7725637879
 20
11.9930060499
 30
0.0
 10
15.7761578295
 20
11.9938469287
 30
0.0
 10
15.7794517465
 20
11.9948313739
 30
0.0
 10
15.782529463
 20
11.9960831537
 30
0.0
 10
15.7853222982
 20
11.9976179752
 30
0.0
 10
15.787203027
 20
11.9988627866
 30
0.0
 10
15.7889008402
 20
12.0002188658
 30
0.0
 10
15.7904076891
 20
12.0016806776
 30
0.0
 10
15.7917170636
 20
12.0032414429
 30
0.0
 10
15.7928224394
 20
12.0048948807
 30
0.0
 10
15.7937166921
 20
12.0066334641
 30
0.0
 10
15.7941709788
 20
12.0078457109
 30
0.0
 10
15.7943607942
 20
12.008459586
 30
0.0
  0
SPLINE
  5
2A1
100
AcDbEntity
  8
0
100
AcDbSpline
 62
7
  6
CONTINUOUS
 70
0
 71
3
 72
15
 73
11
 74
0
 42
0.0000001
 43
0.0000001
 44
0.0000000001
 40
0.0
 40
0.0
 40
0.0
 40
0.0
 40
0.1148729593
 40
0.2360780317
 40
0.3619573699
 40
0.4908828321
 40
0.6210130642
 40
0.7504589643
 40
0.877437805
 40
1.0
 40
1.0
 40
1.0
 40
1.0
 10
15.5404800302
 20
12.0113277189
 30
0.0
 10
15.5420843862
 20
12.0098751339
 30
0.0
 10
15.5455603044
 20
12.0070835468
 30
0.0
 10
15.5512891004
 20
12.0033661903
 30
0.0
 10
15.5575723363
 20
12.0000731078
 30
0.0
 10
15.5642727459
 20
11.9972753506
 30
0.0
 10
15.5712481851
 20
11.9950296053
 30
0.0
 10
15.578352207
 20
11.993385601
 30
0.0
 10
15.5854299635
 20
11.992379808
 30
0.0
 10
15.5901337561
 20
11.9921412123
 30
0.0
 10
15.5924428701
 20
11.9921412123
 30
0.0
  0
SPLINE
  5
2A2
100
AcDbEntity
  8
0
100
AcDbSpline
 62
7
  6
CONTINUOUS
 70
0
 71
3
 72
20
 73
16
 74
0
 42
0.0000001
 43
0.0000001
 44
0.0000000001
 40
0.0
 40
0.0
 40
0.0
 40
0.0
 40
0.1556555628
 40
0.3030289917
 40
0.3731921196
 40
0.4408921881
 40
0.5687572304
 40
0.6290753305
 40
0.687082023
 40
0.7429309653
 40
0.7968520721
 40
0.8491468311
 40
0.9001682412
 40
0.9503158325
 40
1.0
 40
1.0
 40
1.0
 40
1.0
 10
15.2092060318
 20
11.9921412123
 30
0.0
 10
15.2112190821
 20
11.9921412123
 30
0.0
 10
15.2151407203
 20
11.9923150767
 30
0.0
 10
15.2199271915
 20
11.9930060499
 30
0.0
 10
15.2235212331
 20
11.9938469287
 30
0.0
 10
15.2268151501
 20
11.9948313739
 30
0.0
 10
15.2298928666
 20
11.9960831537
 30
0.0
 10
15.2326857018
 20
11.9976179752
 30
0.0
 10
15.2345664306
 20
11.9988627866
 30
0.0
 10
15.2362642438
 20
12.0002188658
 30
0.0
 10
15.2377710927
 20
12.0016806776
 30
0.0
 10
15.2390804672
 20
12.0032414429
 30
0.0
 10
15.240185843
 20
12.0048948807
 30
0.0
 10
15.2410800957
 20
12.0066334641
 30
0.0
 10
15.2415343824
 20
12.0078457109
 30
0.0
 10
15.2417241978
 20
12.008459586
 30
0.0
  0
SPLINE
  5
2A3
100
AcDbEntity
  8
0
100
AcDbSpline
 62
7
  6
CONTINUOUS
 70
0
 71
3
 72
15
 73
11
 74
0
 42
0.0000001
 43
0.0000001
 44
0.0000000001
 40
0.0
 40
0.0
 40
0.0
 40
0.0
 40
0.1148729593
 40
0.2360780317
 40
0.3619573699
 40
0.4908828321
 40
0.6210130642
 40
0.7504589643
 40
0.877437805
 40
1.0
 40
1.0
 40
1.0
 40
1.0
 10
14.9878434338
 20
12.0113277189
 30
0.0
 10
14.9894477898
 20
12.0098751339
 30
0.0
 10
14.992923708
 20
12.0070835468
 30
0.0
 10
14.998652504
 20
12.0033661903
 30
0.0
 10
15.0049357399
 20
12.0000731078
 30
0.0
 10
15.0116361495
 20
11.9972753506
 30
0.0
 10
15.0186115887
 20
11.9950296053
 30
0.0
 10
15.0257156106
 20
11.993385601
 30
0.0
 10
15.0327933671
 20
11.992379808
 30
0.0
 10
15.0374971597
 20
11.9921412123
 30
0.0
 10
15.0398062737
 20
11.9921412123
 30
0.0
  0
SPLINE
  5
2A4
100
AcDbEntity
  8
0
100
AcDbSpline
 62
7
  6
CONTINUOUS
 70
0
 71
3
 72
20
 73
16
 74
0
 42
0.0000001
 43
0.0000001
 44
0.0000000001
 40
0.0
 40
0.0
 40
0.0
 40
0.0
 40
0.1556555628
 40
0.3030289917
 40
0.3731921196
 40
0.4408921881
 40
0.5687572304
 40
0.6290753305
 40
0.687082023
 40
0.7429309653
 40
0.7968520721
 40
0.8491468311
 40
0.9001682412
 40
0.9503158325
 40
1.0
 40
1.0
 40
1.0
 40
1.0
 10
14.6565694354
 20
11.9921412123
 30
0.0
 10
14.6585824857
 20
11.9921412123
 30
0.0
 10
14.6625041239
 20
11.9923150767
 30
0.0
 10
14.6672905951
 20
11.9930060499
 30
0.0
 10
14.6708846367
 20
11.9938469287
 30
0.0
 10
14.6741785537
 20
11.9948313739
 30
0.0
 10
14.6772562702
 20
11.9960831537
 30
0.0
 10
14.6800491054
 20
11.9976179752
 30
0.0
 10
14.6819298342
 20
11.9988627866
 30
0.0
 10
14.6836276474
 20
12.0002188658
 30
0.0
 10
14.6851344963
 20
12.0016806776
 30
0.0
 10
14.6864438708
 20
12.0032414429
 30
0.0
 10
14.6875492466
 20
12.0048948807
 30
0.0
 10
14.6884434993
 20
12.0066334641
 30
0.0
 10
14.688897786
 20
12.0078457109
 30
0.0
 10
14.6890876014
 20
12.008459586
 30
0.0
  0
SPLINE
  5
2A5
100
AcDbEntity
  8
0
100
AcDbSpline
 62
7
  6
CONTINUOUS
 70
0
 71
3
 72
15
 73
11
 74
0
 42
0.0000001
 43
0.0000001
 44
0.0000000001
 40
0.0
 40
0.0
 40
0.0
 40
0.0
 40
0.1148729593
 40
0.2360780317
 40
0.3619573699
 40
0.4908828321
 40
0.6210130642
 40
0.7504589643
 40
0.877437805
 40
1.0
 40
1.0
 40
1.0
 40
1.0
 10
14.4352068374
 20
12.0113277189
 30
0.0
 10
14.4368111934
 20
12.0098751339
 30
0.0
 10
14.4402871116
 20
12.0070835468
 30
0.0
 10
14.4460159076
 20
12.0033661903
 30
0.0
 10
14.4522991435
 20
12.0000731078
 30
0.0
 10
14.4589995531
 20
11.9972753506
 30
0.0
 10
14.4659749923
 20
11.9950296053
 30
0.0
 10
14.4730790142
 20
11.993385601
 30
0.0
 10
14.4801567707
 20
11.992379808
 30
0.0
 10
14.4848605633
 20
11.9921412123
 30
0.0
 10
14.4871696773
 20
11.9921412123
 30
0.0
  0
SPLINE
  5
2A6
100
AcDbEntity
  8
0
100
AcDbSpline
 62
7
  6
CONTINUOUS
 70
0
 71
3
 72
15
 73
11
 74
0
 42
0.0000001
 43
0.0000001
 44
0.0000000001
 40
0.0
 40
0.0
 40
0.0
 40
0.0
 40
0.1224854868
 40
0.2495249319
 40
0.3790233132
 40
0.5091197674
 40
0.6380078243
 40
0.7639368714
 40
0.8851964339
 40
1.0
 40
1.0
 40
1.0
 40
1.0
 10
13.7802633009
 20
12.0853827076
 30
0.0
 10
13.781801742
 20
12.0853827076
 30
0.0
 10
13.7849373182
 20
12.0852227972
 30
0.0
 10
13.7896564654
 20
12.0845536436
 30
0.0
 10
13.7943932335
 20
12.0834565021
 30
0.0
 10
13.7990436475
 20
12.0819605237
 30
0.0
 10
13.8035098711
 20
12.0800943892
 30
0.0
 10
13.8076998829
 20
12.0778994508
 30
0.0
 10
13.8115185971
 20
12.075419703
 30
0.0
 10
13.813836273
 20
12.0735595052
 30
0.0
 10
13.8149051942
 20
12.0725917032
 30
0.0
  0
SPLINE
  5
2A7
100
AcDbEntity
  8
0
100
AcDbSpline
 62
7
  6
CONTINUOUS
 70
0
 71
3
 72
15
 73
11
 74
0
 42
0.0000001
 43
0.0000001
 44
0.0000000001
 40
0.0
 40
0.0
 40
0.0
 40
0.0
 40
0.1224854868
 40
0.2495249319
 40
0.3790233132
 40
0.5091197674
 40
0.6380078243
 40
0.7639368714
 40
0.8851964339
 40
1.0
 40
1.0
 40
1.0
 40
1.0
 10
14.3328998973
 20
12.0853827076
 30
0.0
 10
14.3344383384
 20
12.0853827076
 30
0.0
 10
14.3375739146
 20
12.0852227972
 30
0.0
 10
14.3422930618
 20
12.0845536436
 30
0.0
 10
14.3470298299
 20
12.0834565021
 30
0.0
 10
14.3516802439
 20
12.0819605237
 30
0.0
 10
14.3561464675
 20
12.0800943892
 30
0.0
 10
14.3603364793
 20
12.0778994508
 30
0.0
 10
14.3641551935
 20
12.075419703
 30
0.0
 10
14.3664728694
 20
12.0735595052
 30
0.0
 10
14.3675417906
 20
12.0725917032
 30
0.0
  0
SPLINE
  5
2A8
100
AcDbEntity
  8
0
100
AcDbSpline
 62
7
  6
CONTINUOUS
 70
0
 71
3
 72
15
 73
11
 74
0
 42
0.0000001
 43
0.0000001
 44
0.0000000001
 40
0.0
 40
0.0
 40
0.0
 40
0.0
 40
0.1224854868
 40
0.2495249319
 40
0.3790233132
 40
0.5091197674
 40
0.6380078243
 40
0.7639368714
 40
0.8851964339
 40
1.0
 40
1.0
 40
1.0
 40
1.0
 10
14.8855364937
 20
12.0853827076
 30
0.0
 10
14.8870749348
 20
12.0853827076
 30
0.0
 10
14.890210511
 20
12.0852227972
 30
0.0
 10
14.8949296582
 20
12.0845536436
 30
0.0
 10
14.8996664263
 20
12.0834565021
 30
0.0
 10
14.9043168403
 20
12.0819605237
 30
0.0
 10
14.9087830639
 20
12.0800943892
 30
0.0
 10
14.9129730757
 20
12.0778994508
 30
0.0
 10
14.9167917899
 20
12.075419703
 30
0.0
 10
14.9191094658
 20
12.0735595052
 30
0.0
 10
14.920178387
 20
12.0725917032
 30
0.0
  0
SPLINE
  5
2A9
100
AcDbEntity
  8
0
100
AcDbSpline
 62
7
  6
CONTINUOUS
 70
0
 71
3
 72
15
 73
11
 74
0
 42
0.0000001
 43
0.0000001
 44
0.0000000001
 40
0.0
 40
0.0
 40
0.0
 40
0.0
 40
0.1224854868
 40
0.2495249319
 40
0.3790233132
 40
0.5091197674
 40
0.6380078243
 40
0.7639368714
 40
0.8851964339
 40
1.0
 40
1.0
 40
1.0
 40
1.0
 10
15.4381730901
 20
12.0853827076
 30
0.0
 10
15.4397115312
 20
12.0853827076
 30
0.0
 10
15.4428471074
 20
12.0852227972
 30
0.0
 10
15.4475662546
 20
12.0845536436
 30
0.0
 10
15.4523030227
 20
12.0834565021
 30
0.0
 10
15.4569534367
 20
12.0819605237
 30
0.0
 10
15.4614196603
 20
12.0800943892
 30
0.0
 10
15.4656096721
 20
12.0778994508
 30
0.0
 10
15.4694283863
 20
12.075419703
 30
0.0
 10
15.4717460622
 20
12.0735595052
 30
0.0
 10
15.4728149834
 20
12.0725917032
 30
0.0
  0
SPLINE
  5
2AA
100
AcDbEntity
  8
0
100
AcDbSpline
 62
7
  6
CONTINUOUS
 70
0
 71
3
 72
15
 73
11
 74
0
 42
0.0000001
 43
0.0000001
 44
0.0000000001
 40
0.0
 40
0.0
 40
0.0
 40
0.0
 40
0.1224854868
 40
0.2495249319
 40
0.3790233132
 40
0.5091197674
 40
0.6380078243
 40
0.7639368714
 40
0.8851964339
 40
1.0
 40
1.0
 40
1.0
 40
1.0
 10
15.9908096865
 20
12.0853827076
 30
0.0
 10
15.9923481276
 20
12.0853827076
 30
0.0
 10
15.9954837039
 20
12.0852227972
 30
0.0
 10
16.000202851
 20
12.0845536436
 30
0.0
 10
16.0049396191
 20
12.0834565021
 30
0.0
 10
16.0095900331
 20
12.0819605237
 30
0.0
 10
16.0140562567
 20
12.0800943892
 30
0.0
 10
16.0182462685
 20
12.0778994508
 30
0.0
 10
16.0220649827
 20
12.075419703
 30
0.0
 10
16.0243826586
 20
12.0735595052
 30
0.0
 10
16.0254515798
 20
12.0725917032
 30
0.0
  0
SPLINE
  5
2AB
100
AcDbEntity
  8
0
100
AcDbSpline
 62
7
  6
CONTINUOUS
 70
0
 71
3
 72
15
 73
11
 74
0
 42
0.0000001
 43
0.0000001
 44
0.0000000001
 40
0.0
 40
0.0
 40
0.0
 40
0.0
 40
0.1224854868
 40
0.2495249319
 40
0.3790233132
 40
0.5091197674
 40
0.6380078243
 40
0.7639368714
 40
0.8851964339
 40
1.0
 40
1.0
 40
1.0
 40
1.0
 10
16.5434462829
 20
12.0853827076
 30
0.0
 10
16.544984724
 20
12.0853827076
 30
0.0
 10
16.5481203003
 20
12.0852227972
 30
0.0
 10
16.5528394474
 20
12.0845536436
 30
0.0
 10
16.5575762155
 20
12.0834565021
 30
0.0
 10
16.5622266295
 20
12.0819605237
 30
0.0
 10
16.5666928531
 20
12.0800943892
 30
0.0
 10
16.5708828649
 20
12.0778994508
 30
0.0
 10
16.5747015791
 20
12.075419703
 30
0.0
 10
16.577019255
 20
12.0735595052
 30
0.0
 10
16.5780881762
 20
12.0725917032
 30
0.0
  0
ENDSEC
  0
SECTION
  2
OBJECTS
  0
DICTIONARY
  5
C
100
AcDbDictionary
280
0
281
1
  3
ACAD_GROUP
350
D
  3
ACAD_MLINESTYLE
350
17
  3
ACAD_LAYOUT
350
1A
  3
ACAD_PLOTSETTINGS
350
19
  3
ACAD_PLOTSTYLENAME
350
E
  0
DICTIONARY
  5
D
102
{ACAD_REACTORS
330
C
102
}
100
AcDbDictionary
280
0
281
1
  0
ACDBDICTIONARYWDFLT
  5
E
102
{ACAD_REACTORS
330
C
102
}
100
AcDbDictionary
281
1
  3
Normal
350
F
100
AcDbDictionaryWithDefault
340
F
  0
DICTIONARY
  5
17
102
{ACAD_REACTORS
330
C
102
}
100
AcDbDictionary
280
0
281
1
  3
Standard
350
18
  0
DICTIONARY
  5
19
102
{ACAD_REACTORS
330
C
102
}
100
AcDbDictionary
281
1
  0
DICTIONARY
  5
1A
102
{ACAD_REACTORS
330
C
102
}
100
AcDbDictionary
281
1
  3
Model
350
2AC
  3
Layout1
350
2AD
  0
ACDBPLACEHOLDER
  5
F
102
{ACAD_REACTORS
330
E
102
}
  0
MLINESTYLE
  5
18
102
{ACAD_REACTORS
330
17
102
}
100
AcDbMlineStyle
  2
STANDARD
 70
0
  3

 62
256
 51
90.0
 52
90.0
 71
2
 49
0.5
 62
256
  6
BYLAYER
 49
-0.5
 62
256
  6
BYLAYER
  0
LAYOUT
  5
2AC
102
{ACAD_REACTORS
330
1A
102
}
100
AcDbPlotSettings
  1

  2
none_device
  4
ANSI_C_(22.00_x_17.00_Inches)
  6

 40
0.0
 41
0.0
 42
0.0
 43
0.0
 44
558.8
 45
431.8
 46
0.0
 47
0.0
 48
0.0
 49
0.0
140
0.0
141
0.0
142
1.0
143
1.0
 70
1024
 72
0
 73
0
 74
0
  7

 75
0
147
1.0
148
0.0
149
0.0
100
AcDbLayout
  1
Model
 70
0
 71
0
 10
0.0
 20
0.0
 11
22.0
 21
17.0
 12
0.0
 22
0.0
 32
0.0
 14
0.0
 24
0.0
 34
0.0
 15
0.0
 25
0.0
 35
0.0
146
0.0
 13
0.0
 23
0.0
 33
0.0
 16
1.0
 26
0.0
 36
0.0
 17
0.0
 27
1.0
 37
0.0
 76
0
330
216
345
0
346
0
  0
LAYOUT
  5
2AD
102
{ACAD_REACTORS
330
1A
102
}
100
AcDbPlotSettings
  1

  2
none_device
  4
ANSI_C_(22.00_x_17.00_Inches)
  6

 40
0.0
 41
0.0
 42
0.0
 43
0.0
 44
558.8
 45
431.8
 46
0.0
 47
0.0
 48
0.0
 49
0.0
140
0.0
141
0.0
142
1.0
143
1.0
 70
0
 72
0
 73
0
 74
0
  7

 75
0
147
1.0
148
0.0
149
0.0
100
AcDbLayout
  1
Layout1
 70
0
 71
1
 10
0.0
 20
0.0
 11
22.0
 21
17.0
 12
0.0
 22
0.0
 32
0.0
 14
0.0
 24
0.0
 34
0.0
 15
0.0
 25
0.0
 35
0.0
146
0.0
 13
0.0
 23
0.0
 33
0.0
 16
1.0
 26
0.0
 36
0.0
 17
0.0
 27
1.0
 37
0.0
 76
0
330
217
345
0
346
0
  0
ENDSEC
  0
EOF