999
DXF file: _cgs_temp_output.dxf
999
Pro/ENGINEER 2016360 by Parametric Technology Corporation
  0
SECTION
  2
HEADER
  9
$ACADVER
  1
AC1021
  9
$DWGCODEPAGE
  3
ANSI_1252
  9
$EXTMAX
 10
22.0
 20
17.0
 30
0.0
  9
$EXTMIN
 10
0.0
 20
0.0
 30
0.0
  9
$LIMMIN
 10
0.0
 20
0.0
  9
$LIMMAX
 10
22.0
 20
17.0
  9
$VIEWCTR
 10
11.0
 20
8.5
  9
$VIEWSIZE
 40
17.0
  9
$CLAYER
  8
0
  9
$LTSCALE
 40
1.21
  9
$CELTYPE
  6
BYLAYER
  9
$DIMSCALE
 40
1.0
  9
$DIMASZ
 40
0.1875
  9
$DIMEXO
 40
0.0625
  9
$DIMDLI
 40
0.836
  9
$DIMEXE
 40
0.125
  9
$DIMCEN
 40
0.198
  9
$DIMLFAC
 40
1.0
  9
$DIMBLK
  1
_CLOSED
  9
$DIMALT
 70
0
  9
$DIMALTF
 40
25.4
  9
$DIMTXT
 40
0.15625
  9
$DIMTOL
 70
0
  9
$DIMLIM
 70
0
  9
$DIMTFAC
 40
1.0
  9
$DIMGAP
 40
0.09
  9
$DIMDSEP
 70
46
  9
$AUNITS
 70
0
  9
$PDMODE
 70
3
  9
$PDSIZE
 40
0.3125
  9
$HANDSEED
  5
2AE
  9
$TILEMODE
 70
1
  9
$MEASUREMENT
 70
0
  9
$INSUNITS
 70
1
  0
ENDSEC
  0
SECTION
  2
CLASSES
  0
CLASS
  1
ACDBDICTIONARYWDFLT
  2
AcDbDictionaryWithDefault
  3
AutoCAD 2000
 90
0
 91
1
280
0
281
0
  0
CLASS
  1
ACDBPLACEHOLDER
  2
AcDbPlaceHolder
  3
AutoCAD 2000
 90
0
 91
1
280
0
281
0
  0
CLASS
  1
LAYOUT
  2
AcDbLayout
  3
AutoCAD 2000
 90
0
 91
0
280
0
281
0
  0
ENDSEC
  0
SECTION
  2
TABLES
  0
TABLE
  2
VPORT
  5
8
100
AcDbSymbolTable
 70
2
  0
VPORT
  5
1F4
100
AcDbSymbolTableRecord
100
AcDbViewportTableRecord
  2
*ACTIVE
 70
0
 10
0.0
 20
0.0
 11
1.0
 21
1.0
 12
11.0
 22
8.5
 13
0.0
 23
0.0
 14
1.0
 24
1.0
 15
0.0
 25
0.0
 16
0.0
 26
0.0
 36
1.0
 17
0.0
 27
0.0
 37
0.0
 40
17.0
 41
1.2941176471
 42
50.0
 43
0.0
 44
0.0
 50
0.0
 51
0.0
 71
0
 72
100
 73
1
 74
1
 75
0
 76
0
 77
0
 78
0
  0
ENDTAB
  0
TABLE
  2
LTYPE
  5
5
100
AcDbSymbolTable
 70
6
  0
LTYPE
  5
14
100
AcDbSymbolTableRecord
100
AcDbLinetypeTableRecord
  2
BYBLOCK
 70
0
  3

 72
65
 73
0
 40
0.0
  0
LTYPE
  5
15
100
AcDbSymbolTableRecord
100
AcDbLinetypeTableRecord
  2
BYLAYER
 70
0
  3

 72
65
 73
0
 40
0.0
  0
LTYPE
  5
16
100
AcDbSymbolTableRecord
100
AcDbLinetypeTableRecord
  2
CONTINUOUS
 70
64
  3
Solid line
 72
65
 73
0
 40
0.0
  0
LTYPE
  5
1F5
100
AcDbSymbolTableRecord
100
AcDbLinetypeTableRecord
  2
CENTER
 70
64
  3
____ _ ____ _ ____ _ ____ _ ____ _ ____ _ ____
 72
65
 73
4
 40
0.6
 49
0.375
 74
0
 49
-0.075
 74
0
 49
0.075
 74
0
 49
-0.075
 74
0
  0
LTYPE
  5
1F6
100
AcDbSymbolTableRecord
100
AcDbLinetypeTableRecord
  2
HIDDEN
 70
64
  3
- - - - - - - - - - - - - - - - - - - -
 72
65
 73
2
 40
0.2
 49
0.1
 74
0
 49
-0.1
 74
0
  0
LTYPE
  5
1F7
100
AcDbSymbolTableRecord
100
AcDbLinetypeTableRecord
  2
PHANTOM
 70
64
  3
_____ _ _ _____ _ _ _____ _ _ _____
 72
65
 73
6
 40
0.8
 49
0.45
 74
0
 49
-0.05
 74
0
 49
0.1
 74
0
 49
-0.05
 74
0
 49
0.1
 74
0
 49
-0.05
 74
0
  0
LTYPE
  5
1F8
100
AcDbSymbolTableRecord
100
AcDbLinetypeTableRecord
  2
DOT
 70
64
  3
. . . . . . . . . . . . . . . . . . . .
 72
65
 73
2
 40
0.2
 49
0.1
 74
0
 49
-0.1
 74
0
  0
LTYPE
  5
1F9
100
AcDbSymbolTableRecord
100
AcDbLinetypeTableRecord
  2
DASHED
 70
64
  3
- - - - - - - - - - - - - - - - - - - -
 72
65
 73
2
 40
0.2
 49
0.1
 74
0
 49
-0.1
 74
0
  0
ENDTAB
  0
TABLE
  2
LAYER
  5
2
100
AcDbSymbolTable
 70
36
  0
LAYER
  5
10
100
AcDbSymbolTableRecord
100
AcDbLayerTableRecord
  2
0
 70
0
 62
7
  6
CONTINUOUS
370
-3
390
F
  0
LAYER
  5
1FA
100
AcDbSymbolTableRecord
100
AcDbLayerTableRecord
  2
DEFAULT_1
 70
0
 62
7
  6
CENTER
370
-3
390
F
  0
LAYER
  5
1FB
100
AcDbSymbolTableRecord
100
AcDbLayerTableRecord
  2
DEFAULT_2
 70
0
 62
8
  6
HIDDEN
370
-3
390
F
  0
LAYER
  5
1FC
100
AcDbSymbolTableRecord
100
AcDbLayerTableRecord
  2
DEFAULT_3
 70
0
 62
7
  6
PHANTOM
370
-3
390
F
  0
LAYER
  5
1FD
100
AcDbSymbolTableRecord
100
AcDbLayerTableRecord
  2
01_ALL_DTM_PLN
 70
0
 62
7
  6
CONTINUOUS
370
-3
390
F
  0
LAYER
  5
1FE
100
AcDbSymbolTableRecord
100
AcDbLayerTableRecord
  2
01__ASM_ALL_DTM_PLN
 70
0
 62
7
  6
CONTINUOUS
370
-3
390
F
  0
LAYER
  5
1FF
100
AcDbSymbolTableRecord
100
AcDbLayerTableRecord
  2
01__ASM_DEF_DTM_PLN
 70
0
 62
7
  6
CONTINUOUS
370
-3
390
F
  0
LAYER
  5
200
100
AcDbSymbolTableRecord
100
AcDbLayerTableRecord
  2
01___PRT_ALL_DTM_PLN
 70
0
 62
7
  6
CONTINUOUS
370
-3
390
F
  0
LAYER
  5
201
100
AcDbSymbolTableRecord
100
AcDbLayerTableRecord
  2
01___PRT_DEF_DTM_PLN
 70
0
 62
7
  6
CONTINUOUS
370
-3
390
F
  0
LAYER
  5
202
100
AcDbSymbolTableRecord
100
AcDbLayerTableRecord
  2
02_ALL_AXES
 70
0
 62
7
  6
CONTINUOUS
370
-3
390
F
  0
LAYER
  5
203
100
AcDbSymbolTableRecord
100
AcDbLayerTableRecord
  2
02__ASM_ALL_AXES
 70
0
 62
7
  6
CONTINUOUS
370
-3
390
F
  0
LAYER
  5
204
100
AcDbSymbolTableRecord
100
AcDbLayerTableRecord
  2
02___PRT_ALL_AXES
 70
0
 62
7
  6
CONTINUOUS
370
-3
390
F
  0
LAYER
  5
205
100
AcDbSymbolTableRecord
100
AcDbLayerTableRecord
  2
03_ALL_CURVES
 70
0
 62
7
  6
CONTINUOUS
370
-3
390
F
  0
LAYER
  5
206
100
AcDbSymbolTableRecord
100
AcDbLayerTableRecord
  2
03__ASM_ALL_CURVES
 70
0
 62
7
  6
CONTINUOUS
370
-3
390
F
  0
LAYER
  5
207
100
AcDbSymbolTableRecord
100
AcDbLayerTableRecord
  2
03___PRT_ALL_CURVES
 70
0
 62
7
  6
CONTINUOUS
370
-3
390
F
  0
LAYER
  5
208
100
AcDbSymbolTableRecord
100
AcDbLayerTableRecord
  2
04_ALL_DTM_PNT
 70
0
 62
7
  6
CONTINUOUS
370
-3
390
F
  0
LAYER
  5
209
100
AcDbSymbolTableRecord
100
AcDbLayerTableRecord
  2
04__ASM_ALL_DTM_PNT
 70
0
 62
7
  6
CONTINUOUS
370
-3
390
F
  0
LAYER
  5
20A
100
AcDbSymbolTableRecord
100
AcDbLayerTableRecord
  2
04___PRT_ALL_DTM_PNT
 70
0
 62
7
  6
CONTINUOUS
370
-3
390
F
  0
LAYER
  5
20B
100
AcDbSymbolTableRecord
100
AcDbLayerTableRecord
  2
05_ALL_DTM_CSYS
 70
0
 62
7
  6
CONTINUOUS
370
-3
390
F
  0
LAYER
  5
20C
100
AcDbSymbolTableRecord
100
AcDbLayerTableRecord
  2
05__ASM_ALL_DTM_CSYS
 70
0
 62
7
  6
CONTINUOUS
370
-3
390
F
  0
LAYER
  5
20D
100
AcDbSymbolTableRecord
100
AcDbLayerTableRecord
  2
05__ASM_DEF_DTM_CSYS
 70
0
 62
7
  6
CONTINUOUS
370
-3
390
F
  0
LAYER
  5
20E
100
AcDbSymbolTableRecord
100
AcDbLayerTableRecord
  2
05___PRT_ALL_DTM_CSYS
 70
0
 62
7
  6
CONTINUOUS
370
-3
390
F
  0
LAYER
  5
20F
100
AcDbSymbolTableRecord
100
AcDbLayerTableRecord
  2
05___PRT_DEF_DTM_CSYS
 70
0
 62
7
  6
CONTINUOUS
370
-3
390
F
  0
LAYER
  5
210
100
AcDbSymbolTableRecord
100
AcDbLayerTableRecord
  2
06_ALL_SURFS
 70
0
 62
7
  6
CONTINUOUS
370
-3
390
F
  0
LAYER
  5
211
100
AcDbSymbolTableRecord
100
AcDbLayerTableRecord
  2
06__ASM_ALL_SURFS
 70
0
 62
7
  6
CONTINUOUS
370
-3
390
F
  0
LAYER
  5
212
100
AcDbSymbolTableRecord
100
AcDbLayerTableRecord
  2
06___PRT_ALL_SURFS
 70
0
 62
7
  6
CONTINUOUS
370
-3
390
F
  0
LAYER
  5
213
100
AcDbSymbolTableRecord
100
AcDbLayerTableRecord
  2
07__ASM_ALL_SKELETONS
 70
0
 62
7
  6
CONTINUOUS
370
-3
390
F
  0
ENDTAB
  0
TABLE
  2
STYLE
  5
3
100
AcDbSymbolTable
 70
1
  0
STYLE
  5
11
100
AcDbSymbolTableRecord
100
AcDbTextStyleTableRecord
  2
STANDARD
 70
0
 40
0.0
 41
0.8
 50
0.0
 71
0
 42
0.2
  3
txt
  4

  0
STYLE
  5
214
100
AcDbSymbolTableRecord
100
AcDbTextStyleTableRecord
  2
TEXTSTYLE_1
 70
0
 40
0.0
 41
0.8
 50
0.0
 71
0
 42
0.2
  3
gdt
  4

  0
ENDTAB
  0
TABLE
  2
VIEW
  5
6
100
AcDbSymbolTable
 70
0
  0
ENDTAB
  0
TABLE
  2
UCS
  5
7
100
AcDbSymbolTable
 70
0
  0
ENDTAB
  0
TABLE
  2
APPID
  5
9
100
AcDbSymbolTable
 70
1
  0
APPID
  5
215
100
AcDbSymbolTableRecord
100
AcDbRegAppTableRecord
  2
ACAD
 70
0
  0
ENDTAB
  0
TABLE
  2
BLOCK_RECORD
  5
1
100
AcDbSymbolTable
 70
0
  0
BLOCK_RECORD
  5
216
100
AcDbSymbolTableRecord
100
AcDbBlockTableRecord
  2
*Model_Space
  0
BLOCK_RECORD
  5
217
100
AcDbSymbolTableRecord
100
AcDbBlockTableRecord
  2
*Paper_Space
  0
ENDTAB
  0
TABLE
  2
DIMSTYLE
  5
A
100
AcDbSymbolTable
 70
1
100
AcDbDimStyleTable
 71
0
  0
DIMSTYLE
105
218
100
AcDbSymbolTableRecord
100
AcDbDimStyleTableRecord
  2
STANDARD
 70
0
  3

  4

 40
1.0
 41
0.1875
 42
0.0625
 43
0.38
 44
0.125
 45
0.0
 46
0.0
 47
0.0001
 48
0.0001
140
0.15625
141
0.09
142
0.0
143
25.4
144
1.0
145
0.0
146
1.0
147
0.09
 71
0.0
 72
0.0
 73
1
 74
1
 75
0
 76
0
 77
0
 78
4
 79
1
170
0
171
3
172
0
173
0
174
0
175
0
176
0
177
0
178
0
270
2
179
4
271
4
272
4
273
2
274
2
275
0
280
0
281
0
282
0
283
1
284
4
285
0
286
0
287
3
288
0
340
11
278
46
  0
ENDTAB
  0
ENDSEC
  0
SECTION
  2
BLOCKS
  0
BLOCK
  5
20
100
AcDbEntity
  8
0
100
AcDbBlockBegin
  2
*Model_Space
 70
0
 10
0.0
 20
0.0
 30
0.0
  3
*Model_Space
  1

  0
ENDBLK
  5
21
100
AcDbEntity
  8
0
100
AcDbBlockEnd
  0
BLOCK
  5
1C
100
AcDbEntity
  8
0
100
AcDbBlockBegin
  2
*Paper_Space
 70
0
 10
0.0
 20
0.0
 30
0.0
  3
*Paper_Space
  1

  0
ENDBLK
  5
1D
100
AcDbEntity
  8
0
100
AcDbBlockEnd
  0
ENDSEC
  0
SECTION
  2
ENTITIES
  0
MTEXT
  5
219
100
AcDbEntity
  8
0
100
AcDbMText
 62
7
  6
CONTINUOUS
  7
STANDARD
 71
1
 72
1
 10
15.9560215477
 20
0.9479130325
 30
0.0
 11
1.0
 21
0.0
 31
0.0
 44
0.9
  1
SCALE: 1:1.000
 40
0.3
 41
3.36
  0
LINE
  5
21A
100
AcDbEntity
  8
0
100
AcDbLine
 62
7
  6
CONTINUOUS
 10
0.0
 20
0.0
 11
0.0
 21
17.0
  0
LINE
  5
21B
100
AcDbEntity
  8
0
100
AcDbLine
 62
7
  6
CONTINUOUS
 10
0.0
 20
0.0
 11
22.0
 21
0.0
  0
LINE
  5
21C
100
AcDbEntity
  8
0
100
AcDbLine
 62
7
  6
CONTINUOUS
 10
0.0
 20
17.0
 11
22.0
 21
17.0
  0
LINE
  5
21D
100
AcDbEntity
  8
0
100
AcDbLine
 62
7
  6
CONTINUOUS
 10
22.0
 20
0.0
 11
22.0
 21
17.0
  0
LINE
  5
21E
100
AcDbEntity
  8
0
100
AcDbLine
 62
7
  6
CONTINUOUS
 10
3.5053672762
 20
5.7401198968
 11
3.5053672762
 21
5.5501198968
  0
LINE
  5
21F
100
AcDbEntity
  8
0
100
AcDbLine
 62
7
  6
CONTINUOUS
 10
3.6818596808
 20
5.5201114525
 11
3.7543383099
 21
5.3451325631
  0
LINE
  5
220
100
AcDbEntity
  8
0
100
AcDbLine
 62
7
  6
CONTINUOUS
 10
4.1313962425
 20
5.3451325631
 11
4.2038748716
 21
5.5201114525
  0
LINE
  5
221
100
AcDbEntity
  8
0
100
AcDbLine
 62
7
  6
CONTINUOUS
 10
4.5568596808
 20
5.5201114525
 11
4.6293383099
 21
5.3451325631
  0
LINE
  5
222
100
AcDbEntity
  8
0
100
AcDbLine
 62
7
  6
CONTINUOUS
 10
5.0063962425
 20
5.3451325631
 11
5.0788748716
 21
5.5201114525
  0
LINE
  5
223
100
AcDbEntity
  8
0
100
AcDbLine
 62
7
  6
CONTINUOUS
 10
5.4318596808
 20
5.5201114525
 11
5.5043383099
 21
5.3451325631
  0
LINE
  5
224
100
AcDbEntity
  8
0
100
AcDbLine
 62
7
  6
CONTINUOUS
 10
5.8813962425
 20
5.3451325631
 11
5.9538748716
 21
5.5201114525
  0
LINE
  5
225
100
AcDbEntity
  8
0
100
AcDbLine
 62
7
  6
CONTINUOUS
 10
3.8217045258
 20
5.3001198968
 11
4.0640300266
 21
5.3001198968
  0
LINE
  5
226
100
AcDbEntity
  8
0
100
AcDbLine
 62
7
  6
CONTINUOUS
 10
4.6967045258
 20
5.3001198968
 11
4.9390300266
 21
5.3001198968
  0
LINE
  5
227
100
AcDbEntity
  8
0
100
AcDbLine
 62
7
  6
CONTINUOUS
 10
5.5717045258
 20
5.3001198968
 11
5.8140300266
 21
5.3001198968
  0
LINE
  5
228
100
AcDbEntity
  8
0
100
AcDbLine
 62
7
  6
CONTINUOUS
 10
6.4467045258
 20
5.3001198968
 11
6.6890300266
 21
5.3001198968
  0
LINE
  5
229
100
AcDbEntity
  8
0
100
AcDbLine
 62
7
  6
CONTINUOUS
 10
7.3217045258
 20
5.3001198968
 11
7.5640300266
 21
5.3001198968
  0
LINE
  5
22A
100
AcDbEntity
  8
0
100
AcDbLine
 62
7
  6
CONTINUOUS
 10
8.1967045258
 20
5.3001198968
 11
8.4390300266
 21
5.3001198968
  0
LINE
  5
22B
100
AcDbEntity
  8
0
100
AcDbLine
 62
7
  6
CONTINUOUS
 10
3.5053672762
 20
5.5501198968
 11
3.6369488702
 21
5.5501198968
  0
LINE
  5
22C
100
AcDbEntity
  8
0
100
AcDbLine
 62
7
  6
CONTINUOUS
 10
4.2487856822
 20
5.5501198968
 11
4.5119488702
 21
5.5501198968
  0
LINE
  5
22D
100
AcDbEntity
  8
0
100
AcDbLine
 62
7
  6
CONTINUOUS
 10
5.1237856822
 20
5.5501198968
 11
5.3869488702
 21
5.5501198968
  0
LINE
  5
22E
100
AcDbEntity
  8
0
100
AcDbLine
 62
7
  6
CONTINUOUS
 10
5.9987856822
 20
5.5501198968
 11
6.2619488702
 21
5.5501198968
  0
LINE
  5
22F
100
AcDbEntity
  8
0
100
AcDbLine
 62
7
  6
CONTINUOUS
 10
6.8737856822
 20
5.5501198968
 11
7.1369488702
 21
5.5501198968
  0
LINE
  5
230
100
AcDbEntity
  8
0
100
AcDbLine
 62
7
  6
CONTINUOUS
 10
7.7487856822
 20
5.5501198968
 11
8.0119488702
 21
5.5501198968
  0
LINE
  5
231
100
AcDbEntity
  8
0
100
AcDbLine
 62
7
  6
CONTINUOUS
 10
8.6237856822
 20
5.5501198968
 11
8.7553672762
 21
5.5501198968
  0
LINE
  5
232
100
AcDbEntity
  8
0
100
AcDbLine
 62
7
  6
CONTINUOUS
 10
6.3068596808
 20
5.5201114525
 11
6.3793383099
 21
5.3451325631
  0
LINE
  5
233
100
AcDbEntity
  8
0
100
AcDbLine
 62
7
  6
CONTINUOUS
 10
8.7553672762
 20
5.7401198968
 11
3.5053672762
 21
5.7401198968
  0
LINE
  5
234
100
AcDbEntity
  8
0
100
AcDbLine
 62
7
  6
CONTINUOUS
 10
6.7563962425
 20
5.3451325631
 11
6.8288748716
 21
5.5201114525
  0
LINE
  5
235
100
AcDbEntity
  8
0
100
AcDbLine
 62
7
  6
CONTINUOUS
 10
7.1818596808
 20
5.5201114525
 11
7.2543383099
 21
5.3451325631
  0
LINE
  5
236
100
AcDbEntity
  8
0
100
AcDbLine
 62
7
  6
CONTINUOUS
 10
7.6313962425
 20
5.3451325631
 11
7.7038748716
 21
5.5201114525
  0
LINE
  5
237
100
AcDbEntity
  8
0
100
AcDbLine
 62
7
  6
CONTINUOUS
 10
8.0568596808
 20
5.5201114525
 11
8.1293383099
 21
5.3451325631
  0
LINE
  5
238
100
AcDbEntity
  8
0
100
AcDbLine
 62
7
  6
CONTINUOUS
 10
8.5063962425
 20
5.3451325631
 11
8.5788748716
 21
5.5201114525
  0
LINE
  5
239
100
AcDbEntity
  8
0
100
AcDbLine
 62
7
  6
CONTINUOUS
 10
8.7553672762
 20
5.5501198968
 11
8.7553672762
 21
5.7401198968
  0
LINE
  5
23A
100
AcDbEntity
  8
0
100
AcDbLine
 62
7
  6
CONTINUOUS
 10
3.4458720839
 20
15.1000477814
 11
3.4458720839
 21
10.1000477814
  0
LINE
  5
23B
100
AcDbEntity
  8
0
100
AcDbLine
 62
7
  6
CONTINUOUS
 10
8.6958720839
 20
10.1000477814
 11
3.4458720839
 21
10.1000477814
  0
LINE
  5
23C
100
AcDbEntity
  8
0
100
AcDbLine
 62
7
  6
CONTINUOUS
 10
8.6958720839
 20
15.1000477814
 11
8.6958720839
 21
10.1000477814
  0
LINE
  5
23D
100
AcDbEntity
  8
0
100
AcDbLine
 62
7
  6
CONTINUOUS
 10
3.4458720839
 20
15.1000477814
 11
8.6958720839
 21
15.1000477814
  0
LINE
  5
23E
100
AcDbEntity
  8
0
100
AcDbLine
 62
7
  6
CONTINUOUS
 10
13.0603552569
 20
5.2406247044
 11
13.0603552569
 21
5.6806247044
  0
LINE
  5
23F
100
AcDbEntity
  8
0
100
AcDbLine
 62
7
  6
CONTINUOUS
 10
13.0603552569
 20
5.2406247044
 11
18.0603552569
 21
5.2406247044
  0
LINE
  5
240
100
AcDbEntity
  8
0
100
AcDbLine
 62
7
  6
CONTINUOUS
 10
18.0603552569
 20
5.4906247044
 11
13.0603552569
 21
5.4906247044
  0
LINE
  5
241
100
AcDbEntity
  8
0
100
AcDbLine
 62
7
  6
CONTINUOUS
 10
18.0603552569
 20
5.6806247044
 11
13.0603552569
 21
5.6806247044
  0
LINE
  5
242
100
AcDbEntity
  8
0
100
AcDbLine
 62
7
  6
CONTINUOUS
 10
18.0603552569
 20
5.2406247044
 11
18.0603552569
 21
5.6806247044
  0
LINE
  5
243
100
AcDbEntity
  8
0
100
AcDbLine
 62
7
  6
CONTINUOUS
 10
12.4191825734
 20
10.6892419119
 11
12.477140528
 21
10.5711360179
  0
LINE
  5
244
100
AcDbEntity
  8
0
100
AcDbLine
 62
7
  6
CONTINUOUS
 10
12.6488546295
 20
10.5524824698
 11
12.7689877547
 21
10.4437138479
  0
LINE
  5
245
100
AcDbEntity
  8
0
100
AcDbLine
 62
7
  6
CONTINUOUS
 10
13.4547829992
 20
10.5524824698
 11
13.5749161244
 21
10.4437138479
  0
LINE
  5
246
100
AcDbEntity
  8
0
100
AcDbLine
 62
7
  6
CONTINUOUS
 10
13.6295141904
 20
14.60587646
 11
12.4191825734
 21
10.6892419119
  0
LINE
  5
247
100
AcDbEntity
  8
0
100
AcDbLine
 62
7
  6
CONTINUOUS
 10
14.260711369
 20
10.5524824698
 11
14.3808444942
 21
10.4437138479
  0
LINE
  5
248
100
AcDbEntity
  8
0
100
AcDbLine
 62
7
  6
CONTINUOUS
 10
13.1162811089
 20
10.4437138479
 11
13.12966246
 21
10.5524824698
  0
LINE
  5
249
100
AcDbEntity
  8
0
100
AcDbLine
 62
7
  6
CONTINUOUS
 10
12.8447668963
 20
10.4157335258
 11
13.0679634629
 21
10.4157335258
  0
LINE
  5
24A
100
AcDbEntity
  8
0
100
AcDbLine
 62
7
  6
CONTINUOUS
 10
13.650695266
 20
10.4157335258
 11
13.8738918326
 21
10.4157335258
  0
LINE
  5
24B
100
AcDbEntity
  8
0
100
AcDbLine
 62
7
  6
CONTINUOUS
 10
14.4566236358
 20
10.4157335258
 11
14.6798202024
 21
10.4157335258
  0
LINE
  5
24C
100
AcDbEntity
  8
0
100
AcDbLine
 62
7
  6
CONTINUOUS
 10
15.2625520055
 20
10.4157335258
 11
15.4857485721
 21
10.4157335258
  0
LINE
  5
24D
100
AcDbEntity
  8
0
100
AcDbLine
 62
7
  6
CONTINUOUS
 10
16.0684803753
 20
10.4157335258
 11
16.2916769419
 21
10.4157335258
  0
LINE
  5
24E
100
AcDbEntity
  8
0
100
AcDbLine
 62
7
  6
CONTINUOUS
 10
16.874408745
 20
10.4157335258
 11
17.0976053116
 21
10.4157335258
  0
LINE
  5
24F
100
AcDbEntity
  8
0
100
AcDbLine
 62
7
  6
CONTINUOUS
 10
13.1153765206
 20
10.4395340102
 11
13.1162811089
 21
10.4437138479
  0
LINE
  5
250
100
AcDbEntity
  8
0
100
AcDbLine
 62
7
  6
CONTINUOUS
 10
13.12966246
 20
10.5524824698
 11
13.1302669324
 21
10.5552685917
  0
LINE
  5
251
100
AcDbEntity
  8
0
100
AcDbLine
 62
7
  6
CONTINUOUS
 10
12.477140528
 20
10.5711360179
 11
12.5983352018
 21
10.5711360179
  0
LINE
  5
252
100
AcDbEntity
  8
0
100
AcDbLine
 62
7
  6
CONTINUOUS
 10
13.161874224
 20
10.5711360179
 11
13.4042635715
 21
10.5711360179
  0
LINE
  5
253
100
AcDbEntity
  8
0
100
AcDbLine
 62
7
  6
CONTINUOUS
 10
13.9678025938
 20
10.5711360179
 11
14.2101919413
 21
10.5711360179
  0
LINE
  5
254
100
AcDbEntity
  8
0
100
AcDbLine
 62
7
  6
CONTINUOUS
 10
14.7737309635
 20
10.5711360179
 11
15.016120311
 21
10.5711360179
  0
LINE
  5
255
100
AcDbEntity
  8
0
100
AcDbLine
 62
7
  6
CONTINUOUS
 10
15.5796593333
 20
10.5711360179
 11
15.8220486808
 21
10.5711360179
  0
LINE
  5
256
100
AcDbEntity
  8
0
100
AcDbLine
 62
7
  6
CONTINUOUS
 10
16.385587703
 20
10.5711360179
 11
16.6279770505
 21
10.5711360179
  0
LINE
  5
257
100
AcDbEntity
  8
0
100
AcDbLine
 62
7
  6
CONTINUOUS
 10
17.1915160728
 20
10.5711360179
 11
17.3127107465
 21
10.5711360179
  0
LINE
  5
258
100
AcDbEntity
  8
0
100
AcDbLine
 62
7
  6
CONTINUOUS
 10
17.2547527919
 20
10.6892419119
 11
12.4191825734
 21
10.6892419119
  0
LINE
  5
259
100
AcDbEntity
  8
0
100
AcDbLine
 62
7
  6
CONTINUOUS
 10
15.0666397388
 20
10.5524824698
 11
15.1867728639
 21
10.4437138479
  0
LINE
  5
25A
100
AcDbEntity
  8
0
100
AcDbLine
 62
7
  6
CONTINUOUS
 10
13.116644854
 20
10.4436014422
 11
13.155860408
 21
10.5705030213
  0
LINE
  5
25B
100
AcDbEntity
  8
0
100
AcDbLine
 62
7
  6
CONTINUOUS
 10
13.9222094786
 20
10.4437138479
 11
13.9355908298
 21
10.5524824698
  0
LINE
  5
25C
100
AcDbEntity
  8
0
100
AcDbLine
 62
7
  6
CONTINUOUS
 10
13.9213048903
 20
10.4395340102
 11
13.9222094786
 21
10.4437138479
  0
LINE
  5
25D
100
AcDbEntity
  8
0
100
AcDbLine
 62
7
  6
CONTINUOUS
 10
13.9355908298
 20
10.5524824698
 11
13.9361953022
 21
10.5552685917
  0
LINE
  5
25E
100
AcDbEntity
  8
0
100
AcDbLine
 62
7
  6
CONTINUOUS
 10
15.8725681085
 20
10.5524824698
 11
15.9927012337
 21
10.4437138479
  0
LINE
  5
25F
100
AcDbEntity
  8
0
100
AcDbLine
 62
7
  6
CONTINUOUS
 10
13.9225732238
 20
10.4436014422
 11
13.9617887778
 21
10.5705030213
  0
LINE
  5
260
100
AcDbEntity
  8
0
100
AcDbLine
 62
7
  6
CONTINUOUS
 10
14.7281378484
 20
10.4437138479
 11
14.7415191995
 21
10.5524824698
  0
LINE
  5
261
100
AcDbEntity
  8
0
100
AcDbLine
 62
7
  6
CONTINUOUS
 10
16.6784964783
 20
10.5524824698
 11
16.7986296034
 21
10.4437138479
  0
LINE
  5
262
100
AcDbEntity
  8
0
100
AcDbLine
 62
7
  6
CONTINUOUS
 10
14.7272332601
 20
10.4395340102
 11
14.7281378484
 21
10.4437138479
  0
LINE
  5
263
100
AcDbEntity
  8
0
100
AcDbLine
 62
7
  6
CONTINUOUS
 10
14.7415191995
 20
10.5524824698
 11
14.7421236719
 21
10.5552685917
  0
LINE
  5
264
100
AcDbEntity
  8
0
100
AcDbLine
 62
7
  6
CONTINUOUS
 10
14.7285015935
 20
10.4436014422
 11
14.7677171475
 21
10.5705030213
  0
LINE
  5
265
100
AcDbEntity
  8
0
100
AcDbLine
 62
7
  6
CONTINUOUS
 10
15.5340662181
 20
10.4437138479
 11
15.5474475693
 21
10.5524824698
  0
LINE
  5
266
100
AcDbEntity
  8
0
100
AcDbLine
 62
7
  6
CONTINUOUS
 10
15.5331616298
 20
10.4395340102
 11
15.5340662181
 21
10.4437138479
  0
LINE
  5
267
100
AcDbEntity
  8
0
100
AcDbLine
 62
7
  6
CONTINUOUS
 10
15.5474475693
 20
10.5524824698
 11
15.5480520417
 21
10.5552685917
  0
LINE
  5
268
100
AcDbEntity
  8
0
100
AcDbLine
 62
7
  6
CONTINUOUS
 10
15.5344299633
 20
10.4436014422
 11
15.5736455173
 21
10.5705030213
  0
LINE
  5
269
100
AcDbEntity
  8
0
100
AcDbLine
 62
7
  6
CONTINUOUS
 10
17.3127107465
 20
10.5711360179
 11
17.2547527919
 21
10.6892419119
  0
LINE
  5
26A
100
AcDbEntity
  8
0
100
AcDbLine
 62
7
  6
CONTINUOUS
 10
16.3399945879
 20
10.4437138479
 11
16.353375939
 21
10.5524824698
  0
LINE
  5
26B
100
AcDbEntity
  8
0
100
AcDbLine
 62
7
  6
CONTINUOUS
 10
16.3390899996
 20
10.4395340102
 11
16.3399945879
 21
10.4437138479
  0
LINE
  5
26C
100
AcDbEntity
  8
0
100
AcDbLine
 62
7
  6
CONTINUOUS
 10
16.353375939
 20
10.5524824698
 11
16.3539804114
 21
10.5552685917
  0
LINE
  5
26D
100
AcDbEntity
  8
0
100
AcDbLine
 62
7
  6
CONTINUOUS
 10
16.340358333
 20
10.4436014422
 11
16.379573887
 21
10.5705030213
  0
LINE
  5
26E
100
AcDbEntity
  8
0
100
AcDbLine
 62
7
  6
CONTINUOUS
 10
17.1459229577
 20
10.4437138479
 11
17.1593043088
 21
10.5524824698
  0
LINE
  5
26F
100
AcDbEntity
  8
0
100
AcDbLine
 62
7
  6
CONTINUOUS
 10
17.1450183693
 20
10.4395340102
 11
17.1459229577
 21
10.4437138479
  0
LINE
  5
270
100
AcDbEntity
  8
0
100
AcDbLine
 62
7
  6
CONTINUOUS
 10
17.1593043088
 20
10.5524824698
 11
17.1599087812
 21
10.5552685917
  0
LINE
  5
271
100
AcDbEntity
  8
0
100
AcDbLine
 62
7
  6
CONTINUOUS
 10
17.1462867028
 20
10.4436014422
 11
17.1855022568
 21
10.5705030213
  0
LINE
  5
272
100
AcDbEntity
  8
0
100
AcDbLine
 62
7
  6
CONTINUOUS
 10
18.4650844089
 20
14.60587646
 11
17.2547527919
 21
10.6892419119
  0
LINE
  5
273
100
AcDbEntity
  8
0
100
AcDbLine
 62
7
  6
CONTINUOUS
 10
13.6295141904
 20
14.60587646
 11
18.4650844089
 21
14.60587646
  0
LINE
  5
274
100
AcDbEntity
  8
0
100
AcDbLine
 62
7
  6
CONTINUOUS
 10
18.5230423636
 20
14.487770566
 11
17.3127107465
 21
10.5711360179
  0
LINE
  5
275
100
AcDbEntity
  8
0
100
AcDbLine
 62
7
  6
CONTINUOUS
 10
18.5230423636
 20
14.487770566
 11
18.4650844089
 21
14.60587646
  0
ARC
  5
276
100
AcDbEntity
  8
0
100
AcDbCircle
 62
7
  6
CONTINUOUS
 10
4.6967045258
 20
5.3730365634
 40
0.0729166667
100
AcDbArc
 50
202.5
 51
270.0
  0
ARC
  5
277
100
AcDbEntity
  8
0
100
AcDbCircle
 62
7
  6
CONTINUOUS
 10
4.9390300266
 20
5.3730365634
 40
0.0729166667
100
AcDbArc
 50
270.0
 51
337.5
  0
ARC
  5
278
100
AcDbEntity
  8
0
100
AcDbCircle
 62
7
  6
CONTINUOUS
 10
5.5717045258
 20
5.3730365634
 40
0.0729166667
100
AcDbArc
 50
202.5
 51
270.0
  0
ARC
  5
279
100
AcDbEntity
  8
0
100
AcDbCircle
 62
7
  6
CONTINUOUS
 10
5.8140300266
 20
5.3730365634
 40
0.0729166667
100
AcDbArc
 50
270.0
 51
337.5
  0
ARC
  5
27A
100
AcDbEntity
  8
0
100
AcDbCircle
 62
7
  6
CONTINUOUS
 10
6.4467045258
 20
5.3730365634
 40
0.0729166667
100
AcDbArc
 50
202.5
 51
270.0
  0
ARC
  5
27B
100
AcDbEntity
  8
0
100
AcDbCircle
 62
7
  6
CONTINUOUS
 10
6.6890300266
 20
5.3730365634
 40
0.0729166667
100
AcDbArc
 50
270.0
 51
337.5
  0
ARC
  5
27C
100
AcDbEntity
  8
0
100
AcDbCircle
 62
7
  6
CONTINUOUS
 10
4.0640300266
 20
5.3730365634
 40
0.0729166667
100
AcDbArc
 50
270.0
 51
337.5
  0
ARC
  5
27D
100
AcDbEntity
  8
0
100
AcDbCircle
 62
7
  6
CONTINUOUS
 10
3.8217045258
 20
5.3730365634
 40
0.0729166667
100
AcDbArc
 50
202.5
 51
270.0
  0
ARC
  5
27E
100
AcDbEntity
  8
0
100
AcDbCircle
 62
7
  6
CONTINUOUS
 10
8.4390300266
 20
5.3730365634
 40
0.0729166667
100
AcDbArc
 50
270.0
 51
337.5
  0
ARC
  5
27F
100
AcDbEntity
  8
0
100
AcDbCircle
 62
7
  6
CONTINUOUS
 10
8.1967045258
 20
5.3730365634
 40
0.0729166667
100
AcDbArc
 50
202.5
 51
270.0
  0
ARC
  5
280
100
AcDbEntity
  8
0
100
AcDbCircle
 62
7
  6
CONTINUOUS
 10
7.5640300266
 20
5.3730365634
 40
0.0729166667
100
AcDbArc
 50
270.0
 51
337.5
  0
ARC
  5
281
100
AcDbEntity
  8
0
100
AcDbCircle
 62
7
  6
CONTINUOUS
 10
7.3217045258
 20
5.3730365634
 40
0.0729166667
100
AcDbArc
 50
202.5
 51
270.0
  0
ARC
  5
282
100
AcDbEntity
  8
0
100
AcDbCircle
 62
7
  6
CONTINUOUS
 10
4.2487856822
 20
5.5015087856
 40
0.0486111111
100
AcDbArc
 50
90.0
 51
157.5
  0
ARC
  5
283
100
AcDbEntity
  8
0
100
AcDbCircle
 62
7
  6
CONTINUOUS
 10
3.6369488702
 20
5.5015087856
 40
0.0486111111
100
AcDbArc
 50
22.5
 51
90.0
  0
ARC
  5
284
100
AcDbEntity
  8
0
100
AcDbCircle
 62
7
  6
CONTINUOUS
 10
5.1237856822
 20
5.5015087856
 40
0.0486111111
100
AcDbArc
 50
90.0
 51
157.5
  0
ARC
  5
285
100
AcDbEntity
  8
0
100
AcDbCircle
 62
7
  6
CONTINUOUS
 10
4.5119488702
 20
5.5015087856
 40
0.0486111111
100
AcDbArc
 50
22.5
 51
90.0
  0
ARC
  5
286
100
AcDbEntity
  8
0
100
AcDbCircle
 62
7
  6
CONTINUOUS
 10
5.9987856822
 20
5.5015087856
 40
0.0486111111
100
AcDbArc
 50
90.0
 51
157.5
  0
ARC
  5
287
100
AcDbEntity
  8
0
100
AcDbCircle
 62
7
  6
CONTINUOUS
 10
5.3869488702
 20
5.5015087856
 40
0.0486111111
100
AcDbArc
 50
22.5
 51
90.0
  0
ARC
  5
288
100
AcDbEntity
  8
0
100
AcDbCircle
 62
7
  6
CONTINUOUS
 10
6.8737856822
 20
5.5015087856
 40
0.0486111111
100
AcDbArc
 50
90.0
 51
157.5
  0
ARC
  5
289
100
AcDbEntity
  8
0
100
AcDbCircle
 62
7
  6
CONTINUOUS
 10
6.2619488702
 20
5.5015087856
 40
0.0486111111
100
AcDbArc
 50
22.5
 51
90.0
  0
ARC
  5
28A
100
AcDbEntity
  8
0
100
AcDbCircle
 62
7
  6
CONTINUOUS
 10
7.7487856822
 20
5.5015087856
 40
0.0486111111
100
AcDbArc
 50
90.0
 51
157.5
  0
ARC
  5
28B
100
AcDbEntity
  8
0
100
AcDbCircle
 62
7
  6
CONTINUOUS
 10
7.1369488702
 20
5.5015087856
 40
0.0486111111
100
AcDbArc
 50
22.5
 51
90.0
  0
ARC
  5
28C
100
AcDbEntity
  8
0
100
AcDbCircle
 62
7
  6
CONTINUOUS
 10
8.6237856822
 20
5.5015087856
 40
0.0486111111
100
AcDbArc
 50
90.0
 51
157.5
  0
ARC
  5
28D
100
AcDbEntity
  8
0
100
AcDbCircle
 62
7
  6
CONTINUOUS
 10
8.0119488702
 20
5.5015087856
 40
0.0486111111
100
AcDbArc
 50
22.5
 51
90.0
  0
SPLINE
  5
28E
100
AcDbEntity
  8
0
100
AcDbSpline
 62
7
  6
CONTINUOUS
 70
0
 71
3
 72
11
 73
7
 74
0
 42
0.0000001
 43
0.0000001
 44
0.0000000001
 40
0.0
 40
0.0
 40
0.0
 40
0.0
 40
0.2342311796
 40
0.4753723482
 40
0.7291559544
 40
1.0
 40
1.0
 40
1.0
 40
1.0
 10
13.1302601149
 20
10.5552706999
 30
0.0
 10
13.1305953505
 20
10.556353323
 30
0.0
 10
13.1315137319
 20
10.5584841584
 30
0.0
 10
13.1335644163
 20
10.5613831379
 30
0.0
 10
13.1362559191
 20
10.5639580951
 30
0.0
 10
13.1383672837
 20
10.5653887535
 30
0.0
 10
13.1395014294
 20
10.5660453364
 30
0.0
  0
SPLINE
  5
28F
100
AcDbEntity
  8
0
100
AcDbSpline
 62
7
  6
CONTINUOUS
 70
0
 71
3
 72
11
 73
7
 74
0
 42
0.0000001
 43
0.0000001
 44
0.0000000001
 40
0.0
 40
0.0
 40
0.0
 40
0.0
 40
0.2218830442
 40
0.4632369763
 40
0.7235704504
 40
1.0
 40
1.0
 40
1.0
 40
1.0
 10
13.1395014294
 20
10.5660453364
 30
0.0
 10
13.140985352
 20
10.5669044131
 30
0.0
 10
13.1442524465
 20
10.5684133157
 30
0.0
 10
13.1496342851
 20
10.5699882601
 30
0.0
 10
13.1555864607
 20
10.5709340939
 30
0.0
 10
13.1597380488
 20
10.5711360179
 30
0.0
 10
13.161874224
 20
10.5711360179
 30
0.0
  0
SPLINE
  5
290
100
AcDbEntity
  8
0
100
AcDbSpline
 62
7
  6
CONTINUOUS
 70
0
 71
3
 72
11
 73
7
 74
0
 42
0.0000001
 43
0.0000001
 44
0.0000000001
 40
0.0
 40
0.0
 40
0.0
 40
0.0
 40
0.2342311796
 40
0.4753723482
 40
0.7291559544
 40
1.0
 40
1.0
 40
1.0
 40
1.0
 10
13.9361884847
 20
10.5552706999
 30
0.0
 10
13.9365237203
 20
10.556353323
 30
0.0
 10
13.9374421017
 20
10.5584841584
 30
0.0
 10
13.939492786
 20
10.5613831379
 30
0.0
 10
13.9421842889
 20
10.5639580951
 30
0.0
 10
13.9442956535
 20
10.5653887535
 30
0.0
 10
13.9454297992
 20
10.5660453364
 30
0.0
  0
SPLINE
  5
291
100
AcDbEntity
  8
0
100
AcDbSpline
 62
7
  6
CONTINUOUS
 70
0
 71
3
 72
11
 73
7
 74
0
 42
0.0000001
 43
0.0000001
 44
0.0000000001
 40
0.0
 40
0.0
 40
0.0
 40
0.0
 40
0.2218830442
 40
0.4632369763
 40
0.7235704504
 40
1.0
 40
1.0
 40
1.0
 40
1.0
 10
13.9454297992
 20
10.5660453364
 30
0.0
 10
13.9469137217
 20
10.5669044131
 30
0.0
 10
13.9501808163
 20
10.5684133157
 30
0.0
 10
13.9555626548
 20
10.5699882601
 30
0.0
 10
13.9615148304
 20
10.5709340939
 30
0.0
 10
13.9656664185
 20
10.5711360179
 30
0.0
 10
13.9678025938
 20
10.5711360179
 30
0.0
  0
SPLINE
  5
292
100
AcDbEntity
  8
0
100
AcDbSpline
 62
7
  6
CONTINUOUS
 70
0
 71
3
 72
11
 73
7
 74
0
 42
0.0000001
 43
0.0000001
 44
0.0000000001
 40
0.0
 40
0.0
 40
0.0
 40
0.0
 40
0.2342311796
 40
0.4753723482
 40
0.7291559544
 40
1.0
 40
1.0
 40
1.0
 40
1.0
 10
14.7421168544
 20
10.5552706999
 30
0.0
 10
14.74245209
 20
10.556353323
 30
0.0
 10
14.7433704714
 20
10.5584841584
 30
0.0
 10
14.7454211558
 20
10.5613831379
 30
0.0
 10
14.7481126586
 20
10.5639580951
 30
0.0
 10
14.7502240232
 20
10.5653887535
 30
0.0
 10
14.751358169
 20
10.5660453364
 30
0.0
  0
SPLINE
  5
293
100
AcDbEntity
  8
0
100
AcDbSpline
 62
7
  6
CONTINUOUS
 70
0
 71
3
 72
11
 73
7
 74
0
 42
0.0000001
 43
0.0000001
 44
0.0000000001
 40
0.0
 40
0.0
 40
0.0
 40
0.0
 40
0.2218830442
 40
0.4632369763
 40
0.7235704504
 40
1.0
 40
1.0
 40
1.0
 40
1.0
 10
14.751358169
 20
10.5660453364
 30
0.0
 10
14.7528420915
 20
10.5669044131
 30
0.0
 10
14.756109186
 20
10.5684133157
 30
0.0
 10
14.7614910246
 20
10.5699882601
 30
0.0
 10
14.7674432002
 20
10.5709340939
 30
0.0
 10
14.7715947883
 20
10.5711360179
 30
0.0
 10
14.7737309635
 20
10.5711360179
 30
0.0
  0
SPLINE
  5
294
100
AcDbEntity
  8
0
100
AcDbSpline
 62
7
  6
CONTINUOUS
 70
0
 71
3
 72
11
 73
7
 74
0
 42
0.0000001
 43
0.0000001
 44
0.0000000001
 40
0.0
 40
0.0
 40
0.0
 40
0.0
 40
0.2342311796
 40
0.4753723482
 40
0.7291559544
 40
1.0
 40
1.0
 40
1.0
 40
1.0
 10
15.5480452242
 20
10.5552706999
 30
0.0
 10
15.5483804598
 20
10.556353323
 30
0.0
 10
15.5492988412
 20
10.5584841584
 30
0.0
 10
15.5513495255
 20
10.5613831379
 30
0.0
 10
15.5540410284
 20
10.5639580951
 30
0.0
 10
15.556152393
 20
10.5653887535
 30
0.0
 10
15.5572865387
 20
10.5660453364
 30
0.0
  0
SPLINE
  5
295
100
AcDbEntity
  8
0
100
AcDbSpline
 62
7
  6
CONTINUOUS
 70
0
 71
3
 72
11
 73
7
 74
0
 42
0.0000001
 43
0.0000001
 44
0.0000000001
 40
0.0
 40
0.0
 40
0.0
 40
0.0
 40
0.2218830442
 40
0.4632369763
 40
0.7235704504
 40
1.0
 40
1.0
 40
1.0
 40
1.0
 10
15.5572865387
 20
10.5660453364
 30
0.0
 10
15.5587704612
 20
10.5669044131
 30
0.0
 10
15.5620375558
 20
10.5684133157
 30
0.0
 10
15.5674193943
 20
10.5699882601
 30
0.0
 10
15.5733715699
 20
10.5709340939
 30
0.0
 10
15.577523158
 20
10.5711360179
 30
0.0
 10
15.5796593333
 20
10.5711360179
 30
0.0
  0
SPLINE
  5
296
100
AcDbEntity
  8
0
100
AcDbSpline
 62
7
  6
CONTINUOUS
 70
0
 71
3
 72
11
 73
7
 74
0
 42
0.0000001
 43
0.0000001
 44
0.0000000001
 40
0.0
 40
0.0
 40
0.0
 40
0.0
 40
0.2342311796
 40
0.4753723482
 40
0.7291559544
 40
1.0
 40
1.0
 40
1.0
 40
1.0
 10
16.3539735939
 20
10.5552706999
 30
0.0
 10
16.3543088295
 20
10.556353323
 30
0.0
 10
16.355227211
 20
10.5584841584
 30
0.0
 10
16.3572778953
 20
10.5613831379
 30
0.0
 10
16.3599693981
 20
10.5639580951
 30
0.0
 10
16.3620807627
 20
10.5653887535
 30
0.0
 10
16.3632149085
 20
10.5660453364
 30
0.0
  0
SPLINE
  5
297
100
AcDbEntity
  8
0
100
AcDbSpline
 62
7
  6
CONTINUOUS
 70
0
 71
3
 72
11
 73
7
 74
0
 42
0.0000001
 43
0.0000001
 44
0.0000000001
 40
0.0
 40
0.0
 40
0.0
 40
0.0
 40
0.2218830442
 40
0.4632369763
 40
0.7235704504
 40
1.0
 40
1.0
 40
1.0
 40
1.0
 10
16.3632149085
 20
10.5660453364
 30
0.0
 10
16.364698831
 20
10.5669044131
 30
0.0
 10
16.3679659255
 20
10.5684133157
 30
0.0
 10
16.3733477641
 20
10.5699882601
 30
0.0
 10
16.3792999397
 20
10.5709340939
 30
0.0
 10
16.3834515278
 20
10.5711360179
 30
0.0
 10
16.385587703
 20
10.5711360179
 30
0.0
  0
SPLINE
  5
298
100
AcDbEntity
  8
0
100
AcDbSpline
 62
7
  6
CONTINUOUS
 70
0
 71
3
 72
11
 73
7
 74
0
 42
0.0000001
 43
0.0000001
 44
0.0000000001
 40
0.0
 40
0.0
 40
0.0
 40
0.0
 40
0.2342311796
 40
0.4753723482
 40
0.7291559544
 40
1.0
 40
1.0
 40
1.0
 40
1.0
 10
17.1599019637
 20
10.5552706999
 30
0.0
 10
17.1602371993
 20
10.556353323
 30
0.0
 10
17.1611555807
 20
10.5584841584
 30
0.0
 10
17.163206265
 20
10.5613831379
 30
0.0
 10
17.1658977679
 20
10.5639580951
 30
0.0
 10
17.1680091325
 20
10.5653887535
 30
0.0
 10
17.1691432782
 20
10.5660453364
 30
0.0
  0
SPLINE
  5
299
100
AcDbEntity
  8
0
100
AcDbSpline
 62
7
  6
CONTINUOUS
 70
0
 71
3
 72
11
 73
7
 74
0
 42
0.0000001
 43
0.0000001
 44
0.0000000001
 40
0.0
 40
0.0
 40
0.0
 40
0.0
 40
0.2218830442
 40
0.4632369763
 40
0.7235704504
 40
1.0
 40
1.0
 40
1.0
 40
1.0
 10
17.1691432782
 20
10.5660453364
 30
0.0
 10
17.1706272007
 20
10.5669044131
 30
0.0
 10
17.1738942953
 20
10.5684133157
 30
0.0
 10
17.1792761338
 20
10.5699882601
 30
0.0
 10
17.1852283094
 20
10.5709340939
 30
0.0
 10
17.1893798975
 20
10.5711360179
 30
0.0
 10
17.1915160728
 20
10.5711360179
 30
0.0
  0
SPLINE
  5
29A
100
AcDbEntity
  8
0
100
AcDbSpline
 62
7
  6
CONTINUOUS
 70
0
 71
3
 72
15
 73
11
 74
0
 42
0.0000001
 43
0.0000001
 44
0.0000000001
 40
0.0
 40
0.0
 40
0.0
 40
0.0
 40
0.1556208647
 40
0.3031461738
 40
0.4410968469
 40
0.5690291077
 40
0.6872674429
 40
0.7969844403
 40
0.9002654534
 40
1.0
 40
1.0
 40
1.0
 40
1.0
 10
13.0679634629
 20
10.4157335258
 30
0.0
 10
13.0708966771
 20
10.4157335258
 30
0.0
 10
13.0766147035
 20
10.4159885846
 30
0.0
 10
13.0848583279
 20
10.4171768487
 30
0.0
 10
13.0924141587
 20
10.4191577601
 30
0.0
 10
13.0991432306
 20
10.4218929041
 30
0.0
 10
13.1049293997
 20
10.4253452317
 30
0.0
 10
13.1096697933
 20
10.4294677055
 30
0.0
 10
13.1132573433
 20
10.4342015788
 30
0.0
 10
13.1148285926
 20
10.4377357765
 30
0.0
 10
13.1153846351
 20
10.439531501
 30
0.0
  0
SPLINE
  5
29B
100
AcDbEntity
  8
0
100
AcDbSpline
 62
7
  6
CONTINUOUS
 70
0
 71
3
 72
15
 73
11
 74
0
 42
0.0000001
 43
0.0000001
 44
0.0000000001
 40
0.0
 40
0.0
 40
0.0
 40
0.0
 40
0.1148026915
 40
0.2360615136
 40
0.3619921801
 40
0.4908819977
 40
0.6209778483
 40
0.7504749351
 40
0.8775142603
 40
1.0
 40
1.0
 40
1.0
 40
1.0
 10
12.7689877547
 20
10.4437138479
 30
0.0
 10
12.771326002
 20
10.4415967971
 30
0.0
 10
12.7763958615
 20
10.4375276156
 30
0.0
 10
12.7847493095
 20
10.4321031782
 30
0.0
 10
12.7939150447
 20
10.4273017581
 30
0.0
 10
12.8036849617
 20
10.4232195203
 30
0.0
 10
12.8138577355
 20
10.4199470522
 30
0.0
 10
12.8242193708
 20
10.4175471058
 30
0.0
 10
12.8345424731
 20
10.4160833425
 30
0.0
 10
12.8414015494
 20
10.4157335258
 30
0.0
 10
12.8447668963
 20
10.4157335258
 30
0.0
  0
SPLINE
  5
29C
100
AcDbEntity
  8
0
100
AcDbSpline
 62
7
  6
CONTINUOUS
 70
0
 71
3
 72
15
 73
11
 74
0
 42
0.0000001
 43
0.0000001
 44
0.0000000001
 40
0.0
 40
0.0
 40
0.0
 40
0.0
 40
0.1556208647
 40
0.3031461738
 40
0.4410968469
 40
0.5690291077
 40
0.6872674429
 40
0.7969844403
 40
0.9002654534
 40
1.0
 40
1.0
 40
1.0
 40
1.0
 10
17.0976053116
 20
10.4157335258
 30
0.0
 10
17.1005385259
 20
10.4157335258
 30
0.0
 10
17.1062565523
 20
10.4159885846
 30
0.0
 10
17.1145001767
 20
10.4171768487
 30
0.0
 10
17.1220560075
 20
10.4191577601
 30
0.0
 10
17.1287850794
 20
10.4218929041
 30
0.0
 10
17.1345712484
 20
10.4253452317
 30
0.0
 10
17.139311642
 20
10.4294677055
 30
0.0
 10
17.142899192
 20
10.4342015788
 30
0.0
 10
17.1444704414
 20
10.4377357765
 30
0.0
 10
17.1450264839
 20
10.439531501
 30
0.0
  0
SPLINE
  5
29D
100
AcDbEntity
  8
0
100
AcDbSpline
 62
7
  6
CONTINUOUS
 70
0
 71
3
 72
15
 73
11
 74
0
 42
0.0000001
 43
0.0000001
 44
0.0000000001
 40
0.0
 40
0.0
 40
0.0
 40
0.0
 40
0.1148026915
 40
0.2360615136
 40
0.3619921801
 40
0.4908819977
 40
0.6209778483
 40
0.7504749351
 40
0.8775142603
 40
1.0
 40
1.0
 40
1.0
 40
1.0
 10
16.7986296034
 20
10.4437138479
 30
0.0
 10
16.8009678507
 20
10.4415967971
 30
0.0
 10
16.8060377102
 20
10.4375276156
 30
0.0
 10
16.8143911583
 20
10.4321031782
 30
0.0
 10
16.8235568934
 20
10.4273017581
 30
0.0
 10
16.8333268104
 20
10.4232195203
 30
0.0
 10
16.8434995843
 20
10.4199470522
 30
0.0
 10
16.8538612196
 20
10.4175471058
 30
0.0
 10
16.8641843218
 20
10.4160833425
 30
0.0
 10
16.8710433982
 20
10.4157335258
 30
0.0
 10
16.874408745
 20
10.4157335258
 30
0.0
  0
SPLINE
  5
29E
100
AcDbEntity
  8
0
100
AcDbSpline
 62
7
  6
CONTINUOUS
 70
0
 71
3
 72
15
 73
11
 74
0
 42
0.0000001
 43
0.0000001
 44
0.0000000001
 40
0.0
 40
0.0
 40
0.0
 40
0.0
 40
0.1556208647
 40
0.3031461738
 40
0.4410968469
 40
0.5690291077
 40
0.6872674429
 40
0.7969844403
 40
0.9002654534
 40
1.0
 40
1.0
 40
1.0
 40
1.0
 10
16.2916769419
 20
10.4157335258
 30
0.0
 10
16.2946101561
 20
10.4157335258
 30
0.0
 10
16.3003281825
 20
10.4159885846
 30
0.0
 10
16.3085718069
 20
10.4171768487
 30
0.0
 10
16.3161276377
 20
10.4191577601
 30
0.0
 10
16.3228567096
 20
10.4218929041
 30
0.0
 10
16.3286428787
 20
10.4253452317
 30
0.0
 10
16.3333832723
 20
10.4294677055
 30
0.0
 10
16.3369708223
 20
10.4342015788
 30
0.0
 10
16.3385420716
 20
10.4377357765
 30
0.0
 10
16.3390981141
 20
10.439531501
 30
0.0
  0
SPLINE
  5
29F
100
AcDbEntity
  8
0
100
AcDbSpline
 62
7
  6
CONTINUOUS
 70
0
 71
3
 72
15
 73
11
 74
0
 42
0.0000001
 43
0.0000001
 44
0.0000000001
 40
0.0
 40
0.0
 40
0.0
 40
0.0
 40
0.1148026915
 40
0.2360615136
 40
0.3619921801
 40
0.4908819977
 40
0.6209778483
 40
0.7504749351
 40
0.8775142603
 40
1.0
 40
1.0
 40
1.0
 40
1.0
 10
15.9927012337
 20
10.4437138479
 30
0.0
 10
15.995039481
 20
10.4415967971
 30
0.0
 10
16.0001093405
 20
10.4375276156
 30
0.0
 10
16.0084627885
 20
10.4321031782
 30
0.0
 10
16.0176285237
 20
10.4273017581
 30
0.0
 10
16.0273984407
 20
10.4232195203
 30
0.0
 10
16.0375712145
 20
10.4199470522
 30
0.0
 10
16.0479328498
 20
10.4175471058
 30
0.0
 10
16.0582559521
 20
10.4160833425
 30
0.0
 10
16.0651150285
 20
10.4157335258
 30
0.0
 10
16.0684803753
 20
10.4157335258
 30
0.0
  0
SPLINE
  5
2A0
100
AcDbEntity
  8
0
100
AcDbSpline
 62
7
  6
CONTINUOUS
 70
0
 71
3
 72
15
 73
11
 74
0
 42
0.0000001
 43
0.0000001
 44
0.0000000001
 40
0.0
 40
0.0
 40
0.0
 40
0.0
 40
0.1556208647
 40
0.3031461738
 40
0.4410968469
 40
0.5690291077
 40
0.6872674429
 40
0.7969844403
 40
0.9002654534
 40
1.0
 40
1.0
 40
1.0
 40
1.0
 10
15.4857485721
 20
10.4157335258
 30
0.0
 10
15.4886817864
 20
10.4157335258
 30
0.0
 10
15.4943998128
 20
10.4159885846
 30
0.0
 10
15.5026434372
 20
10.4171768487
 30
0.0
 10
15.510199268
 20
10.4191577601
 30
0.0
 10
15.5169283399
 20
10.4218929041
 30
0.0
 10
15.5227145089
 20
10.4253452317
 30
0.0
 10
15.5274549025
 20
10.4294677055
 30
0.0
 10
15.5310424525
 20
10.4342015788
 30
0.0
 10
15.5326137019
 20
10.4377357765
 30
0.0
 10
15.5331697443
 20
10.439531501
 30
0.0
  0
SPLINE
  5
2A1
100
AcDbEntity
  8
0
100
AcDbSpline
 62
7
  6
CONTINUOUS
 70
0
 71
3
 72
15
 73
11
 74
0
 42
0.0000001
 43
0.0000001
 44
0.0000000001
 40
0.0
 40
0.0
 40
0.0
 40
0.0
 40
0.1148026915
 40
0.2360615136
 40
0.3619921801
 40
0.4908819977
 40
0.6209778483
 40
0.7504749351
 40
0.8775142603
 40
1.0
 40
1.0
 40
1.0
 40
1.0
 10
15.1867728639
 20
10.4437138479
 30
0.0
 10
15.1891111112
 20
10.4415967971
 30
0.0
 10
15.1941809707
 20
10.4375276156
 30
0.0
 10
15.2025344188
 20
10.4321031782
 30
0.0
 10
15.2117001539
 20
10.4273017581
 30
0.0
 10
15.2214700709
 20
10.4232195203
 30
0.0
 10
15.2316428448
 20
10.4199470522
 30
0.0
 10
15.2420044801
 20
10.4175471058
 30
0.0
 10
15.2523275823
 20
10.4160833425
 30
0.0
 10
15.2591866587
 20
10.4157335258
 30
0.0
 10
15.2625520055
 20
10.4157335258
 30
0.0
  0
SPLINE
  5
2A2
100
AcDbEntity
  8
0
100
AcDbSpline
 62
7
  6
CONTINUOUS
 70
0
 71
3
 72
15
 73
11
 74
0
 42
0.0000001
 43
0.0000001
 44
0.0000000001
 40
0.0
 40
0.0
 40
0.0
 40
0.0
 40
0.1556208647
 40
0.3031461738
 40
0.4410968469
 40
0.5690291077
 40
0.6872674429
 40
0.7969844403
 40
0.9002654534
 40
1.0
 40
1.0
 40
1.0
 40
1.0
 10
14.6798202024
 20
10.4157335258
 30
0.0
 10
14.6827534166
 20
10.4157335258
 30
0.0
 10
14.688471443
 20
10.4159885846
 30
0.0
 10
14.6967150674
 20
10.4171768487
 30
0.0
 10
14.7042708982
 20
10.4191577601
 30
0.0
 10
14.7109999701
 20
10.4218929041
 30
0.0
 10
14.7167861392
 20
10.4253452317
 30
0.0
 10
14.7215265328
 20
10.4294677055
 30
0.0
 10
14.7251140828
 20
10.4342015788
 30
0.0
 10
14.7266853321
 20
10.4377357765
 30
0.0
 10
14.7272413746
 20
10.439531501
 30
0.0
  0
SPLINE
  5
2A3
100
AcDbEntity
  8
0
100
AcDbSpline
 62
7
  6
CONTINUOUS
 70
0
 71
3
 72
15
 73
11
 74
0
 42
0.0000001
 43
0.0000001
 44
0.0000000001
 40
0.0
 40
0.0
 40
0.0
 40
0.0
 40
0.1148026915
 40
0.2360615136
 40
0.3619921801
 40
0.4908819977
 40
0.6209778483
 40
0.7504749351
 40
0.8775142603
 40
1.0
 40
1.0
 40
1.0
 40
1.0
 10
14.3808444942
 20
10.4437138479
 30
0.0
 10
14.3831827415
 20
10.4415967971
 30
0.0
 10
14.388252601
 20
10.4375276156
 30
0.0
 10
14.396606049
 20
10.4321031782
 30
0.0
 10
14.4057717842
 20
10.4273017581
 30
0.0
 10
14.4155417012
 20
10.4232195203
 30
0.0
 10
14.425714475
 20
10.4199470522
 30
0.0
 10
14.4360761103
 20
10.4175471058
 30
0.0
 10
14.4463992126
 20
10.4160833425
 30
0.0
 10
14.4532582889
 20
10.4157335258
 30
0.0
 10
14.4566236358
 20
10.4157335258
 30
0.0
  0
SPLINE
  5
2A4
100
AcDbEntity
  8
0
100
AcDbSpline
 62
7
  6
CONTINUOUS
 70
0
 71
3
 72
15
 73
11
 74
0
 42
0.0000001
 43
0.0000001
 44
0.0000000001
 40
0.0
 40
0.0
 40
0.0
 40
0.0
 40
0.1556208647
 40
0.3031461738
 40
0.4410968469
 40
0.5690291077
 40
0.6872674429
 40
0.7969844403
 40
0.9002654534
 40
1.0
 40
1.0
 40
1.0
 40
1.0
 10
13.8738918326
 20
10.4157335258
 30
0.0
 10
13.8768250469
 20
10.4157335258
 30
0.0
 10
13.8825430733
 20
10.4159885846
 30
0.0
 10
13.8907866977
 20
10.4171768487
 30
0.0
 10
13.8983425285
 20
10.4191577601
 30
0.0
 10
13.9050716004
 20
10.4218929041
 30
0.0
 10
13.9108577694
 20
10.4253452317
 30
0.0
 10
13.915598163
 20
10.4294677055
 30
0.0
 10
13.919185713
 20
10.4342015788
 30
0.0
 10
13.9207569624
 20
10.4377357765
 30
0.0
 10
13.9213130048
 20
10.439531501
 30
0.0
  0
SPLINE
  5
2A5
100
AcDbEntity
  8
0
100
AcDbSpline
 62
7
  6
CONTINUOUS
 70
0
 71
3
 72
15
 73
11
 74
0
 42
0.0000001
 43
0.0000001
 44
0.0000000001
 40
0.0
 40
0.0
 40
0.0
 40
0.0
 40
0.1148026915
 40
0.2360615136
 40
0.3619921801
 40
0.4908819977
 40
0.6209778483
 40
0.7504749351
 40
0.8775142603
 40
1.0
 40
1.0
 40
1.0
 40
1.0
 10
13.5749161244
 20
10.4437138479
 30
0.0
 10
13.5772543717
 20
10.4415967971
 30
0.0
 10
13.5823242312
 20
10.4375276156
 30
0.0
 10
13.5906776792
 20
10.4321031782
 30
0.0
 10
13.5998434144
 20
10.4273017581
 30
0.0
 10
13.6096133314
 20
10.4232195203
 30
0.0
 10
13.6197861053
 20
10.4199470522
 30
0.0
 10
13.6301477406
 20
10.4175471058
 30
0.0
 10
13.6404708428
 20
10.4160833425
 30
0.0
 10
13.6473299192
 20
10.4157335258
 30
0.0
 10
13.650695266
 20
10.4157335258
 30
0.0
  0
SPLINE
  5
2A6
100
AcDbEntity
  8
0
100
AcDbSpline
 62
7
  6
CONTINUOUS
 70
0
 71
3
 72
15
 73
11
 74
0
 42
0.0000001
 43
0.0000001
 44
0.0000000001
 40
0.0
 40
0.0
 40
0.0
 40
0.0
 40
0.1224864389
 40
0.2495272774
 40
0.3790252097
 40
0.5091196441
 40
0.6380054958
 40
0.7639339353
 40
0.8851952102
 40
1.0
 40
1.0
 40
1.0
 40
1.0
 10
12.5983352018
 20
10.5711360179
 30
0.0
 10
12.600578779
 20
10.5711360179
 30
0.0
 10
12.6051515364
 20
10.5709027938
 30
0.0
 10
12.6120336602
 20
10.5699269472
 30
0.0
 10
12.6189414297
 20
10.5683269576
 30
0.0
 10
12.6257231935
 20
10.5661453261
 30
0.0
 10
12.6322363668
 20
10.5634239453
 30
0.0
 10
12.6383467792
 20
10.5602229931
 30
0.0
 10
12.6439157659
 20
10.5566066631
 30
0.0
 10
12.6472957695
 20
10.5538938628
 30
0.0
 10
12.6488546295
 20
10.5524824698
 30
0.0
  0
SPLINE
  5
2A7
100
AcDbEntity
  8
0
100
AcDbSpline
 62
7
  6
CONTINUOUS
 70
0
 71
3
 72
15
 73
11
 74
0
 42
0.0000001
 43
0.0000001
 44
0.0000000001
 40
0.0
 40
0.0
 40
0.0
 40
0.0
 40
0.1224864389
 40
0.2495272774
 40
0.3790252097
 40
0.5091196441
 40
0.6380054958
 40
0.7639339353
 40
0.8851952102
 40
1.0
 40
1.0
 40
1.0
 40
1.0
 10
13.4042635715
 20
10.5711360179
 30
0.0
 10
13.4065071488
 20
10.5711360179
 30
0.0
 10
13.4110799062
 20
10.5709027938
 30
0.0
 10
13.41796203
 20
10.5699269472
 30
0.0
 10
13.4248697994
 20
10.5683269576
 30
0.0
 10
13.4316515632
 20
10.5661453261
 30
0.0
 10
13.4381647366
 20
10.5634239453
 30
0.0
 10
13.4442751489
 20
10.5602229931
 30
0.0
 10
13.4498441356
 20
10.5566066631
 30
0.0
 10
13.4532241393
 20
10.5538938628
 30
0.0
 10
13.4547829992
 20
10.5524824698
 30
0.0
  0
SPLINE
  5
2A8
100
AcDbEntity
  8
0
100
AcDbSpline
 62
7
  6
CONTINUOUS
 70
0
 71
3
 72
15
 73
11
 74
0
 42
0.0000001
 43
0.0000001
 44
0.0000000001
 40
0.0
 40
0.0
 40
0.0
 40
0.0
 40
0.1224864389
 40
0.2495272774
 40
0.3790252097
 40
0.5091196441
 40
0.6380054958
 40
0.7639339353
 40
0.8851952102
 40
1.0
 40
1.0
 40
1.0
 40
1.0
 10
14.2101919413
 20
10.5711360179
 30
0.0
 10
14.2124355186
 20
10.5711360179
 30
0.0
 10
14.2170082759
 20
10.5709027938
 30
0.0
 10
14.2238903997
 20
10.5699269472
 30
0.0
 10
14.2307981692
 20
10.5683269576
 30
0.0
 10
14.237579933
 20
10.5661453261
 30
0.0
 10
14.2440931063
 20
10.5634239453
 30
0.0
 10
14.2502035187
 20
10.5602229931
 30
0.0
 10
14.2557725054
 20
10.5566066631
 30
0.0
 10
14.259152509
 20
10.5538938628
 30
0.0
 10
14.260711369
 20
10.5524824698
 30
0.0
  0
SPLINE
  5
2A9
100
AcDbEntity
  8
0
100
AcDbSpline
 62
7
  6
CONTINUOUS
 70
0
 71
3
 72
15
 73
11
 74
0
 42
0.0000001
 43
0.0000001
 44
0.0000000001
 40
0.0
 40
0.0
 40
0.0
 40
0.0
 40
0.1224864389
 40
0.2495272774
 40
0.3790252097
 40
0.5091196441
 40
0.6380054958
 40
0.7639339353
 40
0.8851952102
 40
1.0
 40
1.0
 40
1.0
 40
1.0
 10
15.016120311
 20
10.5711360179
 30
0.0
 10
15.0183638883
 20
10.5711360179
 30
0.0
 10
15.0229366457
 20
10.5709027938
 30
0.0
 10
15.0298187695
 20
10.5699269472
 30
0.0
 10
15.0367265389
 20
10.5683269576
 30
0.0
 10
15.0435083027
 20
10.5661453261
 30
0.0
 10
15.0500214761
 20
10.5634239453
 30
0.0
 10
15.0561318884
 20
10.5602229931
 30
0.0
 10
15.0617008751
 20
10.5566066631
 30
0.0
 10
15.0650808788
 20
10.5538938628
 30
0.0
 10
15.0666397388
 20
10.5524824698
 30
0.0
  0
SPLINE
  5
2AA
100
AcDbEntity
  8
0
100
AcDbSpline
 62
7
  6
CONTINUOUS
 70
0
 71
3
 72
15
 73
11
 74
0
 42
0.0000001
 43
0.0000001
 44
0.0000000001
 40
0.0
 40
0.0
 40
0.0
 40
0.0
 40
0.1224864389
 40
0.2495272774
 40
0.3790252097
 40
0.5091196441
 40
0.6380054958
 40
0.7639339353
 40
0.8851952102
 40
1.0
 40
1.0
 40
1.0
 40
1.0
 10
15.8220486808
 20
10.5711360179
 30
0.0
 10
15.8242922581
 20
10.5711360179
 30
0.0
 10
15.8288650154
 20
10.5709027938
 30
0.0
 10
15.8357471392
 20
10.5699269472
 30
0.0
 10
15.8426549087
 20
10.5683269576
 30
0.0
 10
15.8494366725
 20
10.5661453261
 30
0.0
 10
15.8559498458
 20
10.5634239453
 30
0.0
 10
15.8620602582
 20
10.5602229931
 30
0.0
 10
15.8676292449
 20
10.5566066631
 30
0.0
 10
15.8710092485
 20
10.5538938628
 30
0.0
 10
15.8725681085
 20
10.5524824698
 30
0.0
  0
SPLINE
  5
2AB
100
AcDbEntity
  8
0
100
AcDbSpline
 62
7
  6
CONTINUOUS
 70
0
 71
3
 72
15
 73
11
 74
0
 42
0.0000001
 43
0.0000001
 44
0.0000000001
 40
0.0
 40
0.0
 40
0.0
 40
0.0
 40
0.1224864389
 40
0.2495272774
 40
0.3790252097
 40
0.5091196441
 40
0.6380054958
 40
0.7639339353
 40
0.8851952102
 40
1.0
 40
1.0
 40
1.0
 40
1.0
 10
16.6279770505
 20
10.5711360179
 30
0.0
 10
16.6302206278
 20
10.5711360179
 30
0.0
 10
16.6347933852
 20
10.5709027938
 30
0.0
 10
16.641675509
 20
10.5699269472
 30
0.0
 10
16.6485832784
 20
10.5683269576
 30
0.0
 10
16.6553650422
 20
10.5661453261
 30
0.0
 10
16.6618782156
 20
10.5634239453
 30
0.0
 10
16.6679886279
 20
10.5602229931
 30
0.0
 10
16.6735576146
 20
10.5566066631
 30
0.0
 10
16.6769376183
 20
10.5538938628
 30
0.0
 10
16.6784964783
 20
10.5524824698
 30
0.0
  0
ENDSEC
  0
SECTION
  2
OBJECTS
  0
DICTIONARY
  5
C
100
AcDbDictionary
280
0
281
1
  3
ACAD_GROUP
350
D
  3
ACAD_MLINESTYLE
350
17
  3
ACAD_LAYOUT
350
1A
  3
ACAD_PLOTSETTINGS
350
19
  3
ACAD_PLOTSTYLENAME
350
E
  0
DICTIONARY
  5
D
102
{ACAD_REACTORS
330
C
102
}
100
AcDbDictionary
280
0
281
1
  0
ACDBDICTIONARYWDFLT
  5
E
102
{ACAD_REACTORS
330
C
102
}
100
AcDbDictionary
281
1
  3
Normal
350
F
100
AcDbDictionaryWithDefault
340
F
  0
DICTIONARY
  5
17
102
{ACAD_REACTORS
330
C
102
}
100
AcDbDictionary
280
0
281
1
  3
Standard
350
18
  0
DICTIONARY
  5
19
102
{ACAD_REACTORS
330
C
102
}
100
AcDbDictionary
281
1
  0
DICTIONARY
  5
1A
102
{ACAD_REACTORS
330
C
102
}
100
AcDbDictionary
281
1
  3
Model
350
2AC
  3
Layout1
350
2AD
  0
ACDBPLACEHOLDER
  5
F
102
{ACAD_REACTORS
330
E
102
}
  0
MLINESTYLE
  5
18
102
{ACAD_REACTORS
330
17
102
}
100
AcDbMlineStyle
  2
STANDARD
 70
0
  3

 62
256
 51
90.0
 52
90.0
 71
2
 49
0.5
 62
256
  6
BYLAYER
 49
-0.5
 62
256
  6
BYLAYER
  0
LAYOUT
  5
2AC
102
{ACAD_REACTORS
330
1A
102
}
100
AcDbPlotSettings
  1

  2
none_device
  4
ANSI_C_(22.00_x_17.00_Inches)
  6

 40
0.0
 41
0.0
 42
0.0
 43
0.0
 44
558.8
 45
431.8
 46
0.0
 47
0.0
 48
0.0
 49
0.0
140
0.0
141
0.0
142
1.0
143
1.0
 70
1024
 72
0
 73
0
 74
0
  7

 75
0
147
1.0
148
0.0
149
0.0
100
AcDbLayout
  1
Model
 70
0
 71
0
 10
0.0
 20
0.0
 11
22.0
 21
17.0
 12
0.0
 22
0.0
 32
0.0
 14
0.0
 24
0.0
 34
0.0
 15
0.0
 25
0.0
 35
0.0
146
0.0
 13
0.0
 23
0.0
 33
0.0
 16
1.0
 26
0.0
 36
0.0
 17
0.0
 27
1.0
 37
0.0
 76
0
330
216
345
0
346
0
  0
LAYOUT
  5
2AD
102
{ACAD_REACTORS
330
1A
102
}
100
AcDbPlotSettings
  1

  2
none_device
  4
ANSI_C_(22.00_x_17.00_Inches)
  6

 40
0.0
 41
0.0
 42
0.0
 43
0.0
 44
558.8
 45
431.8
 46
0.0
 47
0.0
 48
0.0
 49
0.0
140
0.0
141
0.0
142
1.0
143
1.0
 70
0
 72
0
 73
0
 74
0
  7

 75
0
147
1.0
148
0.0
149
0.0
100
AcDbLayout
  1
Layout1
 70
0
 71
1
 10
0.0
 20
0.0
 11
22.0
 21
17.0
 12
0.0
 22
0.0
 32
0.0
 14
0.0
 24
0.0
 34
0.0
 15
0.0
 25
0.0
 35
0.0
146
0.0
 13
0.0
 23
0.0
 33
0.0
 16
1.0
 26
0.0
 36
0.0
 17
0.0
 27
1.0
 37
0.0
 76
0
330
217
345
0
346
0
  0
ENDSEC
  0
EOF