999
DXF file: _cgs_temp_output.dxf
999
Pro/ENGINEER 2016360 by Parametric Technology Corporation
  0
SECTION
  2
HEADER
  9
$ACADVER
  1
AC1021
  9
$DWGCODEPAGE
  3
ANSI_1252
  9
$EXTMAX
 10
22.0
 20
17.0
 30
0.0
  9
$EXTMIN
 10
0.0
 20
0.0
 30
0.0
  9
$LIMMIN
 10
0.0
 20
0.0
  9
$LIMMAX
 10
22.0
 20
17.0
  9
$VIEWCTR
 10
11.0
 20
8.5
  9
$VIEWSIZE
 40
17.0
  9
$CLAYER
  8
0
  9
$LTSCALE
 40
1.21
  9
$CELTYPE
  6
BYLAYER
  9
$DIMSCALE
 40
1.0
  9
$DIMASZ
 40
0.1875
  9
$DIMEXO
 40
0.0625
  9
$DIMDLI
 40
0.836
  9
$DIMEXE
 40
0.125
  9
$DIMCEN
 40
0.198
  9
$DIMLFAC
 40
1.0
  9
$DIMBLK
  1
_CLOSED
  9
$DIMALT
 70
0
  9
$DIMALTF
 40
25.4
  9
$DIMTXT
 40
0.15625
  9
$DIMTOL
 70
0
  9
$DIMLIM
 70
0
  9
$DIMTFAC
 40
1.0
  9
$DIMGAP
 40
0.09
  9
$DIMDSEP
 70
46
  9
$AUNITS
 70
0
  9
$PDMODE
 70
3
  9
$PDSIZE
 40
0.3125
  9
$HANDSEED
  5
2AE
  9
$TILEMODE
 70
1
  9
$MEASUREMENT
 70
0
  9
$INSUNITS
 70
1
  0
ENDSEC
  0
SECTION
  2
CLASSES
  0
CLASS
  1
ACDBDICTIONARYWDFLT
  2
AcDbDictionaryWithDefault
  3
AutoCAD 2000
 90
0
 91
1
280
0
281
0
  0
CLASS
  1
ACDBPLACEHOLDER
  2
AcDbPlaceHolder
  3
AutoCAD 2000
 90
0
 91
1
280
0
281
0
  0
CLASS
  1
LAYOUT
  2
AcDbLayout
  3
AutoCAD 2000
 90
0
 91
0
280
0
281
0
  0
ENDSEC
  0
SECTION
  2
TABLES
  0
TABLE
  2
VPORT
  5
8
100
AcDbSymbolTable
 70
2
  0
VPORT
  5
1F4
100
AcDbSymbolTableRecord
100
AcDbViewportTableRecord
  2
*ACTIVE
 70
0
 10
0.0
 20
0.0
 11
1.0
 21
1.0
 12
11.0
 22
8.5
 13
0.0
 23
0.0
 14
1.0
 24
1.0
 15
0.0
 25
0.0
 16
0.0
 26
0.0
 36
1.0
 17
0.0
 27
0.0
 37
0.0
 40
17.0
 41
1.2941176471
 42
50.0
 43
0.0
 44
0.0
 50
0.0
 51
0.0
 71
0
 72
100
 73
1
 74
1
 75
0
 76
0
 77
0
 78
0
  0
ENDTAB
  0
TABLE
  2
LTYPE
  5
5
100
AcDbSymbolTable
 70
6
  0
LTYPE
  5
14
100
AcDbSymbolTableRecord
100
AcDbLinetypeTableRecord
  2
BYBLOCK
 70
0
  3

 72
65
 73
0
 40
0.0
  0
LTYPE
  5
15
100
AcDbSymbolTableRecord
100
AcDbLinetypeTableRecord
  2
BYLAYER
 70
0
  3

 72
65
 73
0
 40
0.0
  0
LTYPE
  5
16
100
AcDbSymbolTableRecord
100
AcDbLinetypeTableRecord
  2
CONTINUOUS
 70
64
  3
Solid line
 72
65
 73
0
 40
0.0
  0
LTYPE
  5
1F5
100
AcDbSymbolTableRecord
100
AcDbLinetypeTableRecord
  2
CENTER
 70
64
  3
____ _ ____ _ ____ _ ____ _ ____ _ ____ _ ____
 72
65
 73
4
 40
0.6
 49
0.375
 74
0
 49
-0.075
 74
0
 49
0.075
 74
0
 49
-0.075
 74
0
  0
LTYPE
  5
1F6
100
AcDbSymbolTableRecord
100
AcDbLinetypeTableRecord
  2
HIDDEN
 70
64
  3
- - - - - - - - - - - - - - - - - - - -
 72
65
 73
2
 40
0.2
 49
0.1
 74
0
 49
-0.1
 74
0
  0
LTYPE
  5
1F7
100
AcDbSymbolTableRecord
100
AcDbLinetypeTableRecord
  2
PHANTOM
 70
64
  3
_____ _ _ _____ _ _ _____ _ _ _____
 72
65
 73
6
 40
0.8
 49
0.45
 74
0
 49
-0.05
 74
0
 49
0.1
 74
0
 49
-0.05
 74
0
 49
0.1
 74
0
 49
-0.05
 74
0
  0
LTYPE
  5
1F8
100
AcDbSymbolTableRecord
100
AcDbLinetypeTableRecord
  2
DOT
 70
64
  3
. . . . . . . . . . . . . . . . . . . .
 72
65
 73
2
 40
0.2
 49
0.1
 74
0
 49
-0.1
 74
0
  0
LTYPE
  5
1F9
100
AcDbSymbolTableRecord
100
AcDbLinetypeTableRecord
  2
DASHED
 70
64
  3
- - - - - - - - - - - - - - - - - - - -
 72
65
 73
2
 40
0.2
 49
0.1
 74
0
 49
-0.1
 74
0
  0
ENDTAB
  0
TABLE
  2
LAYER
  5
2
100
AcDbSymbolTable
 70
36
  0
LAYER
  5
10
100
AcDbSymbolTableRecord
100
AcDbLayerTableRecord
  2
0
 70
0
 62
7
  6
CONTINUOUS
370
-3
390
F
  0
LAYER
  5
1FA
100
AcDbSymbolTableRecord
100
AcDbLayerTableRecord
  2
DEFAULT_1
 70
0
 62
7
  6
CENTER
370
-3
390
F
  0
LAYER
  5
1FB
100
AcDbSymbolTableRecord
100
AcDbLayerTableRecord
  2
DEFAULT_2
 70
0
 62
8
  6
HIDDEN
370
-3
390
F
  0
LAYER
  5
1FC
100
AcDbSymbolTableRecord
100
AcDbLayerTableRecord
  2
DEFAULT_3
 70
0
 62
7
  6
PHANTOM
370
-3
390
F
  0
LAYER
  5
1FD
100
AcDbSymbolTableRecord
100
AcDbLayerTableRecord
  2
01_ALL_DTM_PLN
 70
0
 62
7
  6
CONTINUOUS
370
-3
390
F
  0
LAYER
  5
1FE
100
AcDbSymbolTableRecord
100
AcDbLayerTableRecord
  2
01__ASM_ALL_DTM_PLN
 70
0
 62
7
  6
CONTINUOUS
370
-3
390
F
  0
LAYER
  5
1FF
100
AcDbSymbolTableRecord
100
AcDbLayerTableRecord
  2
01__ASM_DEF_DTM_PLN
 70
0
 62
7
  6
CONTINUOUS
370
-3
390
F
  0
LAYER
  5
200
100
AcDbSymbolTableRecord
100
AcDbLayerTableRecord
  2
01___PRT_ALL_DTM_PLN
 70
0
 62
7
  6
CONTINUOUS
370
-3
390
F
  0
LAYER
  5
201
100
AcDbSymbolTableRecord
100
AcDbLayerTableRecord
  2
01___PRT_DEF_DTM_PLN
 70
0
 62
7
  6
CONTINUOUS
370
-3
390
F
  0
LAYER
  5
202
100
AcDbSymbolTableRecord
100
AcDbLayerTableRecord
  2
02_ALL_AXES
 70
0
 62
7
  6
CONTINUOUS
370
-3
390
F
  0
LAYER
  5
203
100
AcDbSymbolTableRecord
100
AcDbLayerTableRecord
  2
02__ASM_ALL_AXES
 70
0
 62
7
  6
CONTINUOUS
370
-3
390
F
  0
LAYER
  5
204
100
AcDbSymbolTableRecord
100
AcDbLayerTableRecord
  2
02___PRT_ALL_AXES
 70
0
 62
7
  6
CONTINUOUS
370
-3
390
F
  0
LAYER
  5
205
100
AcDbSymbolTableRecord
100
AcDbLayerTableRecord
  2
03_ALL_CURVES
 70
0
 62
7
  6
CONTINUOUS
370
-3
390
F
  0
LAYER
  5
206
100
AcDbSymbolTableRecord
100
AcDbLayerTableRecord
  2
03__ASM_ALL_CURVES
 70
0
 62
7
  6
CONTINUOUS
370
-3
390
F
  0
LAYER
  5
207
100
AcDbSymbolTableRecord
100
AcDbLayerTableRecord
  2
03___PRT_ALL_CURVES
 70
0
 62
7
  6
CONTINUOUS
370
-3
390
F
  0
LAYER
  5
208
100
AcDbSymbolTableRecord
100
AcDbLayerTableRecord
  2
04_ALL_DTM_PNT
 70
0
 62
7
  6
CONTINUOUS
370
-3
390
F
  0
LAYER
  5
209
100
AcDbSymbolTableRecord
100
AcDbLayerTableRecord
  2
04__ASM_ALL_DTM_PNT
 70
0
 62
7
  6
CONTINUOUS
370
-3
390
F
  0
LAYER
  5
20A
100
AcDbSymbolTableRecord
100
AcDbLayerTableRecord
  2
04___PRT_ALL_DTM_PNT
 70
0
 62
7
  6
CONTINUOUS
370
-3
390
F
  0
LAYER
  5
20B
100
AcDbSymbolTableRecord
100
AcDbLayerTableRecord
  2
05_ALL_DTM_CSYS
 70
0
 62
7
  6
CONTINUOUS
370
-3
390
F
  0
LAYER
  5
20C
100
AcDbSymbolTableRecord
100
AcDbLayerTableRecord
  2
05__ASM_ALL_DTM_CSYS
 70
0
 62
7
  6
CONTINUOUS
370
-3
390
F
  0
LAYER
  5
20D
100
AcDbSymbolTableRecord
100
AcDbLayerTableRecord
  2
05__ASM_DEF_DTM_CSYS
 70
0
 62
7
  6
CONTINUOUS
370
-3
390
F
  0
LAYER
  5
20E
100
AcDbSymbolTableRecord
100
AcDbLayerTableRecord
  2
05___PRT_ALL_DTM_CSYS
 70
0
 62
7
  6
CONTINUOUS
370
-3
390
F
  0
LAYER
  5
20F
100
AcDbSymbolTableRecord
100
AcDbLayerTableRecord
  2
05___PRT_DEF_DTM_CSYS
 70
0
 62
7
  6
CONTINUOUS
370
-3
390
F
  0
LAYER
  5
210
100
AcDbSymbolTableRecord
100
AcDbLayerTableRecord
  2
06_ALL_SURFS
 70
0
 62
7
  6
CONTINUOUS
370
-3
390
F
  0
LAYER
  5
211
100
AcDbSymbolTableRecord
100
AcDbLayerTableRecord
  2
06__ASM_ALL_SURFS
 70
0
 62
7
  6
CONTINUOUS
370
-3
390
F
  0
LAYER
  5
212
100
AcDbSymbolTableRecord
100
AcDbLayerTableRecord
  2
06___PRT_ALL_SURFS
 70
0
 62
7
  6
CONTINUOUS
370
-3
390
F
  0
LAYER
  5
213
100
AcDbSymbolTableRecord
100
AcDbLayerTableRecord
  2
07__ASM_ALL_SKELETONS
 70
0
 62
7
  6
CONTINUOUS
370
-3
390
F
  0
ENDTAB
  0
TABLE
  2
STYLE
  5
3
100
AcDbSymbolTable
 70
1
  0
STYLE
  5
11
100
AcDbSymbolTableRecord
100
AcDbTextStyleTableRecord
  2
STANDARD
 70
0
 40
0.0
 41
0.8
 50
0.0
 71
0
 42
0.2
  3
txt
  4

  0
STYLE
  5
214
100
AcDbSymbolTableRecord
100
AcDbTextStyleTableRecord
  2
TEXTSTYLE_1
 70
0
 40
0.0
 41
0.8
 50
0.0
 71
0
 42
0.2
  3
gdt
  4

  0
ENDTAB
  0
TABLE
  2
VIEW
  5
6
100
AcDbSymbolTable
 70
0
  0
ENDTAB
  0
TABLE
  2
UCS
  5
7
100
AcDbSymbolTable
 70
0
  0
ENDTAB
  0
TABLE
  2
APPID
  5
9
100
AcDbSymbolTable
 70
1
  0
APPID
  5
215
100
AcDbSymbolTableRecord
100
AcDbRegAppTableRecord
  2
ACAD
 70
0
  0
ENDTAB
  0
TABLE
  2
BLOCK_RECORD
  5
1
100
AcDbSymbolTable
 70
0
  0
BLOCK_RECORD
  5
216
100
AcDbSymbolTableRecord
100
AcDbBlockTableRecord
  2
*Model_Space
  0
BLOCK_RECORD
  5
217
100
AcDbSymbolTableRecord
100
AcDbBlockTableRecord
  2
*Paper_Space
  0
ENDTAB
  0
TABLE
  2
DIMSTYLE
  5
A
100
AcDbSymbolTable
 70
1
100
AcDbDimStyleTable
 71
0
  0
DIMSTYLE
105
218
100
AcDbSymbolTableRecord
100
AcDbDimStyleTableRecord
  2
STANDARD
 70
0
  3

  4

 40
1.0
 41
0.1875
 42
0.0625
 43
0.38
 44
0.125
 45
0.0
 46
0.0
 47
0.0001
 48
0.0001
140
0.15625
141
0.09
142
0.0
143
25.4
144
1.0
145
0.0
146
1.0
147
0.09
 71
0.0
 72
0.0
 73
1
 74
1
 75
0
 76
0
 77
0
 78
4
 79
1
170
0
171
3
172
0
173
0
174
0
175
0
176
0
177
0
178
0
270
2
179
4
271
4
272
4
273
2
274
2
275
0
280
0
281
0
282
0
283
1
284
4
285
0
286
0
287
3
288
0
340
11
278
46
  0
ENDTAB
  0
ENDSEC
  0
SECTION
  2
BLOCKS
  0
BLOCK
  5
20
100
AcDbEntity
  8
0
100
AcDbBlockBegin
  2
*Model_Space
 70
0
 10
0.0
 20
0.0
 30
0.0
  3
*Model_Space
  1

  0
ENDBLK
  5
21
100
AcDbEntity
  8
0
100
AcDbBlockEnd
  0
BLOCK
  5
1C
100
AcDbEntity
  8
0
100
AcDbBlockBegin
  2
*Paper_Space
 70
0
 10
0.0
 20
0.0
 30
0.0
  3
*Paper_Space
  1

  0
ENDBLK
  5
1D
100
AcDbEntity
  8
0
100
AcDbBlockEnd
  0
ENDSEC
  0
SECTION
  2
ENTITIES
  0
MTEXT
  5
219
100
AcDbEntity
  8
0
100
AcDbMText
 62
7
  6
CONTINUOUS
  7
STANDARD
 71
1
 72
1
 10
15.9560215477
 20
0.9479130325
 30
0.0
 11
1.0
 21
0.0
 31
0.0
 44
0.9
  1
SCALE: 1:1.000
 40
0.3
 41
3.36
  0
LINE
  5
21A
100
AcDbEntity
  8
0
100
AcDbLine
 62
7
  6
CONTINUOUS
 10
0.0
 20
0.0
 11
0.0
 21
17.0
  0
LINE
  5
21B
100
AcDbEntity
  8
0
100
AcDbLine
 62
7
  6
CONTINUOUS
 10
0.0
 20
0.0
 11
22.0
 21
0.0
  0
LINE
  5
21C
100
AcDbEntity
  8
0
100
AcDbLine
 62
7
  6
CONTINUOUS
 10
0.0
 20
17.0
 11
22.0
 21
17.0
  0
LINE
  5
21D
100
AcDbEntity
  8
0
100
AcDbLine
 62
7
  6
CONTINUOUS
 10
22.0
 20
0.0
 11
22.0
 21
17.0
  0
LINE
  5
21E
100
AcDbEntity
  8
0
100
AcDbLine
 62
7
  6
CONTINUOUS
 10
3.5053672762
 20
5.7401198968
 11
3.5053672762
 21
5.5501198968
  0
LINE
  5
21F
100
AcDbEntity
  8
0
100
AcDbLine
 62
7
  6
CONTINUOUS
 10
3.6818596808
 20
5.5201114525
 11
3.7543383099
 21
5.3451325631
  0
LINE
  5
220
100
AcDbEntity
  8
0
100
AcDbLine
 62
7
  6
CONTINUOUS
 10
4.1313962425
 20
5.3451325631
 11
4.2038748716
 21
5.5201114525
  0
LINE
  5
221
100
AcDbEntity
  8
0
100
AcDbLine
 62
7
  6
CONTINUOUS
 10
4.5568596808
 20
5.5201114525
 11
4.6293383099
 21
5.3451325631
  0
LINE
  5
222
100
AcDbEntity
  8
0
100
AcDbLine
 62
7
  6
CONTINUOUS
 10
5.0063962425
 20
5.3451325631
 11
5.0788748716
 21
5.5201114525
  0
LINE
  5
223
100
AcDbEntity
  8
0
100
AcDbLine
 62
7
  6
CONTINUOUS
 10
5.4318596808
 20
5.5201114525
 11
5.5043383099
 21
5.3451325631
  0
LINE
  5
224
100
AcDbEntity
  8
0
100
AcDbLine
 62
7
  6
CONTINUOUS
 10
5.8813962425
 20
5.3451325631
 11
5.9538748716
 21
5.5201114525
  0
LINE
  5
225
100
AcDbEntity
  8
0
100
AcDbLine
 62
7
  6
CONTINUOUS
 10
3.8217045258
 20
5.3001198968
 11
4.0640300266
 21
5.3001198968
  0
LINE
  5
226
100
AcDbEntity
  8
0
100
AcDbLine
 62
7
  6
CONTINUOUS
 10
4.6967045258
 20
5.3001198968
 11
4.9390300266
 21
5.3001198968
  0
LINE
  5
227
100
AcDbEntity
  8
0
100
AcDbLine
 62
7
  6
CONTINUOUS
 10
5.5717045258
 20
5.3001198968
 11
5.8140300266
 21
5.3001198968
  0
LINE
  5
228
100
AcDbEntity
  8
0
100
AcDbLine
 62
7
  6
CONTINUOUS
 10
6.4467045258
 20
5.3001198968
 11
6.6890300266
 21
5.3001198968
  0
LINE
  5
229
100
AcDbEntity
  8
0
100
AcDbLine
 62
7
  6
CONTINUOUS
 10
7.3217045258
 20
5.3001198968
 11
7.5640300266
 21
5.3001198968
  0
LINE
  5
22A
100
AcDbEntity
  8
0
100
AcDbLine
 62
7
  6
CONTINUOUS
 10
8.1967045258
 20
5.3001198968
 11
8.4390300266
 21
5.3001198968
  0
LINE
  5
22B
100
AcDbEntity
  8
0
100
AcDbLine
 62
7
  6
CONTINUOUS
 10
3.5053672762
 20
5.5501198968
 11
3.6369488702
 21
5.5501198968
  0
LINE
  5
22C
100
AcDbEntity
  8
0
100
AcDbLine
 62
7
  6
CONTINUOUS
 10
4.2487856822
 20
5.5501198968
 11
4.5119488702
 21
5.5501198968
  0
LINE
  5
22D
100
AcDbEntity
  8
0
100
AcDbLine
 62
7
  6
CONTINUOUS
 10
5.1237856822
 20
5.5501198968
 11
5.3869488702
 21
5.5501198968
  0
LINE
  5
22E
100
AcDbEntity
  8
0
100
AcDbLine
 62
7
  6
CONTINUOUS
 10
5.9987856822
 20
5.5501198968
 11
6.2619488702
 21
5.5501198968
  0
LINE
  5
22F
100
AcDbEntity
  8
0
100
AcDbLine
 62
7
  6
CONTINUOUS
 10
6.8737856822
 20
5.5501198968
 11
7.1369488702
 21
5.5501198968
  0
LINE
  5
230
100
AcDbEntity
  8
0
100
AcDbLine
 62
7
  6
CONTINUOUS
 10
7.7487856822
 20
5.5501198968
 11
8.0119488702
 21
5.5501198968
  0
LINE
  5
231
100
AcDbEntity
  8
0
100
AcDbLine
 62
7
  6
CONTINUOUS
 10
8.6237856822
 20
5.5501198968
 11
8.7553672762
 21
5.5501198968
  0
LINE
  5
232
100
AcDbEntity
  8
0
100
AcDbLine
 62
7
  6
CONTINUOUS
 10
6.3068596808
 20
5.5201114525
 11
6.3793383099
 21
5.3451325631
  0
LINE
  5
233
100
AcDbEntity
  8
0
100
AcDbLine
 62
7
  6
CONTINUOUS
 10
8.7553672762
 20
5.7401198968
 11
3.5053672762
 21
5.7401198968
  0
LINE
  5
234
100
AcDbEntity
  8
0
100
AcDbLine
 62
7
  6
CONTINUOUS
 10
6.7563962425
 20
5.3451325631
 11
6.8288748716
 21
5.5201114525
  0
LINE
  5
235
100
AcDbEntity
  8
0
100
AcDbLine
 62
7
  6
CONTINUOUS
 10
7.1818596808
 20
5.5201114525
 11
7.2543383099
 21
5.3451325631
  0
LINE
  5
236
100
AcDbEntity
  8
0
100
AcDbLine
 62
7
  6
CONTINUOUS
 10
7.6313962425
 20
5.3451325631
 11
7.7038748716
 21
5.5201114525
  0
LINE
  5
237
100
AcDbEntity
  8
0
100
AcDbLine
 62
7
  6
CONTINUOUS
 10
8.0568596808
 20
5.5201114525
 11
8.1293383099
 21
5.3451325631
  0
LINE
  5
238
100
AcDbEntity
  8
0
100
AcDbLine
 62
7
  6
CONTINUOUS
 10
8.5063962425
 20
5.3451325631
 11
8.5788748716
 21
5.5201114525
  0
LINE
  5
239
100
AcDbEntity
  8
0
100
AcDbLine
 62
7
  6
CONTINUOUS
 10
8.7553672762
 20
5.5501198968
 11
8.7553672762
 21
5.7401198968
  0
LINE
  5
23A
100
AcDbEntity
  8
0
100
AcDbLine
 62
7
  6
CONTINUOUS
 10
3.4458720839
 20
14.6000477814
 11
3.4458720839
 21
10.6000477814
  0
LINE
  5
23B
100
AcDbEntity
  8
0
100
AcDbLine
 62
7
  6
CONTINUOUS
 10
8.6958720839
 20
10.6000477814
 11
3.4458720839
 21
10.6000477814
  0
LINE
  5
23C
100
AcDbEntity
  8
0
100
AcDbLine
 62
7
  6
CONTINUOUS
 10
3.4458720839
 20
14.6000477814
 11
8.6958720839
 21
14.6000477814
  0
LINE
  5
23D
100
AcDbEntity
  8
0
100
AcDbLine
 62
7
  6
CONTINUOUS
 10
8.6958720839
 20
14.6000477814
 11
8.6958720839
 21
10.6000477814
  0
LINE
  5
23E
100
AcDbEntity
  8
0
100
AcDbLine
 62
7
  6
CONTINUOUS
 10
13.5603552569
 20
5.2406247044
 11
13.5603552569
 21
5.6806247044
  0
LINE
  5
23F
100
AcDbEntity
  8
0
100
AcDbLine
 62
7
  6
CONTINUOUS
 10
13.5603552569
 20
5.2406247044
 11
17.5603552569
 21
5.2406247044
  0
LINE
  5
240
100
AcDbEntity
  8
0
100
AcDbLine
 62
7
  6
CONTINUOUS
 10
17.5603552569
 20
5.4906247044
 11
13.5603552569
 21
5.4906247044
  0
LINE
  5
241
100
AcDbEntity
  8
0
100
AcDbLine
 62
7
  6
CONTINUOUS
 10
17.5603552569
 20
5.6806247044
 11
13.5603552569
 21
5.6806247044
  0
LINE
  5
242
100
AcDbEntity
  8
0
100
AcDbLine
 62
7
  6
CONTINUOUS
 10
17.5603552569
 20
5.2406247044
 11
17.5603552569
 21
5.6806247044
  0
LINE
  5
243
100
AcDbEntity
  8
0
100
AcDbLine
 62
7
  6
CONTINUOUS
 10
12.5402157351
 20
11.0809053667
 11
12.5981736897
 21
10.9627994727
  0
LINE
  5
244
100
AcDbEntity
  8
0
100
AcDbLine
 62
7
  6
CONTINUOUS
 10
12.7698877912
 20
10.9441459246
 11
12.8900209164
 21
10.8353773028
  0
LINE
  5
245
100
AcDbEntity
  8
0
100
AcDbLine
 62
7
  6
CONTINUOUS
 10
13.5084810287
 20
14.2142130052
 11
12.5402157351
 21
11.0809053667
  0
LINE
  5
246
100
AcDbEntity
  8
0
100
AcDbLine
 62
7
  6
CONTINUOUS
 10
13.575816161
 20
10.9441459246
 11
13.6959492861
 21
10.8353773028
  0
LINE
  5
247
100
AcDbEntity
  8
0
100
AcDbLine
 62
7
  6
CONTINUOUS
 10
13.2373142706
 20
10.8353773028
 11
13.2506956217
 21
10.9441459246
  0
LINE
  5
248
100
AcDbEntity
  8
0
100
AcDbLine
 62
7
  6
CONTINUOUS
 10
13.2364258847
 20
10.8311924653
 11
13.2373142706
 21
10.8353773028
  0
LINE
  5
249
100
AcDbEntity
  8
0
100
AcDbLine
 62
7
  6
CONTINUOUS
 10
13.2506956217
 20
10.9441459246
 11
13.2512991857
 21
10.9469323271
  0
LINE
  5
24A
100
AcDbEntity
  8
0
100
AcDbLine
 62
7
  6
CONTINUOUS
 10
14.3817445307
 20
10.9441459246
 11
14.5018776559
 21
10.8353773028
  0
LINE
  5
24B
100
AcDbEntity
  8
0
100
AcDbLine
 62
7
  6
CONTINUOUS
 10
13.2376780157
 20
10.835264897
 11
13.2768937279
 21
10.9621669879
  0
LINE
  5
24C
100
AcDbEntity
  8
0
100
AcDbLine
 62
7
  6
CONTINUOUS
 10
12.965800058
 20
10.8073969806
 11
13.1889966246
 21
10.8073969806
  0
LINE
  5
24D
100
AcDbEntity
  8
0
100
AcDbLine
 62
7
  6
CONTINUOUS
 10
13.7717284277
 20
10.8073969806
 11
13.9949249943
 21
10.8073969806
  0
LINE
  5
24E
100
AcDbEntity
  8
0
100
AcDbLine
 62
7
  6
CONTINUOUS
 10
14.5776567975
 20
10.8073969806
 11
14.8008533641
 21
10.8073969806
  0
LINE
  5
24F
100
AcDbEntity
  8
0
100
AcDbLine
 62
7
  6
CONTINUOUS
 10
15.3835851672
 20
10.8073969806
 11
15.6067817338
 21
10.8073969806
  0
LINE
  5
250
100
AcDbEntity
  8
0
100
AcDbLine
 62
7
  6
CONTINUOUS
 10
16.189513537
 20
10.8073969806
 11
16.4127101036
 21
10.8073969806
  0
LINE
  5
251
100
AcDbEntity
  8
0
100
AcDbLine
 62
7
  6
CONTINUOUS
 10
16.9954419067
 20
10.8073969806
 11
17.2186384733
 21
10.8073969806
  0
LINE
  5
252
100
AcDbEntity
  8
0
100
AcDbLine
 62
7
  6
CONTINUOUS
 10
12.5981736897
 20
10.9627994727
 11
12.7193683635
 21
10.9627994727
  0
LINE
  5
253
100
AcDbEntity
  8
0
100
AcDbLine
 62
7
  6
CONTINUOUS
 10
13.2829073857
 20
10.9627994727
 11
13.5252967332
 21
10.9627994727
  0
LINE
  5
254
100
AcDbEntity
  8
0
100
AcDbLine
 62
7
  6
CONTINUOUS
 10
14.0888357555
 20
10.9627994727
 11
14.331225103
 21
10.9627994727
  0
LINE
  5
255
100
AcDbEntity
  8
0
100
AcDbLine
 62
7
  6
CONTINUOUS
 10
14.8947641252
 20
10.9627994727
 11
15.1371534727
 21
10.9627994727
  0
LINE
  5
256
100
AcDbEntity
  8
0
100
AcDbLine
 62
7
  6
CONTINUOUS
 10
15.700692495
 20
10.9627994727
 11
15.9430818425
 21
10.9627994727
  0
LINE
  5
257
100
AcDbEntity
  8
0
100
AcDbLine
 62
7
  6
CONTINUOUS
 10
16.5066208647
 20
10.9627994727
 11
16.7490102122
 21
10.9627994727
  0
LINE
  5
258
100
AcDbEntity
  8
0
100
AcDbLine
 62
7
  6
CONTINUOUS
 10
17.3125492345
 20
10.9627994727
 11
17.4337439082
 21
10.9627994727
  0
LINE
  5
259
100
AcDbEntity
  8
0
100
AcDbLine
 62
7
  6
CONTINUOUS
 10
17.3757859536
 20
11.0809053667
 11
12.5402157351
 21
11.0809053667
  0
LINE
  5
25A
100
AcDbEntity
  8
0
100
AcDbLine
 62
7
  6
CONTINUOUS
 10
15.1876729005
 20
10.9441459246
 11
15.3078060256
 21
10.8353773028
  0
LINE
  5
25B
100
AcDbEntity
  8
0
100
AcDbLine
 62
7
  6
CONTINUOUS
 10
14.0432426403
 20
10.8353773028
 11
14.0566239915
 21
10.9441459246
  0
LINE
  5
25C
100
AcDbEntity
  8
0
100
AcDbLine
 62
7
  6
CONTINUOUS
 10
14.0423542545
 20
10.8311924653
 11
14.0432426403
 21
10.8353773028
  0
LINE
  5
25D
100
AcDbEntity
  8
0
100
AcDbLine
 62
7
  6
CONTINUOUS
 10
14.0566239915
 20
10.9441459246
 11
14.0572275554
 21
10.9469323271
  0
LINE
  5
25E
100
AcDbEntity
  8
0
100
AcDbLine
 62
7
  6
CONTINUOUS
 10
14.0436063855
 20
10.835264897
 11
14.0828220976
 21
10.9621669879
  0
LINE
  5
25F
100
AcDbEntity
  8
0
100
AcDbLine
 62
7
  6
CONTINUOUS
 10
15.9936012702
 20
10.9441459246
 11
16.1137343954
 21
10.8353773028
  0
LINE
  5
260
100
AcDbEntity
  8
0
100
AcDbLine
 62
7
  6
CONTINUOUS
 10
14.8491710101
 20
10.8353773028
 11
14.8625523612
 21
10.9441459246
  0
LINE
  5
261
100
AcDbEntity
  8
0
100
AcDbLine
 62
7
  6
CONTINUOUS
 10
14.8482826242
 20
10.8311924653
 11
14.8491710101
 21
10.8353773028
  0
LINE
  5
262
100
AcDbEntity
  8
0
100
AcDbLine
 62
7
  6
CONTINUOUS
 10
14.8625523612
 20
10.9441459246
 11
14.8631559252
 21
10.9469323271
  0
LINE
  5
263
100
AcDbEntity
  8
0
100
AcDbLine
 62
7
  6
CONTINUOUS
 10
16.79952964
 20
10.9441459246
 11
16.9196627652
 21
10.8353773028
  0
LINE
  5
264
100
AcDbEntity
  8
0
100
AcDbLine
 62
7
  6
CONTINUOUS
 10
14.8495347552
 20
10.835264897
 11
14.8887504674
 21
10.9621669879
  0
LINE
  5
265
100
AcDbEntity
  8
0
100
AcDbLine
 62
7
  6
CONTINUOUS
 10
15.6550993799
 20
10.8353773028
 11
15.668480731
 21
10.9441459246
  0
LINE
  5
266
100
AcDbEntity
  8
0
100
AcDbLine
 62
7
  6
CONTINUOUS
 10
15.654210994
 20
10.8311924653
 11
15.6550993799
 21
10.8353773028
  0
LINE
  5
267
100
AcDbEntity
  8
0
100
AcDbLine
 62
7
  6
CONTINUOUS
 10
15.668480731
 20
10.9441459246
 11
15.6690842949
 21
10.9469323271
  0
LINE
  5
268
100
AcDbEntity
  8
0
100
AcDbLine
 62
7
  6
CONTINUOUS
 10
15.655463125
 20
10.835264897
 11
15.6946788371
 21
10.9621669879
  0
LINE
  5
269
100
AcDbEntity
  8
0
100
AcDbLine
 62
7
  6
CONTINUOUS
 10
17.4337439082
 20
10.9627994727
 11
17.3757859536
 21
11.0809053667
  0
LINE
  5
26A
100
AcDbEntity
  8
0
100
AcDbLine
 62
7
  6
CONTINUOUS
 10
16.4610277496
 20
10.8353773028
 11
16.4744091007
 21
10.9441459246
  0
LINE
  5
26B
100
AcDbEntity
  8
0
100
AcDbLine
 62
7
  6
CONTINUOUS
 10
16.4601393637
 20
10.8311924653
 11
16.4610277496
 21
10.8353773028
  0
LINE
  5
26C
100
AcDbEntity
  8
0
100
AcDbLine
 62
7
  6
CONTINUOUS
 10
16.4744091007
 20
10.9441459246
 11
16.4750126647
 21
10.9469323271
  0
LINE
  5
26D
100
AcDbEntity
  8
0
100
AcDbLine
 62
7
  6
CONTINUOUS
 10
16.4613914948
 20
10.835264897
 11
16.5006072069
 21
10.9621669879
  0
LINE
  5
26E
100
AcDbEntity
  8
0
100
AcDbLine
 62
7
  6
CONTINUOUS
 10
13.5084810287
 20
14.2142130052
 11
18.3440512472
 21
14.2142130052
  0
LINE
  5
26F
100
AcDbEntity
  8
0
100
AcDbLine
 62
7
  6
CONTINUOUS
 10
17.2669561194
 20
10.8353773028
 11
17.2803374705
 21
10.9441459246
  0
LINE
  5
270
100
AcDbEntity
  8
0
100
AcDbLine
 62
7
  6
CONTINUOUS
 10
17.2660677335
 20
10.8311924653
 11
17.2669561194
 21
10.8353773028
  0
LINE
  5
271
100
AcDbEntity
  8
0
100
AcDbLine
 62
7
  6
CONTINUOUS
 10
17.2803374705
 20
10.9441459246
 11
17.2809410344
 21
10.9469323271
  0
LINE
  5
272
100
AcDbEntity
  8
0
100
AcDbLine
 62
7
  6
CONTINUOUS
 10
17.2673198645
 20
10.835264897
 11
17.3065355766
 21
10.9621669879
  0
LINE
  5
273
100
AcDbEntity
  8
0
100
AcDbLine
 62
7
  6
CONTINUOUS
 10
18.3440512472
 20
14.2142130052
 11
17.3757859536
 21
11.0809053667
  0
LINE
  5
274
100
AcDbEntity
  8
0
100
AcDbLine
 62
7
  6
CONTINUOUS
 10
18.4020092019
 20
14.0961071112
 11
17.4337439082
 21
10.9627994727
  0
LINE
  5
275
100
AcDbEntity
  8
0
100
AcDbLine
 62
7
  6
CONTINUOUS
 10
18.4020092019
 20
14.0961071112
 11
18.3440512472
 21
14.2142130052
  0
ARC
  5
276
100
AcDbEntity
  8
0
100
AcDbCircle
 62
7
  6
CONTINUOUS
 10
4.6967045258
 20
5.3730365634
 40
0.0729166667
100
AcDbArc
 50
202.5
 51
270.0
  0
ARC
  5
277
100
AcDbEntity
  8
0
100
AcDbCircle
 62
7
  6
CONTINUOUS
 10
4.9390300266
 20
5.3730365634
 40
0.0729166667
100
AcDbArc
 50
270.0
 51
337.5
  0
ARC
  5
278
100
AcDbEntity
  8
0
100
AcDbCircle
 62
7
  6
CONTINUOUS
 10
5.5717045258
 20
5.3730365634
 40
0.0729166667
100
AcDbArc
 50
202.5
 51
270.0
  0
ARC
  5
279
100
AcDbEntity
  8
0
100
AcDbCircle
 62
7
  6
CONTINUOUS
 10
5.8140300266
 20
5.3730365634
 40
0.0729166667
100
AcDbArc
 50
270.0
 51
337.5
  0
ARC
  5
27A
100
AcDbEntity
  8
0
100
AcDbCircle
 62
7
  6
CONTINUOUS
 10
6.4467045258
 20
5.3730365634
 40
0.0729166667
100
AcDbArc
 50
202.5
 51
270.0
  0
ARC
  5
27B
100
AcDbEntity
  8
0
100
AcDbCircle
 62
7
  6
CONTINUOUS
 10
6.6890300266
 20
5.3730365634
 40
0.0729166667
100
AcDbArc
 50
270.0
 51
337.5
  0
ARC
  5
27C
100
AcDbEntity
  8
0
100
AcDbCircle
 62
7
  6
CONTINUOUS
 10
4.0640300266
 20
5.3730365634
 40
0.0729166667
100
AcDbArc
 50
270.0
 51
337.5
  0
ARC
  5
27D
100
AcDbEntity
  8
0
100
AcDbCircle
 62
7
  6
CONTINUOUS
 10
3.8217045258
 20
5.3730365634
 40
0.0729166667
100
AcDbArc
 50
202.5
 51
270.0
  0
ARC
  5
27E
100
AcDbEntity
  8
0
100
AcDbCircle
 62
7
  6
CONTINUOUS
 10
8.4390300266
 20
5.3730365634
 40
0.0729166667
100
AcDbArc
 50
270.0
 51
337.5
  0
ARC
  5
27F
100
AcDbEntity
  8
0
100
AcDbCircle
 62
7
  6
CONTINUOUS
 10
8.1967045258
 20
5.3730365634
 40
0.0729166667
100
AcDbArc
 50
202.5
 51
270.0
  0
ARC
  5
280
100
AcDbEntity
  8
0
100
AcDbCircle
 62
7
  6
CONTINUOUS
 10
7.5640300266
 20
5.3730365634
 40
0.0729166667
100
AcDbArc
 50
270.0
 51
337.5
  0
ARC
  5
281
100
AcDbEntity
  8
0
100
AcDbCircle
 62
7
  6
CONTINUOUS
 10
7.3217045258
 20
5.3730365634
 40
0.0729166667
100
AcDbArc
 50
202.5
 51
270.0
  0
ARC
  5
282
100
AcDbEntity
  8
0
100
AcDbCircle
 62
7
  6
CONTINUOUS
 10
4.2487856822
 20
5.5015087856
 40
0.0486111111
100
AcDbArc
 50
90.0
 51
157.5
  0
ARC
  5
283
100
AcDbEntity
  8
0
100
AcDbCircle
 62
7
  6
CONTINUOUS
 10
3.6369488702
 20
5.5015087856
 40
0.0486111111
100
AcDbArc
 50
22.5
 51
90.0
  0
ARC
  5
284
100
AcDbEntity
  8
0
100
AcDbCircle
 62
7
  6
CONTINUOUS
 10
5.1237856822
 20
5.5015087856
 40
0.0486111111
100
AcDbArc
 50
90.0
 51
157.5
  0
ARC
  5
285
100
AcDbEntity
  8
0
100
AcDbCircle
 62
7
  6
CONTINUOUS
 10
4.5119488702
 20
5.5015087856
 40
0.0486111111
100
AcDbArc
 50
22.5
 51
90.0
  0
ARC
  5
286
100
AcDbEntity
  8
0
100
AcDbCircle
 62
7
  6
CONTINUOUS
 10
5.9987856822
 20
5.5015087856
 40
0.0486111111
100
AcDbArc
 50
90.0
 51
157.5
  0
ARC
  5
287
100
AcDbEntity
  8
0
100
AcDbCircle
 62
7
  6
CONTINUOUS
 10
5.3869488702
 20
5.5015087856
 40
0.0486111111
100
AcDbArc
 50
22.5
 51
90.0
  0
ARC
  5
288
100
AcDbEntity
  8
0
100
AcDbCircle
 62
7
  6
CONTINUOUS
 10
6.8737856822
 20
5.5015087856
 40
0.0486111111
100
AcDbArc
 50
90.0
 51
157.5
  0
ARC
  5
289
100
AcDbEntity
  8
0
100
AcDbCircle
 62
7
  6
CONTINUOUS
 10
6.2619488702
 20
5.5015087856
 40
0.0486111111
100
AcDbArc
 50
22.5
 51
90.0
  0
ARC
  5
28A
100
AcDbEntity
  8
0
100
AcDbCircle
 62
7
  6
CONTINUOUS
 10
7.7487856822
 20
5.5015087856
 40
0.0486111111
100
AcDbArc
 50
90.0
 51
157.5
  0
ARC
  5
28B
100
AcDbEntity
  8
0
100
AcDbCircle
 62
7
  6
CONTINUOUS
 10
7.1369488702
 20
5.5015087856
 40
0.0486111111
100
AcDbArc
 50
22.5
 51
90.0
  0
ARC
  5
28C
100
AcDbEntity
  8
0
100
AcDbCircle
 62
7
  6
CONTINUOUS
 10
8.6237856822
 20
5.5015087856
 40
0.0486111111
100
AcDbArc
 50
90.0
 51
157.5
  0
ARC
  5
28D
100
AcDbEntity
  8
0
100
AcDbCircle
 62
7
  6
CONTINUOUS
 10
8.0119488702
 20
5.5015087856
 40
0.0486111111
100
AcDbArc
 50
22.5
 51
90.0
  0
SPLINE
  5
28E
100
AcDbEntity
  8
0
100
AcDbSpline
 62
7
  6
CONTINUOUS
 70
0
 71
3
 72
11
 73
7
 74
0
 42
0.0000001
 43
0.0000001
 44
0.0000000001
 40
0.0
 40
0.0
 40
0.0
 40
0.0
 40
0.2342295193
 40
0.4753697506
 40
0.7291540377
 40
1.0
 40
1.0
 40
1.0
 40
1.0
 10
13.2512932719
 20
10.9469341558
 30
0.0
 10
13.2516285078
 20
10.9480167889
 30
0.0
 10
13.2525468964
 20
10.9501476483
 30
0.0
 10
13.2545976319
 20
10.9530466484
 30
0.0
 10
13.2572891922
 20
10.9556216395
 30
0.0
 10
13.2594006089
 20
10.9570523157
 30
0.0
 10
13.2605347858
 20
10.9577089039
 30
0.0
  0
SPLINE
  5
28F
100
AcDbEntity
  8
0
100
AcDbSpline
 62
7
  6
CONTINUOUS
 70
0
 71
3
 72
11
 73
7
 74
0
 42
0.0000001
 43
0.0000001
 44
0.0000000001
 40
0.0
 40
0.0
 40
0.0
 40
0.0
 40
0.2218851979
 40
0.4632397139
 40
0.7235716208
 40
1.0
 40
1.0
 40
1.0
 40
1.0
 10
13.2605347858
 20
10.9577089039
 30
0.0
 10
13.2620187156
 20
10.9585679681
 30
0.0
 10
13.2652858119
 20
10.9600768332
 30
0.0
 10
13.2706676096
 20
10.9616517509
 30
0.0
 10
13.2766197131
 20
10.9625975641
 30
0.0
 10
13.2807712402
 20
10.9627994727
 30
0.0
 10
13.2829073857
 20
10.9627994727
 30
0.0
  0
SPLINE
  5
290
100
AcDbEntity
  8
0
100
AcDbSpline
 62
7
  6
CONTINUOUS
 70
0
 71
3
 72
11
 73
7
 74
0
 42
0.0000001
 43
0.0000001
 44
0.0000000001
 40
0.0
 40
0.0
 40
0.0
 40
0.0
 40
0.2342295193
 40
0.4753697506
 40
0.7291540377
 40
1.0
 40
1.0
 40
1.0
 40
1.0
 10
14.0572216417
 20
10.9469341558
 30
0.0
 10
14.0575568775
 20
10.9480167889
 30
0.0
 10
14.0584752661
 20
10.9501476483
 30
0.0
 10
14.0605260017
 20
10.9530466484
 30
0.0
 10
14.063217562
 20
10.9556216395
 30
0.0
 10
14.0653289787
 20
10.9570523157
 30
0.0
 10
14.0664631555
 20
10.9577089039
 30
0.0
  0
SPLINE
  5
291
100
AcDbEntity
  8
0
100
AcDbSpline
 62
7
  6
CONTINUOUS
 70
0
 71
3
 72
11
 73
7
 74
0
 42
0.0000001
 43
0.0000001
 44
0.0000000001
 40
0.0
 40
0.0
 40
0.0
 40
0.0
 40
0.2218851979
 40
0.4632397139
 40
0.7235716208
 40
1.0
 40
1.0
 40
1.0
 40
1.0
 10
14.0664631555
 20
10.9577089039
 30
0.0
 10
14.0679470853
 20
10.9585679681
 30
0.0
 10
14.0712141816
 20
10.9600768332
 30
0.0
 10
14.0765959794
 20
10.9616517509
 30
0.0
 10
14.0825480829
 20
10.9625975641
 30
0.0
 10
14.0866996099
 20
10.9627994727
 30
0.0
 10
14.0888357555
 20
10.9627994727
 30
0.0
  0
SPLINE
  5
292
100
AcDbEntity
  8
0
100
AcDbSpline
 62
7
  6
CONTINUOUS
 70
0
 71
3
 72
11
 73
7
 74
0
 42
0.0000001
 43
0.0000001
 44
0.0000000001
 40
0.0
 40
0.0
 40
0.0
 40
0.0
 40
0.2342295193
 40
0.4753697506
 40
0.7291540377
 40
1.0
 40
1.0
 40
1.0
 40
1.0
 10
14.8631500114
 20
10.9469341558
 30
0.0
 10
14.8634852473
 20
10.9480167889
 30
0.0
 10
14.8644036359
 20
10.9501476483
 30
0.0
 10
14.8664543714
 20
10.9530466484
 30
0.0
 10
14.8691459317
 20
10.9556216395
 30
0.0
 10
14.8712573484
 20
10.9570523157
 30
0.0
 10
14.8723915253
 20
10.9577089039
 30
0.0
  0
SPLINE
  5
293
100
AcDbEntity
  8
0
100
AcDbSpline
 62
7
  6
CONTINUOUS
 70
0
 71
3
 72
11
 73
7
 74
0
 42
0.0000001
 43
0.0000001
 44
0.0000000001
 40
0.0
 40
0.0
 40
0.0
 40
0.0
 40
0.2218851979
 40
0.4632397139
 40
0.7235716208
 40
1.0
 40
1.0
 40
1.0
 40
1.0
 10
14.8723915253
 20
10.9577089039
 30
0.0
 10
14.8738754551
 20
10.9585679681
 30
0.0
 10
14.8771425514
 20
10.9600768332
 30
0.0
 10
14.8825243491
 20
10.9616517509
 30
0.0
 10
14.8884764526
 20
10.9625975641
 30
0.0
 10
14.8926279797
 20
10.9627994727
 30
0.0
 10
14.8947641252
 20
10.9627994727
 30
0.0
  0
SPLINE
  5
294
100
AcDbEntity
  8
0
100
AcDbSpline
 62
7
  6
CONTINUOUS
 70
0
 71
3
 72
11
 73
7
 74
0
 42
0.0000001
 43
0.0000001
 44
0.0000000001
 40
0.0
 40
0.0
 40
0.0
 40
0.0
 40
0.2342295193
 40
0.4753697506
 40
0.7291540377
 40
1.0
 40
1.0
 40
1.0
 40
1.0
 10
15.6690783812
 20
10.9469341558
 30
0.0
 10
15.669413617
 20
10.9480167889
 30
0.0
 10
15.6703320056
 20
10.9501476483
 30
0.0
 10
15.6723827412
 20
10.9530466484
 30
0.0
 10
15.6750743015
 20
10.9556216395
 30
0.0
 10
15.6771857182
 20
10.9570523157
 30
0.0
 10
15.678319895
 20
10.9577089039
 30
0.0
  0
SPLINE
  5
295
100
AcDbEntity
  8
0
100
AcDbSpline
 62
7
  6
CONTINUOUS
 70
0
 71
3
 72
11
 73
7
 74
0
 42
0.0000001
 43
0.0000001
 44
0.0000000001
 40
0.0
 40
0.0
 40
0.0
 40
0.0
 40
0.2218851979
 40
0.4632397139
 40
0.7235716208
 40
1.0
 40
1.0
 40
1.0
 40
1.0
 10
15.678319895
 20
10.9577089039
 30
0.0
 10
15.6798038248
 20
10.9585679681
 30
0.0
 10
15.6830709211
 20
10.9600768332
 30
0.0
 10
15.6884527189
 20
10.9616517509
 30
0.0
 10
15.6944048224
 20
10.9625975641
 30
0.0
 10
15.6985563494
 20
10.9627994727
 30
0.0
 10
15.700692495
 20
10.9627994727
 30
0.0
  0
SPLINE
  5
296
100
AcDbEntity
  8
0
100
AcDbSpline
 62
7
  6
CONTINUOUS
 70
0
 71
3
 72
11
 73
7
 74
0
 42
0.0000001
 43
0.0000001
 44
0.0000000001
 40
0.0
 40
0.0
 40
0.0
 40
0.0
 40
0.2342295193
 40
0.4753697506
 40
0.7291540377
 40
1.0
 40
1.0
 40
1.0
 40
1.0
 10
16.4750067509
 20
10.9469341558
 30
0.0
 10
16.4753419868
 20
10.9480167889
 30
0.0
 10
16.4762603754
 20
10.9501476483
 30
0.0
 10
16.4783111109
 20
10.9530466484
 30
0.0
 10
16.4810026712
 20
10.9556216395
 30
0.0
 10
16.4831140879
 20
10.9570523157
 30
0.0
 10
16.4842482648
 20
10.9577089039
 30
0.0
  0
SPLINE
  5
297
100
AcDbEntity
  8
0
100
AcDbSpline
 62
7
  6
CONTINUOUS
 70
0
 71
3
 72
11
 73
7
 74
0
 42
0.0000001
 43
0.0000001
 44
0.0000000001
 40
0.0
 40
0.0
 40
0.0
 40
0.0
 40
0.2218851979
 40
0.4632397139
 40
0.7235716208
 40
1.0
 40
1.0
 40
1.0
 40
1.0
 10
16.4842482648
 20
10.9577089039
 30
0.0
 10
16.4857321946
 20
10.9585679681
 30
0.0
 10
16.4889992909
 20
10.9600768332
 30
0.0
 10
16.4943810886
 20
10.9616517509
 30
0.0
 10
16.5003331921
 20
10.9625975641
 30
0.0
 10
16.5044847192
 20
10.9627994727
 30
0.0
 10
16.5066208647
 20
10.9627994727
 30
0.0
  0
SPLINE
  5
298
100
AcDbEntity
  8
0
100
AcDbSpline
 62
7
  6
CONTINUOUS
 70
0
 71
3
 72
11
 73
7
 74
0
 42
0.0000001
 43
0.0000001
 44
0.0000000001
 40
0.0
 40
0.0
 40
0.0
 40
0.0
 40
0.2342295193
 40
0.4753697506
 40
0.7291540377
 40
1.0
 40
1.0
 40
1.0
 40
1.0
 10
17.2809351207
 20
10.9469341558
 30
0.0
 10
17.2812703565
 20
10.9480167889
 30
0.0
 10
17.2821887451
 20
10.9501476483
 30
0.0
 10
17.2842394807
 20
10.9530466484
 30
0.0
 10
17.286931041
 20
10.9556216395
 30
0.0
 10
17.2890424577
 20
10.9570523157
 30
0.0
 10
17.2901766345
 20
10.9577089039
 30
0.0
  0
SPLINE
  5
299
100
AcDbEntity
  8
0
100
AcDbSpline
 62
7
  6
CONTINUOUS
 70
0
 71
3
 72
11
 73
7
 74
0
 42
0.0000001
 43
0.0000001
 44
0.0000000001
 40
0.0
 40
0.0
 40
0.0
 40
0.0
 40
0.2218851979
 40
0.4632397139
 40
0.7235716208
 40
1.0
 40
1.0
 40
1.0
 40
1.0
 10
17.2901766345
 20
10.9577089039
 30
0.0
 10
17.2916605643
 20
10.9585679681
 30
0.0
 10
17.2949276606
 20
10.9600768332
 30
0.0
 10
17.3003094584
 20
10.9616517509
 30
0.0
 10
17.3062615619
 20
10.9625975641
 30
0.0
 10
17.3104130889
 20
10.9627994727
 30
0.0
 10
17.3125492345
 20
10.9627994727
 30
0.0
  0
SPLINE
  5
29A
100
AcDbEntity
  8
0
100
AcDbSpline
 62
7
  6
CONTINUOUS
 70
0
 71
3
 72
15
 73
11
 74
0
 42
0.0000001
 43
0.0000001
 44
0.0000000001
 40
0.0
 40
0.0
 40
0.0
 40
0.0
 40
0.1557506591
 40
0.3032139848
 40
0.4410976694
 40
0.5690411043
 40
0.6873382348
 40
0.7970485142
 40
0.900275406
 40
1.0
 40
1.0
 40
1.0
 40
1.0
 10
13.1889966246
 20
10.8073969806
 30
0.0
 10
13.191932322
 20
10.8073969806
 30
0.0
 10
13.1976518309
 20
10.8076504634
 30
0.0
 10
13.2058952564
 20
10.8088410483
 30
0.0
 10
13.2134491022
 20
10.8108211567
 30
0.0
 10
13.2201776677
 20
10.8135577629
 30
0.0
 10
13.2259655349
 20
10.8170099199
 30
0.0
 10
13.2307045804
 20
10.8211339249
 30
0.0
 10
13.2342928471
 20
10.82586543
 30
0.0
 10
13.2358636726
 20
10.8293988192
 30
0.0
 10
13.2364189476
 20
10.8311946094
 30
0.0
  0
SPLINE
  5
29B
100
AcDbEntity
  8
0
100
AcDbSpline
 62
7
  6
CONTINUOUS
 70
0
 71
3
 72
15
 73
11
 74
0
 42
0.0000001
 43
0.0000001
 44
0.0000000001
 40
0.0
 40
0.0
 40
0.0
 40
0.0
 40
0.1148729046
 40
0.236077787
 40
0.3619570581
 40
0.4908829354
 40
0.6210134296
 40
0.7504589706
 40
0.8774376895
 40
1.0
 40
1.0
 40
1.0
 40
1.0
 10
12.8900209164
 20
10.8353773028
 30
0.0
 10
12.892360601
 20
10.8332589505
 30
0.0
 10
12.8974296429
 20
10.8291878899
 30
0.0
 10
12.9057841289
 20
10.8237667486
 30
0.0
 10
12.9149471832
 20
10.8189643302
 30
0.0
 10
12.9247186333
 20
10.8148842705
 30
0.0
 10
12.934891154
 20
10.811609214
 30
0.0
 10
12.9452511806
 20
10.8092117097
 30
0.0
 10
12.9555728997
 20
10.8077449372
 30
0.0
 10
12.9624325969
 20
10.8073969806
 30
0.0
 10
12.965800058
 20
10.8073969806
 30
0.0
  0
SPLINE
  5
29C
100
AcDbEntity
  8
0
100
AcDbSpline
 62
7
  6
CONTINUOUS
 70
0
 71
3
 72
15
 73
11
 74
0
 42
0.0000001
 43
0.0000001
 44
0.0000000001
 40
0.0
 40
0.0
 40
0.0
 40
0.0
 40
0.1557506591
 40
0.3032139848
 40
0.4410976694
 40
0.5690411043
 40
0.6873382348
 40
0.7970485142
 40
0.900275406
 40
1.0
 40
1.0
 40
1.0
 40
1.0
 10
17.2186384733
 20
10.8073969806
 30
0.0
 10
17.2215741708
 20
10.8073969806
 30
0.0
 10
17.2272936797
 20
10.8076504634
 30
0.0
 10
17.2355371052
 20
10.8088410483
 30
0.0
 10
17.2430909509
 20
10.8108211567
 30
0.0
 10
17.2498195164
 20
10.8135577629
 30
0.0
 10
17.2556073837
 20
10.8170099199
 30
0.0
 10
17.2603464292
 20
10.8211339249
 30
0.0
 10
17.2639346959
 20
10.82586543
 30
0.0
 10
17.2655055214
 20
10.8293988192
 30
0.0
 10
17.2660607964
 20
10.8311946094
 30
0.0
  0
SPLINE
  5
29D
100
AcDbEntity
  8
0
100
AcDbSpline
 62
7
  6
CONTINUOUS
 70
0
 71
3
 72
15
 73
11
 74
0
 42
0.0000001
 43
0.0000001
 44
0.0000000001
 40
0.0
 40
0.0
 40
0.0
 40
0.0
 40
0.1148729046
 40
0.236077787
 40
0.3619570581
 40
0.4908829354
 40
0.6210134296
 40
0.7504589706
 40
0.8774376895
 40
1.0
 40
1.0
 40
1.0
 40
1.0
 10
16.9196627652
 20
10.8353773028
 30
0.0
 10
16.9220024498
 20
10.8332589505
 30
0.0
 10
16.9270714917
 20
10.8291878899
 30
0.0
 10
16.9354259777
 20
10.8237667486
 30
0.0
 10
16.944589032
 20
10.8189643302
 30
0.0
 10
16.954360482
 20
10.8148842705
 30
0.0
 10
16.9645330028
 20
10.811609214
 30
0.0
 10
16.9748930294
 20
10.8092117097
 30
0.0
 10
16.9852147485
 20
10.8077449372
 30
0.0
 10
16.9920744456
 20
10.8073969806
 30
0.0
 10
16.9954419067
 20
10.8073969806
 30
0.0
  0
SPLINE
  5
29E
100
AcDbEntity
  8
0
100
AcDbSpline
 62
7
  6
CONTINUOUS
 70
0
 71
3
 72
15
 73
11
 74
0
 42
0.0000001
 43
0.0000001
 44
0.0000000001
 40
0.0
 40
0.0
 40
0.0
 40
0.0
 40
0.1557506591
 40
0.3032139848
 40
0.4410976694
 40
0.5690411043
 40
0.6873382348
 40
0.7970485142
 40
0.900275406
 40
1.0
 40
1.0
 40
1.0
 40
1.0
 10
16.4127101036
 20
10.8073969806
 30
0.0
 10
16.415645801
 20
10.8073969806
 30
0.0
 10
16.4213653099
 20
10.8076504634
 30
0.0
 10
16.4296087355
 20
10.8088410483
 30
0.0
 10
16.4371625812
 20
10.8108211567
 30
0.0
 10
16.4438911467
 20
10.8135577629
 30
0.0
 10
16.4496790139
 20
10.8170099199
 30
0.0
 10
16.4544180594
 20
10.8211339249
 30
0.0
 10
16.4580063262
 20
10.82586543
 30
0.0
 10
16.4595771516
 20
10.8293988192
 30
0.0
 10
16.4601324266
 20
10.8311946094
 30
0.0
  0
SPLINE
  5
29F
100
AcDbEntity
  8
0
100
AcDbSpline
 62
7
  6
CONTINUOUS
 70
0
 71
3
 72
15
 73
11
 74
0
 42
0.0000001
 43
0.0000001
 44
0.0000000001
 40
0.0
 40
0.0
 40
0.0
 40
0.0
 40
0.1148729046
 40
0.236077787
 40
0.3619570581
 40
0.4908829354
 40
0.6210134296
 40
0.7504589706
 40
0.8774376895
 40
1.0
 40
1.0
 40
1.0
 40
1.0
 10
16.1137343954
 20
10.8353773028
 30
0.0
 10
16.11607408
 20
10.8332589505
 30
0.0
 10
16.1211431219
 20
10.8291878899
 30
0.0
 10
16.129497608
 20
10.8237667486
 30
0.0
 10
16.1386606622
 20
10.8189643302
 30
0.0
 10
16.1484321123
 20
10.8148842705
 30
0.0
 10
16.1586046331
 20
10.811609214
 30
0.0
 10
16.1689646596
 20
10.8092117097
 30
0.0
 10
16.1792863788
 20
10.8077449372
 30
0.0
 10
16.1861460759
 20
10.8073969806
 30
0.0
 10
16.189513537
 20
10.8073969806
 30
0.0
  0
SPLINE
  5
2A0
100
AcDbEntity
  8
0
100
AcDbSpline
 62
7
  6
CONTINUOUS
 70
0
 71
3
 72
15
 73
11
 74
0
 42
0.0000001
 43
0.0000001
 44
0.0000000001
 40
0.0
 40
0.0
 40
0.0
 40
0.0
 40
0.1557506591
 40
0.3032139848
 40
0.4410976694
 40
0.5690411043
 40
0.6873382348
 40
0.7970485142
 40
0.900275406
 40
1.0
 40
1.0
 40
1.0
 40
1.0
 10
15.6067817338
 20
10.8073969806
 30
0.0
 10
15.6097174313
 20
10.8073969806
 30
0.0
 10
15.6154369402
 20
10.8076504634
 30
0.0
 10
15.6236803657
 20
10.8088410483
 30
0.0
 10
15.6312342114
 20
10.8108211567
 30
0.0
 10
15.6379627769
 20
10.8135577629
 30
0.0
 10
15.6437506442
 20
10.8170099199
 30
0.0
 10
15.6484896897
 20
10.8211339249
 30
0.0
 10
15.6520779564
 20
10.82586543
 30
0.0
 10
15.6536487819
 20
10.8293988192
 30
0.0
 10
15.6542040569
 20
10.8311946094
 30
0.0
  0
SPLINE
  5
2A1
100
AcDbEntity
  8
0
100
AcDbSpline
 62
7
  6
CONTINUOUS
 70
0
 71
3
 72
15
 73
11
 74
0
 42
0.0000001
 43
0.0000001
 44
0.0000000001
 40
0.0
 40
0.0
 40
0.0
 40
0.0
 40
0.1148729046
 40
0.236077787
 40
0.3619570581
 40
0.4908829354
 40
0.6210134296
 40
0.7504589706
 40
0.8774376895
 40
1.0
 40
1.0
 40
1.0
 40
1.0
 10
15.3078060256
 20
10.8353773028
 30
0.0
 10
15.3101457103
 20
10.8332589505
 30
0.0
 10
15.3152147522
 20
10.8291878899
 30
0.0
 10
15.3235692382
 20
10.8237667486
 30
0.0
 10
15.3327322925
 20
10.8189643302
 30
0.0
 10
15.3425037425
 20
10.8148842705
 30
0.0
 10
15.3526762633
 20
10.811609214
 30
0.0
 10
15.3630362899
 20
10.8092117097
 30
0.0
 10
15.373358009
 20
10.8077449372
 30
0.0
 10
15.3802177061
 20
10.8073969806
 30
0.0
 10
15.3835851672
 20
10.8073969806
 30
0.0
  0
SPLINE
  5
2A2
100
AcDbEntity
  8
0
100
AcDbSpline
 62
7
  6
CONTINUOUS
 70
0
 71
3
 72
15
 73
11
 74
0
 42
0.0000001
 43
0.0000001
 44
0.0000000001
 40
0.0
 40
0.0
 40
0.0
 40
0.0
 40
0.1557506591
 40
0.3032139848
 40
0.4410976694
 40
0.5690411043
 40
0.6873382348
 40
0.7970485142
 40
0.900275406
 40
1.0
 40
1.0
 40
1.0
 40
1.0
 10
14.8008533641
 20
10.8073969806
 30
0.0
 10
14.8037890615
 20
10.8073969806
 30
0.0
 10
14.8095085704
 20
10.8076504634
 30
0.0
 10
14.817751996
 20
10.8088410483
 30
0.0
 10
14.8253058417
 20
10.8108211567
 30
0.0
 10
14.8320344072
 20
10.8135577629
 30
0.0
 10
14.8378222744
 20
10.8170099199
 30
0.0
 10
14.8425613199
 20
10.8211339249
 30
0.0
 10
14.8461495867
 20
10.82586543
 30
0.0
 10
14.8477204121
 20
10.8293988192
 30
0.0
 10
14.8482756871
 20
10.8311946094
 30
0.0
  0
SPLINE
  5
2A3
100
AcDbEntity
  8
0
100
AcDbSpline
 62
7
  6
CONTINUOUS
 70
0
 71
3
 72
15
 73
11
 74
0
 42
0.0000001
 43
0.0000001
 44
0.0000000001
 40
0.0
 40
0.0
 40
0.0
 40
0.0
 40
0.1148729046
 40
0.236077787
 40
0.3619570581
 40
0.4908829354
 40
0.6210134296
 40
0.7504589706
 40
0.8774376895
 40
1.0
 40
1.0
 40
1.0
 40
1.0
 10
14.5018776559
 20
10.8353773028
 30
0.0
 10
14.5042173405
 20
10.8332589505
 30
0.0
 10
14.5092863824
 20
10.8291878899
 30
0.0
 10
14.5176408684
 20
10.8237667486
 30
0.0
 10
14.5268039227
 20
10.8189643302
 30
0.0
 10
14.5365753728
 20
10.8148842705
 30
0.0
 10
14.5467478935
 20
10.811609214
 30
0.0
 10
14.5571079201
 20
10.8092117097
 30
0.0
 10
14.5674296393
 20
10.8077449372
 30
0.0
 10
14.5742893364
 20
10.8073969806
 30
0.0
 10
14.5776567975
 20
10.8073969806
 30
0.0
  0
SPLINE
  5
2A4
100
AcDbEntity
  8
0
100
AcDbSpline
 62
7
  6
CONTINUOUS
 70
0
 71
3
 72
15
 73
11
 74
0
 42
0.0000001
 43
0.0000001
 44
0.0000000001
 40
0.0
 40
0.0
 40
0.0
 40
0.0
 40
0.1557506591
 40
0.3032139848
 40
0.4410976694
 40
0.5690411043
 40
0.6873382348
 40
0.7970485142
 40
0.900275406
 40
1.0
 40
1.0
 40
1.0
 40
1.0
 10
13.9949249943
 20
10.8073969806
 30
0.0
 10
13.9978606918
 20
10.8073969806
 30
0.0
 10
14.0035802007
 20
10.8076504634
 30
0.0
 10
14.0118236262
 20
10.8088410483
 30
0.0
 10
14.0193774719
 20
10.8108211567
 30
0.0
 10
14.0261060374
 20
10.8135577629
 30
0.0
 10
14.0318939047
 20
10.8170099199
 30
0.0
 10
14.0366329502
 20
10.8211339249
 30
0.0
 10
14.0402212169
 20
10.82586543
 30
0.0
 10
14.0417920424
 20
10.8293988192
 30
0.0
 10
14.0423473174
 20
10.8311946094
 30
0.0
  0
SPLINE
  5
2A5
100
AcDbEntity
  8
0
100
AcDbSpline
 62
7
  6
CONTINUOUS
 70
0
 71
3
 72
15
 73
11
 74
0
 42
0.0000001
 43
0.0000001
 44
0.0000000001
 40
0.0
 40
0.0
 40
0.0
 40
0.0
 40
0.1148729046
 40
0.236077787
 40
0.3619570581
 40
0.4908829354
 40
0.6210134296
 40
0.7504589706
 40
0.8774376895
 40
1.0
 40
1.0
 40
1.0
 40
1.0
 10
13.6959492861
 20
10.8353773028
 30
0.0
 10
13.6982889708
 20
10.8332589505
 30
0.0
 10
13.7033580127
 20
10.8291878899
 30
0.0
 10
13.7117124987
 20
10.8237667486
 30
0.0
 10
13.7208755529
 20
10.8189643302
 30
0.0
 10
13.730647003
 20
10.8148842705
 30
0.0
 10
13.7408195238
 20
10.811609214
 30
0.0
 10
13.7511795504
 20
10.8092117097
 30
0.0
 10
13.7615012695
 20
10.8077449372
 30
0.0
 10
13.7683609666
 20
10.8073969806
 30
0.0
 10
13.7717284277
 20
10.8073969806
 30
0.0
  0
SPLINE
  5
2A6
100
AcDbEntity
  8
0
100
AcDbSpline
 62
7
  6
CONTINUOUS
 70
0
 71
3
 72
15
 73
11
 74
0
 42
0.0000001
 43
0.0000001
 44
0.0000000001
 40
0.0
 40
0.0
 40
0.0
 40
0.0
 40
0.1224860424
 40
0.2495263029
 40
0.3790244286
 40
0.5091196924
 40
0.6380064175
 40
0.7639350873
 40
0.8851956885
 40
1.0
 40
1.0
 40
1.0
 40
1.0
 10
12.7193683635
 20
10.9627994727
 30
0.0
 10
12.7216119335
 20
10.9627994727
 30
0.0
 10
12.7261846734
 20
10.9625662576
 30
0.0
 10
12.7330667832
 20
10.9615904099
 30
0.0
 10
12.7399745597
 20
10.9599904165
 30
0.0
 10
12.7467563601
 20
10.957808784
 30
0.0
 10
12.7532695614
 20
10.9550873773
 30
0.0
 10
12.759379982
 20
10.9518864251
 30
0.0
 10
12.7649489574
 20
10.9482701074
 30
0.0
 10
12.7683289377
 20
10.9455573117
 30
0.0
 10
12.7698877912
 20
10.9441459246
 30
0.0
  0
SPLINE
  5
2A7
100
AcDbEntity
  8
0
100
AcDbSpline
 62
7
  6
CONTINUOUS
 70
0
 71
3
 72
15
 73
11
 74
0
 42
0.0000001
 43
0.0000001
 44
0.0000000001
 40
0.0
 40
0.0
 40
0.0
 40
0.0
 40
0.1224860424
 40
0.2495263029
 40
0.3790244286
 40
0.5091196924
 40
0.6380064175
 40
0.7639350873
 40
0.8851956885
 40
1.0
 40
1.0
 40
1.0
 40
1.0
 10
13.5252967332
 20
10.9627994727
 30
0.0
 10
13.5275403033
 20
10.9627994727
 30
0.0
 10
13.5321130432
 20
10.9625662576
 30
0.0
 10
13.5389951529
 20
10.9615904099
 30
0.0
 10
13.5459029294
 20
10.9599904165
 30
0.0
 10
13.5526847298
 20
10.957808784
 30
0.0
 10
13.5591979311
 20
10.9550873773
 30
0.0
 10
13.5653083518
 20
10.9518864251
 30
0.0
 10
13.5708773272
 20
10.9482701074
 30
0.0
 10
13.5742573075
 20
10.9455573117
 30
0.0
 10
13.575816161
 20
10.9441459246
 30
0.0
  0
SPLINE
  5
2A8
100
AcDbEntity
  8
0
100
AcDbSpline
 62
7
  6
CONTINUOUS
 70
0
 71
3
 72
15
 73
11
 74
0
 42
0.0000001
 43
0.0000001
 44
0.0000000001
 40
0.0
 40
0.0
 40
0.0
 40
0.0
 40
0.1224860424
 40
0.2495263029
 40
0.3790244286
 40
0.5091196924
 40
0.6380064175
 40
0.7639350873
 40
0.8851956885
 40
1.0
 40
1.0
 40
1.0
 40
1.0
 10
14.331225103
 20
10.9627994727
 30
0.0
 10
14.333468673
 20
10.9627994727
 30
0.0
 10
14.3380414129
 20
10.9625662576
 30
0.0
 10
14.3449235227
 20
10.9615904099
 30
0.0
 10
14.3518312992
 20
10.9599904165
 30
0.0
 10
14.3586130996
 20
10.957808784
 30
0.0
 10
14.3651263009
 20
10.9550873773
 30
0.0
 10
14.3712367216
 20
10.9518864251
 30
0.0
 10
14.3768056969
 20
10.9482701074
 30
0.0
 10
14.3801856772
 20
10.9455573117
 30
0.0
 10
14.3817445307
 20
10.9441459246
 30
0.0
  0
SPLINE
  5
2A9
100
AcDbEntity
  8
0
100
AcDbSpline
 62
7
  6
CONTINUOUS
 70
0
 71
3
 72
15
 73
11
 74
0
 42
0.0000001
 43
0.0000001
 44
0.0000000001
 40
0.0
 40
0.0
 40
0.0
 40
0.0
 40
0.1224860424
 40
0.2495263029
 40
0.3790244286
 40
0.5091196924
 40
0.6380064175
 40
0.7639350873
 40
0.8851956885
 40
1.0
 40
1.0
 40
1.0
 40
1.0
 10
15.1371534727
 20
10.9627994727
 30
0.0
 10
15.1393970428
 20
10.9627994727
 30
0.0
 10
15.1439697827
 20
10.9625662576
 30
0.0
 10
15.1508518924
 20
10.9615904099
 30
0.0
 10
15.1577596689
 20
10.9599904165
 30
0.0
 10
15.1645414693
 20
10.957808784
 30
0.0
 10
15.1710546706
 20
10.9550873773
 30
0.0
 10
15.1771650913
 20
10.9518864251
 30
0.0
 10
15.1827340667
 20
10.9482701074
 30
0.0
 10
15.186114047
 20
10.9455573117
 30
0.0
 10
15.1876729005
 20
10.9441459246
 30
0.0
  0
SPLINE
  5
2AA
100
AcDbEntity
  8
0
100
AcDbSpline
 62
7
  6
CONTINUOUS
 70
0
 71
3
 72
15
 73
11
 74
0
 42
0.0000001
 43
0.0000001
 44
0.0000000001
 40
0.0
 40
0.0
 40
0.0
 40
0.0
 40
0.1224860424
 40
0.2495263029
 40
0.3790244286
 40
0.5091196924
 40
0.6380064175
 40
0.7639350873
 40
0.8851956885
 40
1.0
 40
1.0
 40
1.0
 40
1.0
 10
15.9430818425
 20
10.9627994727
 30
0.0
 10
15.9453254125
 20
10.9627994727
 30
0.0
 10
15.9498981524
 20
10.9625662576
 30
0.0
 10
15.9567802622
 20
10.9615904099
 30
0.0
 10
15.9636880387
 20
10.9599904165
 30
0.0
 10
15.9704698391
 20
10.957808784
 30
0.0
 10
15.9769830404
 20
10.9550873773
 30
0.0
 10
15.9830934611
 20
10.9518864251
 30
0.0
 10
15.9886624364
 20
10.9482701074
 30
0.0
 10
15.9920424167
 20
10.9455573117
 30
0.0
 10
15.9936012702
 20
10.9441459246
 30
0.0
  0
SPLINE
  5
2AB
100
AcDbEntity
  8
0
100
AcDbSpline
 62
7
  6
CONTINUOUS
 70
0
 71
3
 72
15
 73
11
 74
0
 42
0.0000001
 43
0.0000001
 44
0.0000000001
 40
0.0
 40
0.0
 40
0.0
 40
0.0
 40
0.1224860424
 40
0.2495263029
 40
0.3790244286
 40
0.5091196924
 40
0.6380064175
 40
0.7639350873
 40
0.8851956885
 40
1.0
 40
1.0
 40
1.0
 40
1.0
 10
16.7490102122
 20
10.9627994727
 30
0.0
 10
16.7512537823
 20
10.9627994727
 30
0.0
 10
16.7558265222
 20
10.9625662576
 30
0.0
 10
16.7627086319
 20
10.9615904099
 30
0.0
 10
16.7696164084
 20
10.9599904165
 30
0.0
 10
16.7763982088
 20
10.957808784
 30
0.0
 10
16.7829114102
 20
10.9550873773
 30
0.0
 10
16.7890218308
 20
10.9518864251
 30
0.0
 10
16.7945908062
 20
10.9482701074
 30
0.0
 10
16.7979707865
 20
10.9455573117
 30
0.0
 10
16.79952964
 20
10.9441459246
 30
0.0
  0
ENDSEC
  0
SECTION
  2
OBJECTS
  0
DICTIONARY
  5
C
100
AcDbDictionary
280
0
281
1
  3
ACAD_GROUP
350
D
  3
ACAD_MLINESTYLE
350
17
  3
ACAD_LAYOUT
350
1A
  3
ACAD_PLOTSETTINGS
350
19
  3
ACAD_PLOTSTYLENAME
350
E
  0
DICTIONARY
  5
D
102
{ACAD_REACTORS
330
C
102
}
100
AcDbDictionary
280
0
281
1
  0
ACDBDICTIONARYWDFLT
  5
E
102
{ACAD_REACTORS
330
C
102
}
100
AcDbDictionary
281
1
  3
Normal
350
F
100
AcDbDictionaryWithDefault
340
F
  0
DICTIONARY
  5
17
102
{ACAD_REACTORS
330
C
102
}
100
AcDbDictionary
280
0
281
1
  3
Standard
350
18
  0
DICTIONARY
  5
19
102
{ACAD_REACTORS
330
C
102
}
100
AcDbDictionary
281
1
  0
DICTIONARY
  5
1A
102
{ACAD_REACTORS
330
C
102
}
100
AcDbDictionary
281
1
  3
Model
350
2AC
  3
Layout1
350
2AD
  0
ACDBPLACEHOLDER
  5
F
102
{ACAD_REACTORS
330
E
102
}
  0
MLINESTYLE
  5
18
102
{ACAD_REACTORS
330
17
102
}
100
AcDbMlineStyle
  2
STANDARD
 70
0
  3

 62
256
 51
90.0
 52
90.0
 71
2
 49
0.5
 62
256
  6
BYLAYER
 49
-0.5
 62
256
  6
BYLAYER
  0
LAYOUT
  5
2AC
102
{ACAD_REACTORS
330
1A
102
}
100
AcDbPlotSettings
  1

  2
none_device
  4
ANSI_C_(22.00_x_17.00_Inches)
  6

 40
0.0
 41
0.0
 42
0.0
 43
0.0
 44
558.8
 45
431.8
 46
0.0
 47
0.0
 48
0.0
 49
0.0
140
0.0
141
0.0
142
1.0
143
1.0
 70
1024
 72
0
 73
0
 74
0
  7

 75
0
147
1.0
148
0.0
149
0.0
100
AcDbLayout
  1
Model
 70
0
 71
0
 10
0.0
 20
0.0
 11
22.0
 21
17.0
 12
0.0
 22
0.0
 32
0.0
 14
0.0
 24
0.0
 34
0.0
 15
0.0
 25
0.0
 35
0.0
146
0.0
 13
0.0
 23
0.0
 33
0.0
 16
1.0
 26
0.0
 36
0.0
 17
0.0
 27
1.0
 37
0.0
 76
0
330
216
345
0
346
0
  0
LAYOUT
  5
2AD
102
{ACAD_REACTORS
330
1A
102
}
100
AcDbPlotSettings
  1

  2
none_device
  4
ANSI_C_(22.00_x_17.00_Inches)
  6

 40
0.0
 41
0.0
 42
0.0
 43
0.0
 44
558.8
 45
431.8
 46
0.0
 47
0.0
 48
0.0
 49
0.0
140
0.0
141
0.0
142
1.0
143
1.0
 70
0
 72
0
 73
0
 74
0
  7

 75
0
147
1.0
148
0.0
149
0.0
100
AcDbLayout
  1
Layout1
 70
0
 71
1
 10
0.0
 20
0.0
 11
22.0
 21
17.0
 12
0.0
 22
0.0
 32
0.0
 14
0.0
 24
0.0
 34
0.0
 15
0.0
 25
0.0
 35
0.0
146
0.0
 13
0.0
 23
0.0
 33
0.0
 16
1.0
 26
0.0
 36
0.0
 17
0.0
 27
1.0
 37
0.0
 76
0
330
217
345
0
346
0
  0
ENDSEC
  0
EOF