999
DXF file: _cgs_temp_output.dxf
999
Pro/ENGINEER 2016360 by Parametric Technology Corporation
  0
SECTION
  2
HEADER
  9
$ACADVER
  1
AC1021
  9
$DWGCODEPAGE
  3
ANSI_1252
  9
$EXTMAX
 10
22.0
 20
17.0
 30
0.0
  9
$EXTMIN
 10
0.0
 20
0.0
 30
0.0
  9
$LIMMIN
 10
0.0
 20
0.0
  9
$LIMMAX
 10
22.0
 20
17.0
  9
$VIEWCTR
 10
11.0
 20
8.5
  9
$VIEWSIZE
 40
17.0
  9
$CLAYER
  8
0
  9
$LTSCALE
 40
1.21
  9
$CELTYPE
  6
BYLAYER
  9
$DIMSCALE
 40
1.0
  9
$DIMASZ
 40
0.1875
  9
$DIMEXO
 40
0.0625
  9
$DIMDLI
 40
0.836
  9
$DIMEXE
 40
0.125
  9
$DIMCEN
 40
0.198
  9
$DIMLFAC
 40
1.0
  9
$DIMBLK
  1
_CLOSED
  9
$DIMALT
 70
0
  9
$DIMALTF
 40
25.4
  9
$DIMTXT
 40
0.15625
  9
$DIMTOL
 70
0
  9
$DIMLIM
 70
0
  9
$DIMTFAC
 40
1.0
  9
$DIMGAP
 40
0.09
  9
$DIMDSEP
 70
46
  9
$AUNITS
 70
0
  9
$PDMODE
 70
3
  9
$PDSIZE
 40
0.3125
  9
$HANDSEED
  5
2AE
  9
$TILEMODE
 70
1
  9
$MEASUREMENT
 70
0
  9
$INSUNITS
 70
1
  0
ENDSEC
  0
SECTION
  2
CLASSES
  0
CLASS
  1
ACDBDICTIONARYWDFLT
  2
AcDbDictionaryWithDefault
  3
AutoCAD 2000
 90
0
 91
1
280
0
281
0
  0
CLASS
  1
ACDBPLACEHOLDER
  2
AcDbPlaceHolder
  3
AutoCAD 2000
 90
0
 91
1
280
0
281
0
  0
CLASS
  1
LAYOUT
  2
AcDbLayout
  3
AutoCAD 2000
 90
0
 91
0
280
0
281
0
  0
ENDSEC
  0
SECTION
  2
TABLES
  0
TABLE
  2
VPORT
  5
8
100
AcDbSymbolTable
 70
2
  0
VPORT
  5
1F4
100
AcDbSymbolTableRecord
100
AcDbViewportTableRecord
  2
*ACTIVE
 70
0
 10
0.0
 20
0.0
 11
1.0
 21
1.0
 12
11.0
 22
8.5
 13
0.0
 23
0.0
 14
1.0
 24
1.0
 15
0.0
 25
0.0
 16
0.0
 26
0.0
 36
1.0
 17
0.0
 27
0.0
 37
0.0
 40
17.0
 41
1.2941176471
 42
50.0
 43
0.0
 44
0.0
 50
0.0
 51
0.0
 71
0
 72
100
 73
1
 74
1
 75
0
 76
0
 77
0
 78
0
  0
ENDTAB
  0
TABLE
  2
LTYPE
  5
5
100
AcDbSymbolTable
 70
6
  0
LTYPE
  5
14
100
AcDbSymbolTableRecord
100
AcDbLinetypeTableRecord
  2
BYBLOCK
 70
0
  3

 72
65
 73
0
 40
0.0
  0
LTYPE
  5
15
100
AcDbSymbolTableRecord
100
AcDbLinetypeTableRecord
  2
BYLAYER
 70
0
  3

 72
65
 73
0
 40
0.0
  0
LTYPE
  5
16
100
AcDbSymbolTableRecord
100
AcDbLinetypeTableRecord
  2
CONTINUOUS
 70
64
  3
Solid line
 72
65
 73
0
 40
0.0
  0
LTYPE
  5
1F5
100
AcDbSymbolTableRecord
100
AcDbLinetypeTableRecord
  2
CENTER
 70
64
  3
____ _ ____ _ ____ _ ____ _ ____ _ ____ _ ____
 72
65
 73
4
 40
0.6
 49
0.375
 74
0
 49
-0.075
 74
0
 49
0.075
 74
0
 49
-0.075
 74
0
  0
LTYPE
  5
1F6
100
AcDbSymbolTableRecord
100
AcDbLinetypeTableRecord
  2
HIDDEN
 70
64
  3
- - - - - - - - - - - - - - - - - - - -
 72
65
 73
2
 40
0.2
 49
0.1
 74
0
 49
-0.1
 74
0
  0
LTYPE
  5
1F7
100
AcDbSymbolTableRecord
100
AcDbLinetypeTableRecord
  2
PHANTOM
 70
64
  3
_____ _ _ _____ _ _ _____ _ _ _____
 72
65
 73
6
 40
0.8
 49
0.45
 74
0
 49
-0.05
 74
0
 49
0.1
 74
0
 49
-0.05
 74
0
 49
0.1
 74
0
 49
-0.05
 74
0
  0
LTYPE
  5
1F8
100
AcDbSymbolTableRecord
100
AcDbLinetypeTableRecord
  2
DOT
 70
64
  3
. . . . . . . . . . . . . . . . . . . .
 72
65
 73
2
 40
0.2
 49
0.1
 74
0
 49
-0.1
 74
0
  0
LTYPE
  5
1F9
100
AcDbSymbolTableRecord
100
AcDbLinetypeTableRecord
  2
DASHED
 70
64
  3
- - - - - - - - - - - - - - - - - - - -
 72
65
 73
2
 40
0.2
 49
0.1
 74
0
 49
-0.1
 74
0
  0
ENDTAB
  0
TABLE
  2
LAYER
  5
2
100
AcDbSymbolTable
 70
36
  0
LAYER
  5
10
100
AcDbSymbolTableRecord
100
AcDbLayerTableRecord
  2
0
 70
0
 62
7
  6
CONTINUOUS
370
-3
390
F
  0
LAYER
  5
1FA
100
AcDbSymbolTableRecord
100
AcDbLayerTableRecord
  2
DEFAULT_1
 70
0
 62
7
  6
CENTER
370
-3
390
F
  0
LAYER
  5
1FB
100
AcDbSymbolTableRecord
100
AcDbLayerTableRecord
  2
DEFAULT_2
 70
0
 62
8
  6
HIDDEN
370
-3
390
F
  0
LAYER
  5
1FC
100
AcDbSymbolTableRecord
100
AcDbLayerTableRecord
  2
DEFAULT_3
 70
0
 62
7
  6
PHANTOM
370
-3
390
F
  0
LAYER
  5
1FD
100
AcDbSymbolTableRecord
100
AcDbLayerTableRecord
  2
01_ALL_DTM_PLN
 70
0
 62
7
  6
CONTINUOUS
370
-3
390
F
  0
LAYER
  5
1FE
100
AcDbSymbolTableRecord
100
AcDbLayerTableRecord
  2
01__ASM_ALL_DTM_PLN
 70
0
 62
7
  6
CONTINUOUS
370
-3
390
F
  0
LAYER
  5
1FF
100
AcDbSymbolTableRecord
100
AcDbLayerTableRecord
  2
01__ASM_DEF_DTM_PLN
 70
0
 62
7
  6
CONTINUOUS
370
-3
390
F
  0
LAYER
  5
200
100
AcDbSymbolTableRecord
100
AcDbLayerTableRecord
  2
01___PRT_ALL_DTM_PLN
 70
0
 62
7
  6
CONTINUOUS
370
-3
390
F
  0
LAYER
  5
201
100
AcDbSymbolTableRecord
100
AcDbLayerTableRecord
  2
01___PRT_DEF_DTM_PLN
 70
0
 62
7
  6
CONTINUOUS
370
-3
390
F
  0
LAYER
  5
202
100
AcDbSymbolTableRecord
100
AcDbLayerTableRecord
  2
02_ALL_AXES
 70
0
 62
7
  6
CONTINUOUS
370
-3
390
F
  0
LAYER
  5
203
100
AcDbSymbolTableRecord
100
AcDbLayerTableRecord
  2
02__ASM_ALL_AXES
 70
0
 62
7
  6
CONTINUOUS
370
-3
390
F
  0
LAYER
  5
204
100
AcDbSymbolTableRecord
100
AcDbLayerTableRecord
  2
02___PRT_ALL_AXES
 70
0
 62
7
  6
CONTINUOUS
370
-3
390
F
  0
LAYER
  5
205
100
AcDbSymbolTableRecord
100
AcDbLayerTableRecord
  2
03_ALL_CURVES
 70
0
 62
7
  6
CONTINUOUS
370
-3
390
F
  0
LAYER
  5
206
100
AcDbSymbolTableRecord
100
AcDbLayerTableRecord
  2
03__ASM_ALL_CURVES
 70
0
 62
7
  6
CONTINUOUS
370
-3
390
F
  0
LAYER
  5
207
100
AcDbSymbolTableRecord
100
AcDbLayerTableRecord
  2
03___PRT_ALL_CURVES
 70
0
 62
7
  6
CONTINUOUS
370
-3
390
F
  0
LAYER
  5
208
100
AcDbSymbolTableRecord
100
AcDbLayerTableRecord
  2
04_ALL_DTM_PNT
 70
0
 62
7
  6
CONTINUOUS
370
-3
390
F
  0
LAYER
  5
209
100
AcDbSymbolTableRecord
100
AcDbLayerTableRecord
  2
04__ASM_ALL_DTM_PNT
 70
0
 62
7
  6
CONTINUOUS
370
-3
390
F
  0
LAYER
  5
20A
100
AcDbSymbolTableRecord
100
AcDbLayerTableRecord
  2
04___PRT_ALL_DTM_PNT
 70
0
 62
7
  6
CONTINUOUS
370
-3
390
F
  0
LAYER
  5
20B
100
AcDbSymbolTableRecord
100
AcDbLayerTableRecord
  2
05_ALL_DTM_CSYS
 70
0
 62
7
  6
CONTINUOUS
370
-3
390
F
  0
LAYER
  5
20C
100
AcDbSymbolTableRecord
100
AcDbLayerTableRecord
  2
05__ASM_ALL_DTM_CSYS
 70
0
 62
7
  6
CONTINUOUS
370
-3
390
F
  0
LAYER
  5
20D
100
AcDbSymbolTableRecord
100
AcDbLayerTableRecord
  2
05__ASM_DEF_DTM_CSYS
 70
0
 62
7
  6
CONTINUOUS
370
-3
390
F
  0
LAYER
  5
20E
100
AcDbSymbolTableRecord
100
AcDbLayerTableRecord
  2
05___PRT_ALL_DTM_CSYS
 70
0
 62
7
  6
CONTINUOUS
370
-3
390
F
  0
LAYER
  5
20F
100
AcDbSymbolTableRecord
100
AcDbLayerTableRecord
  2
05___PRT_DEF_DTM_CSYS
 70
0
 62
7
  6
CONTINUOUS
370
-3
390
F
  0
LAYER
  5
210
100
AcDbSymbolTableRecord
100
AcDbLayerTableRecord
  2
06_ALL_SURFS
 70
0
 62
7
  6
CONTINUOUS
370
-3
390
F
  0
LAYER
  5
211
100
AcDbSymbolTableRecord
100
AcDbLayerTableRecord
  2
06__ASM_ALL_SURFS
 70
0
 62
7
  6
CONTINUOUS
370
-3
390
F
  0
LAYER
  5
212
100
AcDbSymbolTableRecord
100
AcDbLayerTableRecord
  2
06___PRT_ALL_SURFS
 70
0
 62
7
  6
CONTINUOUS
370
-3
390
F
  0
LAYER
  5
213
100
AcDbSymbolTableRecord
100
AcDbLayerTableRecord
  2
07__ASM_ALL_SKELETONS
 70
0
 62
7
  6
CONTINUOUS
370
-3
390
F
  0
ENDTAB
  0
TABLE
  2
STYLE
  5
3
100
AcDbSymbolTable
 70
1
  0
STYLE
  5
11
100
AcDbSymbolTableRecord
100
AcDbTextStyleTableRecord
  2
STANDARD
 70
0
 40
0.0
 41
0.8
 50
0.0
 71
0
 42
0.2
  3
txt
  4

  0
STYLE
  5
214
100
AcDbSymbolTableRecord
100
AcDbTextStyleTableRecord
  2
TEXTSTYLE_1
 70
0
 40
0.0
 41
0.8
 50
0.0
 71
0
 42
0.2
  3
gdt
  4

  0
ENDTAB
  0
TABLE
  2
VIEW
  5
6
100
AcDbSymbolTable
 70
0
  0
ENDTAB
  0
TABLE
  2
UCS
  5
7
100
AcDbSymbolTable
 70
0
  0
ENDTAB
  0
TABLE
  2
APPID
  5
9
100
AcDbSymbolTable
 70
1
  0
APPID
  5
215
100
AcDbSymbolTableRecord
100
AcDbRegAppTableRecord
  2
ACAD
 70
0
  0
ENDTAB
  0
TABLE
  2
BLOCK_RECORD
  5
1
100
AcDbSymbolTable
 70
0
  0
BLOCK_RECORD
  5
216
100
AcDbSymbolTableRecord
100
AcDbBlockTableRecord
  2
*Model_Space
  0
BLOCK_RECORD
  5
217
100
AcDbSymbolTableRecord
100
AcDbBlockTableRecord
  2
*Paper_Space
  0
ENDTAB
  0
TABLE
  2
DIMSTYLE
  5
A
100
AcDbSymbolTable
 70
1
100
AcDbDimStyleTable
 71
0
  0
DIMSTYLE
105
218
100
AcDbSymbolTableRecord
100
AcDbDimStyleTableRecord
  2
STANDARD
 70
0
  3

  4

 40
1.0
 41
0.1875
 42
0.0625
 43
0.38
 44
0.125
 45
0.0
 46
0.0
 47
0.0001
 48
0.0001
140
0.15625
141
0.09
142
0.0
143
25.4
144
1.0
145
0.0
146
1.0
147
0.09
 71
0.0
 72
0.0
 73
1
 74
1
 75
0
 76
0
 77
0
 78
4
 79
1
170
0
171
3
172
0
173
0
174
0
175
0
176
0
177
0
178
0
270
2
179
4
271
4
272
4
273
2
274
2
275
0
280
0
281
0
282
0
283
1
284
4
285
0
286
0
287
3
288
0
340
11
278
46
  0
ENDTAB
  0
ENDSEC
  0
SECTION
  2
BLOCKS
  0
BLOCK
  5
20
100
AcDbEntity
  8
0
100
AcDbBlockBegin
  2
*Model_Space
 70
0
 10
0.0
 20
0.0
 30
0.0
  3
*Model_Space
  1

  0
ENDBLK
  5
21
100
AcDbEntity
  8
0
100
AcDbBlockEnd
  0
BLOCK
  5
1C
100
AcDbEntity
  8
0
100
AcDbBlockBegin
  2
*Paper_Space
 70
0
 10
0.0
 20
0.0
 30
0.0
  3
*Paper_Space
  1

  0
ENDBLK
  5
1D
100
AcDbEntity
  8
0
100
AcDbBlockEnd
  0
ENDSEC
  0
SECTION
  2
ENTITIES
  0
MTEXT
  5
219
100
AcDbEntity
  8
0
100
AcDbMText
 62
7
  6
CONTINUOUS
  7
STANDARD
 71
1
 72
1
 10
15.9560215477
 20
0.9479130325
 30
0.0
 11
1.0
 21
0.0
 31
0.0
 44
0.9
  1
SCALE: 1:1.000
 40
0.3
 41
3.36
  0
LINE
  5
21A
100
AcDbEntity
  8
0
100
AcDbLine
 62
7
  6
CONTINUOUS
 10
0.0
 20
0.0
 11
0.0
 21
17.0
  0
LINE
  5
21B
100
AcDbEntity
  8
0
100
AcDbLine
 62
7
  6
CONTINUOUS
 10
0.0
 20
0.0
 11
22.0
 21
0.0
  0
LINE
  5
21C
100
AcDbEntity
  8
0
100
AcDbLine
 62
7
  6
CONTINUOUS
 10
0.0
 20
17.0
 11
22.0
 21
17.0
  0
LINE
  5
21D
100
AcDbEntity
  8
0
100
AcDbLine
 62
7
  6
CONTINUOUS
 10
22.0
 20
0.0
 11
22.0
 21
17.0
  0
LINE
  5
21E
100
AcDbEntity
  8
0
100
AcDbLine
 62
7
  6
CONTINUOUS
 10
3.5053672762
 20
5.7401198968
 11
3.5053672762
 21
5.5501198968
  0
LINE
  5
21F
100
AcDbEntity
  8
0
100
AcDbLine
 62
7
  6
CONTINUOUS
 10
3.6818596808
 20
5.5201114525
 11
3.7543383099
 21
5.3451325631
  0
LINE
  5
220
100
AcDbEntity
  8
0
100
AcDbLine
 62
7
  6
CONTINUOUS
 10
4.1313962425
 20
5.3451325631
 11
4.2038748716
 21
5.5201114525
  0
LINE
  5
221
100
AcDbEntity
  8
0
100
AcDbLine
 62
7
  6
CONTINUOUS
 10
4.5568596808
 20
5.5201114525
 11
4.6293383099
 21
5.3451325631
  0
LINE
  5
222
100
AcDbEntity
  8
0
100
AcDbLine
 62
7
  6
CONTINUOUS
 10
5.0063962425
 20
5.3451325631
 11
5.0788748716
 21
5.5201114525
  0
LINE
  5
223
100
AcDbEntity
  8
0
100
AcDbLine
 62
7
  6
CONTINUOUS
 10
5.4318596808
 20
5.5201114525
 11
5.5043383099
 21
5.3451325631
  0
LINE
  5
224
100
AcDbEntity
  8
0
100
AcDbLine
 62
7
  6
CONTINUOUS
 10
5.8813962425
 20
5.3451325631
 11
5.9538748716
 21
5.5201114525
  0
LINE
  5
225
100
AcDbEntity
  8
0
100
AcDbLine
 62
7
  6
CONTINUOUS
 10
3.8217045258
 20
5.3001198968
 11
4.0640300266
 21
5.3001198968
  0
LINE
  5
226
100
AcDbEntity
  8
0
100
AcDbLine
 62
7
  6
CONTINUOUS
 10
4.6967045258
 20
5.3001198968
 11
4.9390300266
 21
5.3001198968
  0
LINE
  5
227
100
AcDbEntity
  8
0
100
AcDbLine
 62
7
  6
CONTINUOUS
 10
5.5717045258
 20
5.3001198968
 11
5.8140300266
 21
5.3001198968
  0
LINE
  5
228
100
AcDbEntity
  8
0
100
AcDbLine
 62
7
  6
CONTINUOUS
 10
6.4467045258
 20
5.3001198968
 11
6.6890300266
 21
5.3001198968
  0
LINE
  5
229
100
AcDbEntity
  8
0
100
AcDbLine
 62
7
  6
CONTINUOUS
 10
7.3217045258
 20
5.3001198968
 11
7.5640300266
 21
5.3001198968
  0
LINE
  5
22A
100
AcDbEntity
  8
0
100
AcDbLine
 62
7
  6
CONTINUOUS
 10
8.1967045258
 20
5.3001198968
 11
8.4390300266
 21
5.3001198968
  0
LINE
  5
22B
100
AcDbEntity
  8
0
100
AcDbLine
 62
7
  6
CONTINUOUS
 10
3.5053672762
 20
5.5501198968
 11
3.6369488702
 21
5.5501198968
  0
LINE
  5
22C
100
AcDbEntity
  8
0
100
AcDbLine
 62
7
  6
CONTINUOUS
 10
4.2487856822
 20
5.5501198968
 11
4.5119488702
 21
5.5501198968
  0
LINE
  5
22D
100
AcDbEntity
  8
0
100
AcDbLine
 62
7
  6
CONTINUOUS
 10
5.1237856822
 20
5.5501198968
 11
5.3869488702
 21
5.5501198968
  0
LINE
  5
22E
100
AcDbEntity
  8
0
100
AcDbLine
 62
7
  6
CONTINUOUS
 10
5.9987856822
 20
5.5501198968
 11
6.2619488702
 21
5.5501198968
  0
LINE
  5
22F
100
AcDbEntity
  8
0
100
AcDbLine
 62
7
  6
CONTINUOUS
 10
6.8737856822
 20
5.5501198968
 11
7.1369488702
 21
5.5501198968
  0
LINE
  5
230
100
AcDbEntity
  8
0
100
AcDbLine
 62
7
  6
CONTINUOUS
 10
7.7487856822
 20
5.5501198968
 11
8.0119488702
 21
5.5501198968
  0
LINE
  5
231
100
AcDbEntity
  8
0
100
AcDbLine
 62
7
  6
CONTINUOUS
 10
8.6237856822
 20
5.5501198968
 11
8.7553672762
 21
5.5501198968
  0
LINE
  5
232
100
AcDbEntity
  8
0
100
AcDbLine
 62
7
  6
CONTINUOUS
 10
6.3068596808
 20
5.5201114525
 11
6.3793383099
 21
5.3451325631
  0
LINE
  5
233
100
AcDbEntity
  8
0
100
AcDbLine
 62
7
  6
CONTINUOUS
 10
8.7553672762
 20
5.7401198968
 11
3.5053672762
 21
5.7401198968
  0
LINE
  5
234
100
AcDbEntity
  8
0
100
AcDbLine
 62
7
  6
CONTINUOUS
 10
6.7563962425
 20
5.3451325631
 11
6.8288748716
 21
5.5201114525
  0
LINE
  5
235
100
AcDbEntity
  8
0
100
AcDbLine
 62
7
  6
CONTINUOUS
 10
7.1818596808
 20
5.5201114525
 11
7.2543383099
 21
5.3451325631
  0
LINE
  5
236
100
AcDbEntity
  8
0
100
AcDbLine
 62
7
  6
CONTINUOUS
 10
7.6313962425
 20
5.3451325631
 11
7.7038748716
 21
5.5201114525
  0
LINE
  5
237
100
AcDbEntity
  8
0
100
AcDbLine
 62
7
  6
CONTINUOUS
 10
8.0568596808
 20
5.5201114525
 11
8.1293383099
 21
5.3451325631
  0
LINE
  5
238
100
AcDbEntity
  8
0
100
AcDbLine
 62
7
  6
CONTINUOUS
 10
8.5063962425
 20
5.3451325631
 11
8.5788748716
 21
5.5201114525
  0
LINE
  5
239
100
AcDbEntity
  8
0
100
AcDbLine
 62
7
  6
CONTINUOUS
 10
8.7553672762
 20
5.5501198968
 11
8.7553672762
 21
5.7401198968
  0
LINE
  5
23A
100
AcDbEntity
  8
0
100
AcDbLine
 62
7
  6
CONTINUOUS
 10
3.4458720839
 20
13.6000477814
 11
3.4458720839
 21
11.6000477814
  0
LINE
  5
23B
100
AcDbEntity
  8
0
100
AcDbLine
 62
7
  6
CONTINUOUS
 10
8.6958720839
 20
11.6000477814
 11
3.4458720839
 21
11.6000477814
  0
LINE
  5
23C
100
AcDbEntity
  8
0
100
AcDbLine
 62
7
  6
CONTINUOUS
 10
3.4458720839
 20
13.6000477814
 11
8.6958720839
 21
13.6000477814
  0
LINE
  5
23D
100
AcDbEntity
  8
0
100
AcDbLine
 62
7
  6
CONTINUOUS
 10
8.6958720839
 20
13.6000477814
 11
8.6958720839
 21
11.6000477814
  0
LINE
  5
23E
100
AcDbEntity
  8
0
100
AcDbLine
 62
7
  6
CONTINUOUS
 10
14.5603552569
 20
5.2406247044
 11
14.5603552569
 21
5.6806247044
  0
LINE
  5
23F
100
AcDbEntity
  8
0
100
AcDbLine
 62
7
  6
CONTINUOUS
 10
14.5603552569
 20
5.2406247044
 11
16.5603552569
 21
5.2406247044
  0
LINE
  5
240
100
AcDbEntity
  8
0
100
AcDbLine
 62
7
  6
CONTINUOUS
 10
16.5603552569
 20
5.4906247044
 11
14.5603552569
 21
5.4906247044
  0
LINE
  5
241
100
AcDbEntity
  8
0
100
AcDbLine
 62
7
  6
CONTINUOUS
 10
16.5603552569
 20
5.6806247044
 11
14.5603552569
 21
5.6806247044
  0
LINE
  5
242
100
AcDbEntity
  8
0
100
AcDbLine
 62
7
  6
CONTINUOUS
 10
16.5603552569
 20
5.2406247044
 11
16.5603552569
 21
5.6806247044
  0
LINE
  5
243
100
AcDbEntity
  8
0
100
AcDbLine
 62
7
  6
CONTINUOUS
 10
12.7822820585
 20
11.8642322763
 11
12.8402400131
 21
11.7461263823
  0
LINE
  5
244
100
AcDbEntity
  8
0
100
AcDbLine
 62
7
  6
CONTINUOUS
 10
13.2664147053
 20
13.4308860956
 11
12.7822820585
 21
11.8642322763
  0
LINE
  5
245
100
AcDbEntity
  8
0
100
AcDbLine
 62
7
  6
CONTINUOUS
 10
13.0119541146
 20
11.7274728342
 11
13.1320872398
 21
11.6187042124
  0
LINE
  5
246
100
AcDbEntity
  8
0
100
AcDbLine
 62
7
  6
CONTINUOUS
 10
13.479380594
 20
11.6187042124
 11
13.4927619451
 21
11.7274728342
  0
LINE
  5
247
100
AcDbEntity
  8
0
100
AcDbLine
 62
7
  6
CONTINUOUS
 10
13.4784926541
 20
11.6145192373
 11
13.479380594
 21
11.6187042124
  0
LINE
  5
248
100
AcDbEntity
  8
0
100
AcDbLine
 62
7
  6
CONTINUOUS
 10
13.4927619451
 20
11.7274728342
 11
13.4933643568
 21
11.7302595926
  0
LINE
  5
249
100
AcDbEntity
  8
0
100
AcDbLine
 62
7
  6
CONTINUOUS
 10
13.8178824844
 20
11.7274728342
 11
13.9380156095
 21
11.6187042124
  0
LINE
  5
24A
100
AcDbEntity
  8
0
100
AcDbLine
 62
7
  6
CONTINUOUS
 10
13.4797443391
 20
11.6185918066
 11
13.5189602703
 21
11.7454946063
  0
LINE
  5
24B
100
AcDbEntity
  8
0
100
AcDbLine
 62
7
  6
CONTINUOUS
 10
14.6238108541
 20
11.7274728342
 11
14.7439439793
 21
11.6187042124
  0
LINE
  5
24C
100
AcDbEntity
  8
0
100
AcDbLine
 62
7
  6
CONTINUOUS
 10
14.2853089638
 20
11.6187042124
 11
14.2986903149
 21
11.7274728342
  0
LINE
  5
24D
100
AcDbEntity
  8
0
100
AcDbLine
 62
7
  6
CONTINUOUS
 10
14.2844210238
 20
11.6145192373
 11
14.2853089638
 21
11.6187042124
  0
LINE
  5
24E
100
AcDbEntity
  8
0
100
AcDbLine
 62
7
  6
CONTINUOUS
 10
14.2986903149
 20
11.7274728342
 11
14.2992927266
 21
11.7302595926
  0
LINE
  5
24F
100
AcDbEntity
  8
0
100
AcDbLine
 62
7
  6
CONTINUOUS
 10
14.2856727089
 20
11.6185918066
 11
14.32488864
 21
11.7454946063
  0
LINE
  5
250
100
AcDbEntity
  8
0
100
AcDbLine
 62
7
  6
CONTINUOUS
 10
13.2078663814
 20
11.5907238903
 11
13.431062948
 21
11.5907238903
  0
LINE
  5
251
100
AcDbEntity
  8
0
100
AcDbLine
 62
7
  6
CONTINUOUS
 10
14.0137947511
 20
11.5907238903
 11
14.2369913177
 21
11.5907238903
  0
LINE
  5
252
100
AcDbEntity
  8
0
100
AcDbLine
 62
7
  6
CONTINUOUS
 10
14.8197231209
 20
11.5907238903
 11
15.0429196875
 21
11.5907238903
  0
LINE
  5
253
100
AcDbEntity
  8
0
100
AcDbLine
 62
7
  6
CONTINUOUS
 10
15.6256514906
 20
11.5907238903
 11
15.8488480572
 21
11.5907238903
  0
LINE
  5
254
100
AcDbEntity
  8
0
100
AcDbLine
 62
7
  6
CONTINUOUS
 10
16.4315798604
 20
11.5907238903
 11
16.654776427
 21
11.5907238903
  0
LINE
  5
255
100
AcDbEntity
  8
0
100
AcDbLine
 62
7
  6
CONTINUOUS
 10
17.2375082301
 20
11.5907238903
 11
17.4607047967
 21
11.5907238903
  0
LINE
  5
256
100
AcDbEntity
  8
0
100
AcDbLine
 62
7
  6
CONTINUOUS
 10
12.8402400131
 20
11.7461263823
 11
12.9614346869
 21
11.7461263823
  0
LINE
  5
257
100
AcDbEntity
  8
0
100
AcDbLine
 62
7
  6
CONTINUOUS
 10
13.5249737091
 20
11.7461263823
 11
13.7673630566
 21
11.7461263823
  0
LINE
  5
258
100
AcDbEntity
  8
0
100
AcDbLine
 62
7
  6
CONTINUOUS
 10
14.3309020789
 20
11.7461263823
 11
14.5732914264
 21
11.7461263823
  0
LINE
  5
259
100
AcDbEntity
  8
0
100
AcDbLine
 62
7
  6
CONTINUOUS
 10
15.1368304486
 20
11.7461263823
 11
15.3792197962
 21
11.7461263823
  0
LINE
  5
25A
100
AcDbEntity
  8
0
100
AcDbLine
 62
7
  6
CONTINUOUS
 10
15.9427588184
 20
11.7461263823
 11
16.1851481659
 21
11.7461263823
  0
LINE
  5
25B
100
AcDbEntity
  8
0
100
AcDbLine
 62
7
  6
CONTINUOUS
 10
16.7486871881
 20
11.7461263823
 11
16.9910765357
 21
11.7461263823
  0
LINE
  5
25C
100
AcDbEntity
  8
0
100
AcDbLine
 62
7
  6
CONTINUOUS
 10
17.5546155579
 20
11.7461263823
 11
17.6758102317
 21
11.7461263823
  0
LINE
  5
25D
100
AcDbEntity
  8
0
100
AcDbLine
 62
7
  6
CONTINUOUS
 10
17.617852277
 20
11.8642322763
 11
12.7822820585
 21
11.8642322763
  0
LINE
  5
25E
100
AcDbEntity
  8
0
100
AcDbLine
 62
7
  6
CONTINUOUS
 10
15.4297392239
 20
11.7274728342
 11
15.5498723491
 21
11.6187042124
  0
LINE
  5
25F
100
AcDbEntity
  8
0
100
AcDbLine
 62
7
  6
CONTINUOUS
 10
15.0912373335
 20
11.6187042124
 11
15.1046186846
 21
11.7274728342
  0
LINE
  5
260
100
AcDbEntity
  8
0
100
AcDbLine
 62
7
  6
CONTINUOUS
 10
15.0903493936
 20
11.6145192373
 11
15.0912373335
 21
11.6187042124
  0
LINE
  5
261
100
AcDbEntity
  8
0
100
AcDbLine
 62
7
  6
CONTINUOUS
 10
15.1046186846
 20
11.7274728342
 11
15.1052210963
 21
11.7302595926
  0
LINE
  5
262
100
AcDbEntity
  8
0
100
AcDbLine
 62
7
  6
CONTINUOUS
 10
15.0916010787
 20
11.6185918066
 11
15.1308170098
 21
11.7454946063
  0
LINE
  5
263
100
AcDbEntity
  8
0
100
AcDbLine
 62
7
  6
CONTINUOUS
 10
16.2356675936
 20
11.7274728342
 11
16.3558007188
 21
11.6187042124
  0
LINE
  5
264
100
AcDbEntity
  8
0
100
AcDbLine
 62
7
  6
CONTINUOUS
 10
15.8971657033
 20
11.6187042124
 11
15.9105470544
 21
11.7274728342
  0
LINE
  5
265
100
AcDbEntity
  8
0
100
AcDbLine
 62
7
  6
CONTINUOUS
 10
17.0415959634
 20
11.7274728342
 11
17.1617290886
 21
11.6187042124
  0
LINE
  5
266
100
AcDbEntity
  8
0
100
AcDbLine
 62
7
  6
CONTINUOUS
 10
15.8962777633
 20
11.6145192373
 11
15.8971657033
 21
11.6187042124
  0
LINE
  5
267
100
AcDbEntity
  8
0
100
AcDbLine
 62
7
  6
CONTINUOUS
 10
15.9105470544
 20
11.7274728342
 11
15.9111494661
 21
11.7302595926
  0
LINE
  5
268
100
AcDbEntity
  8
0
100
AcDbLine
 62
7
  6
CONTINUOUS
 10
15.8975294484
 20
11.6185918066
 11
15.9367453795
 21
11.7454946063
  0
LINE
  5
269
100
AcDbEntity
  8
0
100
AcDbLine
 62
7
  6
CONTINUOUS
 10
13.2664147053
 20
13.4308860956
 11
18.1019849238
 21
13.4308860956
  0
LINE
  5
26A
100
AcDbEntity
  8
0
100
AcDbLine
 62
7
  6
CONTINUOUS
 10
16.703094073
 20
11.6187042124
 11
16.7164754241
 21
11.7274728342
  0
LINE
  5
26B
100
AcDbEntity
  8
0
100
AcDbLine
 62
7
  6
CONTINUOUS
 10
16.7022061331
 20
11.6145192373
 11
16.703094073
 21
11.6187042124
  0
LINE
  5
26C
100
AcDbEntity
  8
0
100
AcDbLine
 62
7
  6
CONTINUOUS
 10
16.7164754241
 20
11.7274728342
 11
16.7170778358
 21
11.7302595926
  0
LINE
  5
26D
100
AcDbEntity
  8
0
100
AcDbLine
 62
7
  6
CONTINUOUS
 10
16.7034578182
 20
11.6185918066
 11
16.7426737493
 21
11.7454946063
  0
LINE
  5
26E
100
AcDbEntity
  8
0
100
AcDbLine
 62
7
  6
CONTINUOUS
 10
17.6758102317
 20
11.7461263823
 11
17.617852277
 21
11.8642322763
  0
LINE
  5
26F
100
AcDbEntity
  8
0
100
AcDbLine
 62
7
  6
CONTINUOUS
 10
17.5090224428
 20
11.6187042124
 11
17.5224037939
 21
11.7274728342
  0
LINE
  5
270
100
AcDbEntity
  8
0
100
AcDbLine
 62
7
  6
CONTINUOUS
 10
17.5081345028
 20
11.6145192373
 11
17.5090224428
 21
11.6187042124
  0
LINE
  5
271
100
AcDbEntity
  8
0
100
AcDbLine
 62
7
  6
CONTINUOUS
 10
17.5224037939
 20
11.7274728342
 11
17.5230062056
 21
11.7302595926
  0
LINE
  5
272
100
AcDbEntity
  8
0
100
AcDbLine
 62
7
  6
CONTINUOUS
 10
17.5093861879
 20
11.6185918066
 11
17.5486021191
 21
11.7454946063
  0
LINE
  5
273
100
AcDbEntity
  8
0
100
AcDbLine
 62
7
  6
CONTINUOUS
 10
18.1019849238
 20
13.4308860956
 11
17.617852277
 21
11.8642322763
  0
LINE
  5
274
100
AcDbEntity
  8
0
100
AcDbLine
 62
7
  6
CONTINUOUS
 10
18.1599428785
 20
13.3127802016
 11
17.6758102317
 21
11.7461263823
  0
LINE
  5
275
100
AcDbEntity
  8
0
100
AcDbLine
 62
7
  6
CONTINUOUS
 10
18.1599428785
 20
13.3127802016
 11
18.1019849238
 21
13.4308860956
  0
ARC
  5
276
100
AcDbEntity
  8
0
100
AcDbCircle
 62
7
  6
CONTINUOUS
 10
4.6967045258
 20
5.3730365634
 40
0.0729166667
100
AcDbArc
 50
202.5
 51
270.0
  0
ARC
  5
277
100
AcDbEntity
  8
0
100
AcDbCircle
 62
7
  6
CONTINUOUS
 10
4.9390300266
 20
5.3730365634
 40
0.0729166667
100
AcDbArc
 50
270.0
 51
337.5
  0
ARC
  5
278
100
AcDbEntity
  8
0
100
AcDbCircle
 62
7
  6
CONTINUOUS
 10
5.5717045258
 20
5.3730365634
 40
0.0729166667
100
AcDbArc
 50
202.5
 51
270.0
  0
ARC
  5
279
100
AcDbEntity
  8
0
100
AcDbCircle
 62
7
  6
CONTINUOUS
 10
5.8140300266
 20
5.3730365634
 40
0.0729166667
100
AcDbArc
 50
270.0
 51
337.5
  0
ARC
  5
27A
100
AcDbEntity
  8
0
100
AcDbCircle
 62
7
  6
CONTINUOUS
 10
6.4467045258
 20
5.3730365634
 40
0.0729166667
100
AcDbArc
 50
202.5
 51
270.0
  0
ARC
  5
27B
100
AcDbEntity
  8
0
100
AcDbCircle
 62
7
  6
CONTINUOUS
 10
6.6890300266
 20
5.3730365634
 40
0.0729166667
100
AcDbArc
 50
270.0
 51
337.5
  0
ARC
  5
27C
100
AcDbEntity
  8
0
100
AcDbCircle
 62
7
  6
CONTINUOUS
 10
4.0640300266
 20
5.3730365634
 40
0.0729166667
100
AcDbArc
 50
270.0
 51
337.5
  0
ARC
  5
27D
100
AcDbEntity
  8
0
100
AcDbCircle
 62
7
  6
CONTINUOUS
 10
3.8217045258
 20
5.3730365634
 40
0.0729166667
100
AcDbArc
 50
202.5
 51
270.0
  0
ARC
  5
27E
100
AcDbEntity
  8
0
100
AcDbCircle
 62
7
  6
CONTINUOUS
 10
8.4390300266
 20
5.3730365634
 40
0.0729166667
100
AcDbArc
 50
270.0
 51
337.5
  0
ARC
  5
27F
100
AcDbEntity
  8
0
100
AcDbCircle
 62
7
  6
CONTINUOUS
 10
8.1967045258
 20
5.3730365634
 40
0.0729166667
100
AcDbArc
 50
202.5
 51
270.0
  0
ARC
  5
280
100
AcDbEntity
  8
0
100
AcDbCircle
 62
7
  6
CONTINUOUS
 10
7.5640300266
 20
5.3730365634
 40
0.0729166667
100
AcDbArc
 50
270.0
 51
337.5
  0
ARC
  5
281
100
AcDbEntity
  8
0
100
AcDbCircle
 62
7
  6
CONTINUOUS
 10
7.3217045258
 20
5.3730365634
 40
0.0729166667
100
AcDbArc
 50
202.5
 51
270.0
  0
ARC
  5
282
100
AcDbEntity
  8
0
100
AcDbCircle
 62
7
  6
CONTINUOUS
 10
4.2487856822
 20
5.5015087856
 40
0.0486111111
100
AcDbArc
 50
90.0
 51
157.5
  0
ARC
  5
283
100
AcDbEntity
  8
0
100
AcDbCircle
 62
7
  6
CONTINUOUS
 10
3.6369488702
 20
5.5015087856
 40
0.0486111111
100
AcDbArc
 50
22.5
 51
90.0
  0
ARC
  5
284
100
AcDbEntity
  8
0
100
AcDbCircle
 62
7
  6
CONTINUOUS
 10
5.1237856822
 20
5.5015087856
 40
0.0486111111
100
AcDbArc
 50
90.0
 51
157.5
  0
ARC
  5
285
100
AcDbEntity
  8
0
100
AcDbCircle
 62
7
  6
CONTINUOUS
 10
4.5119488702
 20
5.5015087856
 40
0.0486111111
100
AcDbArc
 50
22.5
 51
90.0
  0
ARC
  5
286
100
AcDbEntity
  8
0
100
AcDbCircle
 62
7
  6
CONTINUOUS
 10
5.9987856822
 20
5.5015087856
 40
0.0486111111
100
AcDbArc
 50
90.0
 51
157.5
  0
ARC
  5
287
100
AcDbEntity
  8
0
100
AcDbCircle
 62
7
  6
CONTINUOUS
 10
5.3869488702
 20
5.5015087856
 40
0.0486111111
100
AcDbArc
 50
22.5
 51
90.0
  0
ARC
  5
288
100
AcDbEntity
  8
0
100
AcDbCircle
 62
7
  6
CONTINUOUS
 10
6.8737856822
 20
5.5015087856
 40
0.0486111111
100
AcDbArc
 50
90.0
 51
157.5
  0
ARC
  5
289
100
AcDbEntity
  8
0
100
AcDbCircle
 62
7
  6
CONTINUOUS
 10
6.2619488702
 20
5.5015087856
 40
0.0486111111
100
AcDbArc
 50
22.5
 51
90.0
  0
ARC
  5
28A
100
AcDbEntity
  8
0
100
AcDbCircle
 62
7
  6
CONTINUOUS
 10
7.7487856822
 20
5.5015087856
 40
0.0486111111
100
AcDbArc
 50
90.0
 51
157.5
  0
ARC
  5
28B
100
AcDbEntity
  8
0
100
AcDbCircle
 62
7
  6
CONTINUOUS
 10
7.1369488702
 20
5.5015087856
 40
0.0486111111
100
AcDbArc
 50
22.5
 51
90.0
  0
ARC
  5
28C
100
AcDbEntity
  8
0
100
AcDbCircle
 62
7
  6
CONTINUOUS
 10
8.6237856822
 20
5.5015087856
 40
0.0486111111
100
AcDbArc
 50
90.0
 51
157.5
  0
ARC
  5
28D
100
AcDbEntity
  8
0
100
AcDbCircle
 62
7
  6
CONTINUOUS
 10
8.0119488702
 20
5.5015087856
 40
0.0486111111
100
AcDbArc
 50
22.5
 51
90.0
  0
SPLINE
  5
28E
100
AcDbEntity
  8
0
100
AcDbSpline
 62
7
  6
CONTINUOUS
 70
0
 71
3
 72
9
 73
5
 74
0
 42
0.0000001
 43
0.0000001
 44
0.0000000001
 40
0.0
 40
0.0
 40
0.0
 40
0.0
 40
0.4953311821
 40
1.0
 40
1.0
 40
1.0
 40
1.0
 10
13.4933595895
 20
11.7302610668
 30
0.0
 10
13.4936227809
 20
11.7311110436
 30
0.0
 10
13.494299097
 20
11.7327852977
 30
0.0
 10
13.495240071
 20
11.7343256552
 30
0.0
 10
13.4957711373
 20
11.7350603868
 30
0.0
  0
SPLINE
  5
28F
100
AcDbEntity
  8
0
100
AcDbSpline
 62
7
  6
CONTINUOUS
 70
0
 71
3
 72
14
 73
10
 74
0
 42
0.0000001
 43
0.0000001
 44
0.0000000001
 40
0.0
 40
0.0
 40
0.0
 40
0.0
 40
0.1008727292
 40
0.2072994479
 40
0.3205396361
 40
0.4413711798
 40
0.7063122771
 40
0.8500865461
 40
1.0
 40
1.0
 40
1.0
 40
1.0
 10
13.4957711373
 20
11.7350603868
 30
0.0
 10
13.4964075893
 20
11.7359409197
 30
0.0
 10
13.4978864768
 20
11.7376313764
 30
0.0
 10
13.500562174
 20
11.7398330495
 30
0.0
 10
13.5037107444
 20
11.741736369
 30
0.0
 10
13.5086372506
 20
11.7439134987
 30
0.0
 10
13.5142151139
 20
11.7453082409
 30
0.0
 10
13.5201935624
 20
11.7460095422
 30
0.0
 10
13.5233590415
 20
11.7461263823
 30
0.0
 10
13.5249737091
 20
11.7461263823
 30
0.0
  0
SPLINE
  5
290
100
AcDbEntity
  8
0
100
AcDbSpline
 62
7
  6
CONTINUOUS
 70
0
 71
3
 72
9
 73
5
 74
0
 42
0.0000001
 43
0.0000001
 44
0.0000000001
 40
0.0
 40
0.0
 40
0.0
 40
0.0
 40
0.4953311821
 40
1.0
 40
1.0
 40
1.0
 40
1.0
 10
14.2992879592
 20
11.7302610668
 30
0.0
 10
14.2995511506
 20
11.7311110436
 30
0.0
 10
14.3002274668
 20
11.7327852977
 30
0.0
 10
14.3011684408
 20
11.7343256552
 30
0.0
 10
14.3016995071
 20
11.7350603868
 30
0.0
  0
SPLINE
  5
291
100
AcDbEntity
  8
0
100
AcDbSpline
 62
7
  6
CONTINUOUS
 70
0
 71
3
 72
14
 73
10
 74
0
 42
0.0000001
 43
0.0000001
 44
0.0000000001
 40
0.0
 40
0.0
 40
0.0
 40
0.0
 40
0.1008727292
 40
0.2072994479
 40
0.3205396361
 40
0.4413711798
 40
0.7063122771
 40
0.8500865461
 40
1.0
 40
1.0
 40
1.0
 40
1.0
 10
14.3016995071
 20
11.7350603868
 30
0.0
 10
14.3023359591
 20
11.7359409197
 30
0.0
 10
14.3038148465
 20
11.7376313764
 30
0.0
 10
14.3064905438
 20
11.7398330495
 30
0.0
 10
14.3096391141
 20
11.741736369
 30
0.0
 10
14.3145656203
 20
11.7439134987
 30
0.0
 10
14.3201434836
 20
11.7453082409
 30
0.0
 10
14.3261219321
 20
11.7460095422
 30
0.0
 10
14.3292874113
 20
11.7461263823
 30
0.0
 10
14.3309020789
 20
11.7461263823
 30
0.0
  0
SPLINE
  5
292
100
AcDbEntity
  8
0
100
AcDbSpline
 62
7
  6
CONTINUOUS
 70
0
 71
3
 72
9
 73
5
 74
0
 42
0.0000001
 43
0.0000001
 44
0.0000000001
 40
0.0
 40
0.0
 40
0.0
 40
0.0
 40
0.4953311821
 40
1.0
 40
1.0
 40
1.0
 40
1.0
 10
15.105216329
 20
11.7302610668
 30
0.0
 10
15.1054795204
 20
11.7311110436
 30
0.0
 10
15.1061558365
 20
11.7327852977
 30
0.0
 10
15.1070968105
 20
11.7343256552
 30
0.0
 10
15.1076278769
 20
11.7350603868
 30
0.0
  0
SPLINE
  5
293
100
AcDbEntity
  8
0
100
AcDbSpline
 62
7
  6
CONTINUOUS
 70
0
 71
3
 72
14
 73
10
 74
0
 42
0.0000001
 43
0.0000001
 44
0.0000000001
 40
0.0
 40
0.0
 40
0.0
 40
0.0
 40
0.1008727292
 40
0.2072994479
 40
0.3205396361
 40
0.4413711798
 40
0.7063122771
 40
0.8500865461
 40
1.0
 40
1.0
 40
1.0
 40
1.0
 10
15.1076278769
 20
11.7350603868
 30
0.0
 10
15.1082643288
 20
11.7359409197
 30
0.0
 10
15.1097432163
 20
11.7376313764
 30
0.0
 10
15.1124189135
 20
11.7398330495
 30
0.0
 10
15.1155674839
 20
11.741736369
 30
0.0
 10
15.1204939901
 20
11.7439134987
 30
0.0
 10
15.1260718534
 20
11.7453082409
 30
0.0
 10
15.1320503019
 20
11.7460095422
 30
0.0
 10
15.135215781
 20
11.7461263823
 30
0.0
 10
15.1368304486
 20
11.7461263823
 30
0.0
  0
SPLINE
  5
294
100
AcDbEntity
  8
0
100
AcDbSpline
 62
7
  6
CONTINUOUS
 70
0
 71
3
 72
9
 73
5
 74
0
 42
0.0000001
 43
0.0000001
 44
0.0000000001
 40
0.0
 40
0.0
 40
0.0
 40
0.0
 40
0.4953311821
 40
1.0
 40
1.0
 40
1.0
 40
1.0
 10
15.9111446987
 20
11.7302610668
 30
0.0
 10
15.9114078901
 20
11.7311110436
 30
0.0
 10
15.9120842063
 20
11.7327852977
 30
0.0
 10
15.9130251803
 20
11.7343256552
 30
0.0
 10
15.9135562466
 20
11.7350603868
 30
0.0
  0
SPLINE
  5
295
100
AcDbEntity
  8
0
100
AcDbSpline
 62
7
  6
CONTINUOUS
 70
0
 71
3
 72
14
 73
10
 74
0
 42
0.0000001
 43
0.0000001
 44
0.0000000001
 40
0.0
 40
0.0
 40
0.0
 40
0.0
 40
0.1008727292
 40
0.2072994479
 40
0.3205396361
 40
0.4413711798
 40
0.7063122771
 40
0.8500865461
 40
1.0
 40
1.0
 40
1.0
 40
1.0
 10
15.9135562466
 20
11.7350603868
 30
0.0
 10
15.9141926986
 20
11.7359409197
 30
0.0
 10
15.915671586
 20
11.7376313764
 30
0.0
 10
15.9183472833
 20
11.7398330495
 30
0.0
 10
15.9214958536
 20
11.741736369
 30
0.0
 10
15.9264223598
 20
11.7439134987
 30
0.0
 10
15.9320002231
 20
11.7453082409
 30
0.0
 10
15.9379786716
 20
11.7460095422
 30
0.0
 10
15.9411441508
 20
11.7461263823
 30
0.0
 10
15.9427588184
 20
11.7461263823
 30
0.0
  0
SPLINE
  5
296
100
AcDbEntity
  8
0
100
AcDbSpline
 62
7
  6
CONTINUOUS
 70
0
 71
3
 72
9
 73
5
 74
0
 42
0.0000001
 43
0.0000001
 44
0.0000000001
 40
0.0
 40
0.0
 40
0.0
 40
0.0
 40
0.4953311821
 40
1.0
 40
1.0
 40
1.0
 40
1.0
 10
16.7170730685
 20
11.7302610668
 30
0.0
 10
16.7173362599
 20
11.7311110436
 30
0.0
 10
16.718012576
 20
11.7327852977
 30
0.0
 10
16.71895355
 20
11.7343256552
 30
0.0
 10
16.7194846164
 20
11.7350603868
 30
0.0
  0
SPLINE
  5
297
100
AcDbEntity
  8
0
100
AcDbSpline
 62
7
  6
CONTINUOUS
 70
0
 71
3
 72
14
 73
10
 74
0
 42
0.0000001
 43
0.0000001
 44
0.0000000001
 40
0.0
 40
0.0
 40
0.0
 40
0.0
 40
0.1008727292
 40
0.2072994479
 40
0.3205396361
 40
0.4413711798
 40
0.7063122771
 40
0.8500865461
 40
1.0
 40
1.0
 40
1.0
 40
1.0
 10
16.7194846164
 20
11.7350603868
 30
0.0
 10
16.7201210683
 20
11.7359409197
 30
0.0
 10
16.7215999558
 20
11.7376313764
 30
0.0
 10
16.724275653
 20
11.7398330495
 30
0.0
 10
16.7274242234
 20
11.741736369
 30
0.0
 10
16.7323507296
 20
11.7439134987
 30
0.0
 10
16.7379285929
 20
11.7453082409
 30
0.0
 10
16.7439070414
 20
11.7460095422
 30
0.0
 10
16.7470725205
 20
11.7461263823
 30
0.0
 10
16.7486871881
 20
11.7461263823
 30
0.0
  0
SPLINE
  5
298
100
AcDbEntity
  8
0
100
AcDbSpline
 62
7
  6
CONTINUOUS
 70
0
 71
3
 72
9
 73
5
 74
0
 42
0.0000001
 43
0.0000001
 44
0.0000000001
 40
0.0
 40
0.0
 40
0.0
 40
0.0
 40
0.4953311821
 40
1.0
 40
1.0
 40
1.0
 40
1.0
 10
17.5230014382
 20
11.7302610668
 30
0.0
 10
17.5232646296
 20
11.7311110436
 30
0.0
 10
17.5239409458
 20
11.7327852977
 30
0.0
 10
17.5248819198
 20
11.7343256552
 30
0.0
 10
17.5254129861
 20
11.7350603868
 30
0.0
  0
SPLINE
  5
299
100
AcDbEntity
  8
0
100
AcDbSpline
 62
7
  6
CONTINUOUS
 70
0
 71
3
 72
14
 73
10
 74
0
 42
0.0000001
 43
0.0000001
 44
0.0000000001
 40
0.0
 40
0.0
 40
0.0
 40
0.0
 40
0.1008727292
 40
0.2072994479
 40
0.3205396361
 40
0.4413711798
 40
0.7063122771
 40
0.8500865461
 40
1.0
 40
1.0
 40
1.0
 40
1.0
 10
17.5254129861
 20
11.7350603868
 30
0.0
 10
17.5260494381
 20
11.7359409197
 30
0.0
 10
17.5275283255
 20
11.7376313764
 30
0.0
 10
17.5302040228
 20
11.7398330495
 30
0.0
 10
17.5333525931
 20
11.741736369
 30
0.0
 10
17.5382790994
 20
11.7439134987
 30
0.0
 10
17.5438569626
 20
11.7453082409
 30
0.0
 10
17.5498354111
 20
11.7460095422
 30
0.0
 10
17.5530008903
 20
11.7461263823
 30
0.0
 10
17.5546155579
 20
11.7461263823
 30
0.0
  0
SPLINE
  5
29A
100
AcDbEntity
  8
0
100
AcDbSpline
 62
7
  6
CONTINUOUS
 70
0
 71
3
 72
15
 73
11
 74
0
 42
0.0000001
 43
0.0000001
 44
0.0000000001
 40
0.0
 40
0.0
 40
0.0
 40
0.0
 40
0.1557506932
 40
0.3032141727
 40
0.4410979465
 40
0.5690411808
 40
0.6873379438
 40
0.7970482819
 40
0.9002754508
 40
1.0
 40
1.0
 40
1.0
 40
1.0
 10
13.431062948
 20
11.5907238903
 30
0.0
 10
13.4339986461
 20
11.5907238903
 30
0.0
 10
13.4397181584
 20
11.5909773736
 30
0.0
 10
13.4479615895
 20
11.592167959
 30
0.0
 10
13.4555154341
 20
11.594148074
 30
0.0
 10
13.4622439939
 20
11.5968846691
 30
0.0
 10
13.4680318547
 20
11.6003368203
 30
0.0
 10
13.4727708912
 20
11.6044608337
 30
0.0
 10
13.4763591701
 20
11.6091923356
 30
0.0
 10
13.4779299996
 20
11.6127257287
 30
0.0
 10
13.4784852733
 20
11.6145215185
 30
0.0
  0
SPLINE
  5
29B
100
AcDbEntity
  8
0
100
AcDbSpline
 62
7
  6
CONTINUOUS
 70
0
 71
3
 72
15
 73
11
 74
0
 42
0.0000001
 43
0.0000001
 44
0.0000000001
 40
0.0
 40
0.0
 40
0.0
 40
0.0
 40
0.1148729455
 40
0.2360779918
 40
0.3619573316
 40
0.4908828445
 40
0.6210131108
 40
0.7504589803
 40
0.8774378009
 40
1.0
 40
1.0
 40
1.0
 40
1.0
 10
13.1320872398
 20
11.6187042124
 30
0.0
 10
13.1344269253
 20
11.6165858594
 30
0.0
 10
13.1394959717
 20
11.6125147954
 30
0.0
 10
13.147850465
 20
11.6070936511
 30
0.0
 10
13.1570135176
 20
11.6022912382
 30
0.0
 10
13.166784951
 20
11.5982111757
 30
0.0
 10
13.1769574676
 20
11.5949361291
 30
0.0
 10
13.1873174991
 20
11.5925386233
 30
0.0
 10
13.1976392262
 20
11.5910718425
 30
0.0
 10
13.2044989233
 20
11.5907238903
 30
0.0
 10
13.2078663814
 20
11.5907238903
 30
0.0
  0
SPLINE
  5
29C
100
AcDbEntity
  8
0
100
AcDbSpline
 62
7
  6
CONTINUOUS
 70
0
 71
3
 72
15
 73
11
 74
0
 42
0.0000001
 43
0.0000001
 44
0.0000000001
 40
0.0
 40
0.0
 40
0.0
 40
0.0
 40
0.1557506932
 40
0.3032141727
 40
0.4410979465
 40
0.5690411808
 40
0.6873379438
 40
0.7970482819
 40
0.9002754508
 40
1.0
 40
1.0
 40
1.0
 40
1.0
 10
17.4607047967
 20
11.5907238903
 30
0.0
 10
17.4636404949
 20
11.5907238903
 30
0.0
 10
17.4693600072
 20
11.5909773736
 30
0.0
 10
17.4776034383
 20
11.592167959
 30
0.0
 10
17.4851572829
 20
11.594148074
 30
0.0
 10
17.4918858427
 20
11.5968846691
 30
0.0
 10
17.4976737034
 20
11.6003368203
 30
0.0
 10
17.5024127399
 20
11.6044608337
 30
0.0
 10
17.5060010189
 20
11.6091923356
 30
0.0
 10
17.5075718484
 20
11.6127257287
 30
0.0
 10
17.5081271221
 20
11.6145215185
 30
0.0
  0
SPLINE
  5
29D
100
AcDbEntity
  8
0
100
AcDbSpline
 62
7
  6
CONTINUOUS
 70
0
 71
3
 72
15
 73
11
 74
0
 42
0.0000001
 43
0.0000001
 44
0.0000000001
 40
0.0
 40
0.0
 40
0.0
 40
0.0
 40
0.1148729455
 40
0.2360779918
 40
0.3619573316
 40
0.4908828445
 40
0.6210131108
 40
0.7504589803
 40
0.8774378009
 40
1.0
 40
1.0
 40
1.0
 40
1.0
 10
17.1617290886
 20
11.6187042124
 30
0.0
 10
17.164068774
 20
11.6165858594
 30
0.0
 10
17.1691378204
 20
11.6125147954
 30
0.0
 10
17.1774923137
 20
11.6070936511
 30
0.0
 10
17.1866553664
 20
11.6022912382
 30
0.0
 10
17.1964267998
 20
11.5982111757
 30
0.0
 10
17.2065993164
 20
11.5949361291
 30
0.0
 10
17.2169593479
 20
11.5925386233
 30
0.0
 10
17.2272810749
 20
11.5910718425
 30
0.0
 10
17.2341407721
 20
11.5907238903
 30
0.0
 10
17.2375082301
 20
11.5907238903
 30
0.0
  0
SPLINE
  5
29E
100
AcDbEntity
  8
0
100
AcDbSpline
 62
7
  6
CONTINUOUS
 70
0
 71
3
 72
15
 73
11
 74
0
 42
0.0000001
 43
0.0000001
 44
0.0000000001
 40
0.0
 40
0.0
 40
0.0
 40
0.0
 40
0.1557506932
 40
0.3032141727
 40
0.4410979465
 40
0.5690411808
 40
0.6873379438
 40
0.7970482819
 40
0.9002754508
 40
1.0
 40
1.0
 40
1.0
 40
1.0
 10
16.654776427
 20
11.5907238903
 30
0.0
 10
16.6577121251
 20
11.5907238903
 30
0.0
 10
16.6634316374
 20
11.5909773736
 30
0.0
 10
16.6716750685
 20
11.592167959
 30
0.0
 10
16.6792289131
 20
11.594148074
 30
0.0
 10
16.6859574729
 20
11.5968846691
 30
0.0
 10
16.6917453337
 20
11.6003368203
 30
0.0
 10
16.6964843702
 20
11.6044608337
 30
0.0
 10
16.7000726491
 20
11.6091923356
 30
0.0
 10
16.7016434786
 20
11.6127257287
 30
0.0
 10
16.7021987523
 20
11.6145215185
 30
0.0
  0
SPLINE
  5
29F
100
AcDbEntity
  8
0
100
AcDbSpline
 62
7
  6
CONTINUOUS
 70
0
 71
3
 72
15
 73
11
 74
0
 42
0.0000001
 43
0.0000001
 44
0.0000000001
 40
0.0
 40
0.0
 40
0.0
 40
0.0
 40
0.1148729455
 40
0.2360779918
 40
0.3619573316
 40
0.4908828445
 40
0.6210131108
 40
0.7504589803
 40
0.8774378009
 40
1.0
 40
1.0
 40
1.0
 40
1.0
 10
16.3558007188
 20
11.6187042124
 30
0.0
 10
16.3581404043
 20
11.6165858594
 30
0.0
 10
16.3632094507
 20
11.6125147954
 30
0.0
 10
16.371563944
 20
11.6070936511
 30
0.0
 10
16.3807269967
 20
11.6022912382
 30
0.0
 10
16.39049843
 20
11.5982111757
 30
0.0
 10
16.4006709466
 20
11.5949361291
 30
0.0
 10
16.4110309782
 20
11.5925386233
 30
0.0
 10
16.4213527052
 20
11.5910718425
 30
0.0
 10
16.4282124023
 20
11.5907238903
 30
0.0
 10
16.4315798604
 20
11.5907238903
 30
0.0
  0
SPLINE
  5
2A0
100
AcDbEntity
  8
0
100
AcDbSpline
 62
7
  6
CONTINUOUS
 70
0
 71
3
 72
15
 73
11
 74
0
 42
0.0000001
 43
0.0000001
 44
0.0000000001
 40
0.0
 40
0.0
 40
0.0
 40
0.0
 40
0.1557506932
 40
0.3032141727
 40
0.4410979465
 40
0.5690411808
 40
0.6873379438
 40
0.7970482819
 40
0.9002754508
 40
1.0
 40
1.0
 40
1.0
 40
1.0
 10
15.8488480572
 20
11.5907238903
 30
0.0
 10
15.8517837554
 20
11.5907238903
 30
0.0
 10
15.8575032677
 20
11.5909773736
 30
0.0
 10
15.8657466988
 20
11.592167959
 30
0.0
 10
15.8733005434
 20
11.594148074
 30
0.0
 10
15.8800291032
 20
11.5968846691
 30
0.0
 10
15.8858169639
 20
11.6003368203
 30
0.0
 10
15.8905560004
 20
11.6044608337
 30
0.0
 10
15.8941442794
 20
11.6091923356
 30
0.0
 10
15.8957151089
 20
11.6127257287
 30
0.0
 10
15.8962703826
 20
11.6145215185
 30
0.0
  0
SPLINE
  5
2A1
100
AcDbEntity
  8
0
100
AcDbSpline
 62
7
  6
CONTINUOUS
 70
0
 71
3
 72
15
 73
11
 74
0
 42
0.0000001
 43
0.0000001
 44
0.0000000001
 40
0.0
 40
0.0
 40
0.0
 40
0.0
 40
0.1148729455
 40
0.2360779918
 40
0.3619573316
 40
0.4908828445
 40
0.6210131108
 40
0.7504589803
 40
0.8774378009
 40
1.0
 40
1.0
 40
1.0
 40
1.0
 10
15.5498723491
 20
11.6187042124
 30
0.0
 10
15.5522120345
 20
11.6165858594
 30
0.0
 10
15.5572810809
 20
11.6125147954
 30
0.0
 10
15.5656355742
 20
11.6070936511
 30
0.0
 10
15.5747986269
 20
11.6022912382
 30
0.0
 10
15.5845700603
 20
11.5982111757
 30
0.0
 10
15.5947425769
 20
11.5949361291
 30
0.0
 10
15.6051026084
 20
11.5925386233
 30
0.0
 10
15.6154243354
 20
11.5910718425
 30
0.0
 10
15.6222840326
 20
11.5907238903
 30
0.0
 10
15.6256514906
 20
11.5907238903
 30
0.0
  0
SPLINE
  5
2A2
100
AcDbEntity
  8
0
100
AcDbSpline
 62
7
  6
CONTINUOUS
 70
0
 71
3
 72
15
 73
11
 74
0
 42
0.0000001
 43
0.0000001
 44
0.0000000001
 40
0.0
 40
0.0
 40
0.0
 40
0.0
 40
0.1557506932
 40
0.3032141727
 40
0.4410979465
 40
0.5690411808
 40
0.6873379438
 40
0.7970482819
 40
0.9002754508
 40
1.0
 40
1.0
 40
1.0
 40
1.0
 10
15.0429196875
 20
11.5907238903
 30
0.0
 10
15.0458553856
 20
11.5907238903
 30
0.0
 10
15.0515748979
 20
11.5909773736
 30
0.0
 10
15.059818329
 20
11.592167959
 30
0.0
 10
15.0673721736
 20
11.594148074
 30
0.0
 10
15.0741007334
 20
11.5968846691
 30
0.0
 10
15.0798885942
 20
11.6003368203
 30
0.0
 10
15.0846276307
 20
11.6044608337
 30
0.0
 10
15.0882159096
 20
11.6091923356
 30
0.0
 10
15.0897867391
 20
11.6127257287
 30
0.0
 10
15.0903420128
 20
11.6145215185
 30
0.0
  0
SPLINE
  5
2A3
100
AcDbEntity
  8
0
100
AcDbSpline
 62
7
  6
CONTINUOUS
 70
0
 71
3
 72
15
 73
11
 74
0
 42
0.0000001
 43
0.0000001
 44
0.0000000001
 40
0.0
 40
0.0
 40
0.0
 40
0.0
 40
0.1148729455
 40
0.2360779918
 40
0.3619573316
 40
0.4908828445
 40
0.6210131108
 40
0.7504589803
 40
0.8774378009
 40
1.0
 40
1.0
 40
1.0
 40
1.0
 10
14.7439439793
 20
11.6187042124
 30
0.0
 10
14.7462836648
 20
11.6165858594
 30
0.0
 10
14.7513527112
 20
11.6125147954
 30
0.0
 10
14.7597072045
 20
11.6070936511
 30
0.0
 10
14.7688702572
 20
11.6022912382
 30
0.0
 10
14.7786416905
 20
11.5982111757
 30
0.0
 10
14.7888142071
 20
11.5949361291
 30
0.0
 10
14.7991742387
 20
11.5925386233
 30
0.0
 10
14.8094959657
 20
11.5910718425
 30
0.0
 10
14.8163556628
 20
11.5907238903
 30
0.0
 10
14.8197231209
 20
11.5907238903
 30
0.0
  0
SPLINE
  5
2A4
100
AcDbEntity
  8
0
100
AcDbSpline
 62
7
  6
CONTINUOUS
 70
0
 71
3
 72
15
 73
11
 74
0
 42
0.0000001
 43
0.0000001
 44
0.0000000001
 40
0.0
 40
0.0
 40
0.0
 40
0.0
 40
0.1557506932
 40
0.3032141727
 40
0.4410979465
 40
0.5690411808
 40
0.6873379438
 40
0.7970482819
 40
0.9002754508
 40
1.0
 40
1.0
 40
1.0
 40
1.0
 10
14.2369913177
 20
11.5907238903
 30
0.0
 10
14.2399270158
 20
11.5907238903
 30
0.0
 10
14.2456465282
 20
11.5909773736
 30
0.0
 10
14.2538899593
 20
11.592167959
 30
0.0
 10
14.2614438039
 20
11.594148074
 30
0.0
 10
14.2681723637
 20
11.5968846691
 30
0.0
 10
14.2739602244
 20
11.6003368203
 30
0.0
 10
14.2786992609
 20
11.6044608337
 30
0.0
 10
14.2822875399
 20
11.6091923356
 30
0.0
 10
14.2838583694
 20
11.6127257287
 30
0.0
 10
14.2844136431
 20
11.6145215185
 30
0.0
  0
SPLINE
  5
2A5
100
AcDbEntity
  8
0
100
AcDbSpline
 62
7
  6
CONTINUOUS
 70
0
 71
3
 72
15
 73
11
 74
0
 42
0.0000001
 43
0.0000001
 44
0.0000000001
 40
0.0
 40
0.0
 40
0.0
 40
0.0
 40
0.1148729455
 40
0.2360779918
 40
0.3619573316
 40
0.4908828445
 40
0.6210131108
 40
0.7504589803
 40
0.8774378009
 40
1.0
 40
1.0
 40
1.0
 40
1.0
 10
13.9380156095
 20
11.6187042124
 30
0.0
 10
13.940355295
 20
11.6165858594
 30
0.0
 10
13.9454243414
 20
11.6125147954
 30
0.0
 10
13.9537788347
 20
11.6070936511
 30
0.0
 10
13.9629418874
 20
11.6022912382
 30
0.0
 10
13.9727133208
 20
11.5982111757
 30
0.0
 10
13.9828858374
 20
11.5949361291
 30
0.0
 10
13.9932458689
 20
11.5925386233
 30
0.0
 10
14.0035675959
 20
11.5910718425
 30
0.0
 10
14.0104272931
 20
11.5907238903
 30
0.0
 10
14.0137947511
 20
11.5907238903
 30
0.0
  0
SPLINE
  5
2A6
100
AcDbEntity
  8
0
100
AcDbSpline
 62
7
  6
CONTINUOUS
 70
0
 71
3
 72
15
 73
11
 74
0
 42
0.0000001
 43
0.0000001
 44
0.0000000001
 40
0.0
 40
0.0
 40
0.0
 40
0.0
 40
0.1224855418
 40
0.2495250682
 40
0.3790234256
 40
0.5091197598
 40
0.6380076768
 40
0.7639366823
 40
0.8851963546
 40
1.0
 40
1.0
 40
1.0
 40
1.0
 10
12.9614346869
 20
11.7461263823
 30
0.0
 10
12.9636782478
 20
11.7461263823
 30
0.0
 10
12.9682509656
 20
11.7458931784
 30
0.0
 10
12.9751330572
 20
11.7449173296
 30
0.0
 10
12.982040843
 20
11.743317332
 30
0.0
 10
12.9888226913
 20
11.7411356972
 30
0.0
 10
12.9953359298
 20
11.7384142551
 30
0.0
 10
13.0014463623
 20
11.7352133032
 30
0.0
 10
13.0070153223
 20
11.7315970024
 30
0.0
 10
13.0103952701
 20
11.7288842132
 30
0.0
 10
13.0119541146
 20
11.7274728342
 30
0.0
  0
SPLINE
  5
2A7
100
AcDbEntity
  8
0
100
AcDbSpline
 62
7
  6
CONTINUOUS
 70
0
 71
3
 72
15
 73
11
 74
0
 42
0.0000001
 43
0.0000001
 44
0.0000000001
 40
0.0
 40
0.0
 40
0.0
 40
0.0
 40
0.1224855418
 40
0.2495250682
 40
0.3790234256
 40
0.5091197598
 40
0.6380076768
 40
0.7639366823
 40
0.8851963546
 40
1.0
 40
1.0
 40
1.0
 40
1.0
 10
13.7673630566
 20
11.7461263823
 30
0.0
 10
13.7696066175
 20
11.7461263823
 30
0.0
 10
13.7741793354
 20
11.7458931784
 30
0.0
 10
13.781061427
 20
11.7449173296
 30
0.0
 10
13.7879692127
 20
11.743317332
 30
0.0
 10
13.7947510611
 20
11.7411356972
 30
0.0
 10
13.8012642996
 20
11.7384142551
 30
0.0
 10
13.807374732
 20
11.7352133032
 30
0.0
 10
13.812943692
 20
11.7315970024
 30
0.0
 10
13.8163236399
 20
11.7288842132
 30
0.0
 10
13.8178824844
 20
11.7274728342
 30
0.0
  0
SPLINE
  5
2A8
100
AcDbEntity
  8
0
100
AcDbSpline
 62
7
  6
CONTINUOUS
 70
0
 71
3
 72
15
 73
11
 74
0
 42
0.0000001
 43
0.0000001
 44
0.0000000001
 40
0.0
 40
0.0
 40
0.0
 40
0.0
 40
0.1224855418
 40
0.2495250682
 40
0.3790234256
 40
0.5091197598
 40
0.6380076768
 40
0.7639366823
 40
0.8851963546
 40
1.0
 40
1.0
 40
1.0
 40
1.0
 10
14.5732914264
 20
11.7461263823
 30
0.0
 10
14.5755349873
 20
11.7461263823
 30
0.0
 10
14.5801077051
 20
11.7458931784
 30
0.0
 10
14.5869897967
 20
11.7449173296
 30
0.0
 10
14.5938975825
 20
11.743317332
 30
0.0
 10
14.6006794308
 20
11.7411356972
 30
0.0
 10
14.6071926693
 20
11.7384142551
 30
0.0
 10
14.6133031018
 20
11.7352133032
 30
0.0
 10
14.6188720618
 20
11.7315970024
 30
0.0
 10
14.6222520096
 20
11.7288842132
 30
0.0
 10
14.6238108541
 20
11.7274728342
 30
0.0
  0
SPLINE
  5
2A9
100
AcDbEntity
  8
0
100
AcDbSpline
 62
7
  6
CONTINUOUS
 70
0
 71
3
 72
15
 73
11
 74
0
 42
0.0000001
 43
0.0000001
 44
0.0000000001
 40
0.0
 40
0.0
 40
0.0
 40
0.0
 40
0.1224855418
 40
0.2495250682
 40
0.3790234256
 40
0.5091197598
 40
0.6380076768
 40
0.7639366823
 40
0.8851963546
 40
1.0
 40
1.0
 40
1.0
 40
1.0
 10
15.3792197962
 20
11.7461263823
 30
0.0
 10
15.381463357
 20
11.7461263823
 30
0.0
 10
15.3860360749
 20
11.7458931784
 30
0.0
 10
15.3929181665
 20
11.7449173296
 30
0.0
 10
15.3998259522
 20
11.743317332
 30
0.0
 10
15.4066078006
 20
11.7411356972
 30
0.0
 10
15.4131210391
 20
11.7384142551
 30
0.0
 10
15.4192314715
 20
11.7352133032
 30
0.0
 10
15.4248004315
 20
11.7315970024
 30
0.0
 10
15.4281803794
 20
11.7288842132
 30
0.0
 10
15.4297392239
 20
11.7274728342
 30
0.0
  0
SPLINE
  5
2AA
100
AcDbEntity
  8
0
100
AcDbSpline
 62
7
  6
CONTINUOUS
 70
0
 71
3
 72
15
 73
11
 74
0
 42
0.0000001
 43
0.0000001
 44
0.0000000001
 40
0.0
 40
0.0
 40
0.0
 40
0.0
 40
0.1224855418
 40
0.2495250682
 40
0.3790234256
 40
0.5091197598
 40
0.6380076768
 40
0.7639366823
 40
0.8851963546
 40
1.0
 40
1.0
 40
1.0
 40
1.0
 10
16.1851481659
 20
11.7461263823
 30
0.0
 10
16.1873917268
 20
11.7461263823
 30
0.0
 10
16.1919644446
 20
11.7458931784
 30
0.0
 10
16.1988465362
 20
11.7449173296
 30
0.0
 10
16.205754322
 20
11.743317332
 30
0.0
 10
16.2125361703
 20
11.7411356972
 30
0.0
 10
16.2190494089
 20
11.7384142551
 30
0.0
 10
16.2251598413
 20
11.7352133032
 30
0.0
 10
16.2307288013
 20
11.7315970024
 30
0.0
 10
16.2341087491
 20
11.7288842132
 30
0.0
 10
16.2356675936
 20
11.7274728342
 30
0.0
  0
SPLINE
  5
2AB
100
AcDbEntity
  8
0
100
AcDbSpline
 62
7
  6
CONTINUOUS
 70
0
 71
3
 72
15
 73
11
 74
0
 42
0.0000001
 43
0.0000001
 44
0.0000000001
 40
0.0
 40
0.0
 40
0.0
 40
0.0
 40
0.1224855418
 40
0.2495250682
 40
0.3790234256
 40
0.5091197598
 40
0.6380076768
 40
0.7639366823
 40
0.8851963546
 40
1.0
 40
1.0
 40
1.0
 40
1.0
 10
16.9910765357
 20
11.7461263823
 30
0.0
 10
16.9933200965
 20
11.7461263823
 30
0.0
 10
16.9978928144
 20
11.7458931784
 30
0.0
 10
17.004774906
 20
11.7449173296
 30
0.0
 10
17.0116826917
 20
11.743317332
 30
0.0
 10
17.0184645401
 20
11.7411356972
 30
0.0
 10
17.0249777786
 20
11.7384142551
 30
0.0
 10
17.031088211
 20
11.7352133032
 30
0.0
 10
17.036657171
 20
11.7315970024
 30
0.0
 10
17.0400371189
 20
11.7288842132
 30
0.0
 10
17.0415959634
 20
11.7274728342
 30
0.0
  0
ENDSEC
  0
SECTION
  2
OBJECTS
  0
DICTIONARY
  5
C
100
AcDbDictionary
280
0
281
1
  3
ACAD_GROUP
350
D
  3
ACAD_MLINESTYLE
350
17
  3
ACAD_LAYOUT
350
1A
  3
ACAD_PLOTSETTINGS
350
19
  3
ACAD_PLOTSTYLENAME
350
E
  0
DICTIONARY
  5
D
102
{ACAD_REACTORS
330
C
102
}
100
AcDbDictionary
280
0
281
1
  0
ACDBDICTIONARYWDFLT
  5
E
102
{ACAD_REACTORS
330
C
102
}
100
AcDbDictionary
281
1
  3
Normal
350
F
100
AcDbDictionaryWithDefault
340
F
  0
DICTIONARY
  5
17
102
{ACAD_REACTORS
330
C
102
}
100
AcDbDictionary
280
0
281
1
  3
Standard
350
18
  0
DICTIONARY
  5
19
102
{ACAD_REACTORS
330
C
102
}
100
AcDbDictionary
281
1
  0
DICTIONARY
  5
1A
102
{ACAD_REACTORS
330
C
102
}
100
AcDbDictionary
281
1
  3
Model
350
2AC
  3
Layout1
350
2AD
  0
ACDBPLACEHOLDER
  5
F
102
{ACAD_REACTORS
330
E
102
}
  0
MLINESTYLE
  5
18
102
{ACAD_REACTORS
330
17
102
}
100
AcDbMlineStyle
  2
STANDARD
 70
0
  3

 62
256
 51
90.0
 52
90.0
 71
2
 49
0.5
 62
256
  6
BYLAYER
 49
-0.5
 62
256
  6
BYLAYER
  0
LAYOUT
  5
2AC
102
{ACAD_REACTORS
330
1A
102
}
100
AcDbPlotSettings
  1

  2
none_device
  4
ANSI_C_(22.00_x_17.00_Inches)
  6

 40
0.0
 41
0.0
 42
0.0
 43
0.0
 44
558.8
 45
431.8
 46
0.0
 47
0.0
 48
0.0
 49
0.0
140
0.0
141
0.0
142
1.0
143
1.0
 70
1024
 72
0
 73
0
 74
0
  7

 75
0
147
1.0
148
0.0
149
0.0
100
AcDbLayout
  1
Model
 70
0
 71
0
 10
0.0
 20
0.0
 11
22.0
 21
17.0
 12
0.0
 22
0.0
 32
0.0
 14
0.0
 24
0.0
 34
0.0
 15
0.0
 25
0.0
 35
0.0
146
0.0
 13
0.0
 23
0.0
 33
0.0
 16
1.0
 26
0.0
 36
0.0
 17
0.0
 27
1.0
 37
0.0
 76
0
330
216
345
0
346
0
  0
LAYOUT
  5
2AD
102
{ACAD_REACTORS
330
1A
102
}
100
AcDbPlotSettings
  1

  2
none_device
  4
ANSI_C_(22.00_x_17.00_Inches)
  6

 40
0.0
 41
0.0
 42
0.0
 43
0.0
 44
558.8
 45
431.8
 46
0.0
 47
0.0
 48
0.0
 49
0.0
140
0.0
141
0.0
142
1.0
143
1.0
 70
0
 72
0
 73
0
 74
0
  7

 75
0
147
1.0
148
0.0
149
0.0
100
AcDbLayout
  1
Layout1
 70
0
 71
1
 10
0.0
 20
0.0
 11
22.0
 21
17.0
 12
0.0
 22
0.0
 32
0.0
 14
0.0
 24
0.0
 34
0.0
 15
0.0
 25
0.0
 35
0.0
146
0.0
 13
0.0
 23
0.0
 33
0.0
 16
1.0
 26
0.0
 36
0.0
 17
0.0
 27
1.0
 37
0.0
 76
0
330
217
345
0
346
0
  0
ENDSEC
  0
EOF