999
DXF file: _cgs_temp_output.dxf
999
Pro/ENGINEER 2016360 by Parametric Technology Corporation
  0
SECTION
  2
HEADER
  9
$ACADVER
  1
AC1021
  9
$DWGCODEPAGE
  3
ANSI_1252
  9
$EXTMAX
 10
22.0
 20
17.0
 30
0.0
  9
$EXTMIN
 10
0.0
 20
0.0
 30
0.0
  9
$LIMMIN
 10
0.0
 20
0.0
  9
$LIMMAX
 10
22.0
 20
17.0
  9
$VIEWCTR
 10
11.0
 20
8.5
  9
$VIEWSIZE
 40
17.0
  9
$CLAYER
  8
0
  9
$LTSCALE
 40
1.21
  9
$CELTYPE
  6
BYLAYER
  9
$DIMSCALE
 40
1.0
  9
$DIMASZ
 40
0.1875
  9
$DIMEXO
 40
0.0625
  9
$DIMDLI
 40
0.836
  9
$DIMEXE
 40
0.125
  9
$DIMCEN
 40
0.198
  9
$DIMLFAC
 40
1.0
  9
$DIMBLK
  1
_CLOSED
  9
$DIMALT
 70
0
  9
$DIMALTF
 40
25.4
  9
$DIMTXT
 40
0.15625
  9
$DIMTOL
 70
0
  9
$DIMLIM
 70
0
  9
$DIMTFAC
 40
1.0
  9
$DIMGAP
 40
0.09
  9
$DIMDSEP
 70
46
  9
$AUNITS
 70
0
  9
$PDMODE
 70
3
  9
$PDSIZE
 40
0.3125
  9
$HANDSEED
  5
2AE
  9
$TILEMODE
 70
1
  9
$MEASUREMENT
 70
0
  9
$INSUNITS
 70
1
  0
ENDSEC
  0
SECTION
  2
CLASSES
  0
CLASS
  1
ACDBDICTIONARYWDFLT
  2
AcDbDictionaryWithDefault
  3
AutoCAD 2000
 90
0
 91
1
280
0
281
0
  0
CLASS
  1
ACDBPLACEHOLDER
  2
AcDbPlaceHolder
  3
AutoCAD 2000
 90
0
 91
1
280
0
281
0
  0
CLASS
  1
LAYOUT
  2
AcDbLayout
  3
AutoCAD 2000
 90
0
 91
0
280
0
281
0
  0
ENDSEC
  0
SECTION
  2
TABLES
  0
TABLE
  2
VPORT
  5
8
100
AcDbSymbolTable
 70
2
  0
VPORT
  5
1F4
100
AcDbSymbolTableRecord
100
AcDbViewportTableRecord
  2
*ACTIVE
 70
0
 10
0.0
 20
0.0
 11
1.0
 21
1.0
 12
11.0
 22
8.5
 13
0.0
 23
0.0
 14
1.0
 24
1.0
 15
0.0
 25
0.0
 16
0.0
 26
0.0
 36
1.0
 17
0.0
 27
0.0
 37
0.0
 40
17.0
 41
1.2941176471
 42
50.0
 43
0.0
 44
0.0
 50
0.0
 51
0.0
 71
0
 72
100
 73
1
 74
1
 75
0
 76
0
 77
0
 78
0
  0
ENDTAB
  0
TABLE
  2
LTYPE
  5
5
100
AcDbSymbolTable
 70
6
  0
LTYPE
  5
14
100
AcDbSymbolTableRecord
100
AcDbLinetypeTableRecord
  2
BYBLOCK
 70
0
  3

 72
65
 73
0
 40
0.0
  0
LTYPE
  5
15
100
AcDbSymbolTableRecord
100
AcDbLinetypeTableRecord
  2
BYLAYER
 70
0
  3

 72
65
 73
0
 40
0.0
  0
LTYPE
  5
16
100
AcDbSymbolTableRecord
100
AcDbLinetypeTableRecord
  2
CONTINUOUS
 70
64
  3
Solid line
 72
65
 73
0
 40
0.0
  0
LTYPE
  5
1F5
100
AcDbSymbolTableRecord
100
AcDbLinetypeTableRecord
  2
CENTER
 70
64
  3
____ _ ____ _ ____ _ ____ _ ____ _ ____ _ ____
 72
65
 73
4
 40
0.6
 49
0.375
 74
0
 49
-0.075
 74
0
 49
0.075
 74
0
 49
-0.075
 74
0
  0
LTYPE
  5
1F6
100
AcDbSymbolTableRecord
100
AcDbLinetypeTableRecord
  2
HIDDEN
 70
64
  3
- - - - - - - - - - - - - - - - - - - -
 72
65
 73
2
 40
0.2
 49
0.1
 74
0
 49
-0.1
 74
0
  0
LTYPE
  5
1F7
100
AcDbSymbolTableRecord
100
AcDbLinetypeTableRecord
  2
PHANTOM
 70
64
  3
_____ _ _ _____ _ _ _____ _ _ _____
 72
65
 73
6
 40
0.8
 49
0.45
 74
0
 49
-0.05
 74
0
 49
0.1
 74
0
 49
-0.05
 74
0
 49
0.1
 74
0
 49
-0.05
 74
0
  0
LTYPE
  5
1F8
100
AcDbSymbolTableRecord
100
AcDbLinetypeTableRecord
  2
DOT
 70
64
  3
. . . . . . . . . . . . . . . . . . . .
 72
65
 73
2
 40
0.2
 49
0.1
 74
0
 49
-0.1
 74
0
  0
LTYPE
  5
1F9
100
AcDbSymbolTableRecord
100
AcDbLinetypeTableRecord
  2
DASHED
 70
64
  3
- - - - - - - - - - - - - - - - - - - -
 72
65
 73
2
 40
0.2
 49
0.1
 74
0
 49
-0.1
 74
0
  0
ENDTAB
  0
TABLE
  2
LAYER
  5
2
100
AcDbSymbolTable
 70
36
  0
LAYER
  5
10
100
AcDbSymbolTableRecord
100
AcDbLayerTableRecord
  2
0
 70
0
 62
7
  6
CONTINUOUS
370
-3
390
F
  0
LAYER
  5
1FA
100
AcDbSymbolTableRecord
100
AcDbLayerTableRecord
  2
DEFAULT_1
 70
0
 62
7
  6
CENTER
370
-3
390
F
  0
LAYER
  5
1FB
100
AcDbSymbolTableRecord
100
AcDbLayerTableRecord
  2
DEFAULT_2
 70
0
 62
8
  6
HIDDEN
370
-3
390
F
  0
LAYER
  5
1FC
100
AcDbSymbolTableRecord
100
AcDbLayerTableRecord
  2
DEFAULT_3
 70
0
 62
7
  6
PHANTOM
370
-3
390
F
  0
LAYER
  5
1FD
100
AcDbSymbolTableRecord
100
AcDbLayerTableRecord
  2
01_ALL_DTM_PLN
 70
0
 62
7
  6
CONTINUOUS
370
-3
390
F
  0
LAYER
  5
1FE
100
AcDbSymbolTableRecord
100
AcDbLayerTableRecord
  2
01__ASM_ALL_DTM_PLN
 70
0
 62
7
  6
CONTINUOUS
370
-3
390
F
  0
LAYER
  5
1FF
100
AcDbSymbolTableRecord
100
AcDbLayerTableRecord
  2
01__ASM_DEF_DTM_PLN
 70
0
 62
7
  6
CONTINUOUS
370
-3
390
F
  0
LAYER
  5
200
100
AcDbSymbolTableRecord
100
AcDbLayerTableRecord
  2
01___PRT_ALL_DTM_PLN
 70
0
 62
7
  6
CONTINUOUS
370
-3
390
F
  0
LAYER
  5
201
100
AcDbSymbolTableRecord
100
AcDbLayerTableRecord
  2
01___PRT_DEF_DTM_PLN
 70
0
 62
7
  6
CONTINUOUS
370
-3
390
F
  0
LAYER
  5
202
100
AcDbSymbolTableRecord
100
AcDbLayerTableRecord
  2
02_ALL_AXES
 70
0
 62
7
  6
CONTINUOUS
370
-3
390
F
  0
LAYER
  5
203
100
AcDbSymbolTableRecord
100
AcDbLayerTableRecord
  2
02__ASM_ALL_AXES
 70
0
 62
7
  6
CONTINUOUS
370
-3
390
F
  0
LAYER
  5
204
100
AcDbSymbolTableRecord
100
AcDbLayerTableRecord
  2
02___PRT_ALL_AXES
 70
0
 62
7
  6
CONTINUOUS
370
-3
390
F
  0
LAYER
  5
205
100
AcDbSymbolTableRecord
100
AcDbLayerTableRecord
  2
03_ALL_CURVES
 70
0
 62
7
  6
CONTINUOUS
370
-3
390
F
  0
LAYER
  5
206
100
AcDbSymbolTableRecord
100
AcDbLayerTableRecord
  2
03__ASM_ALL_CURVES
 70
0
 62
7
  6
CONTINUOUS
370
-3
390
F
  0
LAYER
  5
207
100
AcDbSymbolTableRecord
100
AcDbLayerTableRecord
  2
03___PRT_ALL_CURVES
 70
0
 62
7
  6
CONTINUOUS
370
-3
390
F
  0
LAYER
  5
208
100
AcDbSymbolTableRecord
100
AcDbLayerTableRecord
  2
04_ALL_DTM_PNT
 70
0
 62
7
  6
CONTINUOUS
370
-3
390
F
  0
LAYER
  5
209
100
AcDbSymbolTableRecord
100
AcDbLayerTableRecord
  2
04__ASM_ALL_DTM_PNT
 70
0
 62
7
  6
CONTINUOUS
370
-3
390
F
  0
LAYER
  5
20A
100
AcDbSymbolTableRecord
100
AcDbLayerTableRecord
  2
04___PRT_ALL_DTM_PNT
 70
0
 62
7
  6
CONTINUOUS
370
-3
390
F
  0
LAYER
  5
20B
100
AcDbSymbolTableRecord
100
AcDbLayerTableRecord
  2
05_ALL_DTM_CSYS
 70
0
 62
7
  6
CONTINUOUS
370
-3
390
F
  0
LAYER
  5
20C
100
AcDbSymbolTableRecord
100
AcDbLayerTableRecord
  2
05__ASM_ALL_DTM_CSYS
 70
0
 62
7
  6
CONTINUOUS
370
-3
390
F
  0
LAYER
  5
20D
100
AcDbSymbolTableRecord
100
AcDbLayerTableRecord
  2
05__ASM_DEF_DTM_CSYS
 70
0
 62
7
  6
CONTINUOUS
370
-3
390
F
  0
LAYER
  5
20E
100
AcDbSymbolTableRecord
100
AcDbLayerTableRecord
  2
05___PRT_ALL_DTM_CSYS
 70
0
 62
7
  6
CONTINUOUS
370
-3
390
F
  0
LAYER
  5
20F
100
AcDbSymbolTableRecord
100
AcDbLayerTableRecord
  2
05___PRT_DEF_DTM_CSYS
 70
0
 62
7
  6
CONTINUOUS
370
-3
390
F
  0
LAYER
  5
210
100
AcDbSymbolTableRecord
100
AcDbLayerTableRecord
  2
06_ALL_SURFS
 70
0
 62
7
  6
CONTINUOUS
370
-3
390
F
  0
LAYER
  5
211
100
AcDbSymbolTableRecord
100
AcDbLayerTableRecord
  2
06__ASM_ALL_SURFS
 70
0
 62
7
  6
CONTINUOUS
370
-3
390
F
  0
LAYER
  5
212
100
AcDbSymbolTableRecord
100
AcDbLayerTableRecord
  2
06___PRT_ALL_SURFS
 70
0
 62
7
  6
CONTINUOUS
370
-3
390
F
  0
LAYER
  5
213
100
AcDbSymbolTableRecord
100
AcDbLayerTableRecord
  2
07__ASM_ALL_SKELETONS
 70
0
 62
7
  6
CONTINUOUS
370
-3
390
F
  0
ENDTAB
  0
TABLE
  2
STYLE
  5
3
100
AcDbSymbolTable
 70
1
  0
STYLE
  5
11
100
AcDbSymbolTableRecord
100
AcDbTextStyleTableRecord
  2
STANDARD
 70
0
 40
0.0
 41
0.8
 50
0.0
 71
0
 42
0.2
  3
txt
  4

  0
STYLE
  5
214
100
AcDbSymbolTableRecord
100
AcDbTextStyleTableRecord
  2
TEXTSTYLE_1
 70
0
 40
0.0
 41
0.8
 50
0.0
 71
0
 42
0.2
  3
gdt
  4

  0
ENDTAB
  0
TABLE
  2
VIEW
  5
6
100
AcDbSymbolTable
 70
0
  0
ENDTAB
  0
TABLE
  2
UCS
  5
7
100
AcDbSymbolTable
 70
0
  0
ENDTAB
  0
TABLE
  2
APPID
  5
9
100
AcDbSymbolTable
 70
1
  0
APPID
  5
215
100
AcDbSymbolTableRecord
100
AcDbRegAppTableRecord
  2
ACAD
 70
0
  0
ENDTAB
  0
TABLE
  2
BLOCK_RECORD
  5
1
100
AcDbSymbolTable
 70
0
  0
BLOCK_RECORD
  5
216
100
AcDbSymbolTableRecord
100
AcDbBlockTableRecord
  2
*Model_Space
  0
BLOCK_RECORD
  5
217
100
AcDbSymbolTableRecord
100
AcDbBlockTableRecord
  2
*Paper_Space
  0
ENDTAB
  0
TABLE
  2
DIMSTYLE
  5
A
100
AcDbSymbolTable
 70
1
100
AcDbDimStyleTable
 71
0
  0
DIMSTYLE
105
218
100
AcDbSymbolTableRecord
100
AcDbDimStyleTableRecord
  2
STANDARD
 70
0
  3

  4

 40
1.0
 41
0.1875
 42
0.0625
 43
0.38
 44
0.125
 45
0.0
 46
0.0
 47
0.0001
 48
0.0001
140
0.15625
141
0.09
142
0.0
143
25.4
144
1.0
145
0.0
146
1.0
147
0.09
 71
0.0
 72
0.0
 73
1
 74
1
 75
0
 76
0
 77
0
 78
4
 79
1
170
0
171
3
172
0
173
0
174
0
175
0
176
0
177
0
178
0
270
2
179
4
271
4
272
4
273
2
274
2
275
0
280
0
281
0
282
0
283
1
284
4
285
0
286
0
287
3
288
0
340
11
278
46
  0
ENDTAB
  0
ENDSEC
  0
SECTION
  2
BLOCKS
  0
BLOCK
  5
20
100
AcDbEntity
  8
0
100
AcDbBlockBegin
  2
*Model_Space
 70
0
 10
0.0
 20
0.0
 30
0.0
  3
*Model_Space
  1

  0
ENDBLK
  5
21
100
AcDbEntity
  8
0
100
AcDbBlockEnd
  0
BLOCK
  5
1C
100
AcDbEntity
  8
0
100
AcDbBlockBegin
  2
*Paper_Space
 70
0
 10
0.0
 20
0.0
 30
0.0
  3
*Paper_Space
  1

  0
ENDBLK
  5
1D
100
AcDbEntity
  8
0
100
AcDbBlockEnd
  0
ENDSEC
  0
SECTION
  2
ENTITIES
  0
MTEXT
  5
219
100
AcDbEntity
  8
0
100
AcDbMText
 62
7
  6
CONTINUOUS
  7
STANDARD
 71
1
 72
1
 10
15.9560215477
 20
0.9479130325
 30
0.0
 11
1.0
 21
0.0
 31
0.0
 44
0.9
  1
SCALE: 1:1.000
 40
0.3
 41
3.36
  0
LINE
  5
21A
100
AcDbEntity
  8
0
100
AcDbLine
 62
7
  6
CONTINUOUS
 10
0.0
 20
0.0
 11
0.0
 21
17.0
  0
LINE
  5
21B
100
AcDbEntity
  8
0
100
AcDbLine
 62
7
  6
CONTINUOUS
 10
0.0
 20
0.0
 11
22.0
 21
0.0
  0
LINE
  5
21C
100
AcDbEntity
  8
0
100
AcDbLine
 62
7
  6
CONTINUOUS
 10
0.0
 20
17.0
 11
22.0
 21
17.0
  0
LINE
  5
21D
100
AcDbEntity
  8
0
100
AcDbLine
 62
7
  6
CONTINUOUS
 10
22.0
 20
0.0
 11
22.0
 21
17.0
  0
LINE
  5
21E
100
AcDbEntity
  8
0
100
AcDbLine
 62
7
  6
CONTINUOUS
 10
3.5053672762
 20
5.7401198968
 11
3.5053672762
 21
5.5501198968
  0
LINE
  5
21F
100
AcDbEntity
  8
0
100
AcDbLine
 62
7
  6
CONTINUOUS
 10
3.6818596808
 20
5.5201114525
 11
3.7543383099
 21
5.3451325631
  0
LINE
  5
220
100
AcDbEntity
  8
0
100
AcDbLine
 62
7
  6
CONTINUOUS
 10
4.1313962425
 20
5.3451325631
 11
4.2038748716
 21
5.5201114525
  0
LINE
  5
221
100
AcDbEntity
  8
0
100
AcDbLine
 62
7
  6
CONTINUOUS
 10
4.5568596808
 20
5.5201114525
 11
4.6293383099
 21
5.3451325631
  0
LINE
  5
222
100
AcDbEntity
  8
0
100
AcDbLine
 62
7
  6
CONTINUOUS
 10
5.0063962425
 20
5.3451325631
 11
5.0788748716
 21
5.5201114525
  0
LINE
  5
223
100
AcDbEntity
  8
0
100
AcDbLine
 62
7
  6
CONTINUOUS
 10
5.4318596808
 20
5.5201114525
 11
5.5043383099
 21
5.3451325631
  0
LINE
  5
224
100
AcDbEntity
  8
0
100
AcDbLine
 62
7
  6
CONTINUOUS
 10
5.8813962425
 20
5.3451325631
 11
5.9538748716
 21
5.5201114525
  0
LINE
  5
225
100
AcDbEntity
  8
0
100
AcDbLine
 62
7
  6
CONTINUOUS
 10
3.8217045258
 20
5.3001198968
 11
4.0640300266
 21
5.3001198968
  0
LINE
  5
226
100
AcDbEntity
  8
0
100
AcDbLine
 62
7
  6
CONTINUOUS
 10
4.6967045258
 20
5.3001198968
 11
4.9390300266
 21
5.3001198968
  0
LINE
  5
227
100
AcDbEntity
  8
0
100
AcDbLine
 62
7
  6
CONTINUOUS
 10
5.5717045258
 20
5.3001198968
 11
5.8140300266
 21
5.3001198968
  0
LINE
  5
228
100
AcDbEntity
  8
0
100
AcDbLine
 62
7
  6
CONTINUOUS
 10
6.4467045258
 20
5.3001198968
 11
6.6890300266
 21
5.3001198968
  0
LINE
  5
229
100
AcDbEntity
  8
0
100
AcDbLine
 62
7
  6
CONTINUOUS
 10
7.3217045258
 20
5.3001198968
 11
7.5640300266
 21
5.3001198968
  0
LINE
  5
22A
100
AcDbEntity
  8
0
100
AcDbLine
 62
7
  6
CONTINUOUS
 10
8.1967045258
 20
5.3001198968
 11
8.4390300266
 21
5.3001198968
  0
LINE
  5
22B
100
AcDbEntity
  8
0
100
AcDbLine
 62
7
  6
CONTINUOUS
 10
3.5053672762
 20
5.5501198968
 11
3.6369488702
 21
5.5501198968
  0
LINE
  5
22C
100
AcDbEntity
  8
0
100
AcDbLine
 62
7
  6
CONTINUOUS
 10
4.2487856822
 20
5.5501198968
 11
4.5119488702
 21
5.5501198968
  0
LINE
  5
22D
100
AcDbEntity
  8
0
100
AcDbLine
 62
7
  6
CONTINUOUS
 10
5.1237856822
 20
5.5501198968
 11
5.3869488702
 21
5.5501198968
  0
LINE
  5
22E
100
AcDbEntity
  8
0
100
AcDbLine
 62
7
  6
CONTINUOUS
 10
5.9987856822
 20
5.5501198968
 11
6.2619488702
 21
5.5501198968
  0
LINE
  5
22F
100
AcDbEntity
  8
0
100
AcDbLine
 62
7
  6
CONTINUOUS
 10
6.8737856822
 20
5.5501198968
 11
7.1369488702
 21
5.5501198968
  0
LINE
  5
230
100
AcDbEntity
  8
0
100
AcDbLine
 62
7
  6
CONTINUOUS
 10
7.7487856822
 20
5.5501198968
 11
8.0119488702
 21
5.5501198968
  0
LINE
  5
231
100
AcDbEntity
  8
0
100
AcDbLine
 62
7
  6
CONTINUOUS
 10
8.6237856822
 20
5.5501198968
 11
8.7553672762
 21
5.5501198968
  0
LINE
  5
232
100
AcDbEntity
  8
0
100
AcDbLine
 62
7
  6
CONTINUOUS
 10
6.3068596808
 20
5.5201114525
 11
6.3793383099
 21
5.3451325631
  0
LINE
  5
233
100
AcDbEntity
  8
0
100
AcDbLine
 62
7
  6
CONTINUOUS
 10
8.7553672762
 20
5.7401198968
 11
3.5053672762
 21
5.7401198968
  0
LINE
  5
234
100
AcDbEntity
  8
0
100
AcDbLine
 62
7
  6
CONTINUOUS
 10
6.7563962425
 20
5.3451325631
 11
6.8288748716
 21
5.5201114525
  0
LINE
  5
235
100
AcDbEntity
  8
0
100
AcDbLine
 62
7
  6
CONTINUOUS
 10
7.1818596808
 20
5.5201114525
 11
7.2543383099
 21
5.3451325631
  0
LINE
  5
236
100
AcDbEntity
  8
0
100
AcDbLine
 62
7
  6
CONTINUOUS
 10
7.6313962425
 20
5.3451325631
 11
7.7038748716
 21
5.5201114525
  0
LINE
  5
237
100
AcDbEntity
  8
0
100
AcDbLine
 62
7
  6
CONTINUOUS
 10
8.0568596808
 20
5.5201114525
 11
8.1293383099
 21
5.3451325631
  0
LINE
  5
238
100
AcDbEntity
  8
0
100
AcDbLine
 62
7
  6
CONTINUOUS
 10
8.5063962425
 20
5.3451325631
 11
8.5788748716
 21
5.5201114525
  0
LINE
  5
239
100
AcDbEntity
  8
0
100
AcDbLine
 62
7
  6
CONTINUOUS
 10
8.7553672762
 20
5.5501198968
 11
8.7553672762
 21
5.7401198968
  0
LINE
  5
23A
100
AcDbEntity
  8
0
100
AcDbLine
 62
7
  6
CONTINUOUS
 10
3.4458720839
 20
13.3500477814
 11
3.4458720839
 21
11.8500477814
  0
LINE
  5
23B
100
AcDbEntity
  8
0
100
AcDbLine
 62
7
  6
CONTINUOUS
 10
8.6958720839
 20
11.8500477814
 11
3.4458720839
 21
11.8500477814
  0
LINE
  5
23C
100
AcDbEntity
  8
0
100
AcDbLine
 62
7
  6
CONTINUOUS
 10
3.4458720839
 20
13.3500477814
 11
8.6958720839
 21
13.3500477814
  0
LINE
  5
23D
100
AcDbEntity
  8
0
100
AcDbLine
 62
7
  6
CONTINUOUS
 10
8.6958720839
 20
13.3500477814
 11
8.6958720839
 21
11.8500477814
  0
LINE
  5
23E
100
AcDbEntity
  8
0
100
AcDbLine
 62
7
  6
CONTINUOUS
 10
14.8103552569
 20
5.2406247044
 11
14.8103552569
 21
5.6806247044
  0
LINE
  5
23F
100
AcDbEntity
  8
0
100
AcDbLine
 62
7
  6
CONTINUOUS
 10
14.8103552569
 20
5.2406247044
 11
16.3103552569
 21
5.2406247044
  0
LINE
  5
240
100
AcDbEntity
  8
0
100
AcDbLine
 62
7
  6
CONTINUOUS
 10
16.3103552569
 20
5.4906247044
 11
14.8103552569
 21
5.4906247044
  0
LINE
  5
241
100
AcDbEntity
  8
0
100
AcDbLine
 62
7
  6
CONTINUOUS
 10
16.3103552569
 20
5.6806247044
 11
14.8103552569
 21
5.6806247044
  0
LINE
  5
242
100
AcDbEntity
  8
0
100
AcDbLine
 62
7
  6
CONTINUOUS
 10
16.3103552569
 20
5.2406247044
 11
16.3103552569
 21
5.6806247044
  0
LINE
  5
243
100
AcDbEntity
  8
0
100
AcDbLine
 62
7
  6
CONTINUOUS
 10
12.8427986393
 20
12.0600640037
 11
12.900756594
 21
11.9419581097
  0
LINE
  5
244
100
AcDbEntity
  8
0
100
AcDbLine
 62
7
  6
CONTINUOUS
 10
13.2058981244
 20
13.2350543681
 11
12.8427986393
 21
12.0600640037
  0
LINE
  5
245
100
AcDbEntity
  8
0
100
AcDbLine
 62
7
  6
CONTINUOUS
 10
13.0724706955
 20
11.9233045616
 11
13.1926038206
 21
11.8145359398
  0
LINE
  5
246
100
AcDbEntity
  8
0
100
AcDbLine
 62
7
  6
CONTINUOUS
 10
13.5398971749
 20
11.8145359398
 11
13.553278526
 21
11.9233045616
  0
LINE
  5
247
100
AcDbEntity
  8
0
100
AcDbLine
 62
7
  6
CONTINUOUS
 10
13.5390092699
 20
11.8103509539
 11
13.5398971749
 21
11.8145359398
  0
LINE
  5
248
100
AcDbEntity
  8
0
100
AcDbLine
 62
7
  6
CONTINUOUS
 10
13.553278526
 20
11.9233045616
 11
13.5538807812
 21
11.9260913683
  0
LINE
  5
249
100
AcDbEntity
  8
0
100
AcDbLine
 62
7
  6
CONTINUOUS
 10
13.54026092
 20
11.814423534
 11
13.5794768832
 21
11.9413264374
  0
LINE
  5
24A
100
AcDbEntity
  8
0
100
AcDbLine
 62
7
  6
CONTINUOUS
 10
13.8783990652
 20
11.9233045616
 11
13.9985321904
 21
11.8145359398
  0
LINE
  5
24B
100
AcDbEntity
  8
0
100
AcDbLine
 62
7
  6
CONTINUOUS
 10
14.3458255446
 20
11.8145359398
 11
14.3592068957
 21
11.9233045616
  0
LINE
  5
24C
100
AcDbEntity
  8
0
100
AcDbLine
 62
7
  6
CONTINUOUS
 10
14.3449376397
 20
11.8103509539
 11
14.3458255446
 21
11.8145359398
  0
LINE
  5
24D
100
AcDbEntity
  8
0
100
AcDbLine
 62
7
  6
CONTINUOUS
 10
14.3592068957
 20
11.9233045616
 11
14.359809151
 21
11.9260913683
  0
LINE
  5
24E
100
AcDbEntity
  8
0
100
AcDbLine
 62
7
  6
CONTINUOUS
 10
14.684327435
 20
11.9233045616
 11
14.8044605602
 21
11.8145359398
  0
LINE
  5
24F
100
AcDbEntity
  8
0
100
AcDbLine
 62
7
  6
CONTINUOUS
 10
14.3461892898
 20
11.814423534
 11
14.3854052529
 21
11.9413264374
  0
LINE
  5
250
100
AcDbEntity
  8
0
100
AcDbLine
 62
7
  6
CONTINUOUS
 10
13.2683829622
 20
11.7865556177
 11
13.4915795288
 21
11.7865556177
  0
LINE
  5
251
100
AcDbEntity
  8
0
100
AcDbLine
 62
7
  6
CONTINUOUS
 10
14.074311332
 20
11.7865556177
 11
14.2975078986
 21
11.7865556177
  0
LINE
  5
252
100
AcDbEntity
  8
0
100
AcDbLine
 62
7
  6
CONTINUOUS
 10
14.8802397017
 20
11.7865556177
 11
15.1034362683
 21
11.7865556177
  0
LINE
  5
253
100
AcDbEntity
  8
0
100
AcDbLine
 62
7
  6
CONTINUOUS
 10
15.6861680715
 20
11.7865556177
 11
15.9093646381
 21
11.7865556177
  0
LINE
  5
254
100
AcDbEntity
  8
0
100
AcDbLine
 62
7
  6
CONTINUOUS
 10
16.4920964412
 20
11.7865556177
 11
16.7152930078
 21
11.7865556177
  0
LINE
  5
255
100
AcDbEntity
  8
0
100
AcDbLine
 62
7
  6
CONTINUOUS
 10
17.298024811
 20
11.7865556177
 11
17.5212213776
 21
11.7865556177
  0
LINE
  5
256
100
AcDbEntity
  8
0
100
AcDbLine
 62
7
  6
CONTINUOUS
 10
12.900756594
 20
11.9419581097
 11
13.0219512677
 21
11.9419581097
  0
LINE
  5
257
100
AcDbEntity
  8
0
100
AcDbLine
 62
7
  6
CONTINUOUS
 10
13.58549029
 20
11.9419581097
 11
13.8278796375
 21
11.9419581097
  0
LINE
  5
258
100
AcDbEntity
  8
0
100
AcDbLine
 62
7
  6
CONTINUOUS
 10
14.3914186597
 20
11.9419581097
 11
14.6338080072
 21
11.9419581097
  0
LINE
  5
259
100
AcDbEntity
  8
0
100
AcDbLine
 62
7
  6
CONTINUOUS
 10
15.1973470295
 20
11.9419581097
 11
15.439736377
 21
11.9419581097
  0
LINE
  5
25A
100
AcDbEntity
  8
0
100
AcDbLine
 62
7
  6
CONTINUOUS
 10
16.0032753992
 20
11.9419581097
 11
16.2456647468
 21
11.9419581097
  0
LINE
  5
25B
100
AcDbEntity
  8
0
100
AcDbLine
 62
7
  6
CONTINUOUS
 10
16.809203769
 20
11.9419581097
 11
17.0515931165
 21
11.9419581097
  0
LINE
  5
25C
100
AcDbEntity
  8
0
100
AcDbLine
 62
7
  6
CONTINUOUS
 10
17.6151321388
 20
11.9419581097
 11
17.7363268125
 21
11.9419581097
  0
LINE
  5
25D
100
AcDbEntity
  8
0
100
AcDbLine
 62
7
  6
CONTINUOUS
 10
17.6783688578
 20
12.0600640037
 11
12.8427986393
 21
12.0600640037
  0
LINE
  5
25E
100
AcDbEntity
  8
0
100
AcDbLine
 62
7
  6
CONTINUOUS
 10
15.4902558047
 20
11.9233045616
 11
15.6103889299
 21
11.8145359398
  0
LINE
  5
25F
100
AcDbEntity
  8
0
100
AcDbLine
 62
7
  6
CONTINUOUS
 10
15.1517539144
 20
11.8145359398
 11
15.1651352655
 21
11.9233045616
  0
LINE
  5
260
100
AcDbEntity
  8
0
100
AcDbLine
 62
7
  6
CONTINUOUS
 10
15.1508660094
 20
11.8103509539
 11
15.1517539144
 21
11.8145359398
  0
LINE
  5
261
100
AcDbEntity
  8
0
100
AcDbLine
 62
7
  6
CONTINUOUS
 10
15.1651352655
 20
11.9233045616
 11
15.1657375207
 21
11.9260913683
  0
LINE
  5
262
100
AcDbEntity
  8
0
100
AcDbLine
 62
7
  6
CONTINUOUS
 10
15.1521176595
 20
11.814423534
 11
15.1913336227
 21
11.9413264374
  0
LINE
  5
263
100
AcDbEntity
  8
0
100
AcDbLine
 62
7
  6
CONTINUOUS
 10
16.2961841745
 20
11.9233045616
 11
16.4163172997
 21
11.8145359398
  0
LINE
  5
264
100
AcDbEntity
  8
0
100
AcDbLine
 62
7
  6
CONTINUOUS
 10
15.9576822841
 20
11.8145359398
 11
15.9710636352
 21
11.9233045616
  0
LINE
  5
265
100
AcDbEntity
  8
0
100
AcDbLine
 62
7
  6
CONTINUOUS
 10
15.9567943792
 20
11.8103509539
 11
15.9576822841
 21
11.8145359398
  0
LINE
  5
266
100
AcDbEntity
  8
0
100
AcDbLine
 62
7
  6
CONTINUOUS
 10
15.9710636352
 20
11.9233045616
 11
15.9716658905
 21
11.9260913683
  0
LINE
  5
267
100
AcDbEntity
  8
0
100
AcDbLine
 62
7
  6
CONTINUOUS
 10
15.9580460293
 20
11.814423534
 11
15.9972619924
 21
11.9413264374
  0
LINE
  5
268
100
AcDbEntity
  8
0
100
AcDbLine
 62
7
  6
CONTINUOUS
 10
13.2058981244
 20
13.2350543681
 11
18.041468343
 21
13.2350543681
  0
LINE
  5
269
100
AcDbEntity
  8
0
100
AcDbLine
 62
7
  6
CONTINUOUS
 10
17.1021125442
 20
11.9233045616
 11
17.2222456694
 21
11.8145359398
  0
LINE
  5
26A
100
AcDbEntity
  8
0
100
AcDbLine
 62
7
  6
CONTINUOUS
 10
16.7636106539
 20
11.8145359398
 11
16.776992005
 21
11.9233045616
  0
LINE
  5
26B
100
AcDbEntity
  8
0
100
AcDbLine
 62
7
  6
CONTINUOUS
 10
16.7627227489
 20
11.8103509539
 11
16.7636106539
 21
11.8145359398
  0
LINE
  5
26C
100
AcDbEntity
  8
0
100
AcDbLine
 62
7
  6
CONTINUOUS
 10
16.776992005
 20
11.9233045616
 11
16.7775942602
 21
11.9260913683
  0
LINE
  5
26D
100
AcDbEntity
  8
0
100
AcDbLine
 62
7
  6
CONTINUOUS
 10
16.763974399
 20
11.814423534
 11
16.8031903622
 21
11.9413264374
  0
LINE
  5
26E
100
AcDbEntity
  8
0
100
AcDbLine
 62
7
  6
CONTINUOUS
 10
17.7363268125
 20
11.9419581097
 11
17.6783688578
 21
12.0600640037
  0
LINE
  5
26F
100
AcDbEntity
  8
0
100
AcDbLine
 62
7
  6
CONTINUOUS
 10
17.5695390236
 20
11.8145359398
 11
17.5829203747
 21
11.9233045616
  0
LINE
  5
270
100
AcDbEntity
  8
0
100
AcDbLine
 62
7
  6
CONTINUOUS
 10
17.5686511187
 20
11.8103509539
 11
17.5695390236
 21
11.8145359398
  0
LINE
  5
271
100
AcDbEntity
  8
0
100
AcDbLine
 62
7
  6
CONTINUOUS
 10
17.5829203747
 20
11.9233045616
 11
17.58352263
 21
11.9260913683
  0
LINE
  5
272
100
AcDbEntity
  8
0
100
AcDbLine
 62
7
  6
CONTINUOUS
 10
17.5699027688
 20
11.814423534
 11
17.6091187319
 21
11.9413264374
  0
LINE
  5
273
100
AcDbEntity
  8
0
100
AcDbLine
 62
7
  6
CONTINUOUS
 10
18.041468343
 20
13.2350543681
 11
17.6783688578
 21
12.0600640037
  0
LINE
  5
274
100
AcDbEntity
  8
0
100
AcDbLine
 62
7
  6
CONTINUOUS
 10
18.0994262976
 20
13.1169484742
 11
17.7363268125
 21
11.9419581097
  0
LINE
  5
275
100
AcDbEntity
  8
0
100
AcDbLine
 62
7
  6
CONTINUOUS
 10
18.0994262976
 20
13.1169484742
 11
18.041468343
 21
13.2350543681
  0
ARC
  5
276
100
AcDbEntity
  8
0
100
AcDbCircle
 62
7
  6
CONTINUOUS
 10
4.6967045258
 20
5.3730365634
 40
0.0729166667
100
AcDbArc
 50
202.5
 51
270.0
  0
ARC
  5
277
100
AcDbEntity
  8
0
100
AcDbCircle
 62
7
  6
CONTINUOUS
 10
4.9390300266
 20
5.3730365634
 40
0.0729166667
100
AcDbArc
 50
270.0
 51
337.5
  0
ARC
  5
278
100
AcDbEntity
  8
0
100
AcDbCircle
 62
7
  6
CONTINUOUS
 10
5.5717045258
 20
5.3730365634
 40
0.0729166667
100
AcDbArc
 50
202.5
 51
270.0
  0
ARC
  5
279
100
AcDbEntity
  8
0
100
AcDbCircle
 62
7
  6
CONTINUOUS
 10
5.8140300266
 20
5.3730365634
 40
0.0729166667
100
AcDbArc
 50
270.0
 51
337.5
  0
ARC
  5
27A
100
AcDbEntity
  8
0
100
AcDbCircle
 62
7
  6
CONTINUOUS
 10
6.4467045258
 20
5.3730365634
 40
0.0729166667
100
AcDbArc
 50
202.5
 51
270.0
  0
ARC
  5
27B
100
AcDbEntity
  8
0
100
AcDbCircle
 62
7
  6
CONTINUOUS
 10
6.6890300266
 20
5.3730365634
 40
0.0729166667
100
AcDbArc
 50
270.0
 51
337.5
  0
ARC
  5
27C
100
AcDbEntity
  8
0
100
AcDbCircle
 62
7
  6
CONTINUOUS
 10
4.0640300266
 20
5.3730365634
 40
0.0729166667
100
AcDbArc
 50
270.0
 51
337.5
  0
ARC
  5
27D
100
AcDbEntity
  8
0
100
AcDbCircle
 62
7
  6
CONTINUOUS
 10
3.8217045258
 20
5.3730365634
 40
0.0729166667
100
AcDbArc
 50
202.5
 51
270.0
  0
ARC
  5
27E
100
AcDbEntity
  8
0
100
AcDbCircle
 62
7
  6
CONTINUOUS
 10
8.4390300266
 20
5.3730365634
 40
0.0729166667
100
AcDbArc
 50
270.0
 51
337.5
  0
ARC
  5
27F
100
AcDbEntity
  8
0
100
AcDbCircle
 62
7
  6
CONTINUOUS
 10
8.1967045258
 20
5.3730365634
 40
0.0729166667
100
AcDbArc
 50
202.5
 51
270.0
  0
ARC
  5
280
100
AcDbEntity
  8
0
100
AcDbCircle
 62
7
  6
CONTINUOUS
 10
7.5640300266
 20
5.3730365634
 40
0.0729166667
100
AcDbArc
 50
270.0
 51
337.5
  0
ARC
  5
281
100
AcDbEntity
  8
0
100
AcDbCircle
 62
7
  6
CONTINUOUS
 10
7.3217045258
 20
5.3730365634
 40
0.0729166667
100
AcDbArc
 50
202.5
 51
270.0
  0
ARC
  5
282
100
AcDbEntity
  8
0
100
AcDbCircle
 62
7
  6
CONTINUOUS
 10
4.2487856822
 20
5.5015087856
 40
0.0486111111
100
AcDbArc
 50
90.0
 51
157.5
  0
ARC
  5
283
100
AcDbEntity
  8
0
100
AcDbCircle
 62
7
  6
CONTINUOUS
 10
3.6369488702
 20
5.5015087856
 40
0.0486111111
100
AcDbArc
 50
22.5
 51
90.0
  0
ARC
  5
284
100
AcDbEntity
  8
0
100
AcDbCircle
 62
7
  6
CONTINUOUS
 10
5.1237856822
 20
5.5015087856
 40
0.0486111111
100
AcDbArc
 50
90.0
 51
157.5
  0
ARC
  5
285
100
AcDbEntity
  8
0
100
AcDbCircle
 62
7
  6
CONTINUOUS
 10
4.5119488702
 20
5.5015087856
 40
0.0486111111
100
AcDbArc
 50
22.5
 51
90.0
  0
ARC
  5
286
100
AcDbEntity
  8
0
100
AcDbCircle
 62
7
  6
CONTINUOUS
 10
5.9987856822
 20
5.5015087856
 40
0.0486111111
100
AcDbArc
 50
90.0
 51
157.5
  0
ARC
  5
287
100
AcDbEntity
  8
0
100
AcDbCircle
 62
7
  6
CONTINUOUS
 10
5.3869488702
 20
5.5015087856
 40
0.0486111111
100
AcDbArc
 50
22.5
 51
90.0
  0
ARC
  5
288
100
AcDbEntity
  8
0
100
AcDbCircle
 62
7
  6
CONTINUOUS
 10
6.8737856822
 20
5.5015087856
 40
0.0486111111
100
AcDbArc
 50
90.0
 51
157.5
  0
ARC
  5
289
100
AcDbEntity
  8
0
100
AcDbCircle
 62
7
  6
CONTINUOUS
 10
6.2619488702
 20
5.5015087856
 40
0.0486111111
100
AcDbArc
 50
22.5
 51
90.0
  0
ARC
  5
28A
100
AcDbEntity
  8
0
100
AcDbCircle
 62
7
  6
CONTINUOUS
 10
7.7487856822
 20
5.5015087856
 40
0.0486111111
100
AcDbArc
 50
90.0
 51
157.5
  0
ARC
  5
28B
100
AcDbEntity
  8
0
100
AcDbCircle
 62
7
  6
CONTINUOUS
 10
7.1369488702
 20
5.5015087856
 40
0.0486111111
100
AcDbArc
 50
22.5
 51
90.0
  0
ARC
  5
28C
100
AcDbEntity
  8
0
100
AcDbCircle
 62
7
  6
CONTINUOUS
 10
8.6237856822
 20
5.5015087856
 40
0.0486111111
100
AcDbArc
 50
90.0
 51
157.5
  0
ARC
  5
28D
100
AcDbEntity
  8
0
100
AcDbCircle
 62
7
  6
CONTINUOUS
 10
8.0119488702
 20
5.5015087856
 40
0.0486111111
100
AcDbArc
 50
22.5
 51
90.0
  0
SPLINE
  5
28E
100
AcDbEntity
  8
0
100
AcDbSpline
 62
7
  6
CONTINUOUS
 70
0
 71
3
 72
9
 73
5
 74
0
 42
0.0000001
 43
0.0000001
 44
0.0000000001
 40
0.0
 40
0.0
 40
0.0
 40
0.0
 40
0.4953325025
 40
1.0
 40
1.0
 40
1.0
 40
1.0
 10
13.5538761695
 20
11.9260927944
 30
0.0
 10
13.5541393187
 20
11.9269426361
 30
0.0
 10
13.5548155015
 20
11.9286166261
 30
0.0
 10
13.5557562626
 20
11.9301567688
 30
0.0
 10
13.5562872057
 20
11.9308914057
 30
0.0
  0
SPLINE
  5
28F
100
AcDbEntity
  8
0
100
AcDbSpline
 62
7
  6
CONTINUOUS
 70
0
 71
3
 72
14
 73
10
 74
0
 42
0.0000001
 43
0.0000001
 44
0.0000000001
 40
0.0
 40
0.0
 40
0.0
 40
0.0
 40
0.1008722324
 40
0.2072983971
 40
0.32053817
 40
0.4413695639
 40
0.706310872
 40
0.8500856558
 40
1.0
 40
1.0
 40
1.0
 40
1.0
 10
13.5562872057
 20
11.9308914057
 30
0.0
 10
13.5569236286
 20
11.9317719891
 30
0.0
 10
13.5584024751
 20
11.9334625491
 30
0.0
 10
13.5610781582
 20
11.9356643638
 30
0.0
 10
13.5642267563
 20
11.9375678085
 30
0.0
 10
13.5691533553
 20
11.9397450806
 30
0.0
 10
13.5747313651
 20
11.9411399181
 30
0.0
 10
13.5807099895
 20
11.941841263
 30
0.0
 10
13.5838755693
 20
11.9419581097
 30
0.0
 10
13.58549029
 20
11.9419581097
 30
0.0
  0
SPLINE
  5
290
100
AcDbEntity
  8
0
100
AcDbSpline
 62
7
  6
CONTINUOUS
 70
0
 71
3
 72
9
 73
5
 74
0
 42
0.0000001
 43
0.0000001
 44
0.0000000001
 40
0.0
 40
0.0
 40
0.0
 40
0.0
 40
0.4953325025
 40
1.0
 40
1.0
 40
1.0
 40
1.0
 10
14.3598045393
 20
11.9260927944
 30
0.0
 10
14.3600676885
 20
11.9269426361
 30
0.0
 10
14.3607438713
 20
11.9286166261
 30
0.0
 10
14.3616846324
 20
11.9301567688
 30
0.0
 10
14.3622155755
 20
11.9308914057
 30
0.0
  0
SPLINE
  5
291
100
AcDbEntity
  8
0
100
AcDbSpline
 62
7
  6
CONTINUOUS
 70
0
 71
3
 72
14
 73
10
 74
0
 42
0.0000001
 43
0.0000001
 44
0.0000000001
 40
0.0
 40
0.0
 40
0.0
 40
0.0
 40
0.1008722324
 40
0.2072983971
 40
0.32053817
 40
0.4413695639
 40
0.706310872
 40
0.8500856558
 40
1.0
 40
1.0
 40
1.0
 40
1.0
 10
14.3622155755
 20
11.9308914057
 30
0.0
 10
14.3628519984
 20
11.9317719891
 30
0.0
 10
14.3643308448
 20
11.9334625491
 30
0.0
 10
14.3670065279
 20
11.9356643638
 30
0.0
 10
14.370155126
 20
11.9375678085
 30
0.0
 10
14.3750817251
 20
11.9397450806
 30
0.0
 10
14.3806597348
 20
11.9411399181
 30
0.0
 10
14.3866383593
 20
11.941841263
 30
0.0
 10
14.389803939
 20
11.9419581097
 30
0.0
 10
14.3914186597
 20
11.9419581097
 30
0.0
  0
SPLINE
  5
292
100
AcDbEntity
  8
0
100
AcDbSpline
 62
7
  6
CONTINUOUS
 70
0
 71
3
 72
9
 73
5
 74
0
 42
0.0000001
 43
0.0000001
 44
0.0000000001
 40
0.0
 40
0.0
 40
0.0
 40
0.0
 40
0.4953325025
 40
1.0
 40
1.0
 40
1.0
 40
1.0
 10
15.165732909
 20
11.9260927944
 30
0.0
 10
15.1659960582
 20
11.9269426361
 30
0.0
 10
15.166672241
 20
11.9286166261
 30
0.0
 10
15.1676130021
 20
11.9301567688
 30
0.0
 10
15.1681439453
 20
11.9308914057
 30
0.0
  0
SPLINE
  5
293
100
AcDbEntity
  8
0
100
AcDbSpline
 62
7
  6
CONTINUOUS
 70
0
 71
3
 72
14
 73
10
 74
0
 42
0.0000001
 43
0.0000001
 44
0.0000000001
 40
0.0
 40
0.0
 40
0.0
 40
0.0
 40
0.1008722324
 40
0.2072983971
 40
0.32053817
 40
0.4413695639
 40
0.706310872
 40
0.8500856558
 40
1.0
 40
1.0
 40
1.0
 40
1.0
 10
15.1681439453
 20
11.9308914057
 30
0.0
 10
15.1687803681
 20
11.9317719891
 30
0.0
 10
15.1702592146
 20
11.9334625491
 30
0.0
 10
15.1729348977
 20
11.9356643638
 30
0.0
 10
15.1760834958
 20
11.9375678085
 30
0.0
 10
15.1810100948
 20
11.9397450806
 30
0.0
 10
15.1865881046
 20
11.9411399181
 30
0.0
 10
15.192566729
 20
11.941841263
 30
0.0
 10
15.1957323088
 20
11.9419581097
 30
0.0
 10
15.1973470295
 20
11.9419581097
 30
0.0
  0
SPLINE
  5
294
100
AcDbEntity
  8
0
100
AcDbSpline
 62
7
  6
CONTINUOUS
 70
0
 71
3
 72
9
 73
5
 74
0
 42
0.0000001
 43
0.0000001
 44
0.0000000001
 40
0.0
 40
0.0
 40
0.0
 40
0.0
 40
0.4953325025
 40
1.0
 40
1.0
 40
1.0
 40
1.0
 10
15.9716612788
 20
11.9260927944
 30
0.0
 10
15.971924428
 20
11.9269426361
 30
0.0
 10
15.9726006108
 20
11.9286166261
 30
0.0
 10
15.9735413719
 20
11.9301567688
 30
0.0
 10
15.974072315
 20
11.9308914057
 30
0.0
  0
SPLINE
  5
295
100
AcDbEntity
  8
0
100
AcDbSpline
 62
7
  6
CONTINUOUS
 70
0
 71
3
 72
14
 73
10
 74
0
 42
0.0000001
 43
0.0000001
 44
0.0000000001
 40
0.0
 40
0.0
 40
0.0
 40
0.0
 40
0.1008722324
 40
0.2072983971
 40
0.32053817
 40
0.4413695639
 40
0.706310872
 40
0.8500856558
 40
1.0
 40
1.0
 40
1.0
 40
1.0
 10
15.974072315
 20
11.9308914057
 30
0.0
 10
15.9747087379
 20
11.9317719891
 30
0.0
 10
15.9761875844
 20
11.9334625491
 30
0.0
 10
15.9788632674
 20
11.9356643638
 30
0.0
 10
15.9820118655
 20
11.9375678085
 30
0.0
 10
15.9869384646
 20
11.9397450806
 30
0.0
 10
15.9925164743
 20
11.9411399181
 30
0.0
 10
15.9984950988
 20
11.941841263
 30
0.0
 10
16.0016606785
 20
11.9419581097
 30
0.0
 10
16.0032753992
 20
11.9419581097
 30
0.0
  0
SPLINE
  5
296
100
AcDbEntity
  8
0
100
AcDbSpline
 62
7
  6
CONTINUOUS
 70
0
 71
3
 72
9
 73
5
 74
0
 42
0.0000001
 43
0.0000001
 44
0.0000000001
 40
0.0
 40
0.0
 40
0.0
 40
0.0
 40
0.4953325025
 40
1.0
 40
1.0
 40
1.0
 40
1.0
 10
16.7775896485
 20
11.9260927944
 30
0.0
 10
16.7778527977
 20
11.9269426361
 30
0.0
 10
16.7785289805
 20
11.9286166261
 30
0.0
 10
16.7794697416
 20
11.9301567688
 30
0.0
 10
16.7800006848
 20
11.9308914057
 30
0.0
  0
SPLINE
  5
297
100
AcDbEntity
  8
0
100
AcDbSpline
 62
7
  6
CONTINUOUS
 70
0
 71
3
 72
14
 73
10
 74
0
 42
0.0000001
 43
0.0000001
 44
0.0000000001
 40
0.0
 40
0.0
 40
0.0
 40
0.0
 40
0.1008722324
 40
0.2072983971
 40
0.32053817
 40
0.4413695639
 40
0.706310872
 40
0.8500856558
 40
1.0
 40
1.0
 40
1.0
 40
1.0
 10
16.7800006848
 20
11.9308914057
 30
0.0
 10
16.7806371076
 20
11.9317719891
 30
0.0
 10
16.7821159541
 20
11.9334625491
 30
0.0
 10
16.7847916372
 20
11.9356643638
 30
0.0
 10
16.7879402353
 20
11.9375678085
 30
0.0
 10
16.7928668343
 20
11.9397450806
 30
0.0
 10
16.7984448441
 20
11.9411399181
 30
0.0
 10
16.8044234685
 20
11.941841263
 30
0.0
 10
16.8075890483
 20
11.9419581097
 30
0.0
 10
16.809203769
 20
11.9419581097
 30
0.0
  0
SPLINE
  5
298
100
AcDbEntity
  8
0
100
AcDbSpline
 62
7
  6
CONTINUOUS
 70
0
 71
3
 72
9
 73
5
 74
0
 42
0.0000001
 43
0.0000001
 44
0.0000000001
 40
0.0
 40
0.0
 40
0.0
 40
0.0
 40
0.4953325025
 40
1.0
 40
1.0
 40
1.0
 40
1.0
 10
17.5835180183
 20
11.9260927944
 30
0.0
 10
17.5837811675
 20
11.9269426361
 30
0.0
 10
17.5844573503
 20
11.9286166261
 30
0.0
 10
17.5853981114
 20
11.9301567688
 30
0.0
 10
17.5859290545
 20
11.9308914057
 30
0.0
  0
SPLINE
  5
299
100
AcDbEntity
  8
0
100
AcDbSpline
 62
7
  6
CONTINUOUS
 70
0
 71
3
 72
14
 73
10
 74
0
 42
0.0000001
 43
0.0000001
 44
0.0000000001
 40
0.0
 40
0.0
 40
0.0
 40
0.0
 40
0.1008722324
 40
0.2072983971
 40
0.32053817
 40
0.4413695639
 40
0.706310872
 40
0.8500856558
 40
1.0
 40
1.0
 40
1.0
 40
1.0
 10
17.5859290545
 20
11.9308914057
 30
0.0
 10
17.5865654774
 20
11.9317719891
 30
0.0
 10
17.5880443239
 20
11.9334625491
 30
0.0
 10
17.5907200069
 20
11.9356643638
 30
0.0
 10
17.593868605
 20
11.9375678085
 30
0.0
 10
17.5987952041
 20
11.9397450806
 30
0.0
 10
17.6043732138
 20
11.9411399181
 30
0.0
 10
17.6103518383
 20
11.941841263
 30
0.0
 10
17.613517418
 20
11.9419581097
 30
0.0
 10
17.6151321388
 20
11.9419581097
 30
0.0
  0
SPLINE
  5
29A
100
AcDbEntity
  8
0
100
AcDbSpline
 62
7
  6
CONTINUOUS
 70
0
 71
3
 72
15
 73
11
 74
0
 42
0.0000001
 43
0.0000001
 44
0.0000000001
 40
0.0
 40
0.0
 40
0.0
 40
0.0
 40
0.1557507105
 40
0.303214229
 40
0.4410980042
 40
0.5690411952
 40
0.6873378989
 40
0.7970482372
 40
0.9002754444
 40
1.0
 40
1.0
 40
1.0
 40
1.0
 10
13.4915795288
 20
11.7865556177
 30
0.0
 10
13.4945152273
 20
11.7865556177
 30
0.0
 10
13.5002347406
 20
11.7868091014
 30
0.0
 10
13.5084781729
 20
11.7879996867
 30
0.0
 10
13.5160320172
 20
11.7899798027
 30
0.0
 10
13.5227605754
 20
11.7927163962
 30
0.0
 10
13.5285484348
 20
11.7961685463
 30
0.0
 10
13.53328747
 20
11.8002925605
 30
0.0
 10
13.5368757507
 20
11.805024062
 30
0.0
 10
13.5384465807
 20
11.808557456
 30
0.0
 10
13.5390018543
 20
11.8103532459
 30
0.0
  0
SPLINE
  5
29B
100
AcDbEntity
  8
0
100
AcDbSpline
 62
7
  6
CONTINUOUS
 70
0
 71
3
 72
15
 73
11
 74
0
 42
0.0000001
 43
0.0000001
 44
0.0000000001
 40
0.0
 40
0.0
 40
0.0
 40
0.0
 40
0.1148729629
 40
0.2360780416
 40
0.3619573791
 40
0.4908828292
 40
0.6210130529
 40
0.7504589598
 40
0.8774378056
 40
1.0
 40
1.0
 40
1.0
 40
1.0
 10
13.1926038206
 20
11.8145359398
 30
0.0
 10
13.1949435065
 20
11.8124175865
 30
0.0
 10
13.2000125542
 20
11.8083465219
 30
0.0
 10
13.2083670485
 20
11.8029253768
 30
0.0
 10
13.2175301008
 20
11.798122965
 30
0.0
 10
13.2273015309
 20
11.7940429025
 30
0.0
 10
13.2374740461
 20
11.7907678575
 30
0.0
 10
13.247834078
 20
11.7883703513
 30
0.0
 10
13.2581558066
 20
11.7869035696
 30
0.0
 10
13.2650155043
 20
11.7865556177
 30
0.0
 10
13.2683829622
 20
11.7865556177
 30
0.0
  0
SPLINE
  5
29C
100
AcDbEntity
  8
0
100
AcDbSpline
 62
7
  6
CONTINUOUS
 70
0
 71
3
 72
15
 73
11
 74
0
 42
0.0000001
 43
0.0000001
 44
0.0000000001
 40
0.0
 40
0.0
 40
0.0
 40
0.0
 40
0.1557507105
 40
0.303214229
 40
0.4410980042
 40
0.5690411952
 40
0.6873378989
 40
0.7970482372
 40
0.9002754444
 40
1.0
 40
1.0
 40
1.0
 40
1.0
 10
17.5212213776
 20
11.7865556177
 30
0.0
 10
17.524157076
 20
11.7865556177
 30
0.0
 10
17.5298765894
 20
11.7868091014
 30
0.0
 10
17.5381200216
 20
11.7879996867
 30
0.0
 10
17.5456738659
 20
11.7899798027
 30
0.0
 10
17.5524024242
 20
11.7927163962
 30
0.0
 10
17.5581902835
 20
11.7961685463
 30
0.0
 10
17.5629293187
 20
11.8002925605
 30
0.0
 10
17.5665175994
 20
11.805024062
 30
0.0
 10
17.5680884294
 20
11.808557456
 30
0.0
 10
17.5686437031
 20
11.8103532459
 30
0.0
  0
SPLINE
  5
29D
100
AcDbEntity
  8
0
100
AcDbSpline
 62
7
  6
CONTINUOUS
 70
0
 71
3
 72
15
 73
11
 74
0
 42
0.0000001
 43
0.0000001
 44
0.0000000001
 40
0.0
 40
0.0
 40
0.0
 40
0.0
 40
0.1148729629
 40
0.2360780416
 40
0.3619573791
 40
0.4908828292
 40
0.6210130529
 40
0.7504589598
 40
0.8774378056
 40
1.0
 40
1.0
 40
1.0
 40
1.0
 10
17.2222456694
 20
11.8145359398
 30
0.0
 10
17.2245853552
 20
11.8124175865
 30
0.0
 10
17.229654403
 20
11.8083465219
 30
0.0
 10
17.2380088972
 20
11.8029253768
 30
0.0
 10
17.2471719495
 20
11.798122965
 30
0.0
 10
17.2569433797
 20
11.7940429025
 30
0.0
 10
17.2671158949
 20
11.7907678575
 30
0.0
 10
17.2774759268
 20
11.7883703513
 30
0.0
 10
17.2877976553
 20
11.7869035696
 30
0.0
 10
17.2946573531
 20
11.7865556177
 30
0.0
 10
17.298024811
 20
11.7865556177
 30
0.0
  0
SPLINE
  5
29E
100
AcDbEntity
  8
0
100
AcDbSpline
 62
7
  6
CONTINUOUS
 70
0
 71
3
 72
15
 73
11
 74
0
 42
0.0000001
 43
0.0000001
 44
0.0000000001
 40
0.0
 40
0.0
 40
0.0
 40
0.0
 40
0.1557507105
 40
0.303214229
 40
0.4410980042
 40
0.5690411952
 40
0.6873378989
 40
0.7970482372
 40
0.9002754444
 40
1.0
 40
1.0
 40
1.0
 40
1.0
 10
16.7152930078
 20
11.7865556177
 30
0.0
 10
16.7182287063
 20
11.7865556177
 30
0.0
 10
16.7239482197
 20
11.7868091014
 30
0.0
 10
16.7321916519
 20
11.7879996867
 30
0.0
 10
16.7397454962
 20
11.7899798027
 30
0.0
 10
16.7464740544
 20
11.7927163962
 30
0.0
 10
16.7522619138
 20
11.7961685463
 30
0.0
 10
16.757000949
 20
11.8002925605
 30
0.0
 10
16.7605892297
 20
11.805024062
 30
0.0
 10
16.7621600597
 20
11.808557456
 30
0.0
 10
16.7627153333
 20
11.8103532459
 30
0.0
  0
SPLINE
  5
29F
100
AcDbEntity
  8
0
100
AcDbSpline
 62
7
  6
CONTINUOUS
 70
0
 71
3
 72
15
 73
11
 74
0
 42
0.0000001
 43
0.0000001
 44
0.0000000001
 40
0.0
 40
0.0
 40
0.0
 40
0.0
 40
0.1148729629
 40
0.2360780416
 40
0.3619573791
 40
0.4908828292
 40
0.6210130529
 40
0.7504589598
 40
0.8774378056
 40
1.0
 40
1.0
 40
1.0
 40
1.0
 10
16.4163172997
 20
11.8145359398
 30
0.0
 10
16.4186569855
 20
11.8124175865
 30
0.0
 10
16.4237260332
 20
11.8083465219
 30
0.0
 10
16.4320805275
 20
11.8029253768
 30
0.0
 10
16.4412435798
 20
11.798122965
 30
0.0
 10
16.4510150099
 20
11.7940429025
 30
0.0
 10
16.4611875251
 20
11.7907678575
 30
0.0
 10
16.471547557
 20
11.7883703513
 30
0.0
 10
16.4818692856
 20
11.7869035696
 30
0.0
 10
16.4887289833
 20
11.7865556177
 30
0.0
 10
16.4920964412
 20
11.7865556177
 30
0.0
  0
SPLINE
  5
2A0
100
AcDbEntity
  8
0
100
AcDbSpline
 62
7
  6
CONTINUOUS
 70
0
 71
3
 72
15
 73
11
 74
0
 42
0.0000001
 43
0.0000001
 44
0.0000000001
 40
0.0
 40
0.0
 40
0.0
 40
0.0
 40
0.1557507105
 40
0.303214229
 40
0.4410980042
 40
0.5690411952
 40
0.6873378989
 40
0.7970482372
 40
0.9002754444
 40
1.0
 40
1.0
 40
1.0
 40
1.0
 10
15.9093646381
 20
11.7865556177
 30
0.0
 10
15.9123003365
 20
11.7865556177
 30
0.0
 10
15.9180198499
 20
11.7868091014
 30
0.0
 10
15.9262632821
 20
11.7879996867
 30
0.0
 10
15.9338171264
 20
11.7899798027
 30
0.0
 10
15.9405456847
 20
11.7927163962
 30
0.0
 10
15.946333544
 20
11.7961685463
 30
0.0
 10
15.9510725792
 20
11.8002925605
 30
0.0
 10
15.9546608599
 20
11.805024062
 30
0.0
 10
15.9562316899
 20
11.808557456
 30
0.0
 10
15.9567869636
 20
11.8103532459
 30
0.0
  0
SPLINE
  5
2A1
100
AcDbEntity
  8
0
100
AcDbSpline
 62
7
  6
CONTINUOUS
 70
0
 71
3
 72
15
 73
11
 74
0
 42
0.0000001
 43
0.0000001
 44
0.0000000001
 40
0.0
 40
0.0
 40
0.0
 40
0.0
 40
0.1148729629
 40
0.2360780416
 40
0.3619573791
 40
0.4908828292
 40
0.6210130529
 40
0.7504589598
 40
0.8774378056
 40
1.0
 40
1.0
 40
1.0
 40
1.0
 10
15.6103889299
 20
11.8145359398
 30
0.0
 10
15.6127286157
 20
11.8124175865
 30
0.0
 10
15.6177976634
 20
11.8083465219
 30
0.0
 10
15.6261521577
 20
11.8029253768
 30
0.0
 10
15.63531521
 20
11.798122965
 30
0.0
 10
15.6450866402
 20
11.7940429025
 30
0.0
 10
15.6552591553
 20
11.7907678575
 30
0.0
 10
15.6656191873
 20
11.7883703513
 30
0.0
 10
15.6759409158
 20
11.7869035696
 30
0.0
 10
15.6828006136
 20
11.7865556177
 30
0.0
 10
15.6861680715
 20
11.7865556177
 30
0.0
  0
SPLINE
  5
2A2
100
AcDbEntity
  8
0
100
AcDbSpline
 62
7
  6
CONTINUOUS
 70
0
 71
3
 72
15
 73
11
 74
0
 42
0.0000001
 43
0.0000001
 44
0.0000000001
 40
0.0
 40
0.0
 40
0.0
 40
0.0
 40
0.1557507105
 40
0.303214229
 40
0.4410980042
 40
0.5690411952
 40
0.6873378989
 40
0.7970482372
 40
0.9002754444
 40
1.0
 40
1.0
 40
1.0
 40
1.0
 10
15.1034362683
 20
11.7865556177
 30
0.0
 10
15.1063719668
 20
11.7865556177
 30
0.0
 10
15.1120914802
 20
11.7868091014
 30
0.0
 10
15.1203349124
 20
11.7879996867
 30
0.0
 10
15.1278887567
 20
11.7899798027
 30
0.0
 10
15.1346173149
 20
11.7927163962
 30
0.0
 10
15.1404051743
 20
11.7961685463
 30
0.0
 10
15.1451442095
 20
11.8002925605
 30
0.0
 10
15.1487324902
 20
11.805024062
 30
0.0
 10
15.1503033202
 20
11.808557456
 30
0.0
 10
15.1508585938
 20
11.8103532459
 30
0.0
  0
SPLINE
  5
2A3
100
AcDbEntity
  8
0
100
AcDbSpline
 62
7
  6
CONTINUOUS
 70
0
 71
3
 72
15
 73
11
 74
0
 42
0.0000001
 43
0.0000001
 44
0.0000000001
 40
0.0
 40
0.0
 40
0.0
 40
0.0
 40
0.1148729629
 40
0.2360780416
 40
0.3619573791
 40
0.4908828292
 40
0.6210130529
 40
0.7504589598
 40
0.8774378056
 40
1.0
 40
1.0
 40
1.0
 40
1.0
 10
14.8044605602
 20
11.8145359398
 30
0.0
 10
14.806800246
 20
11.8124175865
 30
0.0
 10
14.8118692937
 20
11.8083465219
 30
0.0
 10
14.820223788
 20
11.8029253768
 30
0.0
 10
14.8293868403
 20
11.798122965
 30
0.0
 10
14.8391582704
 20
11.7940429025
 30
0.0
 10
14.8493307856
 20
11.7907678575
 30
0.0
 10
14.8596908175
 20
11.7883703513
 30
0.0
 10
14.8700125461
 20
11.7869035696
 30
0.0
 10
14.8768722438
 20
11.7865556177
 30
0.0
 10
14.8802397017
 20
11.7865556177
 30
0.0
  0
SPLINE
  5
2A4
100
AcDbEntity
  8
0
100
AcDbSpline
 62
7
  6
CONTINUOUS
 70
0
 71
3
 72
15
 73
11
 74
0
 42
0.0000001
 43
0.0000001
 44
0.0000000001
 40
0.0
 40
0.0
 40
0.0
 40
0.0
 40
0.1557507105
 40
0.303214229
 40
0.4410980042
 40
0.5690411952
 40
0.6873378989
 40
0.7970482372
 40
0.9002754444
 40
1.0
 40
1.0
 40
1.0
 40
1.0
 10
14.2975078986
 20
11.7865556177
 30
0.0
 10
14.300443597
 20
11.7865556177
 30
0.0
 10
14.3061631104
 20
11.7868091014
 30
0.0
 10
14.3144065426
 20
11.7879996867
 30
0.0
 10
14.3219603869
 20
11.7899798027
 30
0.0
 10
14.3286889452
 20
11.7927163962
 30
0.0
 10
14.3344768045
 20
11.7961685463
 30
0.0
 10
14.3392158397
 20
11.8002925605
 30
0.0
 10
14.3428041204
 20
11.805024062
 30
0.0
 10
14.3443749504
 20
11.808557456
 30
0.0
 10
14.3449302241
 20
11.8103532459
 30
0.0
  0
SPLINE
  5
2A5
100
AcDbEntity
  8
0
100
AcDbSpline
 62
7
  6
CONTINUOUS
 70
0
 71
3
 72
15
 73
11
 74
0
 42
0.0000001
 43
0.0000001
 44
0.0000000001
 40
0.0
 40
0.0
 40
0.0
 40
0.0
 40
0.1148729629
 40
0.2360780416
 40
0.3619573791
 40
0.4908828292
 40
0.6210130529
 40
0.7504589598
 40
0.8774378056
 40
1.0
 40
1.0
 40
1.0
 40
1.0
 10
13.9985321904
 20
11.8145359398
 30
0.0
 10
14.0008718762
 20
11.8124175865
 30
0.0
 10
14.0059409239
 20
11.8083465219
 30
0.0
 10
14.0142954182
 20
11.8029253768
 30
0.0
 10
14.0234584705
 20
11.798122965
 30
0.0
 10
14.0332299007
 20
11.7940429025
 30
0.0
 10
14.0434024158
 20
11.7907678575
 30
0.0
 10
14.0537624478
 20
11.7883703513
 30
0.0
 10
14.0640841763
 20
11.7869035696
 30
0.0
 10
14.0709438741
 20
11.7865556177
 30
0.0
 10
14.074311332
 20
11.7865556177
 30
0.0
  0
SPLINE
  5
2A6
100
AcDbEntity
  8
0
100
AcDbSpline
 62
7
  6
CONTINUOUS
 70
0
 71
3
 72
15
 73
11
 74
0
 42
0.0000001
 43
0.0000001
 44
0.0000000001
 40
0.0
 40
0.0
 40
0.0
 40
0.0
 40
0.1224854741
 40
0.2495249005
 40
0.3790232872
 40
0.5091197691
 40
0.6380078587
 40
0.7639369155
 40
0.8851964525
 40
1.0
 40
1.0
 40
1.0
 40
1.0
 10
13.0219512677
 20
11.9419581097
 30
0.0
 10
13.0241948274
 20
11.9419581097
 30
0.0
 10
13.0287675422
 20
11.9417249073
 30
0.0
 10
13.0356496313
 20
11.9407490583
 30
0.0
 10
13.0425574184
 20
11.9391490602
 30
0.0
 10
13.0493392734
 20
11.936967425
 30
0.0
 10
13.0558525172
 20
11.9342459778
 30
0.0
 10
13.0619629514
 20
11.931045026
 30
0.0
 10
13.0675319092
 20
11.9274287277
 30
0.0
 10
13.0709118523
 20
11.9247159394
 30
0.0
 10
13.0724706955
 20
11.9233045616
 30
0.0
  0
SPLINE
  5
2A7
100
AcDbEntity
  8
0
100
AcDbSpline
 62
7
  6
CONTINUOUS
 70
0
 71
3
 72
15
 73
11
 74
0
 42
0.0000001
 43
0.0000001
 44
0.0000000001
 40
0.0
 40
0.0
 40
0.0
 40
0.0
 40
0.1224854741
 40
0.2495249005
 40
0.3790232872
 40
0.5091197691
 40
0.6380078587
 40
0.7639369155
 40
0.8851964525
 40
1.0
 40
1.0
 40
1.0
 40
1.0
 10
13.8278796375
 20
11.9419581097
 30
0.0
 10
13.8301231972
 20
11.9419581097
 30
0.0
 10
13.834695912
 20
11.9417249073
 30
0.0
 10
13.8415780011
 20
11.9407490583
 30
0.0
 10
13.8484857881
 20
11.9391490602
 30
0.0
 10
13.8552676431
 20
11.936967425
 30
0.0
 10
13.861780887
 20
11.9342459778
 30
0.0
 10
13.8678913211
 20
11.931045026
 30
0.0
 10
13.873460279
 20
11.9274287277
 30
0.0
 10
13.8768402221
 20
11.9247159394
 30
0.0
 10
13.8783990652
 20
11.9233045616
 30
0.0
  0
SPLINE
  5
2A8
100
AcDbEntity
  8
0
100
AcDbSpline
 62
7
  6
CONTINUOUS
 70
0
 71
3
 72
15
 73
11
 74
0
 42
0.0000001
 43
0.0000001
 44
0.0000000001
 40
0.0
 40
0.0
 40
0.0
 40
0.0
 40
0.1224854741
 40
0.2495249005
 40
0.3790232872
 40
0.5091197691
 40
0.6380078587
 40
0.7639369155
 40
0.8851964525
 40
1.0
 40
1.0
 40
1.0
 40
1.0
 10
14.6338080072
 20
11.9419581097
 30
0.0
 10
14.6360515669
 20
11.9419581097
 30
0.0
 10
14.6406242817
 20
11.9417249073
 30
0.0
 10
14.6475063708
 20
11.9407490583
 30
0.0
 10
14.6544141579
 20
11.9391490602
 30
0.0
 10
14.6611960129
 20
11.936967425
 30
0.0
 10
14.6677092567
 20
11.9342459778
 30
0.0
 10
14.6738196909
 20
11.931045026
 30
0.0
 10
14.6793886487
 20
11.9274287277
 30
0.0
 10
14.6827685918
 20
11.9247159394
 30
0.0
 10
14.684327435
 20
11.9233045616
 30
0.0
  0
SPLINE
  5
2A9
100
AcDbEntity
  8
0
100
AcDbSpline
 62
7
  6
CONTINUOUS
 70
0
 71
3
 72
15
 73
11
 74
0
 42
0.0000001
 43
0.0000001
 44
0.0000000001
 40
0.0
 40
0.0
 40
0.0
 40
0.0
 40
0.1224854741
 40
0.2495249005
 40
0.3790232872
 40
0.5091197691
 40
0.6380078587
 40
0.7639369155
 40
0.8851964525
 40
1.0
 40
1.0
 40
1.0
 40
1.0
 10
15.439736377
 20
11.9419581097
 30
0.0
 10
15.4419799367
 20
11.9419581097
 30
0.0
 10
15.4465526515
 20
11.9417249073
 30
0.0
 10
15.4534347406
 20
11.9407490583
 30
0.0
 10
15.4603425276
 20
11.9391490602
 30
0.0
 10
15.4671243826
 20
11.936967425
 30
0.0
 10
15.4736376265
 20
11.9342459778
 30
0.0
 10
15.4797480606
 20
11.931045026
 30
0.0
 10
15.4853170185
 20
11.9274287277
 30
0.0
 10
15.4886969616
 20
11.9247159394
 30
0.0
 10
15.4902558047
 20
11.9233045616
 30
0.0
  0
SPLINE
  5
2AA
100
AcDbEntity
  8
0
100
AcDbSpline
 62
7
  6
CONTINUOUS
 70
0
 71
3
 72
15
 73
11
 74
0
 42
0.0000001
 43
0.0000001
 44
0.0000000001
 40
0.0
 40
0.0
 40
0.0
 40
0.0
 40
0.1224854741
 40
0.2495249005
 40
0.3790232872
 40
0.5091197691
 40
0.6380078587
 40
0.7639369155
 40
0.8851964525
 40
1.0
 40
1.0
 40
1.0
 40
1.0
 10
16.2456647468
 20
11.9419581097
 30
0.0
 10
16.2479083064
 20
11.9419581097
 30
0.0
 10
16.2524810212
 20
11.9417249073
 30
0.0
 10
16.2593631103
 20
11.9407490583
 30
0.0
 10
16.2662708974
 20
11.9391490602
 30
0.0
 10
16.2730527524
 20
11.936967425
 30
0.0
 10
16.2795659962
 20
11.9342459778
 30
0.0
 10
16.2856764304
 20
11.931045026
 30
0.0
 10
16.2912453882
 20
11.9274287277
 30
0.0
 10
16.2946253313
 20
11.9247159394
 30
0.0
 10
16.2961841745
 20
11.9233045616
 30
0.0
  0
SPLINE
  5
2AB
100
AcDbEntity
  8
0
100
AcDbSpline
 62
7
  6
CONTINUOUS
 70
0
 71
3
 72
15
 73
11
 74
0
 42
0.0000001
 43
0.0000001
 44
0.0000000001
 40
0.0
 40
0.0
 40
0.0
 40
0.0
 40
0.1224854741
 40
0.2495249005
 40
0.3790232872
 40
0.5091197691
 40
0.6380078587
 40
0.7639369155
 40
0.8851964525
 40
1.0
 40
1.0
 40
1.0
 40
1.0
 10
17.0515931165
 20
11.9419581097
 30
0.0
 10
17.0538366762
 20
11.9419581097
 30
0.0
 10
17.058409391
 20
11.9417249073
 30
0.0
 10
17.0652914801
 20
11.9407490583
 30
0.0
 10
17.0721992671
 20
11.9391490602
 30
0.0
 10
17.0789811221
 20
11.936967425
 30
0.0
 10
17.085494366
 20
11.9342459778
 30
0.0
 10
17.0916048001
 20
11.931045026
 30
0.0
 10
17.097173758
 20
11.9274287277
 30
0.0
 10
17.1005537011
 20
11.9247159394
 30
0.0
 10
17.1021125442
 20
11.9233045616
 30
0.0
  0
ENDSEC
  0
SECTION
  2
OBJECTS
  0
DICTIONARY
  5
C
100
AcDbDictionary
280
0
281
1
  3
ACAD_GROUP
350
D
  3
ACAD_MLINESTYLE
350
17
  3
ACAD_LAYOUT
350
1A
  3
ACAD_PLOTSETTINGS
350
19
  3
ACAD_PLOTSTYLENAME
350
E
  0
DICTIONARY
  5
D
102
{ACAD_REACTORS
330
C
102
}
100
AcDbDictionary
280
0
281
1
  0
ACDBDICTIONARYWDFLT
  5
E
102
{ACAD_REACTORS
330
C
102
}
100
AcDbDictionary
281
1
  3
Normal
350
F
100
AcDbDictionaryWithDefault
340
F
  0
DICTIONARY
  5
17
102
{ACAD_REACTORS
330
C
102
}
100
AcDbDictionary
280
0
281
1
  3
Standard
350
18
  0
DICTIONARY
  5
19
102
{ACAD_REACTORS
330
C
102
}
100
AcDbDictionary
281
1
  0
DICTIONARY
  5
1A
102
{ACAD_REACTORS
330
C
102
}
100
AcDbDictionary
281
1
  3
Model
350
2AC
  3
Layout1
350
2AD
  0
ACDBPLACEHOLDER
  5
F
102
{ACAD_REACTORS
330
E
102
}
  0
MLINESTYLE
  5
18
102
{ACAD_REACTORS
330
17
102
}
100
AcDbMlineStyle
  2
STANDARD
 70
0
  3

 62
256
 51
90.0
 52
90.0
 71
2
 49
0.5
 62
256
  6
BYLAYER
 49
-0.5
 62
256
  6
BYLAYER
  0
LAYOUT
  5
2AC
102
{ACAD_REACTORS
330
1A
102
}
100
AcDbPlotSettings
  1

  2
none_device
  4
ANSI_C_(22.00_x_17.00_Inches)
  6

 40
0.0
 41
0.0
 42
0.0
 43
0.0
 44
558.8
 45
431.8
 46
0.0
 47
0.0
 48
0.0
 49
0.0
140
0.0
141
0.0
142
1.0
143
1.0
 70
1024
 72
0
 73
0
 74
0
  7

 75
0
147
1.0
148
0.0
149
0.0
100
AcDbLayout
  1
Model
 70
0
 71
0
 10
0.0
 20
0.0
 11
22.0
 21
17.0
 12
0.0
 22
0.0
 32
0.0
 14
0.0
 24
0.0
 34
0.0
 15
0.0
 25
0.0
 35
0.0
146
0.0
 13
0.0
 23
0.0
 33
0.0
 16
1.0
 26
0.0
 36
0.0
 17
0.0
 27
1.0
 37
0.0
 76
0
330
216
345
0
346
0
  0
LAYOUT
  5
2AD
102
{ACAD_REACTORS
330
1A
102
}
100
AcDbPlotSettings
  1

  2
none_device
  4
ANSI_C_(22.00_x_17.00_Inches)
  6

 40
0.0
 41
0.0
 42
0.0
 43
0.0
 44
558.8
 45
431.8
 46
0.0
 47
0.0
 48
0.0
 49
0.0
140
0.0
141
0.0
142
1.0
143
1.0
 70
0
 72
0
 73
0
 74
0
  7

 75
0
147
1.0
148
0.0
149
0.0
100
AcDbLayout
  1
Layout1
 70
0
 71
1
 10
0.0
 20
0.0
 11
22.0
 21
17.0
 12
0.0
 22
0.0
 32
0.0
 14
0.0
 24
0.0
 34
0.0
 15
0.0
 25
0.0
 35
0.0
146
0.0
 13
0.0
 23
0.0
 33
0.0
 16
1.0
 26
0.0
 36
0.0
 17
0.0
 27
1.0
 37
0.0
 76
0
330
217
345
0
346
0
  0
ENDSEC
  0
EOF