999
DXF file: _cgs_temp_output.dxf
999
Pro/ENGINEER 2016360 by Parametric Technology Corporation
  0
SECTION
  2
HEADER
  9
$ACADVER
  1
AC1021
  9
$DWGCODEPAGE
  3
ANSI_1252
  9
$EXTMAX
 10
22.0
 20
17.0
 30
0.0
  9
$EXTMIN
 10
0.0
 20
0.0
 30
0.0
  9
$LIMMIN
 10
0.0
 20
0.0
  9
$LIMMAX
 10
22.0
 20
17.0
  9
$VIEWCTR
 10
11.0
 20
8.5
  9
$VIEWSIZE
 40
17.0
  9
$CLAYER
  8
0
  9
$LTSCALE
 40
1.21
  9
$CELTYPE
  6
BYLAYER
  9
$DIMSCALE
 40
1.0
  9
$DIMASZ
 40
0.1875
  9
$DIMEXO
 40
0.0625
  9
$DIMDLI
 40
0.836
  9
$DIMEXE
 40
0.125
  9
$DIMCEN
 40
0.198
  9
$DIMLFAC
 40
1.0
  9
$DIMBLK
  1
_CLOSED
  9
$DIMALT
 70
0
  9
$DIMALTF
 40
25.4
  9
$DIMTXT
 40
0.15625
  9
$DIMTOL
 70
0
  9
$DIMLIM
 70
0
  9
$DIMTFAC
 40
1.0
  9
$DIMGAP
 40
0.09
  9
$DIMDSEP
 70
46
  9
$AUNITS
 70
0
  9
$PDMODE
 70
3
  9
$PDSIZE
 40
0.3125
  9
$HANDSEED
  5
2AE
  9
$TILEMODE
 70
1
  9
$MEASUREMENT
 70
0
  9
$INSUNITS
 70
1
  0
ENDSEC
  0
SECTION
  2
CLASSES
  0
CLASS
  1
ACDBDICTIONARYWDFLT
  2
AcDbDictionaryWithDefault
  3
AutoCAD 2000
 90
0
 91
1
280
0
281
0
  0
CLASS
  1
ACDBPLACEHOLDER
  2
AcDbPlaceHolder
  3
AutoCAD 2000
 90
0
 91
1
280
0
281
0
  0
CLASS
  1
LAYOUT
  2
AcDbLayout
  3
AutoCAD 2000
 90
0
 91
0
280
0
281
0
  0
ENDSEC
  0
SECTION
  2
TABLES
  0
TABLE
  2
VPORT
  5
8
100
AcDbSymbolTable
 70
2
  0
VPORT
  5
1F4
100
AcDbSymbolTableRecord
100
AcDbViewportTableRecord
  2
*ACTIVE
 70
0
 10
0.0
 20
0.0
 11
1.0
 21
1.0
 12
11.0
 22
8.5
 13
0.0
 23
0.0
 14
1.0
 24
1.0
 15
0.0
 25
0.0
 16
0.0
 26
0.0
 36
1.0
 17
0.0
 27
0.0
 37
0.0
 40
17.0
 41
1.2941176471
 42
50.0
 43
0.0
 44
0.0
 50
0.0
 51
0.0
 71
0
 72
100
 73
1
 74
1
 75
0
 76
0
 77
0
 78
0
  0
ENDTAB
  0
TABLE
  2
LTYPE
  5
5
100
AcDbSymbolTable
 70
6
  0
LTYPE
  5
14
100
AcDbSymbolTableRecord
100
AcDbLinetypeTableRecord
  2
BYBLOCK
 70
0
  3

 72
65
 73
0
 40
0.0
  0
LTYPE
  5
15
100
AcDbSymbolTableRecord
100
AcDbLinetypeTableRecord
  2
BYLAYER
 70
0
  3

 72
65
 73
0
 40
0.0
  0
LTYPE
  5
16
100
AcDbSymbolTableRecord
100
AcDbLinetypeTableRecord
  2
CONTINUOUS
 70
64
  3
Solid line
 72
65
 73
0
 40
0.0
  0
LTYPE
  5
1F5
100
AcDbSymbolTableRecord
100
AcDbLinetypeTableRecord
  2
CENTER
 70
64
  3
____ _ ____ _ ____ _ ____ _ ____ _ ____ _ ____
 72
65
 73
4
 40
0.6
 49
0.375
 74
0
 49
-0.075
 74
0
 49
0.075
 74
0
 49
-0.075
 74
0
  0
LTYPE
  5
1F6
100
AcDbSymbolTableRecord
100
AcDbLinetypeTableRecord
  2
HIDDEN
 70
64
  3
- - - - - - - - - - - - - - - - - - - -
 72
65
 73
2
 40
0.2
 49
0.1
 74
0
 49
-0.1
 74
0
  0
LTYPE
  5
1F7
100
AcDbSymbolTableRecord
100
AcDbLinetypeTableRecord
  2
PHANTOM
 70
64
  3
_____ _ _ _____ _ _ _____ _ _ _____
 72
65
 73
6
 40
0.8
 49
0.45
 74
0
 49
-0.05
 74
0
 49
0.1
 74
0
 49
-0.05
 74
0
 49
0.1
 74
0
 49
-0.05
 74
0
  0
LTYPE
  5
1F8
100
AcDbSymbolTableRecord
100
AcDbLinetypeTableRecord
  2
DOT
 70
64
  3
. . . . . . . . . . . . . . . . . . . .
 72
65
 73
2
 40
0.2
 49
0.1
 74
0
 49
-0.1
 74
0
  0
LTYPE
  5
1F9
100
AcDbSymbolTableRecord
100
AcDbLinetypeTableRecord
  2
DASHED
 70
64
  3
- - - - - - - - - - - - - - - - - - - -
 72
65
 73
2
 40
0.2
 49
0.1
 74
0
 49
-0.1
 74
0
  0
ENDTAB
  0
TABLE
  2
LAYER
  5
2
100
AcDbSymbolTable
 70
36
  0
LAYER
  5
10
100
AcDbSymbolTableRecord
100
AcDbLayerTableRecord
  2
0
 70
0
 62
7
  6
CONTINUOUS
370
-3
390
F
  0
LAYER
  5
1FA
100
AcDbSymbolTableRecord
100
AcDbLayerTableRecord
  2
DEFAULT_1
 70
0
 62
7
  6
CENTER
370
-3
390
F
  0
LAYER
  5
1FB
100
AcDbSymbolTableRecord
100
AcDbLayerTableRecord
  2
DEFAULT_2
 70
0
 62
8
  6
HIDDEN
370
-3
390
F
  0
LAYER
  5
1FC
100
AcDbSymbolTableRecord
100
AcDbLayerTableRecord
  2
DEFAULT_3
 70
0
 62
7
  6
PHANTOM
370
-3
390
F
  0
LAYER
  5
1FD
100
AcDbSymbolTableRecord
100
AcDbLayerTableRecord
  2
01_ALL_DTM_PLN
 70
0
 62
7
  6
CONTINUOUS
370
-3
390
F
  0
LAYER
  5
1FE
100
AcDbSymbolTableRecord
100
AcDbLayerTableRecord
  2
01__ASM_ALL_DTM_PLN
 70
0
 62
7
  6
CONTINUOUS
370
-3
390
F
  0
LAYER
  5
1FF
100
AcDbSymbolTableRecord
100
AcDbLayerTableRecord
  2
01__ASM_DEF_DTM_PLN
 70
0
 62
7
  6
CONTINUOUS
370
-3
390
F
  0
LAYER
  5
200
100
AcDbSymbolTableRecord
100
AcDbLayerTableRecord
  2
01___PRT_ALL_DTM_PLN
 70
0
 62
7
  6
CONTINUOUS
370
-3
390
F
  0
LAYER
  5
201
100
AcDbSymbolTableRecord
100
AcDbLayerTableRecord
  2
01___PRT_DEF_DTM_PLN
 70
0
 62
7
  6
CONTINUOUS
370
-3
390
F
  0
LAYER
  5
202
100
AcDbSymbolTableRecord
100
AcDbLayerTableRecord
  2
02_ALL_AXES
 70
0
 62
7
  6
CONTINUOUS
370
-3
390
F
  0
LAYER
  5
203
100
AcDbSymbolTableRecord
100
AcDbLayerTableRecord
  2
02__ASM_ALL_AXES
 70
0
 62
7
  6
CONTINUOUS
370
-3
390
F
  0
LAYER
  5
204
100
AcDbSymbolTableRecord
100
AcDbLayerTableRecord
  2
02___PRT_ALL_AXES
 70
0
 62
7
  6
CONTINUOUS
370
-3
390
F
  0
LAYER
  5
205
100
AcDbSymbolTableRecord
100
AcDbLayerTableRecord
  2
03_ALL_CURVES
 70
0
 62
7
  6
CONTINUOUS
370
-3
390
F
  0
LAYER
  5
206
100
AcDbSymbolTableRecord
100
AcDbLayerTableRecord
  2
03__ASM_ALL_CURVES
 70
0
 62
7
  6
CONTINUOUS
370
-3
390
F
  0
LAYER
  5
207
100
AcDbSymbolTableRecord
100
AcDbLayerTableRecord
  2
03___PRT_ALL_CURVES
 70
0
 62
7
  6
CONTINUOUS
370
-3
390
F
  0
LAYER
  5
208
100
AcDbSymbolTableRecord
100
AcDbLayerTableRecord
  2
04_ALL_DTM_PNT
 70
0
 62
7
  6
CONTINUOUS
370
-3
390
F
  0
LAYER
  5
209
100
AcDbSymbolTableRecord
100
AcDbLayerTableRecord
  2
04__ASM_ALL_DTM_PNT
 70
0
 62
7
  6
CONTINUOUS
370
-3
390
F
  0
LAYER
  5
20A
100
AcDbSymbolTableRecord
100
AcDbLayerTableRecord
  2
04___PRT_ALL_DTM_PNT
 70
0
 62
7
  6
CONTINUOUS
370
-3
390
F
  0
LAYER
  5
20B
100
AcDbSymbolTableRecord
100
AcDbLayerTableRecord
  2
05_ALL_DTM_CSYS
 70
0
 62
7
  6
CONTINUOUS
370
-3
390
F
  0
LAYER
  5
20C
100
AcDbSymbolTableRecord
100
AcDbLayerTableRecord
  2
05__ASM_ALL_DTM_CSYS
 70
0
 62
7
  6
CONTINUOUS
370
-3
390
F
  0
LAYER
  5
20D
100
AcDbSymbolTableRecord
100
AcDbLayerTableRecord
  2
05__ASM_DEF_DTM_CSYS
 70
0
 62
7
  6
CONTINUOUS
370
-3
390
F
  0
LAYER
  5
20E
100
AcDbSymbolTableRecord
100
AcDbLayerTableRecord
  2
05___PRT_ALL_DTM_CSYS
 70
0
 62
7
  6
CONTINUOUS
370
-3
390
F
  0
LAYER
  5
20F
100
AcDbSymbolTableRecord
100
AcDbLayerTableRecord
  2
05___PRT_DEF_DTM_CSYS
 70
0
 62
7
  6
CONTINUOUS
370
-3
390
F
  0
LAYER
  5
210
100
AcDbSymbolTableRecord
100
AcDbLayerTableRecord
  2
06_ALL_SURFS
 70
0
 62
7
  6
CONTINUOUS
370
-3
390
F
  0
LAYER
  5
211
100
AcDbSymbolTableRecord
100
AcDbLayerTableRecord
  2
06__ASM_ALL_SURFS
 70
0
 62
7
  6
CONTINUOUS
370
-3
390
F
  0
LAYER
  5
212
100
AcDbSymbolTableRecord
100
AcDbLayerTableRecord
  2
06___PRT_ALL_SURFS
 70
0
 62
7
  6
CONTINUOUS
370
-3
390
F
  0
LAYER
  5
213
100
AcDbSymbolTableRecord
100
AcDbLayerTableRecord
  2
07__ASM_ALL_SKELETONS
 70
0
 62
7
  6
CONTINUOUS
370
-3
390
F
  0
ENDTAB
  0
TABLE
  2
STYLE
  5
3
100
AcDbSymbolTable
 70
1
  0
STYLE
  5
11
100
AcDbSymbolTableRecord
100
AcDbTextStyleTableRecord
  2
STANDARD
 70
0
 40
0.0
 41
0.8
 50
0.0
 71
0
 42
0.2
  3
txt
  4

  0
STYLE
  5
214
100
AcDbSymbolTableRecord
100
AcDbTextStyleTableRecord
  2
TEXTSTYLE_1
 70
0
 40
0.0
 41
0.8
 50
0.0
 71
0
 42
0.2
  3
gdt
  4

  0
ENDTAB
  0
TABLE
  2
VIEW
  5
6
100
AcDbSymbolTable
 70
0
  0
ENDTAB
  0
TABLE
  2
UCS
  5
7
100
AcDbSymbolTable
 70
0
  0
ENDTAB
  0
TABLE
  2
APPID
  5
9
100
AcDbSymbolTable
 70
1
  0
APPID
  5
215
100
AcDbSymbolTableRecord
100
AcDbRegAppTableRecord
  2
ACAD
 70
0
  0
ENDTAB
  0
TABLE
  2
BLOCK_RECORD
  5
1
100
AcDbSymbolTable
 70
0
  0
BLOCK_RECORD
  5
216
100
AcDbSymbolTableRecord
100
AcDbBlockTableRecord
  2
*Model_Space
  0
BLOCK_RECORD
  5
217
100
AcDbSymbolTableRecord
100
AcDbBlockTableRecord
  2
*Paper_Space
  0
ENDTAB
  0
TABLE
  2
DIMSTYLE
  5
A
100
AcDbSymbolTable
 70
1
100
AcDbDimStyleTable
 71
0
  0
DIMSTYLE
105
218
100
AcDbSymbolTableRecord
100
AcDbDimStyleTableRecord
  2
STANDARD
 70
0
  3

  4

 40
1.0
 41
0.1875
 42
0.0625
 43
0.38
 44
0.125
 45
0.0
 46
0.0
 47
0.0001
 48
0.0001
140
0.15625
141
0.09
142
0.0
143
25.4
144
1.0
145
0.0
146
1.0
147
0.09
 71
0.0
 72
0.0
 73
1
 74
1
 75
0
 76
0
 77
0
 78
4
 79
1
170
0
171
3
172
0
173
0
174
0
175
0
176
0
177
0
178
0
270
2
179
4
271
4
272
4
273
2
274
2
275
0
280
0
281
0
282
0
283
1
284
4
285
0
286
0
287
3
288
0
340
11
278
46
  0
ENDTAB
  0
ENDSEC
  0
SECTION
  2
BLOCKS
  0
BLOCK
  5
20
100
AcDbEntity
  8
0
100
AcDbBlockBegin
  2
*Model_Space
 70
0
 10
0.0
 20
0.0
 30
0.0
  3
*Model_Space
  1

  0
ENDBLK
  5
21
100
AcDbEntity
  8
0
100
AcDbBlockEnd
  0
BLOCK
  5
1C
100
AcDbEntity
  8
0
100
AcDbBlockBegin
  2
*Paper_Space
 70
0
 10
0.0
 20
0.0
 30
0.0
  3
*Paper_Space
  1

  0
ENDBLK
  5
1D
100
AcDbEntity
  8
0
100
AcDbBlockEnd
  0
ENDSEC
  0
SECTION
  2
ENTITIES
  0
MTEXT
  5
219
100
AcDbEntity
  8
0
100
AcDbMText
 62
7
  6
CONTINUOUS
  7
STANDARD
 71
1
 72
1
 10
15.9560215477
 20
0.9479130325
 30
0.0
 11
1.0
 21
0.0
 31
0.0
 44
0.9
  1
SCALE: 1:1.000
 40
0.3
 41
3.36
  0
LINE
  5
21A
100
AcDbEntity
  8
0
100
AcDbLine
 62
7
  6
CONTINUOUS
 10
0.0
 20
0.0
 11
0.0
 21
17.0
  0
LINE
  5
21B
100
AcDbEntity
  8
0
100
AcDbLine
 62
7
  6
CONTINUOUS
 10
0.0
 20
0.0
 11
22.0
 21
0.0
  0
LINE
  5
21C
100
AcDbEntity
  8
0
100
AcDbLine
 62
7
  6
CONTINUOUS
 10
0.0
 20
17.0
 11
22.0
 21
17.0
  0
LINE
  5
21D
100
AcDbEntity
  8
0
100
AcDbLine
 62
7
  6
CONTINUOUS
 10
22.0
 20
0.0
 11
22.0
 21
17.0
  0
LINE
  5
21E
100
AcDbEntity
  8
0
100
AcDbLine
 62
7
  6
CONTINUOUS
 10
3.5053672762
 20
5.7401198968
 11
3.5053672762
 21
5.5501198968
  0
LINE
  5
21F
100
AcDbEntity
  8
0
100
AcDbLine
 62
7
  6
CONTINUOUS
 10
3.6818596808
 20
5.5201114525
 11
3.7543383099
 21
5.3451325631
  0
LINE
  5
220
100
AcDbEntity
  8
0
100
AcDbLine
 62
7
  6
CONTINUOUS
 10
4.1313962425
 20
5.3451325631
 11
4.2038748716
 21
5.5201114525
  0
LINE
  5
221
100
AcDbEntity
  8
0
100
AcDbLine
 62
7
  6
CONTINUOUS
 10
4.5568596808
 20
5.5201114525
 11
4.6293383099
 21
5.3451325631
  0
LINE
  5
222
100
AcDbEntity
  8
0
100
AcDbLine
 62
7
  6
CONTINUOUS
 10
5.0063962425
 20
5.3451325631
 11
5.0788748716
 21
5.5201114525
  0
LINE
  5
223
100
AcDbEntity
  8
0
100
AcDbLine
 62
7
  6
CONTINUOUS
 10
5.4318596808
 20
5.5201114525
 11
5.5043383099
 21
5.3451325631
  0
LINE
  5
224
100
AcDbEntity
  8
0
100
AcDbLine
 62
7
  6
CONTINUOUS
 10
5.8813962425
 20
5.3451325631
 11
5.9538748716
 21
5.5201114525
  0
LINE
  5
225
100
AcDbEntity
  8
0
100
AcDbLine
 62
7
  6
CONTINUOUS
 10
3.8217045258
 20
5.3001198968
 11
4.0640300266
 21
5.3001198968
  0
LINE
  5
226
100
AcDbEntity
  8
0
100
AcDbLine
 62
7
  6
CONTINUOUS
 10
4.6967045258
 20
5.3001198968
 11
4.9390300266
 21
5.3001198968
  0
LINE
  5
227
100
AcDbEntity
  8
0
100
AcDbLine
 62
7
  6
CONTINUOUS
 10
5.5717045258
 20
5.3001198968
 11
5.8140300266
 21
5.3001198968
  0
LINE
  5
228
100
AcDbEntity
  8
0
100
AcDbLine
 62
7
  6
CONTINUOUS
 10
6.4467045258
 20
5.3001198968
 11
6.6890300266
 21
5.3001198968
  0
LINE
  5
229
100
AcDbEntity
  8
0
100
AcDbLine
 62
7
  6
CONTINUOUS
 10
7.3217045258
 20
5.3001198968
 11
7.5640300266
 21
5.3001198968
  0
LINE
  5
22A
100
AcDbEntity
  8
0
100
AcDbLine
 62
7
  6
CONTINUOUS
 10
8.1967045258
 20
5.3001198968
 11
8.4390300266
 21
5.3001198968
  0
LINE
  5
22B
100
AcDbEntity
  8
0
100
AcDbLine
 62
7
  6
CONTINUOUS
 10
3.5053672762
 20
5.5501198968
 11
3.6369488702
 21
5.5501198968
  0
LINE
  5
22C
100
AcDbEntity
  8
0
100
AcDbLine
 62
7
  6
CONTINUOUS
 10
4.2487856822
 20
5.5501198968
 11
4.5119488702
 21
5.5501198968
  0
LINE
  5
22D
100
AcDbEntity
  8
0
100
AcDbLine
 62
7
  6
CONTINUOUS
 10
5.1237856822
 20
5.5501198968
 11
5.3869488702
 21
5.5501198968
  0
LINE
  5
22E
100
AcDbEntity
  8
0
100
AcDbLine
 62
7
  6
CONTINUOUS
 10
5.9987856822
 20
5.5501198968
 11
6.2619488702
 21
5.5501198968
  0
LINE
  5
22F
100
AcDbEntity
  8
0
100
AcDbLine
 62
7
  6
CONTINUOUS
 10
6.8737856822
 20
5.5501198968
 11
7.1369488702
 21
5.5501198968
  0
LINE
  5
230
100
AcDbEntity
  8
0
100
AcDbLine
 62
7
  6
CONTINUOUS
 10
7.7487856822
 20
5.5501198968
 11
8.0119488702
 21
5.5501198968
  0
LINE
  5
231
100
AcDbEntity
  8
0
100
AcDbLine
 62
7
  6
CONTINUOUS
 10
8.6237856822
 20
5.5501198968
 11
8.7553672762
 21
5.5501198968
  0
LINE
  5
232
100
AcDbEntity
  8
0
100
AcDbLine
 62
7
  6
CONTINUOUS
 10
6.3068596808
 20
5.5201114525
 11
6.3793383099
 21
5.3451325631
  0
LINE
  5
233
100
AcDbEntity
  8
0
100
AcDbLine
 62
7
  6
CONTINUOUS
 10
8.7553672762
 20
5.7401198968
 11
3.5053672762
 21
5.7401198968
  0
LINE
  5
234
100
AcDbEntity
  8
0
100
AcDbLine
 62
7
  6
CONTINUOUS
 10
6.7563962425
 20
5.3451325631
 11
6.8288748716
 21
5.5201114525
  0
LINE
  5
235
100
AcDbEntity
  8
0
100
AcDbLine
 62
7
  6
CONTINUOUS
 10
7.1818596808
 20
5.5201114525
 11
7.2543383099
 21
5.3451325631
  0
LINE
  5
236
100
AcDbEntity
  8
0
100
AcDbLine
 62
7
  6
CONTINUOUS
 10
7.6313962425
 20
5.3451325631
 11
7.7038748716
 21
5.5201114525
  0
LINE
  5
237
100
AcDbEntity
  8
0
100
AcDbLine
 62
7
  6
CONTINUOUS
 10
8.0568596808
 20
5.5201114525
 11
8.1293383099
 21
5.3451325631
  0
LINE
  5
238
100
AcDbEntity
  8
0
100
AcDbLine
 62
7
  6
CONTINUOUS
 10
8.5063962425
 20
5.3451325631
 11
8.5788748716
 21
5.5201114525
  0
LINE
  5
239
100
AcDbEntity
  8
0
100
AcDbLine
 62
7
  6
CONTINUOUS
 10
8.7553672762
 20
5.5501198968
 11
8.7553672762
 21
5.7401198968
  0
LINE
  5
23A
100
AcDbEntity
  8
0
100
AcDbLine
 62
7
  6
CONTINUOUS
 10
3.4458720839
 20
13.1000477814
 11
3.4458720839
 21
12.1000477814
  0
LINE
  5
23B
100
AcDbEntity
  8
0
100
AcDbLine
 62
7
  6
CONTINUOUS
 10
8.6958720839
 20
12.1000477814
 11
3.4458720839
 21
12.1000477814
  0
LINE
  5
23C
100
AcDbEntity
  8
0
100
AcDbLine
 62
7
  6
CONTINUOUS
 10
3.4458720839
 20
13.1000477814
 11
8.6958720839
 21
13.1000477814
  0
LINE
  5
23D
100
AcDbEntity
  8
0
100
AcDbLine
 62
7
  6
CONTINUOUS
 10
8.6958720839
 20
13.1000477814
 11
8.6958720839
 21
12.1000477814
  0
LINE
  5
23E
100
AcDbEntity
  8
0
100
AcDbLine
 62
7
  6
CONTINUOUS
 10
15.0603552569
 20
5.2406247044
 11
15.0603552569
 21
5.6806247044
  0
LINE
  5
23F
100
AcDbEntity
  8
0
100
AcDbLine
 62
7
  6
CONTINUOUS
 10
15.0603552569
 20
5.2406247044
 11
16.0603552569
 21
5.2406247044
  0
LINE
  5
240
100
AcDbEntity
  8
0
100
AcDbLine
 62
7
  6
CONTINUOUS
 10
16.0603552569
 20
5.4906247044
 11
15.0603552569
 21
5.4906247044
  0
LINE
  5
241
100
AcDbEntity
  8
0
100
AcDbLine
 62
7
  6
CONTINUOUS
 10
16.0603552569
 20
5.6806247044
 11
15.0603552569
 21
5.6806247044
  0
LINE
  5
242
100
AcDbEntity
  8
0
100
AcDbLine
 62
7
  6
CONTINUOUS
 10
16.0603552569
 20
5.2406247044
 11
16.0603552569
 21
5.6806247044
  0
LINE
  5
243
100
AcDbEntity
  8
0
100
AcDbLine
 62
7
  6
CONTINUOUS
 10
13.1453815436
 20
13.0392226407
 11
12.9033152202
 21
12.2558957311
  0
LINE
  5
244
100
AcDbEntity
  8
0
100
AcDbLine
 62
7
  6
CONTINUOUS
 10
12.9033152202
 20
12.2558957311
 11
12.9612731748
 21
12.1377898371
  0
LINE
  5
245
100
AcDbEntity
  8
0
100
AcDbLine
 62
7
  6
CONTINUOUS
 10
13.6004137557
 20
12.0103676672
 11
13.6137951068
 21
12.1191362891
  0
LINE
  5
246
100
AcDbEntity
  8
0
100
AcDbLine
 62
7
  6
CONTINUOUS
 10
13.5995258696
 20
12.0061826755
 11
13.6004137557
 21
12.0103676672
  0
LINE
  5
247
100
AcDbEntity
  8
0
100
AcDbLine
 62
7
  6
CONTINUOUS
 10
13.6137951068
 20
12.1191362891
 11
13.6143972531
 21
12.1219231294
  0
LINE
  5
248
100
AcDbEntity
  8
0
100
AcDbLine
 62
7
  6
CONTINUOUS
 10
13.1329872763
 20
12.1191362891
 11
13.2531204015
 21
12.0103676672
  0
LINE
  5
249
100
AcDbEntity
  8
0
100
AcDbLine
 62
7
  6
CONTINUOUS
 10
13.6007775009
 20
12.0102552614
 11
13.6399934868
 21
12.1371582385
  0
LINE
  5
24A
100
AcDbEntity
  8
0
100
AcDbLine
 62
7
  6
CONTINUOUS
 10
13.9389156461
 20
12.1191362891
 11
14.0590487713
 21
12.0103676672
  0
LINE
  5
24B
100
AcDbEntity
  8
0
100
AcDbLine
 62
7
  6
CONTINUOUS
 10
14.4063421255
 20
12.0103676672
 11
14.4197234766
 21
12.1191362891
  0
LINE
  5
24C
100
AcDbEntity
  8
0
100
AcDbLine
 62
7
  6
CONTINUOUS
 10
14.4054542393
 20
12.0061826755
 11
14.4063421255
 21
12.0103676672
  0
LINE
  5
24D
100
AcDbEntity
  8
0
100
AcDbLine
 62
7
  6
CONTINUOUS
 10
14.4197234766
 20
12.1191362891
 11
14.4203256228
 21
12.1219231294
  0
LINE
  5
24E
100
AcDbEntity
  8
0
100
AcDbLine
 62
7
  6
CONTINUOUS
 10
14.4067058706
 20
12.0102552614
 11
14.4459218566
 21
12.1371582385
  0
LINE
  5
24F
100
AcDbEntity
  8
0
100
AcDbLine
 62
7
  6
CONTINUOUS
 10
14.7448440158
 20
12.1191362891
 11
14.864977141
 21
12.0103676672
  0
LINE
  5
250
100
AcDbEntity
  8
0
100
AcDbLine
 62
7
  6
CONTINUOUS
 10
13.3288995431
 20
11.9823873451
 11
13.5520961097
 21
11.9823873451
  0
LINE
  5
251
100
AcDbEntity
  8
0
100
AcDbLine
 62
7
  6
CONTINUOUS
 10
14.1348279128
 20
11.9823873451
 11
14.3580244794
 21
11.9823873451
  0
LINE
  5
252
100
AcDbEntity
  8
0
100
AcDbLine
 62
7
  6
CONTINUOUS
 10
14.9407562826
 20
11.9823873451
 11
15.1639528492
 21
11.9823873451
  0
LINE
  5
253
100
AcDbEntity
  8
0
100
AcDbLine
 62
7
  6
CONTINUOUS
 10
15.7466846523
 20
11.9823873451
 11
15.9698812189
 21
11.9823873451
  0
LINE
  5
254
100
AcDbEntity
  8
0
100
AcDbLine
 62
7
  6
CONTINUOUS
 10
16.5526130221
 20
11.9823873451
 11
16.7758095887
 21
11.9823873451
  0
LINE
  5
255
100
AcDbEntity
  8
0
100
AcDbLine
 62
7
  6
CONTINUOUS
 10
17.3585413918
 20
11.9823873451
 11
17.5817379585
 21
11.9823873451
  0
LINE
  5
256
100
AcDbEntity
  8
0
100
AcDbLine
 62
7
  6
CONTINUOUS
 10
12.9612731748
 20
12.1377898371
 11
13.0824678486
 21
12.1377898371
  0
LINE
  5
257
100
AcDbEntity
  8
0
100
AcDbLine
 62
7
  6
CONTINUOUS
 10
13.6460068708
 20
12.1377898371
 11
13.8883962183
 21
12.1377898371
  0
LINE
  5
258
100
AcDbEntity
  8
0
100
AcDbLine
 62
7
  6
CONTINUOUS
 10
14.4519352406
 20
12.1377898371
 11
14.6943245881
 21
12.1377898371
  0
LINE
  5
259
100
AcDbEntity
  8
0
100
AcDbLine
 62
7
  6
CONTINUOUS
 10
15.2578636103
 20
12.1377898371
 11
15.5002529579
 21
12.1377898371
  0
LINE
  5
25A
100
AcDbEntity
  8
0
100
AcDbLine
 62
7
  6
CONTINUOUS
 10
16.0637919801
 20
12.1377898371
 11
16.3061813276
 21
12.1377898371
  0
LINE
  5
25B
100
AcDbEntity
  8
0
100
AcDbLine
 62
7
  6
CONTINUOUS
 10
16.8697203499
 20
12.1377898371
 11
17.1121096974
 21
12.1377898371
  0
LINE
  5
25C
100
AcDbEntity
  8
0
100
AcDbLine
 62
7
  6
CONTINUOUS
 10
17.6756487196
 20
12.1377898371
 11
17.7968433934
 21
12.1377898371
  0
LINE
  5
25D
100
AcDbEntity
  8
0
100
AcDbLine
 62
7
  6
CONTINUOUS
 10
15.2122704952
 20
12.0103676672
 11
15.2256518463
 21
12.1191362891
  0
LINE
  5
25E
100
AcDbEntity
  8
0
100
AcDbLine
 62
7
  6
CONTINUOUS
 10
15.2256518463
 20
12.1191362891
 11
15.2262539926
 21
12.1219231294
  0
LINE
  5
25F
100
AcDbEntity
  8
0
100
AcDbLine
 62
7
  6
CONTINUOUS
 10
17.7388854387
 20
12.2558957311
 11
12.9033152202
 21
12.2558957311
  0
LINE
  5
260
100
AcDbEntity
  8
0
100
AcDbLine
 62
7
  6
CONTINUOUS
 10
15.5507723856
 20
12.1191362891
 11
15.6709055108
 21
12.0103676672
  0
LINE
  5
261
100
AcDbEntity
  8
0
100
AcDbLine
 62
7
  6
CONTINUOUS
 10
15.2113826091
 20
12.0061826755
 11
15.2122704952
 21
12.0103676672
  0
LINE
  5
262
100
AcDbEntity
  8
0
100
AcDbLine
 62
7
  6
CONTINUOUS
 10
15.2126342404
 20
12.0102552614
 11
15.2518502263
 21
12.1371582385
  0
LINE
  5
263
100
AcDbEntity
  8
0
100
AcDbLine
 62
7
  6
CONTINUOUS
 10
16.3567007553
 20
12.1191362891
 11
16.4768338805
 21
12.0103676672
  0
LINE
  5
264
100
AcDbEntity
  8
0
100
AcDbLine
 62
7
  6
CONTINUOUS
 10
13.1453815436
 20
13.0392226407
 11
17.9809517621
 21
13.0392226407
  0
LINE
  5
265
100
AcDbEntity
  8
0
100
AcDbLine
 62
7
  6
CONTINUOUS
 10
16.018198865
 20
12.0103676672
 11
16.0315802161
 21
12.1191362891
  0
LINE
  5
266
100
AcDbEntity
  8
0
100
AcDbLine
 62
7
  6
CONTINUOUS
 10
16.0173109788
 20
12.0061826755
 11
16.018198865
 21
12.0103676672
  0
LINE
  5
267
100
AcDbEntity
  8
0
100
AcDbLine
 62
7
  6
CONTINUOUS
 10
16.0315802161
 20
12.1191362891
 11
16.0321823623
 21
12.1219231294
  0
LINE
  5
268
100
AcDbEntity
  8
0
100
AcDbLine
 62
7
  6
CONTINUOUS
 10
16.0185626101
 20
12.0102552614
 11
16.0577785961
 21
12.1371582385
  0
LINE
  5
269
100
AcDbEntity
  8
0
100
AcDbLine
 62
7
  6
CONTINUOUS
 10
17.1626291251
 20
12.1191362891
 11
17.2827622503
 21
12.0103676672
  0
LINE
  5
26A
100
AcDbEntity
  8
0
100
AcDbLine
 62
7
  6
CONTINUOUS
 10
16.8241272347
 20
12.0103676672
 11
16.8375085858
 21
12.1191362891
  0
LINE
  5
26B
100
AcDbEntity
  8
0
100
AcDbLine
 62
7
  6
CONTINUOUS
 10
16.8375085858
 20
12.1191362891
 11
16.8381107321
 21
12.1219231294
  0
LINE
  5
26C
100
AcDbEntity
  8
0
100
AcDbLine
 62
7
  6
CONTINUOUS
 10
16.8232393486
 20
12.0061826755
 11
16.8241272347
 21
12.0103676672
  0
LINE
  5
26D
100
AcDbEntity
  8
0
100
AcDbLine
 62
7
  6
CONTINUOUS
 10
16.8244909799
 20
12.0102552614
 11
16.8637069658
 21
12.1371582385
  0
LINE
  5
26E
100
AcDbEntity
  8
0
100
AcDbLine
 62
7
  6
CONTINUOUS
 10
17.7968433934
 20
12.1377898371
 11
17.7388854387
 21
12.2558957311
  0
LINE
  5
26F
100
AcDbEntity
  8
0
100
AcDbLine
 62
7
  6
CONTINUOUS
 10
17.6300556045
 20
12.0103676672
 11
17.6434369556
 21
12.1191362891
  0
LINE
  5
270
100
AcDbEntity
  8
0
100
AcDbLine
 62
7
  6
CONTINUOUS
 10
17.6291677183
 20
12.0061826755
 11
17.6300556045
 21
12.0103676672
  0
LINE
  5
271
100
AcDbEntity
  8
0
100
AcDbLine
 62
7
  6
CONTINUOUS
 10
17.6434369556
 20
12.1191362891
 11
17.6440391018
 21
12.1219231294
  0
LINE
  5
272
100
AcDbEntity
  8
0
100
AcDbLine
 62
7
  6
CONTINUOUS
 10
17.6304193496
 20
12.0102552614
 11
17.6696353356
 21
12.1371582385
  0
LINE
  5
273
100
AcDbEntity
  8
0
100
AcDbLine
 62
7
  6
CONTINUOUS
 10
17.9809517621
 20
13.0392226407
 11
17.7388854387
 21
12.2558957311
  0
LINE
  5
274
100
AcDbEntity
  8
0
100
AcDbLine
 62
7
  6
CONTINUOUS
 10
18.0389097168
 20
12.9211167468
 11
17.7968433934
 21
12.1377898371
  0
LINE
  5
275
100
AcDbEntity
  8
0
100
AcDbLine
 62
7
  6
CONTINUOUS
 10
18.0389097168
 20
12.9211167468
 11
17.9809517621
 21
13.0392226407
  0
ARC
  5
276
100
AcDbEntity
  8
0
100
AcDbCircle
 62
7
  6
CONTINUOUS
 10
4.6967045258
 20
5.3730365634
 40
0.0729166667
100
AcDbArc
 50
202.5
 51
270.0
  0
ARC
  5
277
100
AcDbEntity
  8
0
100
AcDbCircle
 62
7
  6
CONTINUOUS
 10
4.9390300266
 20
5.3730365634
 40
0.0729166667
100
AcDbArc
 50
270.0
 51
337.5
  0
ARC
  5
278
100
AcDbEntity
  8
0
100
AcDbCircle
 62
7
  6
CONTINUOUS
 10
5.5717045258
 20
5.3730365634
 40
0.0729166667
100
AcDbArc
 50
202.5
 51
270.0
  0
ARC
  5
279
100
AcDbEntity
  8
0
100
AcDbCircle
 62
7
  6
CONTINUOUS
 10
5.8140300266
 20
5.3730365634
 40
0.0729166667
100
AcDbArc
 50
270.0
 51
337.5
  0
ARC
  5
27A
100
AcDbEntity
  8
0
100
AcDbCircle
 62
7
  6
CONTINUOUS
 10
6.4467045258
 20
5.3730365634
 40
0.0729166667
100
AcDbArc
 50
202.5
 51
270.0
  0
ARC
  5
27B
100
AcDbEntity
  8
0
100
AcDbCircle
 62
7
  6
CONTINUOUS
 10
6.6890300266
 20
5.3730365634
 40
0.0729166667
100
AcDbArc
 50
270.0
 51
337.5
  0
ARC
  5
27C
100
AcDbEntity
  8
0
100
AcDbCircle
 62
7
  6
CONTINUOUS
 10
4.0640300266
 20
5.3730365634
 40
0.0729166667
100
AcDbArc
 50
270.0
 51
337.5
  0
ARC
  5
27D
100
AcDbEntity
  8
0
100
AcDbCircle
 62
7
  6
CONTINUOUS
 10
3.8217045258
 20
5.3730365634
 40
0.0729166667
100
AcDbArc
 50
202.5
 51
270.0
  0
ARC
  5
27E
100
AcDbEntity
  8
0
100
AcDbCircle
 62
7
  6
CONTINUOUS
 10
8.4390300266
 20
5.3730365634
 40
0.0729166667
100
AcDbArc
 50
270.0
 51
337.5
  0
ARC
  5
27F
100
AcDbEntity
  8
0
100
AcDbCircle
 62
7
  6
CONTINUOUS
 10
8.1967045258
 20
5.3730365634
 40
0.0729166667
100
AcDbArc
 50
202.5
 51
270.0
  0
ARC
  5
280
100
AcDbEntity
  8
0
100
AcDbCircle
 62
7
  6
CONTINUOUS
 10
7.5640300266
 20
5.3730365634
 40
0.0729166667
100
AcDbArc
 50
270.0
 51
337.5
  0
ARC
  5
281
100
AcDbEntity
  8
0
100
AcDbCircle
 62
7
  6
CONTINUOUS
 10
7.3217045258
 20
5.3730365634
 40
0.0729166667
100
AcDbArc
 50
202.5
 51
270.0
  0
ARC
  5
282
100
AcDbEntity
  8
0
100
AcDbCircle
 62
7
  6
CONTINUOUS
 10
4.2487856822
 20
5.5015087856
 40
0.0486111111
100
AcDbArc
 50
90.0
 51
157.5
  0
ARC
  5
283
100
AcDbEntity
  8
0
100
AcDbCircle
 62
7
  6
CONTINUOUS
 10
3.6369488702
 20
5.5015087856
 40
0.0486111111
100
AcDbArc
 50
22.5
 51
90.0
  0
ARC
  5
284
100
AcDbEntity
  8
0
100
AcDbCircle
 62
7
  6
CONTINUOUS
 10
5.1237856822
 20
5.5015087856
 40
0.0486111111
100
AcDbArc
 50
90.0
 51
157.5
  0
ARC
  5
285
100
AcDbEntity
  8
0
100
AcDbCircle
 62
7
  6
CONTINUOUS
 10
4.5119488702
 20
5.5015087856
 40
0.0486111111
100
AcDbArc
 50
22.5
 51
90.0
  0
ARC
  5
286
100
AcDbEntity
  8
0
100
AcDbCircle
 62
7
  6
CONTINUOUS
 10
5.9987856822
 20
5.5015087856
 40
0.0486111111
100
AcDbArc
 50
90.0
 51
157.5
  0
ARC
  5
287
100
AcDbEntity
  8
0
100
AcDbCircle
 62
7
  6
CONTINUOUS
 10
5.3869488702
 20
5.5015087856
 40
0.0486111111
100
AcDbArc
 50
22.5
 51
90.0
  0
ARC
  5
288
100
AcDbEntity
  8
0
100
AcDbCircle
 62
7
  6
CONTINUOUS
 10
6.8737856822
 20
5.5015087856
 40
0.0486111111
100
AcDbArc
 50
90.0
 51
157.5
  0
ARC
  5
289
100
AcDbEntity
  8
0
100
AcDbCircle
 62
7
  6
CONTINUOUS
 10
6.2619488702
 20
5.5015087856
 40
0.0486111111
100
AcDbArc
 50
22.5
 51
90.0
  0
ARC
  5
28A
100
AcDbEntity
  8
0
100
AcDbCircle
 62
7
  6
CONTINUOUS
 10
7.7487856822
 20
5.5015087856
 40
0.0486111111
100
AcDbArc
 50
90.0
 51
157.5
  0
ARC
  5
28B
100
AcDbEntity
  8
0
100
AcDbCircle
 62
7
  6
CONTINUOUS
 10
7.1369488702
 20
5.5015087856
 40
0.0486111111
100
AcDbArc
 50
22.5
 51
90.0
  0
ARC
  5
28C
100
AcDbEntity
  8
0
100
AcDbCircle
 62
7
  6
CONTINUOUS
 10
8.6237856822
 20
5.5015087856
 40
0.0486111111
100
AcDbArc
 50
90.0
 51
157.5
  0
ARC
  5
28D
100
AcDbEntity
  8
0
100
AcDbCircle
 62
7
  6
CONTINUOUS
 10
8.0119488702
 20
5.5015087856
 40
0.0486111111
100
AcDbArc
 50
22.5
 51
90.0
  0
SPLINE
  5
28E
100
AcDbEntity
  8
0
100
AcDbSpline
 62
7
  6
CONTINUOUS
 70
0
 71
3
 72
9
 73
5
 74
0
 42
0.0000001
 43
0.0000001
 44
0.0000000001
 40
0.0
 40
0.0
 40
0.0
 40
0.0
 40
0.4953334228
 40
1.0
 40
1.0
 40
1.0
 40
1.0
 10
13.6143927498
 20
12.1219245219
 30
0.0
 10
13.6146558697
 20
12.1227742696
 30
0.0
 10
13.6153319595
 20
12.1244480756
 30
0.0
 10
13.6162725723
 20
12.1259880687
 30
0.0
 10
13.6168034296
 20
12.1267226396
 30
0.0
  0
SPLINE
  5
28F
100
AcDbEntity
  8
0
100
AcDbSpline
 62
7
  6
CONTINUOUS
 70
0
 71
3
 72
14
 73
10
 74
0
 42
0.0000001
 43
0.0000001
 44
0.0000000001
 40
0.0
 40
0.0
 40
0.0
 40
0.0
 40
0.1008718858
 40
0.2072976645
 40
0.3205371494
 40
0.4413684416
 40
0.7063098966
 40
0.8500850367
 40
1.0
 40
1.0
 40
1.0
 40
1.0
 10
13.6168034296
 20
12.1267226396
 30
0.0
 10
13.6174398322
 20
12.1276032582
 30
0.0
 10
13.6189186501
 20
12.12929389
 30
0.0
 10
13.6215943234
 20
12.1314958034
 30
0.0
 10
13.6247429408
 20
12.1333993353
 30
0.0
 10
13.6296696046
 20
12.1355767067
 30
0.0
 10
13.6352477163
 20
12.1369716106
 30
0.0
 10
13.6412264634
 20
12.1376729858
 30
0.0
 10
13.6443921132
 20
12.1377898371
 30
0.0
 10
13.6460068708
 20
12.1377898371
 30
0.0
  0
SPLINE
  5
290
100
AcDbEntity
  8
0
100
AcDbSpline
 62
7
  6
CONTINUOUS
 70
0
 71
3
 72
9
 73
5
 74
0
 42
0.0000001
 43
0.0000001
 44
0.0000000001
 40
0.0
 40
0.0
 40
0.0
 40
0.0
 40
0.4953334228
 40
1.0
 40
1.0
 40
1.0
 40
1.0
 10
14.4203211196
 20
12.1219245219
 30
0.0
 10
14.4205842394
 20
12.1227742696
 30
0.0
 10
14.4212603293
 20
12.1244480756
 30
0.0
 10
14.4222009421
 20
12.1259880687
 30
0.0
 10
14.4227317994
 20
12.1267226396
 30
0.0
  0
SPLINE
  5
291
100
AcDbEntity
  8
0
100
AcDbSpline
 62
7
  6
CONTINUOUS
 70
0
 71
3
 72
14
 73
10
 74
0
 42
0.0000001
 43
0.0000001
 44
0.0000000001
 40
0.0
 40
0.0
 40
0.0
 40
0.0
 40
0.1008718858
 40
0.2072976645
 40
0.3205371494
 40
0.4413684416
 40
0.7063098966
 40
0.8500850367
 40
1.0
 40
1.0
 40
1.0
 40
1.0
 10
14.4227317994
 20
12.1267226396
 30
0.0
 10
14.423368202
 20
12.1276032582
 30
0.0
 10
14.4248470199
 20
12.12929389
 30
0.0
 10
14.4275226931
 20
12.1314958034
 30
0.0
 10
14.4306713106
 20
12.1333993353
 30
0.0
 10
14.4355979744
 20
12.1355767067
 30
0.0
 10
14.4411760861
 20
12.1369716106
 30
0.0
 10
14.4471548331
 20
12.1376729858
 30
0.0
 10
14.4503204829
 20
12.1377898371
 30
0.0
 10
14.4519352406
 20
12.1377898371
 30
0.0
  0
SPLINE
  5
292
100
AcDbEntity
  8
0
100
AcDbSpline
 62
7
  6
CONTINUOUS
 70
0
 71
3
 72
9
 73
5
 74
0
 42
0.0000001
 43
0.0000001
 44
0.0000000001
 40
0.0
 40
0.0
 40
0.0
 40
0.0
 40
0.4953334228
 40
1.0
 40
1.0
 40
1.0
 40
1.0
 10
15.2262494893
 20
12.1219245219
 30
0.0
 10
15.2265126092
 20
12.1227742696
 30
0.0
 10
15.227188699
 20
12.1244480756
 30
0.0
 10
15.2281293118
 20
12.1259880687
 30
0.0
 10
15.2286601691
 20
12.1267226396
 30
0.0
  0
SPLINE
  5
293
100
AcDbEntity
  8
0
100
AcDbSpline
 62
7
  6
CONTINUOUS
 70
0
 71
3
 72
14
 73
10
 74
0
 42
0.0000001
 43
0.0000001
 44
0.0000000001
 40
0.0
 40
0.0
 40
0.0
 40
0.0
 40
0.1008718858
 40
0.2072976645
 40
0.3205371494
 40
0.4413684416
 40
0.7063098966
 40
0.8500850367
 40
1.0
 40
1.0
 40
1.0
 40
1.0
 10
15.2286601691
 20
12.1267226396
 30
0.0
 10
15.2292965717
 20
12.1276032582
 30
0.0
 10
15.2307753896
 20
12.12929389
 30
0.0
 10
15.2334510629
 20
12.1314958034
 30
0.0
 10
15.2365996803
 20
12.1333993353
 30
0.0
 10
15.2415263441
 20
12.1355767067
 30
0.0
 10
15.2471044558
 20
12.1369716106
 30
0.0
 10
15.2530832029
 20
12.1376729858
 30
0.0
 10
15.2562488527
 20
12.1377898371
 30
0.0
 10
15.2578636103
 20
12.1377898371
 30
0.0
  0
SPLINE
  5
294
100
AcDbEntity
  8
0
100
AcDbSpline
 62
7
  6
CONTINUOUS
 70
0
 71
3
 72
9
 73
5
 74
0
 42
0.0000001
 43
0.0000001
 44
0.0000000001
 40
0.0
 40
0.0
 40
0.0
 40
0.0
 40
0.4953334228
 40
1.0
 40
1.0
 40
1.0
 40
1.0
 10
16.0321778591
 20
12.1219245219
 30
0.0
 10
16.0324409789
 20
12.1227742696
 30
0.0
 10
16.0331170688
 20
12.1244480756
 30
0.0
 10
16.0340576816
 20
12.1259880687
 30
0.0
 10
16.0345885389
 20
12.1267226396
 30
0.0
  0
SPLINE
  5
295
100
AcDbEntity
  8
0
100
AcDbSpline
 62
7
  6
CONTINUOUS
 70
0
 71
3
 72
14
 73
10
 74
0
 42
0.0000001
 43
0.0000001
 44
0.0000000001
 40
0.0
 40
0.0
 40
0.0
 40
0.0
 40
0.1008718858
 40
0.2072976645
 40
0.3205371494
 40
0.4413684416
 40
0.7063098966
 40
0.8500850367
 40
1.0
 40
1.0
 40
1.0
 40
1.0
 10
16.0345885389
 20
12.1267226396
 30
0.0
 10
16.0352249415
 20
12.1276032582
 30
0.0
 10
16.0367037594
 20
12.12929389
 30
0.0
 10
16.0393794326
 20
12.1314958034
 30
0.0
 10
16.0425280501
 20
12.1333993353
 30
0.0
 10
16.0474547139
 20
12.1355767067
 30
0.0
 10
16.0530328256
 20
12.1369716106
 30
0.0
 10
16.0590115726
 20
12.1376729858
 30
0.0
 10
16.0621772224
 20
12.1377898371
 30
0.0
 10
16.0637919801
 20
12.1377898371
 30
0.0
  0
SPLINE
  5
296
100
AcDbEntity
  8
0
100
AcDbSpline
 62
7
  6
CONTINUOUS
 70
0
 71
3
 72
9
 73
5
 74
0
 42
0.0000001
 43
0.0000001
 44
0.0000000001
 40
0.0
 40
0.0
 40
0.0
 40
0.0
 40
0.4953334228
 40
1.0
 40
1.0
 40
1.0
 40
1.0
 10
16.8381062288
 20
12.1219245219
 30
0.0
 10
16.8383693487
 20
12.1227742696
 30
0.0
 10
16.8390454385
 20
12.1244480756
 30
0.0
 10
16.8399860514
 20
12.1259880687
 30
0.0
 10
16.8405169086
 20
12.1267226396
 30
0.0
  0
SPLINE
  5
297
100
AcDbEntity
  8
0
100
AcDbSpline
 62
7
  6
CONTINUOUS
 70
0
 71
3
 72
14
 73
10
 74
0
 42
0.0000001
 43
0.0000001
 44
0.0000000001
 40
0.0
 40
0.0
 40
0.0
 40
0.0
 40
0.1008718858
 40
0.2072976645
 40
0.3205371494
 40
0.4413684416
 40
0.7063098966
 40
0.8500850367
 40
1.0
 40
1.0
 40
1.0
 40
1.0
 10
16.8405169086
 20
12.1267226396
 30
0.0
 10
16.8411533112
 20
12.1276032582
 30
0.0
 10
16.8426321291
 20
12.12929389
 30
0.0
 10
16.8453078024
 20
12.1314958034
 30
0.0
 10
16.8484564198
 20
12.1333993353
 30
0.0
 10
16.8533830836
 20
12.1355767067
 30
0.0
 10
16.8589611953
 20
12.1369716106
 30
0.0
 10
16.8649399424
 20
12.1376729858
 30
0.0
 10
16.8681055922
 20
12.1377898371
 30
0.0
 10
16.8697203499
 20
12.1377898371
 30
0.0
  0
SPLINE
  5
298
100
AcDbEntity
  8
0
100
AcDbSpline
 62
7
  6
CONTINUOUS
 70
0
 71
3
 72
9
 73
5
 74
0
 42
0.0000001
 43
0.0000001
 44
0.0000000001
 40
0.0
 40
0.0
 40
0.0
 40
0.0
 40
0.4953334228
 40
1.0
 40
1.0
 40
1.0
 40
1.0
 10
17.6440345986
 20
12.1219245219
 30
0.0
 10
17.6442977184
 20
12.1227742696
 30
0.0
 10
17.6449738083
 20
12.1244480756
 30
0.0
 10
17.6459144211
 20
12.1259880687
 30
0.0
 10
17.6464452784
 20
12.1267226396
 30
0.0
  0
SPLINE
  5
299
100
AcDbEntity
  8
0
100
AcDbSpline
 62
7
  6
CONTINUOUS
 70
0
 71
3
 72
14
 73
10
 74
0
 42
0.0000001
 43
0.0000001
 44
0.0000000001
 40
0.0
 40
0.0
 40
0.0
 40
0.0
 40
0.1008718858
 40
0.2072976645
 40
0.3205371494
 40
0.4413684416
 40
0.7063098966
 40
0.8500850367
 40
1.0
 40
1.0
 40
1.0
 40
1.0
 10
17.6464452784
 20
12.1267226396
 30
0.0
 10
17.647081681
 20
12.1276032582
 30
0.0
 10
17.6485604989
 20
12.12929389
 30
0.0
 10
17.6512361721
 20
12.1314958034
 30
0.0
 10
17.6543847896
 20
12.1333993353
 30
0.0
 10
17.6593114534
 20
12.1355767067
 30
0.0
 10
17.6648895651
 20
12.1369716106
 30
0.0
 10
17.6708683121
 20
12.1376729858
 30
0.0
 10
17.6740339619
 20
12.1377898371
 30
0.0
 10
17.6756487196
 20
12.1377898371
 30
0.0
  0
SPLINE
  5
29A
100
AcDbEntity
  8
0
100
AcDbSpline
 62
7
  6
CONTINUOUS
 70
0
 71
3
 72
15
 73
11
 74
0
 42
0.0000001
 43
0.0000001
 44
0.0000000001
 40
0.0
 40
0.0
 40
0.0
 40
0.0
 40
0.1557507254
 40
0.3032142749
 40
0.4410980489
 40
0.569041206
 40
0.6873378662
 40
0.7970482032
 40
0.9002754372
 40
1.0
 40
1.0
 40
1.0
 40
1.0
 10
13.5520961097
 20
11.9823873451
 30
0.0
 10
13.5550318084
 20
11.9823873451
 30
0.0
 10
13.5607513226
 20
11.9826408292
 30
0.0
 10
13.5689947557
 20
11.9838314143
 30
0.0
 10
13.5765485998
 20
11.9858115311
 30
0.0
 10
13.5832771568
 20
11.9885481235
 30
0.0
 10
13.589065015
 20
11.9920002728
 30
0.0
 10
13.5938040493
 20
11.9961242873
 30
0.0
 10
13.5973923313
 20
12.0008557886
 30
0.0
 10
13.5989631616
 20
12.0043891832
 30
0.0
 10
13.5995184353
 20
12.0061849733
 30
0.0
  0
SPLINE
  5
29B
100
AcDbEntity
  8
0
100
AcDbSpline
 62
7
  6
CONTINUOUS
 70
0
 71
3
 72
15
 73
11
 74
0
 42
0.0000001
 43
0.0000001
 44
0.0000000001
 40
0.0
 40
0.0
 40
0.0
 40
0.0
 40
0.1148729776
 40
0.2360780812
 40
0.3619574146
 40
0.4908828178
 40
0.6210130093
 40
0.7504589407
 40
0.8774378066
 40
1.0
 40
1.0
 40
1.0
 40
1.0
 10
13.2531204015
 20
12.0103676672
 30
0.0
 10
13.2554600876
 20
12.0082493136
 30
0.0
 10
13.2605291364
 20
12.0041782486
 30
0.0
 10
13.2688836314
 20
11.9987571028
 30
0.0
 10
13.2780466834
 20
11.993954692
 30
0.0
 10
13.2878181111
 20
11.9898746296
 30
0.0
 10
13.2979906251
 20
11.9865995857
 30
0.0
 10
13.3083506572
 20
11.9842020792
 30
0.0
 10
13.3186723869
 20
11.9827352969
 30
0.0
 10
13.3255320852
 20
11.9823873451
 30
0.0
 10
13.3288995431
 20
11.9823873451
 30
0.0
  0
SPLINE
  5
29C
100
AcDbEntity
  8
0
100
AcDbSpline
 62
7
  6
CONTINUOUS
 70
0
 71
3
 72
15
 73
11
 74
0
 42
0.0000001
 43
0.0000001
 44
0.0000000001
 40
0.0
 40
0.0
 40
0.0
 40
0.0
 40
0.1557507254
 40
0.3032142749
 40
0.4410980489
 40
0.569041206
 40
0.6873378662
 40
0.7970482032
 40
0.9002754372
 40
1.0
 40
1.0
 40
1.0
 40
1.0
 10
17.5817379585
 20
11.9823873451
 30
0.0
 10
17.5846736572
 20
11.9823873451
 30
0.0
 10
17.5903931714
 20
11.9826408292
 30
0.0
 10
17.5986366045
 20
11.9838314143
 30
0.0
 10
17.6061904485
 20
11.9858115311
 30
0.0
 10
17.6129190056
 20
11.9885481235
 30
0.0
 10
17.6187068638
 20
11.9920002728
 30
0.0
 10
17.6234458981
 20
11.9961242873
 30
0.0
 10
17.62703418
 20
12.0008557886
 30
0.0
 10
17.6286050104
 20
12.0043891832
 30
0.0
 10
17.629160284
 20
12.0061849733
 30
0.0
  0
SPLINE
  5
29D
100
AcDbEntity
  8
0
100
AcDbSpline
 62
7
  6
CONTINUOUS
 70
0
 71
3
 72
15
 73
11
 74
0
 42
0.0000001
 43
0.0000001
 44
0.0000000001
 40
0.0
 40
0.0
 40
0.0
 40
0.0
 40
0.1148729776
 40
0.2360780812
 40
0.3619574146
 40
0.4908828178
 40
0.6210130093
 40
0.7504589407
 40
0.8774378066
 40
1.0
 40
1.0
 40
1.0
 40
1.0
 10
17.2827622503
 20
12.0103676672
 30
0.0
 10
17.2851019364
 20
12.0082493136
 30
0.0
 10
17.2901709852
 20
12.0041782486
 30
0.0
 10
17.2985254802
 20
11.9987571028
 30
0.0
 10
17.3076885321
 20
11.993954692
 30
0.0
 10
17.3174599598
 20
11.9898746296
 30
0.0
 10
17.3276324738
 20
11.9865995857
 30
0.0
 10
17.337992506
 20
11.9842020792
 30
0.0
 10
17.3483142357
 20
11.9827352969
 30
0.0
 10
17.355173934
 20
11.9823873451
 30
0.0
 10
17.3585413918
 20
11.9823873451
 30
0.0
  0
SPLINE
  5
29E
100
AcDbEntity
  8
0
100
AcDbSpline
 62
7
  6
CONTINUOUS
 70
0
 71
3
 72
15
 73
11
 74
0
 42
0.0000001
 43
0.0000001
 44
0.0000000001
 40
0.0
 40
0.0
 40
0.0
 40
0.0
 40
0.1557507254
 40
0.3032142749
 40
0.4410980489
 40
0.569041206
 40
0.6873378662
 40
0.7970482032
 40
0.9002754372
 40
1.0
 40
1.0
 40
1.0
 40
1.0
 10
16.7758095887
 20
11.9823873451
 30
0.0
 10
16.7787452874
 20
11.9823873451
 30
0.0
 10
16.7844648016
 20
11.9826408292
 30
0.0
 10
16.7927082348
 20
11.9838314143
 30
0.0
 10
16.8002620788
 20
11.9858115311
 30
0.0
 10
16.8069906358
 20
11.9885481235
 30
0.0
 10
16.812778494
 20
11.9920002728
 30
0.0
 10
16.8175175283
 20
11.9961242873
 30
0.0
 10
16.8211058103
 20
12.0008557886
 30
0.0
 10
16.8226766406
 20
12.0043891832
 30
0.0
 10
16.8232319143
 20
12.0061849733
 30
0.0
  0
SPLINE
  5
29F
100
AcDbEntity
  8
0
100
AcDbSpline
 62
7
  6
CONTINUOUS
 70
0
 71
3
 72
15
 73
11
 74
0
 42
0.0000001
 43
0.0000001
 44
0.0000000001
 40
0.0
 40
0.0
 40
0.0
 40
0.0
 40
0.1148729776
 40
0.2360780812
 40
0.3619574146
 40
0.4908828178
 40
0.6210130093
 40
0.7504589407
 40
0.8774378066
 40
1.0
 40
1.0
 40
1.0
 40
1.0
 10
16.4768338805
 20
12.0103676672
 30
0.0
 10
16.4791735666
 20
12.0082493136
 30
0.0
 10
16.4842426154
 20
12.0041782486
 30
0.0
 10
16.4925971104
 20
11.9987571028
 30
0.0
 10
16.5017601624
 20
11.993954692
 30
0.0
 10
16.5115315901
 20
11.9898746296
 30
0.0
 10
16.5217041041
 20
11.9865995857
 30
0.0
 10
16.5320641362
 20
11.9842020792
 30
0.0
 10
16.5423858659
 20
11.9827352969
 30
0.0
 10
16.5492455642
 20
11.9823873451
 30
0.0
 10
16.5526130221
 20
11.9823873451
 30
0.0
  0
SPLINE
  5
2A0
100
AcDbEntity
  8
0
100
AcDbSpline
 62
7
  6
CONTINUOUS
 70
0
 71
3
 72
15
 73
11
 74
0
 42
0.0000001
 43
0.0000001
 44
0.0000000001
 40
0.0
 40
0.0
 40
0.0
 40
0.0
 40
0.1557507254
 40
0.3032142749
 40
0.4410980489
 40
0.569041206
 40
0.6873378662
 40
0.7970482032
 40
0.9002754372
 40
1.0
 40
1.0
 40
1.0
 40
1.0
 10
15.9698812189
 20
11.9823873451
 30
0.0
 10
15.9728169177
 20
11.9823873451
 30
0.0
 10
15.9785364319
 20
11.9826408292
 30
0.0
 10
15.986779865
 20
11.9838314143
 30
0.0
 10
15.994333709
 20
11.9858115311
 30
0.0
 10
16.0010622661
 20
11.9885481235
 30
0.0
 10
16.0068501243
 20
11.9920002728
 30
0.0
 10
16.0115891586
 20
11.9961242873
 30
0.0
 10
16.0151774405
 20
12.0008557886
 30
0.0
 10
16.0167482708
 20
12.0043891832
 30
0.0
 10
16.0173035445
 20
12.0061849733
 30
0.0
  0
SPLINE
  5
2A1
100
AcDbEntity
  8
0
100
AcDbSpline
 62
7
  6
CONTINUOUS
 70
0
 71
3
 72
15
 73
11
 74
0
 42
0.0000001
 43
0.0000001
 44
0.0000000001
 40
0.0
 40
0.0
 40
0.0
 40
0.0
 40
0.1148729776
 40
0.2360780812
 40
0.3619574146
 40
0.4908828178
 40
0.6210130093
 40
0.7504589407
 40
0.8774378066
 40
1.0
 40
1.0
 40
1.0
 40
1.0
 10
15.6709055108
 20
12.0103676672
 30
0.0
 10
15.6732451969
 20
12.0082493136
 30
0.0
 10
15.6783142457
 20
12.0041782486
 30
0.0
 10
15.6866687407
 20
11.9987571028
 30
0.0
 10
15.6958317926
 20
11.993954692
 30
0.0
 10
15.7056032203
 20
11.9898746296
 30
0.0
 10
15.7157757343
 20
11.9865995857
 30
0.0
 10
15.7261357665
 20
11.9842020792
 30
0.0
 10
15.7364574962
 20
11.9827352969
 30
0.0
 10
15.7433171944
 20
11.9823873451
 30
0.0
 10
15.7466846523
 20
11.9823873451
 30
0.0
  0
SPLINE
  5
2A2
100
AcDbEntity
  8
0
100
AcDbSpline
 62
7
  6
CONTINUOUS
 70
0
 71
3
 72
15
 73
11
 74
0
 42
0.0000001
 43
0.0000001
 44
0.0000000001
 40
0.0
 40
0.0
 40
0.0
 40
0.0
 40
0.1557507254
 40
0.3032142749
 40
0.4410980489
 40
0.569041206
 40
0.6873378662
 40
0.7970482032
 40
0.9002754372
 40
1.0
 40
1.0
 40
1.0
 40
1.0
 10
15.1639528492
 20
11.9823873451
 30
0.0
 10
15.1668885479
 20
11.9823873451
 30
0.0
 10
15.1726080621
 20
11.9826408292
 30
0.0
 10
15.1808514952
 20
11.9838314143
 30
0.0
 10
15.1884053393
 20
11.9858115311
 30
0.0
 10
15.1951338963
 20
11.9885481235
 30
0.0
 10
15.2009217545
 20
11.9920002728
 30
0.0
 10
15.2056607888
 20
11.9961242873
 30
0.0
 10
15.2092490708
 20
12.0008557886
 30
0.0
 10
15.2108199011
 20
12.0043891832
 30
0.0
 10
15.2113751748
 20
12.0061849733
 30
0.0
  0
SPLINE
  5
2A3
100
AcDbEntity
  8
0
100
AcDbSpline
 62
7
  6
CONTINUOUS
 70
0
 71
3
 72
15
 73
11
 74
0
 42
0.0000001
 43
0.0000001
 44
0.0000000001
 40
0.0
 40
0.0
 40
0.0
 40
0.0
 40
0.1148729776
 40
0.2360780812
 40
0.3619574146
 40
0.4908828178
 40
0.6210130093
 40
0.7504589407
 40
0.8774378066
 40
1.0
 40
1.0
 40
1.0
 40
1.0
 10
14.864977141
 20
12.0103676672
 30
0.0
 10
14.8673168271
 20
12.0082493136
 30
0.0
 10
14.8723858759
 20
12.0041782486
 30
0.0
 10
14.8807403709
 20
11.9987571028
 30
0.0
 10
14.8899034229
 20
11.993954692
 30
0.0
 10
14.8996748506
 20
11.9898746296
 30
0.0
 10
14.9098473646
 20
11.9865995857
 30
0.0
 10
14.9202073967
 20
11.9842020792
 30
0.0
 10
14.9305291264
 20
11.9827352969
 30
0.0
 10
14.9373888247
 20
11.9823873451
 30
0.0
 10
14.9407562826
 20
11.9823873451
 30
0.0
  0
SPLINE
  5
2A4
100
AcDbEntity
  8
0
100
AcDbSpline
 62
7
  6
CONTINUOUS
 70
0
 71
3
 72
15
 73
11
 74
0
 42
0.0000001
 43
0.0000001
 44
0.0000000001
 40
0.0
 40
0.0
 40
0.0
 40
0.0
 40
0.1557507254
 40
0.3032142749
 40
0.4410980489
 40
0.569041206
 40
0.6873378662
 40
0.7970482032
 40
0.9002754372
 40
1.0
 40
1.0
 40
1.0
 40
1.0
 10
14.3580244794
 20
11.9823873451
 30
0.0
 10
14.3609601782
 20
11.9823873451
 30
0.0
 10
14.3666796924
 20
11.9826408292
 30
0.0
 10
14.3749231255
 20
11.9838314143
 30
0.0
 10
14.3824769695
 20
11.9858115311
 30
0.0
 10
14.3892055265
 20
11.9885481235
 30
0.0
 10
14.3949933848
 20
11.9920002728
 30
0.0
 10
14.3997324191
 20
11.9961242873
 30
0.0
 10
14.403320701
 20
12.0008557886
 30
0.0
 10
14.4048915313
 20
12.0043891832
 30
0.0
 10
14.405446805
 20
12.0061849733
 30
0.0
  0
SPLINE
  5
2A5
100
AcDbEntity
  8
0
100
AcDbSpline
 62
7
  6
CONTINUOUS
 70
0
 71
3
 72
15
 73
11
 74
0
 42
0.0000001
 43
0.0000001
 44
0.0000000001
 40
0.0
 40
0.0
 40
0.0
 40
0.0
 40
0.1148729776
 40
0.2360780812
 40
0.3619574146
 40
0.4908828178
 40
0.6210130093
 40
0.7504589407
 40
0.8774378066
 40
1.0
 40
1.0
 40
1.0
 40
1.0
 10
14.0590487713
 20
12.0103676672
 30
0.0
 10
14.0613884574
 20
12.0082493136
 30
0.0
 10
14.0664575062
 20
12.0041782486
 30
0.0
 10
14.0748120012
 20
11.9987571028
 30
0.0
 10
14.0839750531
 20
11.993954692
 30
0.0
 10
14.0937464808
 20
11.9898746296
 30
0.0
 10
14.1039189948
 20
11.9865995857
 30
0.0
 10
14.114279027
 20
11.9842020792
 30
0.0
 10
14.1246007567
 20
11.9827352969
 30
0.0
 10
14.1314604549
 20
11.9823873451
 30
0.0
 10
14.1348279128
 20
11.9823873451
 30
0.0
  0
SPLINE
  5
2A6
100
AcDbEntity
  8
0
100
AcDbSpline
 62
7
  6
CONTINUOUS
 70
0
 71
3
 72
15
 73
11
 74
0
 42
0.0000001
 43
0.0000001
 44
0.0000000001
 40
0.0
 40
0.0
 40
0.0
 40
0.0
 40
0.122485427
 40
0.2495247835
 40
0.3790231904
 40
0.5091197755
 40
0.6380079875
 40
0.7639370813
 40
0.8851965221
 40
1.0
 40
1.0
 40
1.0
 40
1.0
 10
13.0824678486
 20
12.1377898371
 30
0.0
 10
13.0847114074
 20
12.1377898371
 30
0.0
 10
13.0892841201
 20
12.1375566358
 30
0.0
 10
13.0961662075
 20
12.1365807867
 30
0.0
 10
13.1030739954
 20
12.1349807882
 30
0.0
 10
13.1098558551
 20
12.1327991528
 30
0.0
 10
13.1163691027
 20
12.1300777019
 30
0.0
 10
13.1224795381
 20
12.1268767502
 30
0.0
 10
13.1280484944
 20
12.1232604536
 30
0.0
 10
13.1314284341
 20
12.120547666
 30
0.0
 10
13.1329872763
 20
12.1191362891
 30
0.0
  0
SPLINE
  5
2A7
100
AcDbEntity
  8
0
100
AcDbSpline
 62
7
  6
CONTINUOUS
 70
0
 71
3
 72
15
 73
11
 74
0
 42
0.0000001
 43
0.0000001
 44
0.0000000001
 40
0.0
 40
0.0
 40
0.0
 40
0.0
 40
0.122485427
 40
0.2495247835
 40
0.3790231904
 40
0.5091197755
 40
0.6380079875
 40
0.7639370813
 40
0.8851965221
 40
1.0
 40
1.0
 40
1.0
 40
1.0
 10
13.8883962183
 20
12.1377898371
 30
0.0
 10
13.8906397771
 20
12.1377898371
 30
0.0
 10
13.8952124899
 20
12.1375566358
 30
0.0
 10
13.9020945772
 20
12.1365807867
 30
0.0
 10
13.9090023651
 20
12.1349807882
 30
0.0
 10
13.9157842249
 20
12.1327991528
 30
0.0
 10
13.9222974724
 20
12.1300777019
 30
0.0
 10
13.9284079079
 20
12.1268767502
 30
0.0
 10
13.9339768641
 20
12.1232604536
 30
0.0
 10
13.9373568039
 20
12.120547666
 30
0.0
 10
13.9389156461
 20
12.1191362891
 30
0.0
  0
SPLINE
  5
2A8
100
AcDbEntity
  8
0
100
AcDbSpline
 62
7
  6
CONTINUOUS
 70
0
 71
3
 72
15
 73
11
 74
0
 42
0.0000001
 43
0.0000001
 44
0.0000000001
 40
0.0
 40
0.0
 40
0.0
 40
0.0
 40
0.122485427
 40
0.2495247835
 40
0.3790231904
 40
0.5091197755
 40
0.6380079875
 40
0.7639370813
 40
0.8851965221
 40
1.0
 40
1.0
 40
1.0
 40
1.0
 10
14.6943245881
 20
12.1377898371
 30
0.0
 10
14.6965681469
 20
12.1377898371
 30
0.0
 10
14.7011408596
 20
12.1375566358
 30
0.0
 10
14.708022947
 20
12.1365807867
 30
0.0
 10
14.7149307349
 20
12.1349807882
 30
0.0
 10
14.7217125946
 20
12.1327991528
 30
0.0
 10
14.7282258422
 20
12.1300777019
 30
0.0
 10
14.7343362776
 20
12.1268767502
 30
0.0
 10
14.7399052339
 20
12.1232604536
 30
0.0
 10
14.7432851736
 20
12.120547666
 30
0.0
 10
14.7448440158
 20
12.1191362891
 30
0.0
  0
SPLINE
  5
2A9
100
AcDbEntity
  8
0
100
AcDbSpline
 62
7
  6
CONTINUOUS
 70
0
 71
3
 72
15
 73
11
 74
0
 42
0.0000001
 43
0.0000001
 44
0.0000000001
 40
0.0
 40
0.0
 40
0.0
 40
0.0
 40
0.122485427
 40
0.2495247835
 40
0.3790231904
 40
0.5091197755
 40
0.6380079875
 40
0.7639370813
 40
0.8851965221
 40
1.0
 40
1.0
 40
1.0
 40
1.0
 10
15.5002529579
 20
12.1377898371
 30
0.0
 10
15.5024965166
 20
12.1377898371
 30
0.0
 10
15.5070692294
 20
12.1375566358
 30
0.0
 10
15.5139513167
 20
12.1365807867
 30
0.0
 10
15.5208591047
 20
12.1349807882
 30
0.0
 10
15.5276409644
 20
12.1327991528
 30
0.0
 10
15.5341542119
 20
12.1300777019
 30
0.0
 10
15.5402646474
 20
12.1268767502
 30
0.0
 10
15.5458336037
 20
12.1232604536
 30
0.0
 10
15.5492135434
 20
12.120547666
 30
0.0
 10
15.5507723856
 20
12.1191362891
 30
0.0
  0
SPLINE
  5
2AA
100
AcDbEntity
  8
0
100
AcDbSpline
 62
7
  6
CONTINUOUS
 70
0
 71
3
 72
15
 73
11
 74
0
 42
0.0000001
 43
0.0000001
 44
0.0000000001
 40
0.0
 40
0.0
 40
0.0
 40
0.0
 40
0.122485427
 40
0.2495247835
 40
0.3790231904
 40
0.5091197755
 40
0.6380079875
 40
0.7639370813
 40
0.8851965221
 40
1.0
 40
1.0
 40
1.0
 40
1.0
 10
16.3061813276
 20
12.1377898371
 30
0.0
 10
16.3084248864
 20
12.1377898371
 30
0.0
 10
16.3129975991
 20
12.1375566358
 30
0.0
 10
16.3198796865
 20
12.1365807867
 30
0.0
 10
16.3267874744
 20
12.1349807882
 30
0.0
 10
16.3335693341
 20
12.1327991528
 30
0.0
 10
16.3400825817
 20
12.1300777019
 30
0.0
 10
16.3461930171
 20
12.1268767502
 30
0.0
 10
16.3517619734
 20
12.1232604536
 30
0.0
 10
16.3551419131
 20
12.120547666
 30
0.0
 10
16.3567007553
 20
12.1191362891
 30
0.0
  0
SPLINE
  5
2AB
100
AcDbEntity
  8
0
100
AcDbSpline
 62
7
  6
CONTINUOUS
 70
0
 71
3
 72
15
 73
11
 74
0
 42
0.0000001
 43
0.0000001
 44
0.0000000001
 40
0.0
 40
0.0
 40
0.0
 40
0.0
 40
0.122485427
 40
0.2495247835
 40
0.3790231904
 40
0.5091197755
 40
0.6380079875
 40
0.7639370813
 40
0.8851965221
 40
1.0
 40
1.0
 40
1.0
 40
1.0
 10
17.1121096974
 20
12.1377898371
 30
0.0
 10
17.1143532562
 20
12.1377898371
 30
0.0
 10
17.1189259689
 20
12.1375566358
 30
0.0
 10
17.1258080562
 20
12.1365807867
 30
0.0
 10
17.1327158442
 20
12.1349807882
 30
0.0
 10
17.1394977039
 20
12.1327991528
 30
0.0
 10
17.1460109514
 20
12.1300777019
 30
0.0
 10
17.1521213869
 20
12.1268767502
 30
0.0
 10
17.1576903432
 20
12.1232604536
 30
0.0
 10
17.1610702829
 20
12.120547666
 30
0.0
 10
17.1626291251
 20
12.1191362891
 30
0.0
  0
ENDSEC
  0
SECTION
  2
OBJECTS
  0
DICTIONARY
  5
C
100
AcDbDictionary
280
0
281
1
  3
ACAD_GROUP
350
D
  3
ACAD_MLINESTYLE
350
17
  3
ACAD_LAYOUT
350
1A
  3
ACAD_PLOTSETTINGS
350
19
  3
ACAD_PLOTSTYLENAME
350
E
  0
DICTIONARY
  5
D
102
{ACAD_REACTORS
330
C
102
}
100
AcDbDictionary
280
0
281
1
  0
ACDBDICTIONARYWDFLT
  5
E
102
{ACAD_REACTORS
330
C
102
}
100
AcDbDictionary
281
1
  3
Normal
350
F
100
AcDbDictionaryWithDefault
340
F
  0
DICTIONARY
  5
17
102
{ACAD_REACTORS
330
C
102
}
100
AcDbDictionary
280
0
281
1
  3
Standard
350
18
  0
DICTIONARY
  5
19
102
{ACAD_REACTORS
330
C
102
}
100
AcDbDictionary
281
1
  0
DICTIONARY
  5
1A
102
{ACAD_REACTORS
330
C
102
}
100
AcDbDictionary
281
1
  3
Model
350
2AC
  3
Layout1
350
2AD
  0
ACDBPLACEHOLDER
  5
F
102
{ACAD_REACTORS
330
E
102
}
  0
MLINESTYLE
  5
18
102
{ACAD_REACTORS
330
17
102
}
100
AcDbMlineStyle
  2
STANDARD
 70
0
  3

 62
256
 51
90.0
 52
90.0
 71
2
 49
0.5
 62
256
  6
BYLAYER
 49
-0.5
 62
256
  6
BYLAYER
  0
LAYOUT
  5
2AC
102
{ACAD_REACTORS
330
1A
102
}
100
AcDbPlotSettings
  1

  2
none_device
  4
ANSI_C_(22.00_x_17.00_Inches)
  6

 40
0.0
 41
0.0
 42
0.0
 43
0.0
 44
558.8
 45
431.8
 46
0.0
 47
0.0
 48
0.0
 49
0.0
140
0.0
141
0.0
142
1.0
143
1.0
 70
1024
 72
0
 73
0
 74
0
  7

 75
0
147
1.0
148
0.0
149
0.0
100
AcDbLayout
  1
Model
 70
0
 71
0
 10
0.0
 20
0.0
 11
22.0
 21
17.0
 12
0.0
 22
0.0
 32
0.0
 14
0.0
 24
0.0
 34
0.0
 15
0.0
 25
0.0
 35
0.0
146
0.0
 13
0.0
 23
0.0
 33
0.0
 16
1.0
 26
0.0
 36
0.0
 17
0.0
 27
1.0
 37
0.0
 76
0
330
216
345
0
346
0
  0
LAYOUT
  5
2AD
102
{ACAD_REACTORS
330
1A
102
}
100
AcDbPlotSettings
  1

  2
none_device
  4
ANSI_C_(22.00_x_17.00_Inches)
  6

 40
0.0
 41
0.0
 42
0.0
 43
0.0
 44
558.8
 45
431.8
 46
0.0
 47
0.0
 48
0.0
 49
0.0
140
0.0
141
0.0
142
1.0
143
1.0
 70
0
 72
0
 73
0
 74
0
  7

 75
0
147
1.0
148
0.0
149
0.0
100
AcDbLayout
  1
Layout1
 70
0
 71
1
 10
0.0
 20
0.0
 11
22.0
 21
17.0
 12
0.0
 22
0.0
 32
0.0
 14
0.0
 24
0.0
 34
0.0
 15
0.0
 25
0.0
 35
0.0
146
0.0
 13
0.0
 23
0.0
 33
0.0
 16
1.0
 26
0.0
 36
0.0
 17
0.0
 27
1.0
 37
0.0
 76
0
330
217
345
0
346
0
  0
ENDSEC
  0
EOF