999
DXF file: _cgs_temp_output.dxf
999
Pro/ENGINEER 2016360 by Parametric Technology Corporation
  0
SECTION
  2
HEADER
  9
$ACADVER
  1
AC1021
  9
$DWGCODEPAGE
  3
ANSI_1252
  9
$EXTMAX
 10
22.0
 20
17.0
 30
0.0
  9
$EXTMIN
 10
0.0
 20
0.0
 30
0.0
  9
$LIMMIN
 10
0.0
 20
0.0
  9
$LIMMAX
 10
22.0
 20
17.0
  9
$VIEWCTR
 10
11.0
 20
8.5
  9
$VIEWSIZE
 40
17.0
  9
$CLAYER
  8
0
  9
$LTSCALE
 40
1.21
  9
$CELTYPE
  6
BYLAYER
  9
$DIMSCALE
 40
1.0
  9
$DIMASZ
 40
0.1875
  9
$DIMEXO
 40
0.0625
  9
$DIMDLI
 40
0.836
  9
$DIMEXE
 40
0.125
  9
$DIMCEN
 40
0.198
  9
$DIMLFAC
 40
1.0
  9
$DIMBLK
  1
_CLOSED
  9
$DIMALT
 70
0
  9
$DIMALTF
 40
25.4
  9
$DIMTXT
 40
0.15625
  9
$DIMTOL
 70
0
  9
$DIMLIM
 70
0
  9
$DIMTFAC
 40
1.0
  9
$DIMGAP
 40
0.09
  9
$DIMDSEP
 70
46
  9
$AUNITS
 70
0
  9
$PDMODE
 70
3
  9
$PDSIZE
 40
0.3125
  9
$HANDSEED
  5
2AE
  9
$TILEMODE
 70
1
  9
$MEASUREMENT
 70
0
  9
$INSUNITS
 70
1
  0
ENDSEC
  0
SECTION
  2
CLASSES
  0
CLASS
  1
ACDBDICTIONARYWDFLT
  2
AcDbDictionaryWithDefault
  3
AutoCAD 2000
 90
0
 91
1
280
0
281
0
  0
CLASS
  1
ACDBPLACEHOLDER
  2
AcDbPlaceHolder
  3
AutoCAD 2000
 90
0
 91
1
280
0
281
0
  0
CLASS
  1
LAYOUT
  2
AcDbLayout
  3
AutoCAD 2000
 90
0
 91
0
280
0
281
0
  0
ENDSEC
  0
SECTION
  2
TABLES
  0
TABLE
  2
VPORT
  5
8
100
AcDbSymbolTable
 70
2
  0
VPORT
  5
1F4
100
AcDbSymbolTableRecord
100
AcDbViewportTableRecord
  2
*ACTIVE
 70
0
 10
0.0
 20
0.0
 11
1.0
 21
1.0
 12
11.0
 22
8.5
 13
0.0
 23
0.0
 14
1.0
 24
1.0
 15
0.0
 25
0.0
 16
0.0
 26
0.0
 36
1.0
 17
0.0
 27
0.0
 37
0.0
 40
17.0
 41
1.2941176471
 42
50.0
 43
0.0
 44
0.0
 50
0.0
 51
0.0
 71
0
 72
100
 73
1
 74
1
 75
0
 76
0
 77
0
 78
0
  0
ENDTAB
  0
TABLE
  2
LTYPE
  5
5
100
AcDbSymbolTable
 70
6
  0
LTYPE
  5
14
100
AcDbSymbolTableRecord
100
AcDbLinetypeTableRecord
  2
BYBLOCK
 70
0
  3

 72
65
 73
0
 40
0.0
  0
LTYPE
  5
15
100
AcDbSymbolTableRecord
100
AcDbLinetypeTableRecord
  2
BYLAYER
 70
0
  3

 72
65
 73
0
 40
0.0
  0
LTYPE
  5
16
100
AcDbSymbolTableRecord
100
AcDbLinetypeTableRecord
  2
CONTINUOUS
 70
64
  3
Solid line
 72
65
 73
0
 40
0.0
  0
LTYPE
  5
1F5
100
AcDbSymbolTableRecord
100
AcDbLinetypeTableRecord
  2
CENTER
 70
64
  3
____ _ ____ _ ____ _ ____ _ ____ _ ____ _ ____
 72
65
 73
4
 40
0.6
 49
0.375
 74
0
 49
-0.075
 74
0
 49
0.075
 74
0
 49
-0.075
 74
0
  0
LTYPE
  5
1F6
100
AcDbSymbolTableRecord
100
AcDbLinetypeTableRecord
  2
HIDDEN
 70
64
  3
- - - - - - - - - - - - - - - - - - - -
 72
65
 73
2
 40
0.2
 49
0.1
 74
0
 49
-0.1
 74
0
  0
LTYPE
  5
1F7
100
AcDbSymbolTableRecord
100
AcDbLinetypeTableRecord
  2
PHANTOM
 70
64
  3
_____ _ _ _____ _ _ _____ _ _ _____
 72
65
 73
6
 40
0.8
 49
0.45
 74
0
 49
-0.05
 74
0
 49
0.1
 74
0
 49
-0.05
 74
0
 49
0.1
 74
0
 49
-0.05
 74
0
  0
LTYPE
  5
1F8
100
AcDbSymbolTableRecord
100
AcDbLinetypeTableRecord
  2
DOT
 70
64
  3
. . . . . . . . . . . . . . . . . . . .
 72
65
 73
2
 40
0.2
 49
0.1
 74
0
 49
-0.1
 74
0
  0
LTYPE
  5
1F9
100
AcDbSymbolTableRecord
100
AcDbLinetypeTableRecord
  2
DASHED
 70
64
  3
- - - - - - - - - - - - - - - - - - - -
 72
65
 73
2
 40
0.2
 49
0.1
 74
0
 49
-0.1
 74
0
  0
ENDTAB
  0
TABLE
  2
LAYER
  5
2
100
AcDbSymbolTable
 70
36
  0
LAYER
  5
10
100
AcDbSymbolTableRecord
100
AcDbLayerTableRecord
  2
0
 70
0
 62
7
  6
CONTINUOUS
370
-3
390
F
  0
LAYER
  5
1FA
100
AcDbSymbolTableRecord
100
AcDbLayerTableRecord
  2
DEFAULT_1
 70
0
 62
7
  6
CENTER
370
-3
390
F
  0
LAYER
  5
1FB
100
AcDbSymbolTableRecord
100
AcDbLayerTableRecord
  2
DEFAULT_2
 70
0
 62
8
  6
HIDDEN
370
-3
390
F
  0
LAYER
  5
1FC
100
AcDbSymbolTableRecord
100
AcDbLayerTableRecord
  2
DEFAULT_3
 70
0
 62
7
  6
PHANTOM
370
-3
390
F
  0
LAYER
  5
1FD
100
AcDbSymbolTableRecord
100
AcDbLayerTableRecord
  2
01_ALL_DTM_PLN
 70
0
 62
7
  6
CONTINUOUS
370
-3
390
F
  0
LAYER
  5
1FE
100
AcDbSymbolTableRecord
100
AcDbLayerTableRecord
  2
01__ASM_ALL_DTM_PLN
 70
0
 62
7
  6
CONTINUOUS
370
-3
390
F
  0
LAYER
  5
1FF
100
AcDbSymbolTableRecord
100
AcDbLayerTableRecord
  2
01__ASM_DEF_DTM_PLN
 70
0
 62
7
  6
CONTINUOUS
370
-3
390
F
  0
LAYER
  5
200
100
AcDbSymbolTableRecord
100
AcDbLayerTableRecord
  2
01___PRT_ALL_DTM_PLN
 70
0
 62
7
  6
CONTINUOUS
370
-3
390
F
  0
LAYER
  5
201
100
AcDbSymbolTableRecord
100
AcDbLayerTableRecord
  2
01___PRT_DEF_DTM_PLN
 70
0
 62
7
  6
CONTINUOUS
370
-3
390
F
  0
LAYER
  5
202
100
AcDbSymbolTableRecord
100
AcDbLayerTableRecord
  2
02_ALL_AXES
 70
0
 62
7
  6
CONTINUOUS
370
-3
390
F
  0
LAYER
  5
203
100
AcDbSymbolTableRecord
100
AcDbLayerTableRecord
  2
02__ASM_ALL_AXES
 70
0
 62
7
  6
CONTINUOUS
370
-3
390
F
  0
LAYER
  5
204
100
AcDbSymbolTableRecord
100
AcDbLayerTableRecord
  2
02___PRT_ALL_AXES
 70
0
 62
7
  6
CONTINUOUS
370
-3
390
F
  0
LAYER
  5
205
100
AcDbSymbolTableRecord
100
AcDbLayerTableRecord
  2
03_ALL_CURVES
 70
0
 62
7
  6
CONTINUOUS
370
-3
390
F
  0
LAYER
  5
206
100
AcDbSymbolTableRecord
100
AcDbLayerTableRecord
  2
03__ASM_ALL_CURVES
 70
0
 62
7
  6
CONTINUOUS
370
-3
390
F
  0
LAYER
  5
207
100
AcDbSymbolTableRecord
100
AcDbLayerTableRecord
  2
03___PRT_ALL_CURVES
 70
0
 62
7
  6
CONTINUOUS
370
-3
390
F
  0
LAYER
  5
208
100
AcDbSymbolTableRecord
100
AcDbLayerTableRecord
  2
04_ALL_DTM_PNT
 70
0
 62
7
  6
CONTINUOUS
370
-3
390
F
  0
LAYER
  5
209
100
AcDbSymbolTableRecord
100
AcDbLayerTableRecord
  2
04__ASM_ALL_DTM_PNT
 70
0
 62
7
  6
CONTINUOUS
370
-3
390
F
  0
LAYER
  5
20A
100
AcDbSymbolTableRecord
100
AcDbLayerTableRecord
  2
04___PRT_ALL_DTM_PNT
 70
0
 62
7
  6
CONTINUOUS
370
-3
390
F
  0
LAYER
  5
20B
100
AcDbSymbolTableRecord
100
AcDbLayerTableRecord
  2
05_ALL_DTM_CSYS
 70
0
 62
7
  6
CONTINUOUS
370
-3
390
F
  0
LAYER
  5
20C
100
AcDbSymbolTableRecord
100
AcDbLayerTableRecord
  2
05__ASM_ALL_DTM_CSYS
 70
0
 62
7
  6
CONTINUOUS
370
-3
390
F
  0
LAYER
  5
20D
100
AcDbSymbolTableRecord
100
AcDbLayerTableRecord
  2
05__ASM_DEF_DTM_CSYS
 70
0
 62
7
  6
CONTINUOUS
370
-3
390
F
  0
LAYER
  5
20E
100
AcDbSymbolTableRecord
100
AcDbLayerTableRecord
  2
05___PRT_ALL_DTM_CSYS
 70
0
 62
7
  6
CONTINUOUS
370
-3
390
F
  0
LAYER
  5
20F
100
AcDbSymbolTableRecord
100
AcDbLayerTableRecord
  2
05___PRT_DEF_DTM_CSYS
 70
0
 62
7
  6
CONTINUOUS
370
-3
390
F
  0
LAYER
  5
210
100
AcDbSymbolTableRecord
100
AcDbLayerTableRecord
  2
06_ALL_SURFS
 70
0
 62
7
  6
CONTINUOUS
370
-3
390
F
  0
LAYER
  5
211
100
AcDbSymbolTableRecord
100
AcDbLayerTableRecord
  2
06__ASM_ALL_SURFS
 70
0
 62
7
  6
CONTINUOUS
370
-3
390
F
  0
LAYER
  5
212
100
AcDbSymbolTableRecord
100
AcDbLayerTableRecord
  2
06___PRT_ALL_SURFS
 70
0
 62
7
  6
CONTINUOUS
370
-3
390
F
  0
LAYER
  5
213
100
AcDbSymbolTableRecord
100
AcDbLayerTableRecord
  2
07__ASM_ALL_SKELETONS
 70
0
 62
7
  6
CONTINUOUS
370
-3
390
F
  0
ENDTAB
  0
TABLE
  2
STYLE
  5
3
100
AcDbSymbolTable
 70
1
  0
STYLE
  5
11
100
AcDbSymbolTableRecord
100
AcDbTextStyleTableRecord
  2
STANDARD
 70
0
 40
0.0
 41
0.8
 50
0.0
 71
0
 42
0.2
  3
txt
  4

  0
STYLE
  5
214
100
AcDbSymbolTableRecord
100
AcDbTextStyleTableRecord
  2
TEXTSTYLE_1
 70
0
 40
0.0
 41
0.8
 50
0.0
 71
0
 42
0.2
  3
gdt
  4

  0
ENDTAB
  0
TABLE
  2
VIEW
  5
6
100
AcDbSymbolTable
 70
0
  0
ENDTAB
  0
TABLE
  2
UCS
  5
7
100
AcDbSymbolTable
 70
0
  0
ENDTAB
  0
TABLE
  2
APPID
  5
9
100
AcDbSymbolTable
 70
1
  0
APPID
  5
215
100
AcDbSymbolTableRecord
100
AcDbRegAppTableRecord
  2
ACAD
 70
0
  0
ENDTAB
  0
TABLE
  2
BLOCK_RECORD
  5
1
100
AcDbSymbolTable
 70
0
  0
BLOCK_RECORD
  5
216
100
AcDbSymbolTableRecord
100
AcDbBlockTableRecord
  2
*Model_Space
  0
BLOCK_RECORD
  5
217
100
AcDbSymbolTableRecord
100
AcDbBlockTableRecord
  2
*Paper_Space
  0
ENDTAB
  0
TABLE
  2
DIMSTYLE
  5
A
100
AcDbSymbolTable
 70
1
100
AcDbDimStyleTable
 71
0
  0
DIMSTYLE
105
218
100
AcDbSymbolTableRecord
100
AcDbDimStyleTableRecord
  2
STANDARD
 70
0
  3

  4

 40
1.0
 41
0.1875
 42
0.0625
 43
0.38
 44
0.125
 45
0.0
 46
0.0
 47
0.0001
 48
0.0001
140
0.15625
141
0.09
142
0.0
143
25.4
144
1.0
145
0.0
146
1.0
147
0.09
 71
0.0
 72
0.0
 73
1
 74
1
 75
0
 76
0
 77
0
 78
4
 79
1
170
0
171
3
172
0
173
0
174
0
175
0
176
0
177
0
178
0
270
2
179
4
271
4
272
4
273
2
274
2
275
0
280
0
281
0
282
0
283
1
284
4
285
0
286
0
287
3
288
0
340
11
278
46
  0
ENDTAB
  0
ENDSEC
  0
SECTION
  2
BLOCKS
  0
BLOCK
  5
20
100
AcDbEntity
  8
0
100
AcDbBlockBegin
  2
*Model_Space
 70
0
 10
0.0
 20
0.0
 30
0.0
  3
*Model_Space
  1

  0
ENDBLK
  5
21
100
AcDbEntity
  8
0
100
AcDbBlockEnd
  0
BLOCK
  5
1C
100
AcDbEntity
  8
0
100
AcDbBlockBegin
  2
*Paper_Space
 70
0
 10
0.0
 20
0.0
 30
0.0
  3
*Paper_Space
  1

  0
ENDBLK
  5
1D
100
AcDbEntity
  8
0
100
AcDbBlockEnd
  0
ENDSEC
  0
SECTION
  2
ENTITIES
  0
MTEXT
  5
219
100
AcDbEntity
  8
0
100
AcDbMText
 62
7
  6
CONTINUOUS
  7
STANDARD
 71
1
 72
1
 10
15.9560215477
 20
0.9479130325
 30
0.0
 11
1.0
 21
0.0
 31
0.0
 44
0.9
  1
SCALE: 1:1.000
 40
0.3
 41
3.36
  0
LINE
  5
21A
100
AcDbEntity
  8
0
100
AcDbLine
 62
7
  6
CONTINUOUS
 10
0.0
 20
0.0
 11
0.0
 21
17.0
  0
LINE
  5
21B
100
AcDbEntity
  8
0
100
AcDbLine
 62
7
  6
CONTINUOUS
 10
0.0
 20
0.0
 11
22.0
 21
0.0
  0
LINE
  5
21C
100
AcDbEntity
  8
0
100
AcDbLine
 62
7
  6
CONTINUOUS
 10
0.0
 20
17.0
 11
22.0
 21
17.0
  0
LINE
  5
21D
100
AcDbEntity
  8
0
100
AcDbLine
 62
7
  6
CONTINUOUS
 10
22.0
 20
0.0
 11
22.0
 21
17.0
  0
LINE
  5
21E
100
AcDbEntity
  8
0
100
AcDbLine
 62
7
  6
CONTINUOUS
 10
4.6303672762
 20
5.6001198968
 11
4.6303672762
 21
5.5301198968
  0
LINE
  5
21F
100
AcDbEntity
  8
0
100
AcDbLine
 62
7
  6
CONTINUOUS
 10
4.7312200788
 20
5.5129722143
 11
4.7507422928
 21
5.4658414204
  0
LINE
  5
220
100
AcDbEntity
  8
0
100
AcDbLine
 62
7
  6
CONTINUOUS
 10
5.0099922595
 20
5.4658414204
 11
5.0295144735
 21
5.5129722143
  0
LINE
  5
221
100
AcDbEntity
  8
0
100
AcDbLine
 62
7
  6
CONTINUOUS
 10
5.2312200788
 20
5.5129722143
 11
5.2507422928
 21
5.4658414204
  0
LINE
  5
222
100
AcDbEntity
  8
0
100
AcDbLine
 62
7
  6
CONTINUOUS
 10
5.5099922595
 20
5.4658414204
 11
5.5295144735
 21
5.5129722143
  0
LINE
  5
223
100
AcDbEntity
  8
0
100
AcDbLine
 62
7
  6
CONTINUOUS
 10
5.7312200788
 20
5.5129722143
 11
5.7507422928
 21
5.4658414204
  0
LINE
  5
224
100
AcDbEntity
  8
0
100
AcDbLine
 62
7
  6
CONTINUOUS
 10
6.0099922595
 20
5.4658414204
 11
6.0295144735
 21
5.5129722143
  0
LINE
  5
225
100
AcDbEntity
  8
0
100
AcDbLine
 62
7
  6
CONTINUOUS
 10
4.7892372734
 20
5.4401198968
 11
4.971497279
 21
5.4401198968
  0
LINE
  5
226
100
AcDbEntity
  8
0
100
AcDbLine
 62
7
  6
CONTINUOUS
 10
5.2892372734
 20
5.4401198968
 11
5.471497279
 21
5.4401198968
  0
LINE
  5
227
100
AcDbEntity
  8
0
100
AcDbLine
 62
7
  6
CONTINUOUS
 10
5.7892372734
 20
5.4401198968
 11
5.971497279
 21
5.4401198968
  0
LINE
  5
228
100
AcDbEntity
  8
0
100
AcDbLine
 62
7
  6
CONTINUOUS
 10
6.2892372734
 20
5.4401198968
 11
6.471497279
 21
5.4401198968
  0
LINE
  5
229
100
AcDbEntity
  8
0
100
AcDbLine
 62
7
  6
CONTINUOUS
 10
6.7892372734
 20
5.4401198968
 11
6.971497279
 21
5.4401198968
  0
LINE
  5
22A
100
AcDbEntity
  8
0
100
AcDbLine
 62
7
  6
CONTINUOUS
 10
7.2892372734
 20
5.4401198968
 11
7.471497279
 21
5.4401198968
  0
LINE
  5
22B
100
AcDbEntity
  8
0
100
AcDbLine
 62
7
  6
CONTINUOUS
 10
4.6303672762
 20
5.5301198968
 11
4.7055567584
 21
5.5301198968
  0
LINE
  5
22C
100
AcDbEntity
  8
0
100
AcDbLine
 62
7
  6
CONTINUOUS
 10
5.0551777939
 20
5.5301198968
 11
5.2055567584
 21
5.5301198968
  0
LINE
  5
22D
100
AcDbEntity
  8
0
100
AcDbLine
 62
7
  6
CONTINUOUS
 10
5.5551777939
 20
5.5301198968
 11
5.7055567584
 21
5.5301198968
  0
LINE
  5
22E
100
AcDbEntity
  8
0
100
AcDbLine
 62
7
  6
CONTINUOUS
 10
6.0551777939
 20
5.5301198968
 11
6.2055567584
 21
5.5301198968
  0
LINE
  5
22F
100
AcDbEntity
  8
0
100
AcDbLine
 62
7
  6
CONTINUOUS
 10
6.5551777939
 20
5.5301198968
 11
6.7055567584
 21
5.5301198968
  0
LINE
  5
230
100
AcDbEntity
  8
0
100
AcDbLine
 62
7
  6
CONTINUOUS
 10
7.0551777939
 20
5.5301198968
 11
7.2055567584
 21
5.5301198968
  0
LINE
  5
231
100
AcDbEntity
  8
0
100
AcDbLine
 62
7
  6
CONTINUOUS
 10
7.5551777939
 20
5.5301198968
 11
7.6303672762
 21
5.5301198968
  0
LINE
  5
232
100
AcDbEntity
  8
0
100
AcDbLine
 62
7
  6
CONTINUOUS
 10
7.6303672762
 20
5.6001198968
 11
4.6303672762
 21
5.6001198968
  0
LINE
  5
233
100
AcDbEntity
  8
0
100
AcDbLine
 62
7
  6
CONTINUOUS
 10
6.2312200788
 20
5.5129722143
 11
6.2507422928
 21
5.4658414204
  0
LINE
  5
234
100
AcDbEntity
  8
0
100
AcDbLine
 62
7
  6
CONTINUOUS
 10
6.5099922595
 20
5.4658414204
 11
6.5295144735
 21
5.5129722143
  0
LINE
  5
235
100
AcDbEntity
  8
0
100
AcDbLine
 62
7
  6
CONTINUOUS
 10
6.7312200788
 20
5.5129722143
 11
6.7507422928
 21
5.4658414204
  0
LINE
  5
236
100
AcDbEntity
  8
0
100
AcDbLine
 62
7
  6
CONTINUOUS
 10
7.0099922595
 20
5.4658414204
 11
7.0295144735
 21
5.5129722143
  0
LINE
  5
237
100
AcDbEntity
  8
0
100
AcDbLine
 62
7
  6
CONTINUOUS
 10
7.2312200788
 20
5.5129722143
 11
7.2507422928
 21
5.4658414204
  0
LINE
  5
238
100
AcDbEntity
  8
0
100
AcDbLine
 62
7
  6
CONTINUOUS
 10
7.5099922595
 20
5.4658414204
 11
7.5295144735
 21
5.5129722143
  0
LINE
  5
239
100
AcDbEntity
  8
0
100
AcDbLine
 62
7
  6
CONTINUOUS
 10
7.6303672762
 20
5.5301198968
 11
7.6303672762
 21
5.6001198968
  0
LINE
  5
23A
100
AcDbEntity
  8
0
100
AcDbLine
 62
7
  6
CONTINUOUS
 10
7.5708720839
 20
8.6000477814
 11
4.5708720839
 21
8.6000477814
  0
LINE
  5
23B
100
AcDbEntity
  8
0
100
AcDbLine
 62
7
  6
CONTINUOUS
 10
4.5708720839
 20
16.6000477814
 11
4.5708720839
 21
8.6000477814
  0
LINE
  5
23C
100
AcDbEntity
  8
0
100
AcDbLine
 62
7
  6
CONTINUOUS
 10
7.5708720839
 20
16.6000477814
 11
7.5708720839
 21
8.6000477814
  0
LINE
  5
23D
100
AcDbEntity
  8
0
100
AcDbLine
 62
7
  6
CONTINUOUS
 10
4.5708720839
 20
16.6000477814
 11
7.5708720839
 21
16.6000477814
  0
LINE
  5
23E
100
AcDbEntity
  8
0
100
AcDbLine
 62
7
  6
CONTINUOUS
 10
11.5603552569
 20
5.3806247044
 11
11.5603552569
 21
5.5406247044
  0
LINE
  5
23F
100
AcDbEntity
  8
0
100
AcDbLine
 62
7
  6
CONTINUOUS
 10
11.5603552569
 20
5.3806247044
 11
19.5603552569
 21
5.3806247044
  0
LINE
  5
240
100
AcDbEntity
  8
0
100
AcDbLine
 62
7
  6
CONTINUOUS
 10
19.5603552569
 20
5.4706247044
 11
11.5603552569
 21
5.4706247044
  0
LINE
  5
241
100
AcDbEntity
  8
0
100
AcDbLine
 62
7
  6
CONTINUOUS
 10
19.5603552569
 20
5.5406247044
 11
11.5603552569
 21
5.5406247044
  0
LINE
  5
242
100
AcDbEntity
  8
0
100
AcDbLine
 62
7
  6
CONTINUOUS
 10
19.5603552569
 20
5.3806247044
 11
19.5603552569
 21
5.5406247044
  0
LINE
  5
243
100
AcDbEntity
  8
0
100
AcDbLine
 62
7
  6
CONTINUOUS
 10
13.2300544929
 20
9.3730542837
 11
13.2624125081
 21
9.3437573124
  0
LINE
  5
244
100
AcDbEntity
  8
0
100
AcDbLine
 62
7
  6
CONTINUOUS
 10
13.6905849899
 20
9.3730542837
 11
13.7229430051
 21
9.3437573124
  0
LINE
  5
245
100
AcDbEntity
  8
0
100
AcDbLine
 62
7
  6
CONTINUOUS
 10
13.1105792185
 20
9.4272261519
 11
13.1319321492
 21
9.3837134541
  0
LINE
  5
246
100
AcDbEntity
  8
0
100
AcDbLine
 62
7
  6
CONTINUOUS
 10
13.3057148747
 20
9.3277685569
 11
13.4735874566
 21
9.3277685569
  0
LINE
  5
247
100
AcDbEntity
  8
0
100
AcDbLine
 62
7
  6
CONTINUOUS
 10
13.7662453717
 20
9.3277685569
 11
13.9341179536
 21
9.3277685569
  0
LINE
  5
248
100
AcDbEntity
  8
0
100
AcDbLine
 62
7
  6
CONTINUOUS
 10
14.2267758687
 20
9.3277685569
 11
14.3946484506
 21
9.3277685569
  0
LINE
  5
249
100
AcDbEntity
  8
0
100
AcDbLine
 62
7
  6
CONTINUOUS
 10
14.6873063657
 20
9.3277685569
 11
14.8551789476
 21
9.3277685569
  0
LINE
  5
24A
100
AcDbEntity
  8
0
100
AcDbLine
 62
7
  6
CONTINUOUS
 10
15.1478368627
 20
9.3277685569
 11
15.3157094446
 21
9.3277685569
  0
LINE
  5
24B
100
AcDbEntity
  8
0
100
AcDbLine
 62
7
  6
CONTINUOUS
 10
15.6083673597
 20
9.3277685569
 11
15.7762399416
 21
9.3277685569
  0
LINE
  5
24C
100
AcDbEntity
  8
0
100
AcDbLine
 62
7
  6
CONTINUOUS
 10
14.1511154869
 20
9.3730542837
 11
14.1834735021
 21
9.3437573124
  0
LINE
  5
24D
100
AcDbEntity
  8
0
100
AcDbLine
 62
7
  6
CONTINUOUS
 10
13.1319321492
 20
9.3837134541
 11
13.2011862485
 21
9.3837134541
  0
LINE
  5
24E
100
AcDbEntity
  8
0
100
AcDbLine
 62
7
  6
CONTINUOUS
 10
13.5232085469
 20
9.3837134541
 11
13.6617167455
 21
9.3837134541
  0
LINE
  5
24F
100
AcDbEntity
  8
0
100
AcDbLine
 62
7
  6
CONTINUOUS
 10
13.9837390439
 20
9.3837134541
 11
14.1222472425
 21
9.3837134541
  0
LINE
  5
250
100
AcDbEntity
  8
0
100
AcDbLine
 62
7
  6
CONTINUOUS
 10
14.4442695409
 20
9.3837134541
 11
14.5827777395
 21
9.3837134541
  0
LINE
  5
251
100
AcDbEntity
  8
0
100
AcDbLine
 62
7
  6
CONTINUOUS
 10
14.9048000379
 20
9.3837134541
 11
15.0433082365
 21
9.3837134541
  0
LINE
  5
252
100
AcDbEntity
  8
0
100
AcDbLine
 62
7
  6
CONTINUOUS
 10
15.3653305349
 20
9.3837134541
 11
15.5038387335
 21
9.3837134541
  0
LINE
  5
253
100
AcDbEntity
  8
0
100
AcDbLine
 62
7
  6
CONTINUOUS
 10
15.8258610319
 20
9.3837134541
 11
15.8951151312
 21
9.3837134541
  0
LINE
  5
254
100
AcDbEntity
  8
0
100
AcDbLine
 62
7
  6
CONTINUOUS
 10
15.8737622005
 20
9.4272261519
 11
13.1105792185
 21
9.4272261519
  0
LINE
  5
255
100
AcDbEntity
  8
0
100
AcDbLine
 62
7
  6
CONTINUOUS
 10
14.6116459839
 20
9.3730542837
 11
14.6440039991
 21
9.3437573124
  0
LINE
  5
256
100
AcDbEntity
  8
0
100
AcDbLine
 62
7
  6
CONTINUOUS
 10
15.0721764809
 20
9.3730542837
 11
15.1045344961
 21
9.3437573124
  0
LINE
  5
257
100
AcDbEntity
  8
0
100
AcDbLine
 62
7
  6
CONTINUOUS
 10
15.5327069779
 20
9.3730542837
 11
15.5650649931
 21
9.3437573124
  0
LINE
  5
258
100
AcDbEntity
  8
0
100
AcDbLine
 62
7
  6
CONTINUOUS
 10
13.5011975401
 20
9.3437573124
 11
13.5048018246
 21
9.3730542837
  0
LINE
  5
259
100
AcDbEntity
  8
0
100
AcDbLine
 62
7
  6
CONTINUOUS
 10
15.0471098058
 20
15.6938414289
 11
13.1105792185
 21
9.4272261519
  0
LINE
  5
25A
100
AcDbEntity
  8
0
100
AcDbLine
 62
7
  6
CONTINUOUS
 10
13.9617280371
 20
9.3437573124
 11
13.9653323216
 21
9.3730542837
  0
LINE
  5
25B
100
AcDbEntity
  8
0
100
AcDbLine
 62
7
  6
CONTINUOUS
 10
13.500673625
 20
9.3413709999
 11
13.5011975401
 21
9.3437573124
  0
LINE
  5
25C
100
AcDbEntity
  8
0
100
AcDbLine
 62
7
  6
CONTINUOUS
 10
13.5048018246
 20
9.3730542837
 11
13.50516452
 21
9.374640984
  0
LINE
  5
25D
100
AcDbEntity
  8
0
100
AcDbLine
 62
7
  6
CONTINUOUS
 10
13.961204122
 20
9.3413709999
 11
13.9617280371
 21
9.3437573124
  0
LINE
  5
25E
100
AcDbEntity
  8
0
100
AcDbLine
 62
7
  6
CONTINUOUS
 10
13.9653323216
 20
9.3730542837
 11
13.965695017
 21
9.374640984
  0
LINE
  5
25F
100
AcDbEntity
  8
0
100
AcDbLine
 62
7
  6
CONTINUOUS
 10
13.5006865807
 20
9.3413669985
 11
13.5132140532
 21
9.3819059143
  0
LINE
  5
260
100
AcDbEntity
  8
0
100
AcDbLine
 62
7
  6
CONTINUOUS
 10
15.8951151312
 20
9.3837134541
 11
15.8737622005
 21
9.4272261519
  0
LINE
  5
261
100
AcDbEntity
  8
0
100
AcDbLine
 62
7
  6
CONTINUOUS
 10
14.4222585341
 20
9.3437573124
 11
14.4258628186
 21
9.3730542837
  0
LINE
  5
262
100
AcDbEntity
  8
0
100
AcDbLine
 62
7
  6
CONTINUOUS
 10
13.9612170777
 20
9.3413669985
 11
13.9737445502
 21
9.3819059143
  0
LINE
  5
263
100
AcDbEntity
  8
0
100
AcDbLine
 62
7
  6
CONTINUOUS
 10
14.421734619
 20
9.3413709999
 11
14.4222585341
 21
9.3437573124
  0
LINE
  5
264
100
AcDbEntity
  8
0
100
AcDbLine
 62
7
  6
CONTINUOUS
 10
14.4258628186
 20
9.3730542837
 11
14.426225514
 21
9.374640984
  0
LINE
  5
265
100
AcDbEntity
  8
0
100
AcDbLine
 62
7
  6
CONTINUOUS
 10
14.8827890311
 20
9.3437573124
 11
14.8863933156
 21
9.3730542837
  0
LINE
  5
266
100
AcDbEntity
  8
0
100
AcDbLine
 62
7
  6
CONTINUOUS
 10
14.4217475747
 20
9.3413669985
 11
14.4342750472
 21
9.3819059143
  0
LINE
  5
267
100
AcDbEntity
  8
0
100
AcDbLine
 62
7
  6
CONTINUOUS
 10
15.3433195281
 20
9.3437573124
 11
15.3469238126
 21
9.3730542837
  0
LINE
  5
268
100
AcDbEntity
  8
0
100
AcDbLine
 62
7
  6
CONTINUOUS
 10
14.882265116
 20
9.3413709999
 11
14.8827890311
 21
9.3437573124
  0
LINE
  5
269
100
AcDbEntity
  8
0
100
AcDbLine
 62
7
  6
CONTINUOUS
 10
14.8863933156
 20
9.3730542837
 11
14.886756011
 21
9.374640984
  0
LINE
  5
26A
100
AcDbEntity
  8
0
100
AcDbLine
 62
7
  6
CONTINUOUS
 10
15.342795613
 20
9.3413709999
 11
15.3433195281
 21
9.3437573124
  0
LINE
  5
26B
100
AcDbEntity
  8
0
100
AcDbLine
 62
7
  6
CONTINUOUS
 10
14.8822780717
 20
9.3413669985
 11
14.8948055442
 21
9.3819059143
  0
LINE
  5
26C
100
AcDbEntity
  8
0
100
AcDbLine
 62
7
  6
CONTINUOUS
 10
15.8038500251
 20
9.3437573124
 11
15.8074543096
 21
9.3730542837
  0
LINE
  5
26D
100
AcDbEntity
  8
0
100
AcDbLine
 62
7
  6
CONTINUOUS
 10
15.3469238126
 20
9.3730542837
 11
15.3472865081
 21
9.374640984
  0
LINE
  5
26E
100
AcDbEntity
  8
0
100
AcDbLine
 62
7
  6
CONTINUOUS
 10
15.3428085687
 20
9.3413669985
 11
15.3553360412
 21
9.3819059143
  0
LINE
  5
26F
100
AcDbEntity
  8
0
100
AcDbLine
 62
7
  6
CONTINUOUS
 10
15.80332611
 20
9.3413709999
 11
15.8038500251
 21
9.3437573124
  0
LINE
  5
270
100
AcDbEntity
  8
0
100
AcDbLine
 62
7
  6
CONTINUOUS
 10
15.8074543096
 20
9.3730542837
 11
15.8078170051
 21
9.374640984
  0
LINE
  5
271
100
AcDbEntity
  8
0
100
AcDbLine
 62
7
  6
CONTINUOUS
 10
15.8033390657
 20
9.3413669985
 11
15.8158665382
 21
9.3819059143
  0
LINE
  5
272
100
AcDbEntity
  8
0
100
AcDbLine
 62
7
  6
CONTINUOUS
 10
17.8102927878
 20
15.6938414289
 11
15.8737622005
 21
9.4272261519
  0
LINE
  5
273
100
AcDbEntity
  8
0
100
AcDbLine
 62
7
  6
CONTINUOUS
 10
17.8316457184
 20
15.6503287311
 11
15.8951151312
 21
9.3837134541
  0
LINE
  5
274
100
AcDbEntity
  8
0
100
AcDbLine
 62
7
  6
CONTINUOUS
 10
15.0471098058
 20
15.6938414289
 11
17.8102927878
 21
15.6938414289
  0
LINE
  5
275
100
AcDbEntity
  8
0
100
AcDbLine
 62
7
  6
CONTINUOUS
 10
17.8316457184
 20
15.6503287311
 11
17.8102927878
 21
15.6938414289
  0
ARC
  5
276
100
AcDbEntity
  8
0
100
AcDbCircle
 62
7
  6
CONTINUOUS
 10
5.2892372734
 20
5.4817865634
 40
0.0416666667
100
AcDbArc
 50
202.5
 51
270.0
  0
ARC
  5
277
100
AcDbEntity
  8
0
100
AcDbCircle
 62
7
  6
CONTINUOUS
 10
5.471497279
 20
5.4817865634
 40
0.0416666667
100
AcDbArc
 50
270.0
 51
337.5
  0
ARC
  5
278
100
AcDbEntity
  8
0
100
AcDbCircle
 62
7
  6
CONTINUOUS
 10
5.7892372734
 20
5.4817865634
 40
0.0416666667
100
AcDbArc
 50
202.5
 51
270.0
  0
ARC
  5
279
100
AcDbEntity
  8
0
100
AcDbCircle
 62
7
  6
CONTINUOUS
 10
5.971497279
 20
5.4817865634
 40
0.0416666667
100
AcDbArc
 50
270.0
 51
337.5
  0
ARC
  5
27A
100
AcDbEntity
  8
0
100
AcDbCircle
 62
7
  6
CONTINUOUS
 10
6.2892372734
 20
5.4817865634
 40
0.0416666667
100
AcDbArc
 50
202.5
 51
270.0
  0
ARC
  5
27B
100
AcDbEntity
  8
0
100
AcDbCircle
 62
7
  6
CONTINUOUS
 10
6.471497279
 20
5.4817865634
 40
0.0416666667
100
AcDbArc
 50
270.0
 51
337.5
  0
ARC
  5
27C
100
AcDbEntity
  8
0
100
AcDbCircle
 62
7
  6
CONTINUOUS
 10
4.971497279
 20
5.4817865634
 40
0.0416666667
100
AcDbArc
 50
270.0
 51
337.5
  0
ARC
  5
27D
100
AcDbEntity
  8
0
100
AcDbCircle
 62
7
  6
CONTINUOUS
 10
4.7892372734
 20
5.4817865634
 40
0.0416666667
100
AcDbArc
 50
202.5
 51
270.0
  0
ARC
  5
27E
100
AcDbEntity
  8
0
100
AcDbCircle
 62
7
  6
CONTINUOUS
 10
7.471497279
 20
5.4817865634
 40
0.0416666667
100
AcDbArc
 50
270.0
 51
337.5
  0
ARC
  5
27F
100
AcDbEntity
  8
0
100
AcDbCircle
 62
7
  6
CONTINUOUS
 10
7.2892372734
 20
5.4817865634
 40
0.0416666667
100
AcDbArc
 50
202.5
 51
270.0
  0
ARC
  5
280
100
AcDbEntity
  8
0
100
AcDbCircle
 62
7
  6
CONTINUOUS
 10
6.971497279
 20
5.4817865634
 40
0.0416666667
100
AcDbArc
 50
270.0
 51
337.5
  0
ARC
  5
281
100
AcDbEntity
  8
0
100
AcDbCircle
 62
7
  6
CONTINUOUS
 10
6.7892372734
 20
5.4817865634
 40
0.0416666667
100
AcDbArc
 50
202.5
 51
270.0
  0
ARC
  5
282
100
AcDbEntity
  8
0
100
AcDbCircle
 62
7
  6
CONTINUOUS
 10
5.0551777939
 20
5.502342119
 40
0.0277777778
100
AcDbArc
 50
90.0
 51
157.5
  0
ARC
  5
283
100
AcDbEntity
  8
0
100
AcDbCircle
 62
7
  6
CONTINUOUS
 10
4.7055567584
 20
5.502342119
 40
0.0277777778
100
AcDbArc
 50
22.5
 51
90.0
  0
ARC
  5
284
100
AcDbEntity
  8
0
100
AcDbCircle
 62
7
  6
CONTINUOUS
 10
5.5551777939
 20
5.502342119
 40
0.0277777778
100
AcDbArc
 50
90.0
 51
157.5
  0
ARC
  5
285
100
AcDbEntity
  8
0
100
AcDbCircle
 62
7
  6
CONTINUOUS
 10
5.2055567584
 20
5.502342119
 40
0.0277777778
100
AcDbArc
 50
22.5
 51
90.0
  0
ARC
  5
286
100
AcDbEntity
  8
0
100
AcDbCircle
 62
7
  6
CONTINUOUS
 10
6.0551777939
 20
5.502342119
 40
0.0277777778
100
AcDbArc
 50
90.0
 51
157.5
  0
ARC
  5
287
100
AcDbEntity
  8
0
100
AcDbCircle
 62
7
  6
CONTINUOUS
 10
5.7055567584
 20
5.502342119
 40
0.0277777778
100
AcDbArc
 50
22.5
 51
90.0
  0
ARC
  5
288
100
AcDbEntity
  8
0
100
AcDbCircle
 62
7
  6
CONTINUOUS
 10
6.5551777939
 20
5.502342119
 40
0.0277777778
100
AcDbArc
 50
90.0
 51
157.5
  0
ARC
  5
289
100
AcDbEntity
  8
0
100
AcDbCircle
 62
7
  6
CONTINUOUS
 10
6.2055567584
 20
5.502342119
 40
0.0277777778
100
AcDbArc
 50
22.5
 51
90.0
  0
ARC
  5
28A
100
AcDbEntity
  8
0
100
AcDbCircle
 62
7
  6
CONTINUOUS
 10
7.0551777939
 20
5.502342119
 40
0.0277777778
100
AcDbArc
 50
90.0
 51
157.5
  0
ARC
  5
28B
100
AcDbEntity
  8
0
100
AcDbCircle
 62
7
  6
CONTINUOUS
 10
6.7055567584
 20
5.502342119
 40
0.0277777778
100
AcDbArc
 50
22.5
 51
90.0
  0
ARC
  5
28C
100
AcDbEntity
  8
0
100
AcDbCircle
 62
7
  6
CONTINUOUS
 10
7.5551777939
 20
5.502342119
 40
0.0277777778
100
AcDbArc
 50
90.0
 51
157.5
  0
ARC
  5
28D
100
AcDbEntity
  8
0
100
AcDbCircle
 62
7
  6
CONTINUOUS
 10
7.2055567584
 20
5.502342119
 40
0.0277777778
100
AcDbArc
 50
22.5
 51
90.0
  0
SPLINE
  5
28E
100
AcDbEntity
  8
0
100
AcDbSpline
 62
7
  6
CONTINUOUS
 70
0
 71
3
 72
11
 73
7
 74
0
 42
0.0000001
 43
0.0000001
 44
0.0000000001
 40
0.0
 40
0.0
 40
0.0
 40
0.0
 40
0.2230382478
 40
0.4586205805
 40
0.7157675049
 40
1.0
 40
1.0
 40
1.0
 40
1.0
 10
13.5051447403
 20
9.3746471107
 30
0.0
 10
13.5054158077
 20
9.3755180609
 30
0.0
 10
13.5062506701
 20
9.3772330842
 30
0.0
 10
13.5082418222
 20
9.3794238948
 30
0.0
 10
13.5109077144
 20
9.3811995227
 30
0.0
 10
13.5129681135
 20
9.3820462721
 30
0.0
 10
13.5140744679
 20
9.3824029346
 30
0.0
  0
SPLINE
  5
28F
100
AcDbEntity
  8
0
100
AcDbSpline
 62
7
  6
CONTINUOUS
 70
0
 71
3
 72
9
 73
5
 74
0
 42
0.0000001
 43
0.0000001
 44
0.0000000001
 40
0.0
 40
0.0
 40
0.0
 40
0.0
 40
0.4789271222
 40
1.0
 40
1.0
 40
1.0
 40
1.0
 10
13.5140744679
 20
9.3824029346
 30
0.0
 10
13.5154806688
 20
9.3828562605
 30
0.0
 10
13.518512139
 20
9.3835141506
 30
0.0
 10
13.5216010636
 20
9.3837134541
 30
0.0
 10
13.5232085469
 20
9.3837134541
 30
0.0
  0
SPLINE
  5
290
100
AcDbEntity
  8
0
100
AcDbSpline
 62
7
  6
CONTINUOUS
 70
0
 71
3
 72
11
 73
7
 74
0
 42
0.0000001
 43
0.0000001
 44
0.0000000001
 40
0.0
 40
0.0
 40
0.0
 40
0.0
 40
0.2230382478
 40
0.4586205805
 40
0.7157675049
 40
1.0
 40
1.0
 40
1.0
 40
1.0
 10
13.9656752373
 20
9.3746471107
 30
0.0
 10
13.9659463047
 20
9.3755180609
 30
0.0
 10
13.9667811671
 20
9.3772330842
 30
0.0
 10
13.9687723192
 20
9.3794238948
 30
0.0
 10
13.9714382114
 20
9.3811995227
 30
0.0
 10
13.9734986105
 20
9.3820462721
 30
0.0
 10
13.9746049649
 20
9.3824029346
 30
0.0
  0
SPLINE
  5
291
100
AcDbEntity
  8
0
100
AcDbSpline
 62
7
  6
CONTINUOUS
 70
0
 71
3
 72
9
 73
5
 74
0
 42
0.0000001
 43
0.0000001
 44
0.0000000001
 40
0.0
 40
0.0
 40
0.0
 40
0.0
 40
0.4789271222
 40
1.0
 40
1.0
 40
1.0
 40
1.0
 10
13.9746049649
 20
9.3824029346
 30
0.0
 10
13.9760111658
 20
9.3828562605
 30
0.0
 10
13.979042636
 20
9.3835141506
 30
0.0
 10
13.9821315606
 20
9.3837134541
 30
0.0
 10
13.9837390439
 20
9.3837134541
 30
0.0
  0
SPLINE
  5
292
100
AcDbEntity
  8
0
100
AcDbSpline
 62
7
  6
CONTINUOUS
 70
0
 71
3
 72
11
 73
7
 74
0
 42
0.0000001
 43
0.0000001
 44
0.0000000001
 40
0.0
 40
0.0
 40
0.0
 40
0.0
 40
0.2230382478
 40
0.4586205805
 40
0.7157675049
 40
1.0
 40
1.0
 40
1.0
 40
1.0
 10
14.4262057343
 20
9.3746471107
 30
0.0
 10
14.4264768017
 20
9.3755180609
 30
0.0
 10
14.4273116641
 20
9.3772330842
 30
0.0
 10
14.4293028162
 20
9.3794238948
 30
0.0
 10
14.4319687084
 20
9.3811995227
 30
0.0
 10
14.4340291075
 20
9.3820462721
 30
0.0
 10
14.4351354619
 20
9.3824029346
 30
0.0
  0
SPLINE
  5
293
100
AcDbEntity
  8
0
100
AcDbSpline
 62
7
  6
CONTINUOUS
 70
0
 71
3
 72
9
 73
5
 74
0
 42
0.0000001
 43
0.0000001
 44
0.0000000001
 40
0.0
 40
0.0
 40
0.0
 40
0.0
 40
0.4789271222
 40
1.0
 40
1.0
 40
1.0
 40
1.0
 10
14.4351354619
 20
9.3824029346
 30
0.0
 10
14.4365416628
 20
9.3828562605
 30
0.0
 10
14.439573133
 20
9.3835141506
 30
0.0
 10
14.4426620576
 20
9.3837134541
 30
0.0
 10
14.4442695409
 20
9.3837134541
 30
0.0
  0
SPLINE
  5
294
100
AcDbEntity
  8
0
100
AcDbSpline
 62
7
  6
CONTINUOUS
 70
0
 71
3
 72
11
 73
7
 74
0
 42
0.0000001
 43
0.0000001
 44
0.0000000001
 40
0.0
 40
0.0
 40
0.0
 40
0.0
 40
0.2230382478
 40
0.4586205805
 40
0.7157675049
 40
1.0
 40
1.0
 40
1.0
 40
1.0
 10
14.8867362313
 20
9.3746471107
 30
0.0
 10
14.8870072987
 20
9.3755180609
 30
0.0
 10
14.8878421611
 20
9.3772330842
 30
0.0
 10
14.8898333132
 20
9.3794238948
 30
0.0
 10
14.8924992054
 20
9.3811995227
 30
0.0
 10
14.8945596045
 20
9.3820462721
 30
0.0
 10
14.8956659589
 20
9.3824029346
 30
0.0
  0
SPLINE
  5
295
100
AcDbEntity
  8
0
100
AcDbSpline
 62
7
  6
CONTINUOUS
 70
0
 71
3
 72
9
 73
5
 74
0
 42
0.0000001
 43
0.0000001
 44
0.0000000001
 40
0.0
 40
0.0
 40
0.0
 40
0.0
 40
0.4789271222
 40
1.0
 40
1.0
 40
1.0
 40
1.0
 10
14.8956659589
 20
9.3824029346
 30
0.0
 10
14.8970721598
 20
9.3828562605
 30
0.0
 10
14.90010363
 20
9.3835141506
 30
0.0
 10
14.9031925546
 20
9.3837134541
 30
0.0
 10
14.9048000379
 20
9.3837134541
 30
0.0
  0
SPLINE
  5
296
100
AcDbEntity
  8
0
100
AcDbSpline
 62
7
  6
CONTINUOUS
 70
0
 71
3
 72
11
 73
7
 74
0
 42
0.0000001
 43
0.0000001
 44
0.0000000001
 40
0.0
 40
0.0
 40
0.0
 40
0.0
 40
0.2230382478
 40
0.4586205805
 40
0.7157675049
 40
1.0
 40
1.0
 40
1.0
 40
1.0
 10
15.3472667283
 20
9.3746471107
 30
0.0
 10
15.3475377957
 20
9.3755180609
 30
0.0
 10
15.3483726581
 20
9.3772330842
 30
0.0
 10
15.3503638102
 20
9.3794238948
 30
0.0
 10
15.3530297024
 20
9.3811995227
 30
0.0
 10
15.3550901015
 20
9.3820462721
 30
0.0
 10
15.3561964559
 20
9.3824029346
 30
0.0
  0
SPLINE
  5
297
100
AcDbEntity
  8
0
100
AcDbSpline
 62
7
  6
CONTINUOUS
 70
0
 71
3
 72
9
 73
5
 74
0
 42
0.0000001
 43
0.0000001
 44
0.0000000001
 40
0.0
 40
0.0
 40
0.0
 40
0.0
 40
0.4789271222
 40
1.0
 40
1.0
 40
1.0
 40
1.0
 10
15.3561964559
 20
9.3824029346
 30
0.0
 10
15.3576026568
 20
9.3828562605
 30
0.0
 10
15.360634127
 20
9.3835141506
 30
0.0
 10
15.3637230516
 20
9.3837134541
 30
0.0
 10
15.3653305349
 20
9.3837134541
 30
0.0
  0
SPLINE
  5
298
100
AcDbEntity
  8
0
100
AcDbSpline
 62
7
  6
CONTINUOUS
 70
0
 71
3
 72
11
 73
7
 74
0
 42
0.0000001
 43
0.0000001
 44
0.0000000001
 40
0.0
 40
0.0
 40
0.0
 40
0.0
 40
0.2230382478
 40
0.4586205805
 40
0.7157675049
 40
1.0
 40
1.0
 40
1.0
 40
1.0
 10
15.8077972253
 20
9.3746471107
 30
0.0
 10
15.8080682927
 20
9.3755180609
 30
0.0
 10
15.8089031551
 20
9.3772330842
 30
0.0
 10
15.8108943072
 20
9.3794238948
 30
0.0
 10
15.8135601994
 20
9.3811995227
 30
0.0
 10
15.8156205985
 20
9.3820462721
 30
0.0
 10
15.8167269529
 20
9.3824029346
 30
0.0
  0
SPLINE
  5
299
100
AcDbEntity
  8
0
100
AcDbSpline
 62
7
  6
CONTINUOUS
 70
0
 71
3
 72
9
 73
5
 74
0
 42
0.0000001
 43
0.0000001
 44
0.0000000001
 40
0.0
 40
0.0
 40
0.0
 40
0.0
 40
0.4789271222
 40
1.0
 40
1.0
 40
1.0
 40
1.0
 10
15.8167269529
 20
9.3824029346
 30
0.0
 10
15.8181331538
 20
9.3828562605
 30
0.0
 10
15.821164624
 20
9.3835141506
 30
0.0
 10
15.8242535486
 20
9.3837134541
 30
0.0
 10
15.8258610319
 20
9.3837134541
 30
0.0
  0
SPLINE
  5
29A
100
AcDbEntity
  8
0
100
AcDbSpline
 62
7
  6
CONTINUOUS
 70
0
 71
3
 72
15
 73
11
 74
0
 42
0.0000001
 43
0.0000001
 44
0.0000000001
 40
0.0
 40
0.0
 40
0.0
 40
0.0
 40
0.155624022
 40
0.3031551065
 40
0.441106577
 40
0.569032584
 40
0.6872646981
 40
0.7969781055
 40
0.9002607053
 40
1.0
 40
1.0
 40
1.0
 40
1.0
 10
13.4735874566
 20
9.3277685569
 30
0.0
 10
13.4752636126
 20
9.3277685569
 30
0.0
 10
13.4785311513
 20
9.3279143523
 30
0.0
 10
13.4832418884
 20
9.3285933973
 30
0.0
 10
13.4875595275
 20
9.3297252865
 30
0.0
 10
13.4914045607
 20
9.3312882671
 30
0.0
 10
13.49471079
 20
9.3332609177
 30
0.0
 10
13.4974195943
 20
9.3356164872
 30
0.0
 10
13.4994695298
 20
9.3383216665
 30
0.0
 10
13.5003674542
 20
9.3403412413
 30
0.0
 10
13.5006852312
 20
9.3413674109
 30
0.0
  0
SPLINE
  5
29B
100
AcDbEntity
  8
0
100
AcDbSpline
 62
7
  6
CONTINUOUS
 70
0
 71
3
 72
13
 73
9
 74
0
 42
0.0000001
 43
0.0000001
 44
0.0000000001
 40
0.0
 40
0.0
 40
0.0
 40
0.0
 40
0.11486062
 40
0.2361817684
 40
0.4908706732
 40
0.7503468468
 40
0.8774521498
 40
1.0
 40
1.0
 40
1.0
 40
1.0
 10
13.2624125081
 20
9.3437573124
 30
0.0
 10
13.2637486861
 20
9.3425475358
 30
0.0
 10
13.2666459094
 20
9.3402219955
 30
0.0
 10
13.2731154687
 20
9.3360224529
 30
0.0
 10
13.2822076847
 20
9.331793614
 30
0.0
 10
13.2919532603
 20
9.3290922856
 30
0.0
 10
13.2998719282
 20
9.3279683796
 30
0.0
 10
13.3037917617
 20
9.3277685569
 30
0.0
 10
13.3057148747
 20
9.3277685569
 30
0.0
  0
SPLINE
  5
29C
100
AcDbEntity
  8
0
100
AcDbSpline
 62
7
  6
CONTINUOUS
 70
0
 71
3
 72
15
 73
11
 74
0
 42
0.0000001
 43
0.0000001
 44
0.0000000001
 40
0.0
 40
0.0
 40
0.0
 40
0.0
 40
0.155624022
 40
0.3031551065
 40
0.441106577
 40
0.569032584
 40
0.6872646981
 40
0.7969781055
 40
0.9002607053
 40
1.0
 40
1.0
 40
1.0
 40
1.0
 10
15.7762399416
 20
9.3277685569
 30
0.0
 10
15.7779160976
 20
9.3277685569
 30
0.0
 10
15.7811836363
 20
9.3279143523
 30
0.0
 10
15.7858943734
 20
9.3285933973
 30
0.0
 10
15.7902120125
 20
9.3297252865
 30
0.0
 10
15.7940570457
 20
9.3312882671
 30
0.0
 10
15.797363275
 20
9.3332609177
 30
0.0
 10
15.8000720793
 20
9.3356164872
 30
0.0
 10
15.8021220148
 20
9.3383216665
 30
0.0
 10
15.8030199392
 20
9.3403412413
 30
0.0
 10
15.8033377162
 20
9.3413674109
 30
0.0
  0
SPLINE
  5
29D
100
AcDbEntity
  8
0
100
AcDbSpline
 62
7
  6
CONTINUOUS
 70
0
 71
3
 72
13
 73
9
 74
0
 42
0.0000001
 43
0.0000001
 44
0.0000000001
 40
0.0
 40
0.0
 40
0.0
 40
0.0
 40
0.11486062
 40
0.2361817684
 40
0.4908706732
 40
0.7503468468
 40
0.8774521498
 40
1.0
 40
1.0
 40
1.0
 40
1.0
 10
15.5650649931
 20
9.3437573124
 30
0.0
 10
15.5664011712
 20
9.3425475358
 30
0.0
 10
15.5692983944
 20
9.3402219955
 30
0.0
 10
15.5757679537
 20
9.3360224529
 30
0.0
 10
15.5848601697
 20
9.331793614
 30
0.0
 10
15.5946057453
 20
9.3290922856
 30
0.0
 10
15.6025244133
 20
9.3279683796
 30
0.0
 10
15.6064442467
 20
9.3277685569
 30
0.0
 10
15.6083673597
 20
9.3277685569
 30
0.0
  0
SPLINE
  5
29E
100
AcDbEntity
  8
0
100
AcDbSpline
 62
7
  6
CONTINUOUS
 70
0
 71
3
 72
15
 73
11
 74
0
 42
0.0000001
 43
0.0000001
 44
0.0000000001
 40
0.0
 40
0.0
 40
0.0
 40
0.0
 40
0.155624022
 40
0.3031551065
 40
0.441106577
 40
0.569032584
 40
0.6872646981
 40
0.7969781055
 40
0.9002607053
 40
1.0
 40
1.0
 40
1.0
 40
1.0
 10
15.3157094446
 20
9.3277685569
 30
0.0
 10
15.3173856006
 20
9.3277685569
 30
0.0
 10
15.3206531393
 20
9.3279143523
 30
0.0
 10
15.3253638764
 20
9.3285933973
 30
0.0
 10
15.3296815155
 20
9.3297252865
 30
0.0
 10
15.3335265487
 20
9.3312882671
 30
0.0
 10
15.336832778
 20
9.3332609177
 30
0.0
 10
15.3395415823
 20
9.3356164872
 30
0.0
 10
15.3415915178
 20
9.3383216665
 30
0.0
 10
15.3424894422
 20
9.3403412413
 30
0.0
 10
15.3428072192
 20
9.3413674109
 30
0.0
  0
SPLINE
  5
29F
100
AcDbEntity
  8
0
100
AcDbSpline
 62
7
  6
CONTINUOUS
 70
0
 71
3
 72
13
 73
9
 74
0
 42
0.0000001
 43
0.0000001
 44
0.0000000001
 40
0.0
 40
0.0
 40
0.0
 40
0.0
 40
0.11486062
 40
0.2361817684
 40
0.4908706732
 40
0.7503468468
 40
0.8774521498
 40
1.0
 40
1.0
 40
1.0
 40
1.0
 10
15.1045344961
 20
9.3437573124
 30
0.0
 10
15.1058706741
 20
9.3425475358
 30
0.0
 10
15.1087678974
 20
9.3402219955
 30
0.0
 10
15.1152374567
 20
9.3360224529
 30
0.0
 10
15.1243296727
 20
9.331793614
 30
0.0
 10
15.1340752483
 20
9.3290922856
 30
0.0
 10
15.1419939163
 20
9.3279683796
 30
0.0
 10
15.1459137497
 20
9.3277685569
 30
0.0
 10
15.1478368627
 20
9.3277685569
 30
0.0
  0
SPLINE
  5
2A0
100
AcDbEntity
  8
0
100
AcDbSpline
 62
7
  6
CONTINUOUS
 70
0
 71
3
 72
15
 73
11
 74
0
 42
0.0000001
 43
0.0000001
 44
0.0000000001
 40
0.0
 40
0.0
 40
0.0
 40
0.0
 40
0.155624022
 40
0.3031551065
 40
0.441106577
 40
0.569032584
 40
0.6872646981
 40
0.7969781055
 40
0.9002607053
 40
1.0
 40
1.0
 40
1.0
 40
1.0
 10
14.8551789476
 20
9.3277685569
 30
0.0
 10
14.8568551036
 20
9.3277685569
 30
0.0
 10
14.8601226423
 20
9.3279143523
 30
0.0
 10
14.8648333794
 20
9.3285933973
 30
0.0
 10
14.8691510185
 20
9.3297252865
 30
0.0
 10
14.8729960517
 20
9.3312882671
 30
0.0
 10
14.876302281
 20
9.3332609177
 30
0.0
 10
14.8790110853
 20
9.3356164872
 30
0.0
 10
14.8810610208
 20
9.3383216665
 30
0.0
 10
14.8819589452
 20
9.3403412413
 30
0.0
 10
14.8822767222
 20
9.3413674109
 30
0.0
  0
SPLINE
  5
2A1
100
AcDbEntity
  8
0
100
AcDbSpline
 62
7
  6
CONTINUOUS
 70
0
 71
3
 72
13
 73
9
 74
0
 42
0.0000001
 43
0.0000001
 44
0.0000000001
 40
0.0
 40
0.0
 40
0.0
 40
0.0
 40
0.11486062
 40
0.2361817684
 40
0.4908706732
 40
0.7503468468
 40
0.8774521498
 40
1.0
 40
1.0
 40
1.0
 40
1.0
 10
14.6440039991
 20
9.3437573124
 30
0.0
 10
14.6453401771
 20
9.3425475358
 30
0.0
 10
14.6482374004
 20
9.3402219955
 30
0.0
 10
14.6547069597
 20
9.3360224529
 30
0.0
 10
14.6637991757
 20
9.331793614
 30
0.0
 10
14.6735447513
 20
9.3290922856
 30
0.0
 10
14.6814634193
 20
9.3279683796
 30
0.0
 10
14.6853832527
 20
9.3277685569
 30
0.0
 10
14.6873063657
 20
9.3277685569
 30
0.0
  0
SPLINE
  5
2A2
100
AcDbEntity
  8
0
100
AcDbSpline
 62
7
  6
CONTINUOUS
 70
0
 71
3
 72
15
 73
11
 74
0
 42
0.0000001
 43
0.0000001
 44
0.0000000001
 40
0.0
 40
0.0
 40
0.0
 40
0.0
 40
0.155624022
 40
0.3031551065
 40
0.441106577
 40
0.569032584
 40
0.6872646981
 40
0.7969781055
 40
0.9002607053
 40
1.0
 40
1.0
 40
1.0
 40
1.0
 10
14.3946484506
 20
9.3277685569
 30
0.0
 10
14.3963246066
 20
9.3277685569
 30
0.0
 10
14.3995921453
 20
9.3279143523
 30
0.0
 10
14.4043028824
 20
9.3285933973
 30
0.0
 10
14.4086205215
 20
9.3297252865
 30
0.0
 10
14.4124655547
 20
9.3312882671
 30
0.0
 10
14.415771784
 20
9.3332609177
 30
0.0
 10
14.4184805883
 20
9.3356164872
 30
0.0
 10
14.4205305238
 20
9.3383216665
 30
0.0
 10
14.4214284482
 20
9.3403412413
 30
0.0
 10
14.4217462252
 20
9.3413674109
 30
0.0
  0
SPLINE
  5
2A3
100
AcDbEntity
  8
0
100
AcDbSpline
 62
7
  6
CONTINUOUS
 70
0
 71
3
 72
13
 73
9
 74
0
 42
0.0000001
 43
0.0000001
 44
0.0000000001
 40
0.0
 40
0.0
 40
0.0
 40
0.0
 40
0.11486062
 40
0.2361817684
 40
0.4908706732
 40
0.7503468468
 40
0.8774521498
 40
1.0
 40
1.0
 40
1.0
 40
1.0
 10
14.1834735021
 20
9.3437573124
 30
0.0
 10
14.1848096801
 20
9.3425475358
 30
0.0
 10
14.1877069034
 20
9.3402219955
 30
0.0
 10
14.1941764627
 20
9.3360224529
 30
0.0
 10
14.2032686787
 20
9.331793614
 30
0.0
 10
14.2130142543
 20
9.3290922856
 30
0.0
 10
14.2209329223
 20
9.3279683796
 30
0.0
 10
14.2248527557
 20
9.3277685569
 30
0.0
 10
14.2267758687
 20
9.3277685569
 30
0.0
  0
SPLINE
  5
2A4
100
AcDbEntity
  8
0
100
AcDbSpline
 62
7
  6
CONTINUOUS
 70
0
 71
3
 72
15
 73
11
 74
0
 42
0.0000001
 43
0.0000001
 44
0.0000000001
 40
0.0
 40
0.0
 40
0.0
 40
0.0
 40
0.155624022
 40
0.3031551065
 40
0.441106577
 40
0.569032584
 40
0.6872646981
 40
0.7969781055
 40
0.9002607053
 40
1.0
 40
1.0
 40
1.0
 40
1.0
 10
13.9341179536
 20
9.3277685569
 30
0.0
 10
13.9357941096
 20
9.3277685569
 30
0.0
 10
13.9390616483
 20
9.3279143523
 30
0.0
 10
13.9437723854
 20
9.3285933973
 30
0.0
 10
13.9480900245
 20
9.3297252865
 30
0.0
 10
13.9519350577
 20
9.3312882671
 30
0.0
 10
13.955241287
 20
9.3332609177
 30
0.0
 10
13.9579500913
 20
9.3356164872
 30
0.0
 10
13.9600000268
 20
9.3383216665
 30
0.0
 10
13.9608979512
 20
9.3403412413
 30
0.0
 10
13.9612157282
 20
9.3413674109
 30
0.0
  0
SPLINE
  5
2A5
100
AcDbEntity
  8
0
100
AcDbSpline
 62
7
  6
CONTINUOUS
 70
0
 71
3
 72
13
 73
9
 74
0
 42
0.0000001
 43
0.0000001
 44
0.0000000001
 40
0.0
 40
0.0
 40
0.0
 40
0.0
 40
0.11486062
 40
0.2361817684
 40
0.4908706732
 40
0.7503468468
 40
0.8774521498
 40
1.0
 40
1.0
 40
1.0
 40
1.0
 10
13.7229430051
 20
9.3437573124
 30
0.0
 10
13.7242791831
 20
9.3425475358
 30
0.0
 10
13.7271764064
 20
9.3402219955
 30
0.0
 10
13.7336459657
 20
9.3360224529
 30
0.0
 10
13.7427381817
 20
9.331793614
 30
0.0
 10
13.7524837573
 20
9.3290922856
 30
0.0
 10
13.7604024252
 20
9.3279683796
 30
0.0
 10
13.7643222587
 20
9.3277685569
 30
0.0
 10
13.7662453717
 20
9.3277685569
 30
0.0
  0
SPLINE
  5
2A6
100
AcDbEntity
  8
0
100
AcDbSpline
 62
7
  6
CONTINUOUS
 70
0
 71
3
 72
13
 73
9
 74
0
 42
0.0000001
 43
0.0000001
 44
0.0000000001
 40
0.0
 40
0.0
 40
0.0
 40
0.0
 40
0.1223574034
 40
0.2495150155
 40
0.5091460095
 40
0.763950243
 40
0.8853136323
 40
1.0
 40
1.0
 40
1.0
 40
1.0
 10
13.2011862485
 20
9.3837134541
 30
0.0
 10
13.2024663037
 20
9.3837134541
 30
0.0
 10
13.2050779672
 20
9.3835786112
 30
0.0
 10
13.2103569494
 20
9.3828294637
 30
0.0
 10
13.2168588923
 20
9.3810330428
 30
0.0
 10
13.2229211168
 20
9.3782073069
 30
0.0
 10
13.2272335576
 20
9.3754076245
 30
0.0
 10
13.2291650781
 20
9.3738595606
 30
0.0
 10
13.2300544929
 20
9.3730542837
 30
0.0
  0
SPLINE
  5
2A7
100
AcDbEntity
  8
0
100
AcDbSpline
 62
7
  6
CONTINUOUS
 70
0
 71
3
 72
13
 73
9
 74
0
 42
0.0000001
 43
0.0000001
 44
0.0000000001
 40
0.0
 40
0.0
 40
0.0
 40
0.0
 40
0.1223574034
 40
0.2495150155
 40
0.5091460095
 40
0.763950243
 40
0.8853136323
 40
1.0
 40
1.0
 40
1.0
 40
1.0
 10
13.6617167455
 20
9.3837134541
 30
0.0
 10
13.6629968007
 20
9.3837134541
 30
0.0
 10
13.6656084642
 20
9.3835786112
 30
0.0
 10
13.6708874464
 20
9.3828294637
 30
0.0
 10
13.6773893893
 20
9.3810330428
 30
0.0
 10
13.6834516138
 20
9.3782073069
 30
0.0
 10
13.6877640546
 20
9.3754076245
 30
0.0
 10
13.6896955751
 20
9.3738595606
 30
0.0
 10
13.6905849899
 20
9.3730542837
 30
0.0
  0
SPLINE
  5
2A8
100
AcDbEntity
  8
0
100
AcDbSpline
 62
7
  6
CONTINUOUS
 70
0
 71
3
 72
13
 73
9
 74
0
 42
0.0000001
 43
0.0000001
 44
0.0000000001
 40
0.0
 40
0.0
 40
0.0
 40
0.0
 40
0.1223574034
 40
0.2495150155
 40
0.5091460095
 40
0.763950243
 40
0.8853136323
 40
1.0
 40
1.0
 40
1.0
 40
1.0
 10
14.1222472425
 20
9.3837134541
 30
0.0
 10
14.1235272977
 20
9.3837134541
 30
0.0
 10
14.1261389612
 20
9.3835786112
 30
0.0
 10
14.1314179434
 20
9.3828294637
 30
0.0
 10
14.1379198863
 20
9.3810330428
 30
0.0
 10
14.1439821108
 20
9.3782073069
 30
0.0
 10
14.1482945516
 20
9.3754076245
 30
0.0
 10
14.1502260721
 20
9.3738595606
 30
0.0
 10
14.1511154869
 20
9.3730542837
 30
0.0
  0
SPLINE
  5
2A9
100
AcDbEntity
  8
0
100
AcDbSpline
 62
7
  6
CONTINUOUS
 70
0
 71
3
 72
13
 73
9
 74
0
 42
0.0000001
 43
0.0000001
 44
0.0000000001
 40
0.0
 40
0.0
 40
0.0
 40
0.0
 40
0.1223574034
 40
0.2495150155
 40
0.5091460095
 40
0.763950243
 40
0.8853136323
 40
1.0
 40
1.0
 40
1.0
 40
1.0
 10
14.5827777395
 20
9.3837134541
 30
0.0
 10
14.5840577947
 20
9.3837134541
 30
0.0
 10
14.5866694582
 20
9.3835786112
 30
0.0
 10
14.5919484404
 20
9.3828294637
 30
0.0
 10
14.5984503833
 20
9.3810330428
 30
0.0
 10
14.6045126078
 20
9.3782073069
 30
0.0
 10
14.6088250486
 20
9.3754076245
 30
0.0
 10
14.6107565691
 20
9.3738595606
 30
0.0
 10
14.6116459839
 20
9.3730542837
 30
0.0
  0
SPLINE
  5
2AA
100
AcDbEntity
  8
0
100
AcDbSpline
 62
7
  6
CONTINUOUS
 70
0
 71
3
 72
13
 73
9
 74
0
 42
0.0000001
 43
0.0000001
 44
0.0000000001
 40
0.0
 40
0.0
 40
0.0
 40
0.0
 40
0.1223574034
 40
0.2495150155
 40
0.5091460095
 40
0.763950243
 40
0.8853136323
 40
1.0
 40
1.0
 40
1.0
 40
1.0
 10
15.0433082365
 20
9.3837134541
 30
0.0
 10
15.0445882917
 20
9.3837134541
 30
0.0
 10
15.0471999552
 20
9.3835786112
 30
0.0
 10
15.0524789374
 20
9.3828294637
 30
0.0
 10
15.0589808803
 20
9.3810330428
 30
0.0
 10
15.0650431048
 20
9.3782073069
 30
0.0
 10
15.0693555456
 20
9.3754076245
 30
0.0
 10
15.0712870661
 20
9.3738595606
 30
0.0
 10
15.0721764809
 20
9.3730542837
 30
0.0
  0
SPLINE
  5
2AB
100
AcDbEntity
  8
0
100
AcDbSpline
 62
7
  6
CONTINUOUS
 70
0
 71
3
 72
13
 73
9
 74
0
 42
0.0000001
 43
0.0000001
 44
0.0000000001
 40
0.0
 40
0.0
 40
0.0
 40
0.0
 40
0.1223574034
 40
0.2495150155
 40
0.5091460095
 40
0.763950243
 40
0.8853136323
 40
1.0
 40
1.0
 40
1.0
 40
1.0
 10
15.5038387335
 20
9.3837134541
 30
0.0
 10
15.5051187887
 20
9.3837134541
 30
0.0
 10
15.5077304522
 20
9.3835786112
 30
0.0
 10
15.5130094344
 20
9.3828294637
 30
0.0
 10
15.5195113773
 20
9.3810330428
 30
0.0
 10
15.5255736018
 20
9.3782073069
 30
0.0
 10
15.5298860426
 20
9.3754076245
 30
0.0
 10
15.5318175631
 20
9.3738595606
 30
0.0
 10
15.5327069779
 20
9.3730542837
 30
0.0
  0
ENDSEC
  0
SECTION
  2
OBJECTS
  0
DICTIONARY
  5
C
100
AcDbDictionary
280
0
281
1
  3
ACAD_GROUP
350
D
  3
ACAD_MLINESTYLE
350
17
  3
ACAD_LAYOUT
350
1A
  3
ACAD_PLOTSETTINGS
350
19
  3
ACAD_PLOTSTYLENAME
350
E
  0
DICTIONARY
  5
D
102
{ACAD_REACTORS
330
C
102
}
100
AcDbDictionary
280
0
281
1
  0
ACDBDICTIONARYWDFLT
  5
E
102
{ACAD_REACTORS
330
C
102
}
100
AcDbDictionary
281
1
  3
Normal
350
F
100
AcDbDictionaryWithDefault
340
F
  0
DICTIONARY
  5
17
102
{ACAD_REACTORS
330
C
102
}
100
AcDbDictionary
280
0
281
1
  3
Standard
350
18
  0
DICTIONARY
  5
19
102
{ACAD_REACTORS
330
C
102
}
100
AcDbDictionary
281
1
  0
DICTIONARY
  5
1A
102
{ACAD_REACTORS
330
C
102
}
100
AcDbDictionary
281
1
  3
Model
350
2AC
  3
Layout1
350
2AD
  0
ACDBPLACEHOLDER
  5
F
102
{ACAD_REACTORS
330
E
102
}
  0
MLINESTYLE
  5
18
102
{ACAD_REACTORS
330
17
102
}
100
AcDbMlineStyle
  2
STANDARD
 70
0
  3

 62
256
 51
90.0
 52
90.0
 71
2
 49
0.5
 62
256
  6
BYLAYER
 49
-0.5
 62
256
  6
BYLAYER
  0
LAYOUT
  5
2AC
102
{ACAD_REACTORS
330
1A
102
}
100
AcDbPlotSettings
  1

  2
none_device
  4
ANSI_C_(22.00_x_17.00_Inches)
  6

 40
0.0
 41
0.0
 42
0.0
 43
0.0
 44
558.8
 45
431.8
 46
0.0
 47
0.0
 48
0.0
 49
0.0
140
0.0
141
0.0
142
1.0
143
1.0
 70
1024
 72
0
 73
0
 74
0
  7

 75
0
147
1.0
148
0.0
149
0.0
100
AcDbLayout
  1
Model
 70
0
 71
0
 10
0.0
 20
0.0
 11
22.0
 21
17.0
 12
0.0
 22
0.0
 32
0.0
 14
0.0
 24
0.0
 34
0.0
 15
0.0
 25
0.0
 35
0.0
146
0.0
 13
0.0
 23
0.0
 33
0.0
 16
1.0
 26
0.0
 36
0.0
 17
0.0
 27
1.0
 37
0.0
 76
0
330
216
345
0
346
0
  0
LAYOUT
  5
2AD
102
{ACAD_REACTORS
330
1A
102
}
100
AcDbPlotSettings
  1

  2
none_device
  4
ANSI_C_(22.00_x_17.00_Inches)
  6

 40
0.0
 41
0.0
 42
0.0
 43
0.0
 44
558.8
 45
431.8
 46
0.0
 47
0.0
 48
0.0
 49
0.0
140
0.0
141
0.0
142
1.0
143
1.0
 70
0
 72
0
 73
0
 74
0
  7

 75
0
147
1.0
148
0.0
149
0.0
100
AcDbLayout
  1
Layout1
 70
0
 71
1
 10
0.0
 20
0.0
 11
22.0
 21
17.0
 12
0.0
 22
0.0
 32
0.0
 14
0.0
 24
0.0
 34
0.0
 15
0.0
 25
0.0
 35
0.0
146
0.0
 13
0.0
 23
0.0
 33
0.0
 16
1.0
 26
0.0
 36
0.0
 17
0.0
 27
1.0
 37
0.0
 76
0
330
217
345
0
346
0
  0
ENDSEC
  0
EOF