999
DXF file: _cgs_temp_output.dxf
999
Pro/ENGINEER 2016360 by Parametric Technology Corporation
  0
SECTION
  2
HEADER
  9
$ACADVER
  1
AC1021
  9
$DWGCODEPAGE
  3
ANSI_1252
  9
$EXTMAX
 10
22.0
 20
17.0
 30
0.0
  9
$EXTMIN
 10
0.0
 20
0.0
 30
0.0
  9
$LIMMIN
 10
0.0
 20
0.0
  9
$LIMMAX
 10
22.0
 20
17.0
  9
$VIEWCTR
 10
11.0
 20
8.5
  9
$VIEWSIZE
 40
17.0
  9
$CLAYER
  8
0
  9
$LTSCALE
 40
1.21
  9
$CELTYPE
  6
BYLAYER
  9
$DIMSCALE
 40
1.0
  9
$DIMASZ
 40
0.1875
  9
$DIMEXO
 40
0.0625
  9
$DIMDLI
 40
0.836
  9
$DIMEXE
 40
0.125
  9
$DIMCEN
 40
0.198
  9
$DIMLFAC
 40
1.0
  9
$DIMBLK
  1
_CLOSED
  9
$DIMALT
 70
0
  9
$DIMALTF
 40
25.4
  9
$DIMTXT
 40
0.15625
  9
$DIMTOL
 70
0
  9
$DIMLIM
 70
0
  9
$DIMTFAC
 40
1.0
  9
$DIMGAP
 40
0.09
  9
$DIMDSEP
 70
46
  9
$AUNITS
 70
0
  9
$PDMODE
 70
3
  9
$PDSIZE
 40
0.3125
  9
$HANDSEED
  5
2A8
  9
$TILEMODE
 70
1
  9
$MEASUREMENT
 70
0
  9
$INSUNITS
 70
1
  0
ENDSEC
  0
SECTION
  2
CLASSES
  0
CLASS
  1
ACDBDICTIONARYWDFLT
  2
AcDbDictionaryWithDefault
  3
AutoCAD 2000
 90
0
 91
1
280
0
281
0
  0
CLASS
  1
ACDBPLACEHOLDER
  2
AcDbPlaceHolder
  3
AutoCAD 2000
 90
0
 91
1
280
0
281
0
  0
CLASS
  1
LAYOUT
  2
AcDbLayout
  3
AutoCAD 2000
 90
0
 91
0
280
0
281
0
  0
ENDSEC
  0
SECTION
  2
TABLES
  0
TABLE
  2
VPORT
  5
8
100
AcDbSymbolTable
 70
2
  0
VPORT
  5
1F4
100
AcDbSymbolTableRecord
100
AcDbViewportTableRecord
  2
*ACTIVE
 70
0
 10
0.0
 20
0.0
 11
1.0
 21
1.0
 12
11.0
 22
8.5
 13
0.0
 23
0.0
 14
1.0
 24
1.0
 15
0.0
 25
0.0
 16
0.0
 26
0.0
 36
1.0
 17
0.0
 27
0.0
 37
0.0
 40
17.0
 41
1.2941176471
 42
50.0
 43
0.0
 44
0.0
 50
0.0
 51
0.0
 71
0
 72
100
 73
1
 74
1
 75
0
 76
0
 77
0
 78
0
  0
ENDTAB
  0
TABLE
  2
LTYPE
  5
5
100
AcDbSymbolTable
 70
6
  0
LTYPE
  5
14
100
AcDbSymbolTableRecord
100
AcDbLinetypeTableRecord
  2
BYBLOCK
 70
0
  3

 72
65
 73
0
 40
0.0
  0
LTYPE
  5
15
100
AcDbSymbolTableRecord
100
AcDbLinetypeTableRecord
  2
BYLAYER
 70
0
  3

 72
65
 73
0
 40
0.0
  0
LTYPE
  5
16
100
AcDbSymbolTableRecord
100
AcDbLinetypeTableRecord
  2
CONTINUOUS
 70
64
  3
Solid line
 72
65
 73
0
 40
0.0
  0
LTYPE
  5
1F5
100
AcDbSymbolTableRecord
100
AcDbLinetypeTableRecord
  2
CENTER
 70
64
  3
____ _ ____ _ ____ _ ____ _ ____ _ ____ _ ____
 72
65
 73
4
 40
0.6
 49
0.375
 74
0
 49
-0.075
 74
0
 49
0.075
 74
0
 49
-0.075
 74
0
  0
LTYPE
  5
1F6
100
AcDbSymbolTableRecord
100
AcDbLinetypeTableRecord
  2
HIDDEN
 70
64
  3
- - - - - - - - - - - - - - - - - - - -
 72
65
 73
2
 40
0.2
 49
0.1
 74
0
 49
-0.1
 74
0
  0
LTYPE
  5
1F7
100
AcDbSymbolTableRecord
100
AcDbLinetypeTableRecord
  2
PHANTOM
 70
64
  3
_____ _ _ _____ _ _ _____ _ _ _____
 72
65
 73
6
 40
0.8
 49
0.45
 74
0
 49
-0.05
 74
0
 49
0.1
 74
0
 49
-0.05
 74
0
 49
0.1
 74
0
 49
-0.05
 74
0
  0
LTYPE
  5
1F8
100
AcDbSymbolTableRecord
100
AcDbLinetypeTableRecord
  2
DOT
 70
64
  3
. . . . . . . . . . . . . . . . . . . .
 72
65
 73
2
 40
0.2
 49
0.1
 74
0
 49
-0.1
 74
0
  0
LTYPE
  5
1F9
100
AcDbSymbolTableRecord
100
AcDbLinetypeTableRecord
  2
DASHED
 70
64
  3
- - - - - - - - - - - - - - - - - - - -
 72
65
 73
2
 40
0.2
 49
0.1
 74
0
 49
-0.1
 74
0
  0
ENDTAB
  0
TABLE
  2
LAYER
  5
2
100
AcDbSymbolTable
 70
36
  0
LAYER
  5
10
100
AcDbSymbolTableRecord
100
AcDbLayerTableRecord
  2
0
 70
0
 62
7
  6
CONTINUOUS
370
-3
390
F
  0
LAYER
  5
1FA
100
AcDbSymbolTableRecord
100
AcDbLayerTableRecord
  2
DEFAULT_1
 70
0
 62
7
  6
CENTER
370
-3
390
F
  0
LAYER
  5
1FB
100
AcDbSymbolTableRecord
100
AcDbLayerTableRecord
  2
DEFAULT_2
 70
0
 62
8
  6
HIDDEN
370
-3
390
F
  0
LAYER
  5
1FC
100
AcDbSymbolTableRecord
100
AcDbLayerTableRecord
  2
DEFAULT_3
 70
0
 62
7
  6
PHANTOM
370
-3
390
F
  0
LAYER
  5
1FD
100
AcDbSymbolTableRecord
100
AcDbLayerTableRecord
  2
01_ALL_DTM_PLN
 70
0
 62
7
  6
CONTINUOUS
370
-3
390
F
  0
LAYER
  5
1FE
100
AcDbSymbolTableRecord
100
AcDbLayerTableRecord
  2
01__ASM_ALL_DTM_PLN
 70
0
 62
7
  6
CONTINUOUS
370
-3
390
F
  0
LAYER
  5
1FF
100
AcDbSymbolTableRecord
100
AcDbLayerTableRecord
  2
01__ASM_DEF_DTM_PLN
 70
0
 62
7
  6
CONTINUOUS
370
-3
390
F
  0
LAYER
  5
200
100
AcDbSymbolTableRecord
100
AcDbLayerTableRecord
  2
01___PRT_ALL_DTM_PLN
 70
0
 62
7
  6
CONTINUOUS
370
-3
390
F
  0
LAYER
  5
201
100
AcDbSymbolTableRecord
100
AcDbLayerTableRecord
  2
01___PRT_DEF_DTM_PLN
 70
0
 62
7
  6
CONTINUOUS
370
-3
390
F
  0
LAYER
  5
202
100
AcDbSymbolTableRecord
100
AcDbLayerTableRecord
  2
02_ALL_AXES
 70
0
 62
7
  6
CONTINUOUS
370
-3
390
F
  0
LAYER
  5
203
100
AcDbSymbolTableRecord
100
AcDbLayerTableRecord
  2
02__ASM_ALL_AXES
 70
0
 62
7
  6
CONTINUOUS
370
-3
390
F
  0
LAYER
  5
204
100
AcDbSymbolTableRecord
100
AcDbLayerTableRecord
  2
02___PRT_ALL_AXES
 70
0
 62
7
  6
CONTINUOUS
370
-3
390
F
  0
LAYER
  5
205
100
AcDbSymbolTableRecord
100
AcDbLayerTableRecord
  2
03_ALL_CURVES
 70
0
 62
7
  6
CONTINUOUS
370
-3
390
F
  0
LAYER
  5
206
100
AcDbSymbolTableRecord
100
AcDbLayerTableRecord
  2
03__ASM_ALL_CURVES
 70
0
 62
7
  6
CONTINUOUS
370
-3
390
F
  0
LAYER
  5
207
100
AcDbSymbolTableRecord
100
AcDbLayerTableRecord
  2
03___PRT_ALL_CURVES
 70
0
 62
7
  6
CONTINUOUS
370
-3
390
F
  0
LAYER
  5
208
100
AcDbSymbolTableRecord
100
AcDbLayerTableRecord
  2
04_ALL_DTM_PNT
 70
0
 62
7
  6
CONTINUOUS
370
-3
390
F
  0
LAYER
  5
209
100
AcDbSymbolTableRecord
100
AcDbLayerTableRecord
  2
04__ASM_ALL_DTM_PNT
 70
0
 62
7
  6
CONTINUOUS
370
-3
390
F
  0
LAYER
  5
20A
100
AcDbSymbolTableRecord
100
AcDbLayerTableRecord
  2
04___PRT_ALL_DTM_PNT
 70
0
 62
7
  6
CONTINUOUS
370
-3
390
F
  0
LAYER
  5
20B
100
AcDbSymbolTableRecord
100
AcDbLayerTableRecord
  2
05_ALL_DTM_CSYS
 70
0
 62
7
  6
CONTINUOUS
370
-3
390
F
  0
LAYER
  5
20C
100
AcDbSymbolTableRecord
100
AcDbLayerTableRecord
  2
05__ASM_ALL_DTM_CSYS
 70
0
 62
7
  6
CONTINUOUS
370
-3
390
F
  0
LAYER
  5
20D
100
AcDbSymbolTableRecord
100
AcDbLayerTableRecord
  2
05__ASM_DEF_DTM_CSYS
 70
0
 62
7
  6
CONTINUOUS
370
-3
390
F
  0
LAYER
  5
20E
100
AcDbSymbolTableRecord
100
AcDbLayerTableRecord
  2
05___PRT_ALL_DTM_CSYS
 70
0
 62
7
  6
CONTINUOUS
370
-3
390
F
  0
LAYER
  5
20F
100
AcDbSymbolTableRecord
100
AcDbLayerTableRecord
  2
05___PRT_DEF_DTM_CSYS
 70
0
 62
7
  6
CONTINUOUS
370
-3
390
F
  0
LAYER
  5
210
100
AcDbSymbolTableRecord
100
AcDbLayerTableRecord
  2
06_ALL_SURFS
 70
0
 62
7
  6
CONTINUOUS
370
-3
390
F
  0
LAYER
  5
211
100
AcDbSymbolTableRecord
100
AcDbLayerTableRecord
  2
06__ASM_ALL_SURFS
 70
0
 62
7
  6
CONTINUOUS
370
-3
390
F
  0
LAYER
  5
212
100
AcDbSymbolTableRecord
100
AcDbLayerTableRecord
  2
06___PRT_ALL_SURFS
 70
0
 62
7
  6
CONTINUOUS
370
-3
390
F
  0
LAYER
  5
213
100
AcDbSymbolTableRecord
100
AcDbLayerTableRecord
  2
07__ASM_ALL_SKELETONS
 70
0
 62
7
  6
CONTINUOUS
370
-3
390
F
  0
ENDTAB
  0
TABLE
  2
STYLE
  5
3
100
AcDbSymbolTable
 70
1
  0
STYLE
  5
11
100
AcDbSymbolTableRecord
100
AcDbTextStyleTableRecord
  2
STANDARD
 70
0
 40
0.0
 41
0.8
 50
0.0
 71
0
 42
0.2
  3
txt
  4

  0
STYLE
  5
214
100
AcDbSymbolTableRecord
100
AcDbTextStyleTableRecord
  2
TEXTSTYLE_1
 70
0
 40
0.0
 41
0.8
 50
0.0
 71
0
 42
0.2
  3
gdt
  4

  0
ENDTAB
  0
TABLE
  2
VIEW
  5
6
100
AcDbSymbolTable
 70
0
  0
ENDTAB
  0
TABLE
  2
UCS
  5
7
100
AcDbSymbolTable
 70
0
  0
ENDTAB
  0
TABLE
  2
APPID
  5
9
100
AcDbSymbolTable
 70
1
  0
APPID
  5
215
100
AcDbSymbolTableRecord
100
AcDbRegAppTableRecord
  2
ACAD
 70
0
  0
ENDTAB
  0
TABLE
  2
BLOCK_RECORD
  5
1
100
AcDbSymbolTable
 70
0
  0
BLOCK_RECORD
  5
216
100
AcDbSymbolTableRecord
100
AcDbBlockTableRecord
  2
*Model_Space
  0
BLOCK_RECORD
  5
217
100
AcDbSymbolTableRecord
100
AcDbBlockTableRecord
  2
*Paper_Space
  0
ENDTAB
  0
TABLE
  2
DIMSTYLE
  5
A
100
AcDbSymbolTable
 70
1
100
AcDbDimStyleTable
 71
0
  0
DIMSTYLE
105
218
100
AcDbSymbolTableRecord
100
AcDbDimStyleTableRecord
  2
STANDARD
 70
0
  3

  4

 40
1.0
 41
0.1875
 42
0.0625
 43
0.38
 44
0.125
 45
0.0
 46
0.0
 47
0.0001
 48
0.0001
140
0.15625
141
0.09
142
0.0
143
25.4
144
1.0
145
0.0
146
1.0
147
0.09
 71
0.0
 72
0.0
 73
1
 74
1
 75
0
 76
0
 77
0
 78
4
 79
1
170
0
171
3
172
0
173
0
174
0
175
0
176
0
177
0
178
0
270
2
179
4
271
4
272
4
273
2
274
2
275
0
280
0
281
0
282
0
283
1
284
4
285
0
286
0
287
3
288
0
340
11
278
46
  0
ENDTAB
  0
ENDSEC
  0
SECTION
  2
BLOCKS
  0
BLOCK
  5
20
100
AcDbEntity
  8
0
100
AcDbBlockBegin
  2
*Model_Space
 70
0
 10
0.0
 20
0.0
 30
0.0
  3
*Model_Space
  1

  0
ENDBLK
  5
21
100
AcDbEntity
  8
0
100
AcDbBlockEnd
  0
BLOCK
  5
1C
100
AcDbEntity
  8
0
100
AcDbBlockBegin
  2
*Paper_Space
 70
0
 10
0.0
 20
0.0
 30
0.0
  3
*Paper_Space
  1

  0
ENDBLK
  5
1D
100
AcDbEntity
  8
0
100
AcDbBlockEnd
  0
ENDSEC
  0
SECTION
  2
ENTITIES
  0
MTEXT
  5
219
100
AcDbEntity
  8
0
100
AcDbMText
 62
7
  6
CONTINUOUS
  7
STANDARD
 71
1
 72
1
 10
15.9560215477
 20
0.9479130325
 30
0.0
 11
1.0
 21
0.0
 31
0.0
 44
0.9
  1
SCALE: 1:0.333
 40
0.3
 41
3.36
  0
LINE
  5
21A
100
AcDbEntity
  8
0
100
AcDbLine
 62
7
  6
CONTINUOUS
 10
0.0
 20
0.0
 11
0.0
 21
17.0
  0
LINE
  5
21B
100
AcDbEntity
  8
0
100
AcDbLine
 62
7
  6
CONTINUOUS
 10
0.0
 20
0.0
 11
22.0
 21
0.0
  0
LINE
  5
21C
100
AcDbEntity
  8
0
100
AcDbLine
 62
7
  6
CONTINUOUS
 10
0.0
 20
17.0
 11
22.0
 21
17.0
  0
LINE
  5
21D
100
AcDbEntity
  8
0
100
AcDbLine
 62
7
  6
CONTINUOUS
 10
22.0
 20
0.0
 11
22.0
 21
17.0
  0
LINE
  5
21E
100
AcDbEntity
  8
0
100
AcDbLine
 62
7
  6
CONTINUOUS
 10
5.6303672762
 20
5.5467865634
 11
5.6303672762
 21
5.5234532301
  0
LINE
  5
21F
100
AcDbEntity
  8
0
100
AcDbLine
 62
7
  6
CONTINUOUS
 10
5.663984877
 20
5.5177373359
 11
5.6704922817
 21
5.5020270713
  0
LINE
  5
220
100
AcDbEntity
  8
0
100
AcDbLine
 62
7
  6
CONTINUOUS
 10
5.7569089373
 20
5.5020270713
 11
5.763416342
 21
5.5177373359
  0
LINE
  5
221
100
AcDbEntity
  8
0
100
AcDbLine
 62
7
  6
CONTINUOUS
 10
5.8306515437
 20
5.5177373359
 11
5.8371589484
 21
5.5020270713
  0
LINE
  5
222
100
AcDbEntity
  8
0
100
AcDbLine
 62
7
  6
CONTINUOUS
 10
5.9235756039
 20
5.5020270713
 11
5.9300830086
 21
5.5177373359
  0
LINE
  5
223
100
AcDbEntity
  8
0
100
AcDbLine
 62
7
  6
CONTINUOUS
 10
5.9973182104
 20
5.5177373359
 11
6.0038256151
 21
5.5020270713
  0
LINE
  5
224
100
AcDbEntity
  8
0
100
AcDbLine
 62
7
  6
CONTINUOUS
 10
6.0902422706
 20
5.5020270713
 11
6.0967496753
 21
5.5177373359
  0
LINE
  5
225
100
AcDbEntity
  8
0
100
AcDbLine
 62
7
  6
CONTINUOUS
 10
5.6833239419
 20
5.4934532301
 11
5.7440772771
 21
5.4934532301
  0
LINE
  5
226
100
AcDbEntity
  8
0
100
AcDbLine
 62
7
  6
CONTINUOUS
 10
5.8499906086
 20
5.4934532301
 11
5.9107439438
 21
5.4934532301
  0
LINE
  5
227
100
AcDbEntity
  8
0
100
AcDbLine
 62
7
  6
CONTINUOUS
 10
6.0166572752
 20
5.4934532301
 11
6.0774106104
 21
5.4934532301
  0
LINE
  5
228
100
AcDbEntity
  8
0
100
AcDbLine
 62
7
  6
CONTINUOUS
 10
6.1833239419
 20
5.4934532301
 11
6.2440772771
 21
5.4934532301
  0
LINE
  5
229
100
AcDbEntity
  8
0
100
AcDbLine
 62
7
  6
CONTINUOUS
 10
6.3499906086
 20
5.4934532301
 11
6.4107439438
 21
5.4934532301
  0
LINE
  5
22A
100
AcDbEntity
  8
0
100
AcDbLine
 62
7
  6
CONTINUOUS
 10
6.5166572752
 20
5.4934532301
 11
6.5774106104
 21
5.4934532301
  0
LINE
  5
22B
100
AcDbEntity
  8
0
100
AcDbLine
 62
7
  6
CONTINUOUS
 10
5.6303672762
 20
5.5234532301
 11
5.6554304369
 21
5.5234532301
  0
LINE
  5
22C
100
AcDbEntity
  8
0
100
AcDbLine
 62
7
  6
CONTINUOUS
 10
5.7719707821
 20
5.5234532301
 11
5.8220971036
 21
5.5234532301
  0
LINE
  5
22D
100
AcDbEntity
  8
0
100
AcDbLine
 62
7
  6
CONTINUOUS
 10
5.9386374487
 20
5.5234532301
 11
5.9887637703
 21
5.5234532301
  0
LINE
  5
22E
100
AcDbEntity
  8
0
100
AcDbLine
 62
7
  6
CONTINUOUS
 10
6.1053041154
 20
5.5234532301
 11
6.1554304369
 21
5.5234532301
  0
LINE
  5
22F
100
AcDbEntity
  8
0
100
AcDbLine
 62
7
  6
CONTINUOUS
 10
6.2719707821
 20
5.5234532301
 11
6.3220971036
 21
5.5234532301
  0
LINE
  5
230
100
AcDbEntity
  8
0
100
AcDbLine
 62
7
  6
CONTINUOUS
 10
6.4386374487
 20
5.5234532301
 11
6.4887637703
 21
5.5234532301
  0
LINE
  5
231
100
AcDbEntity
  8
0
100
AcDbLine
 62
7
  6
CONTINUOUS
 10
6.6053041154
 20
5.5234532301
 11
6.6303672762
 21
5.5234532301
  0
LINE
  5
232
100
AcDbEntity
  8
0
100
AcDbLine
 62
7
  6
CONTINUOUS
 10
6.6303672762
 20
5.5467865634
 11
5.6303672762
 21
5.5467865634
  0
LINE
  5
233
100
AcDbEntity
  8
0
100
AcDbLine
 62
7
  6
CONTINUOUS
 10
6.163984877
 20
5.5177373359
 11
6.1704922817
 21
5.5020270713
  0
LINE
  5
234
100
AcDbEntity
  8
0
100
AcDbLine
 62
7
  6
CONTINUOUS
 10
6.2569089373
 20
5.5020270713
 11
6.263416342
 21
5.5177373359
  0
LINE
  5
235
100
AcDbEntity
  8
0
100
AcDbLine
 62
7
  6
CONTINUOUS
 10
6.3306515437
 20
5.5177373359
 11
6.3371589484
 21
5.5020270713
  0
LINE
  5
236
100
AcDbEntity
  8
0
100
AcDbLine
 62
7
  6
CONTINUOUS
 10
6.4235756039
 20
5.5020270713
 11
6.4300830086
 21
5.5177373359
  0
LINE
  5
237
100
AcDbEntity
  8
0
100
AcDbLine
 62
7
  6
CONTINUOUS
 10
6.4973182104
 20
5.5177373359
 11
6.5038256151
 21
5.5020270713
  0
LINE
  5
238
100
AcDbEntity
  8
0
100
AcDbLine
 62
7
  6
CONTINUOUS
 10
6.5902422706
 20
5.5020270713
 11
6.5967496753
 21
5.5177373359
  0
LINE
  5
239
100
AcDbEntity
  8
0
100
AcDbLine
 62
7
  6
CONTINUOUS
 10
6.6303672762
 20
5.5234532301
 11
6.6303672762
 21
5.5467865634
  0
LINE
  5
23A
100
AcDbEntity
  8
0
100
AcDbLine
 62
7
  6
CONTINUOUS
 10
6.5708720839
 20
9.9333811147
 11
5.5708720839
 21
9.9333811147
  0
LINE
  5
23B
100
AcDbEntity
  8
0
100
AcDbLine
 62
7
  6
CONTINUOUS
 10
5.5708720839
 20
15.266714448
 11
5.5708720839
 21
9.9333811147
  0
LINE
  5
23C
100
AcDbEntity
  8
0
100
AcDbLine
 62
7
  6
CONTINUOUS
 10
6.5708720839
 20
15.266714448
 11
6.5708720839
 21
9.9333811147
  0
LINE
  5
23D
100
AcDbEntity
  8
0
100
AcDbLine
 62
7
  6
CONTINUOUS
 10
5.5708720839
 20
15.266714448
 11
6.5708720839
 21
15.266714448
  0
LINE
  5
23E
100
AcDbEntity
  8
0
100
AcDbLine
 62
7
  6
CONTINUOUS
 10
12.8936885903
 20
5.4339580378
 11
12.8936885903
 21
5.4872913711
  0
LINE
  5
23F
100
AcDbEntity
  8
0
100
AcDbLine
 62
7
  6
CONTINUOUS
 10
12.8936885903
 20
5.4339580378
 11
18.2270219236
 21
5.4339580378
  0
LINE
  5
240
100
AcDbEntity
  8
0
100
AcDbLine
 62
7
  6
CONTINUOUS
 10
18.2270219236
 20
5.4639580378
 11
12.8936885903
 21
5.4639580378
  0
LINE
  5
241
100
AcDbEntity
  8
0
100
AcDbLine
 62
7
  6
CONTINUOUS
 10
18.2270219236
 20
5.4872913711
 11
12.8936885903
 21
5.4872913711
  0
LINE
  5
242
100
AcDbEntity
  8
0
100
AcDbLine
 62
7
  6
CONTINUOUS
 10
18.2270219236
 20
5.4339580378
 11
18.2270219236
 21
5.4872913711
  0
LINE
  5
243
100
AcDbEntity
  8
0
100
AcDbLine
 62
7
  6
CONTINUOUS
 10
14.4013380454
 20
10.4204522103
 11
14.4121240505
 21
10.4106865532
  0
LINE
  5
244
100
AcDbEntity
  8
0
100
AcDbLine
 62
7
  6
CONTINUOUS
 10
14.4265581727
 20
10.4053569681
 11
14.4825157
 21
10.4053569681
  0
LINE
  5
245
100
AcDbEntity
  8
0
100
AcDbLine
 62
7
  6
CONTINUOUS
 10
14.5800683383
 20
10.4053569681
 11
14.6360258657
 21
10.4053569681
  0
LINE
  5
246
100
AcDbEntity
  8
0
100
AcDbLine
 62
7
  6
CONTINUOUS
 10
14.733578504
 20
10.4053569681
 11
14.7895360313
 21
10.4053569681
  0
LINE
  5
247
100
AcDbEntity
  8
0
100
AcDbLine
 62
7
  6
CONTINUOUS
 10
14.8870886697
 20
10.4053569681
 11
14.943046197
 21
10.4053569681
  0
LINE
  5
248
100
AcDbEntity
  8
0
100
AcDbLine
 62
7
  6
CONTINUOUS
 10
15.0405988353
 20
10.4053569681
 11
15.0965563627
 21
10.4053569681
  0
LINE
  5
249
100
AcDbEntity
  8
0
100
AcDbLine
 62
7
  6
CONTINUOUS
 10
15.194109001
 20
10.4053569681
 11
15.2500665283
 21
10.4053569681
  0
LINE
  5
24A
100
AcDbEntity
  8
0
100
AcDbLine
 62
7
  6
CONTINUOUS
 10
14.3686305975
 20
10.4240052671
 11
14.3917152973
 21
10.4240052671
  0
LINE
  5
24B
100
AcDbEntity
  8
0
100
AcDbLine
 62
7
  6
CONTINUOUS
 10
14.4990560634
 20
10.4240052671
 11
14.5452254629
 21
10.4240052671
  0
LINE
  5
24C
100
AcDbEntity
  8
0
100
AcDbLine
 62
7
  6
CONTINUOUS
 10
14.6525662291
 20
10.4240052671
 11
14.6987356286
 21
10.4240052671
  0
LINE
  5
24D
100
AcDbEntity
  8
0
100
AcDbLine
 62
7
  6
CONTINUOUS
 10
14.8060763947
 20
10.4240052671
 11
14.8522457943
 21
10.4240052671
  0
LINE
  5
24E
100
AcDbEntity
  8
0
100
AcDbLine
 62
7
  6
CONTINUOUS
 10
14.9595865604
 20
10.4240052671
 11
15.0057559599
 21
10.4240052671
  0
LINE
  5
24F
100
AcDbEntity
  8
0
100
AcDbLine
 62
7
  6
CONTINUOUS
 10
15.1130967261
 20
10.4240052671
 11
15.1592661256
 21
10.4240052671
  0
LINE
  5
250
100
AcDbEntity
  8
0
100
AcDbLine
 62
7
  6
CONTINUOUS
 10
15.2666068917
 20
10.4240052671
 11
15.2896915915
 21
10.4240052671
  0
LINE
  5
251
100
AcDbEntity
  8
0
100
AcDbLine
 62
7
  6
CONTINUOUS
 10
15.2825739479
 20
10.4385094997
 11
14.3615129539
 21
10.4385094997
  0
LINE
  5
252
100
AcDbEntity
  8
0
100
AcDbLine
 62
7
  6
CONTINUOUS
 10
14.5548482111
 20
10.4204522103
 11
14.5656342161
 21
10.4106865532
  0
LINE
  5
253
100
AcDbEntity
  8
0
100
AcDbLine
 62
7
  6
CONTINUOUS
 10
14.7083583767
 20
10.4204522103
 11
14.7191443818
 21
10.4106865532
  0
LINE
  5
254
100
AcDbEntity
  8
0
100
AcDbLine
 62
7
  6
CONTINUOUS
 10
14.8618685424
 20
10.4204522103
 11
14.8726545475
 21
10.4106865532
  0
LINE
  5
255
100
AcDbEntity
  8
0
100
AcDbLine
 62
7
  6
CONTINUOUS
 10
14.3615129539
 20
10.4385094997
 11
14.3686305975
 21
10.4240052671
  0
LINE
  5
256
100
AcDbEntity
  8
0
100
AcDbLine
 62
7
  6
CONTINUOUS
 10
15.0153787081
 20
10.4204522103
 11
15.0261647131
 21
10.4106865532
  0
LINE
  5
257
100
AcDbEntity
  8
0
100
AcDbLine
 62
7
  6
CONTINUOUS
 10
15.1688888737
 20
10.4204522103
 11
15.1796748788
 21
10.4106865532
  0
LINE
  5
258
100
AcDbEntity
  8
0
100
AcDbLine
 62
7
  6
CONTINUOUS
 10
15.2896915915
 20
10.4240052671
 11
15.2825739479
 21
10.4385094997
  0
LINE
  5
259
100
AcDbEntity
  8
0
100
AcDbLine
 62
7
  6
CONTINUOUS
 10
14.4917190611
 20
10.4106865532
 11
14.4929204893
 21
10.4204522103
  0
LINE
  5
25A
100
AcDbEntity
  8
0
100
AcDbLine
 62
7
  6
CONTINUOUS
 10
14.6452292268
 20
10.4106865532
 11
14.646430655
 21
10.4204522103
  0
LINE
  5
25B
100
AcDbEntity
  8
0
100
AcDbLine
 62
7
  6
CONTINUOUS
 10
14.4915413542
 20
10.4098920668
 11
14.4917190611
 21
10.4106865532
  0
LINE
  5
25C
100
AcDbEntity
  8
0
100
AcDbLine
 62
7
  6
CONTINUOUS
 10
14.4929204893
 20
10.4204522103
 11
14.4930402718
 21
10.4209814593
  0
LINE
  5
25D
100
AcDbEntity
  8
0
100
AcDbLine
 62
7
  6
CONTINUOUS
 10
14.7987393925
 20
10.4106865532
 11
14.7999408206
 21
10.4204522103
  0
LINE
  5
25E
100
AcDbEntity
  8
0
100
AcDbLine
 62
7
  6
CONTINUOUS
 10
14.6450515198
 20
10.4098920668
 11
14.6452292268
 21
10.4106865532
  0
LINE
  5
25F
100
AcDbEntity
  8
0
100
AcDbLine
 62
7
  6
CONTINUOUS
 10
14.646430655
 20
10.4204522103
 11
14.6465504375
 21
10.4209814593
  0
LINE
  5
260
100
AcDbEntity
  8
0
100
AcDbLine
 62
7
  6
CONTINUOUS
 10
15.6525333454
 20
14.6162530177
 11
14.3615129539
 21
10.4385094997
  0
LINE
  5
261
100
AcDbEntity
  8
0
100
AcDbLine
 62
7
  6
CONTINUOUS
 10
14.4915487413
 20
10.4098897819
 11
14.4957239415
 21
10.4234007345
  0
LINE
  5
262
100
AcDbEntity
  8
0
100
AcDbLine
 62
7
  6
CONTINUOUS
 10
14.9522495581
 20
10.4106865532
 11
14.9534509863
 21
10.4204522103
  0
LINE
  5
263
100
AcDbEntity
  8
0
100
AcDbLine
 62
7
  6
CONTINUOUS
 10
14.7985616855
 20
10.4098920668
 11
14.7987393925
 21
10.4106865532
  0
LINE
  5
264
100
AcDbEntity
  8
0
100
AcDbLine
 62
7
  6
CONTINUOUS
 10
14.7999408206
 20
10.4204522103
 11
14.8000606031
 21
10.4209814593
  0
LINE
  5
265
100
AcDbEntity
  8
0
100
AcDbLine
 62
7
  6
CONTINUOUS
 10
14.645058907
 20
10.4098897819
 11
14.6492341071
 21
10.4234007345
  0
LINE
  5
266
100
AcDbEntity
  8
0
100
AcDbLine
 62
7
  6
CONTINUOUS
 10
15.1057597238
 20
10.4106865532
 11
15.106961152
 21
10.4204522103
  0
LINE
  5
267
100
AcDbEntity
  8
0
100
AcDbLine
 62
7
  6
CONTINUOUS
 10
14.9520718512
 20
10.4098920668
 11
14.9522495581
 21
10.4106865532
  0
LINE
  5
268
100
AcDbEntity
  8
0
100
AcDbLine
 62
7
  6
CONTINUOUS
 10
14.9534509863
 20
10.4204522103
 11
14.9535707688
 21
10.4209814593
  0
LINE
  5
269
100
AcDbEntity
  8
0
100
AcDbLine
 62
7
  6
CONTINUOUS
 10
14.7985690727
 20
10.4098897819
 11
14.8027442728
 21
10.4234007345
  0
LINE
  5
26A
100
AcDbEntity
  8
0
100
AcDbLine
 62
7
  6
CONTINUOUS
 10
15.2592698895
 20
10.4106865532
 11
15.2604713176
 21
10.4204522103
  0
LINE
  5
26B
100
AcDbEntity
  8
0
100
AcDbLine
 62
7
  6
CONTINUOUS
 10
15.1055820168
 20
10.4098920668
 11
15.1057597238
 21
10.4106865532
  0
LINE
  5
26C
100
AcDbEntity
  8
0
100
AcDbLine
 62
7
  6
CONTINUOUS
 10
15.106961152
 20
10.4204522103
 11
15.1070809345
 21
10.4209814593
  0
LINE
  5
26D
100
AcDbEntity
  8
0
100
AcDbLine
 62
7
  6
CONTINUOUS
 10
14.9520792383
 20
10.4098897819
 11
14.9562544385
 21
10.4234007345
  0
LINE
  5
26E
100
AcDbEntity
  8
0
100
AcDbLine
 62
7
  6
CONTINUOUS
 10
15.2590921825
 20
10.4098920668
 11
15.2592698895
 21
10.4106865532
  0
LINE
  5
26F
100
AcDbEntity
  8
0
100
AcDbLine
 62
7
  6
CONTINUOUS
 10
15.2604713176
 20
10.4204522103
 11
15.2605911001
 21
10.4209814593
  0
LINE
  5
270
100
AcDbEntity
  8
0
100
AcDbLine
 62
7
  6
CONTINUOUS
 10
15.105589404
 20
10.4098897819
 11
15.1097646041
 21
10.4234007345
  0
LINE
  5
271
100
AcDbEntity
  8
0
100
AcDbLine
 62
7
  6
CONTINUOUS
 10
15.2590995697
 20
10.4098897819
 11
15.2632747698
 21
10.4234007345
  0
LINE
  5
272
100
AcDbEntity
  8
0
100
AcDbLine
 62
7
  6
CONTINUOUS
 10
16.5735943394
 20
14.6162530177
 11
15.2825739479
 21
10.4385094997
  0
LINE
  5
273
100
AcDbEntity
  8
0
100
AcDbLine
 62
7
  6
CONTINUOUS
 10
16.580711983
 20
14.6017487851
 11
15.2896915915
 21
10.4240052671
  0
LINE
  5
274
100
AcDbEntity
  8
0
100
AcDbLine
 62
7
  6
CONTINUOUS
 10
16.580711983
 20
14.6017487851
 11
16.5735943394
 21
14.6162530177
  0
LINE
  5
275
100
AcDbEntity
  8
0
100
AcDbLine
 62
7
  6
CONTINUOUS
 10
15.6525333454
 20
14.6162530177
 11
16.5735943394
 21
14.6162530177
  0
ARC
  5
276
100
AcDbEntity
  8
0
100
AcDbCircle
 62
7
  6
CONTINUOUS
 10
5.8499906086
 20
5.507342119
 40
0.0138888889
100
AcDbArc
 50
202.5
 51
270.0
  0
ARC
  5
277
100
AcDbEntity
  8
0
100
AcDbCircle
 62
7
  6
CONTINUOUS
 10
5.9107439438
 20
5.507342119
 40
0.0138888889
100
AcDbArc
 50
270.0
 51
337.5
  0
ARC
  5
278
100
AcDbEntity
  8
0
100
AcDbCircle
 62
7
  6
CONTINUOUS
 10
6.0166572752
 20
5.507342119
 40
0.0138888889
100
AcDbArc
 50
202.5
 51
270.0
  0
ARC
  5
279
100
AcDbEntity
  8
0
100
AcDbCircle
 62
7
  6
CONTINUOUS
 10
6.0774106104
 20
5.507342119
 40
0.0138888889
100
AcDbArc
 50
270.0
 51
337.5
  0
ARC
  5
27A
100
AcDbEntity
  8
0
100
AcDbCircle
 62
7
  6
CONTINUOUS
 10
6.1833239419
 20
5.507342119
 40
0.0138888889
100
AcDbArc
 50
202.5
 51
270.0
  0
ARC
  5
27B
100
AcDbEntity
  8
0
100
AcDbCircle
 62
7
  6
CONTINUOUS
 10
6.2440772771
 20
5.507342119
 40
0.0138888889
100
AcDbArc
 50
270.0
 51
337.5
  0
ARC
  5
27C
100
AcDbEntity
  8
0
100
AcDbCircle
 62
7
  6
CONTINUOUS
 10
5.7440772771
 20
5.507342119
 40
0.0138888889
100
AcDbArc
 50
270.0
 51
337.5
  0
ARC
  5
27D
100
AcDbEntity
  8
0
100
AcDbCircle
 62
7
  6
CONTINUOUS
 10
5.6833239419
 20
5.507342119
 40
0.0138888889
100
AcDbArc
 50
202.5
 51
270.0
  0
ARC
  5
27E
100
AcDbEntity
  8
0
100
AcDbCircle
 62
7
  6
CONTINUOUS
 10
6.5774106104
 20
5.507342119
 40
0.0138888889
100
AcDbArc
 50
270.0
 51
337.5
  0
ARC
  5
27F
100
AcDbEntity
  8
0
100
AcDbCircle
 62
7
  6
CONTINUOUS
 10
6.5166572752
 20
5.507342119
 40
0.0138888889
100
AcDbArc
 50
202.5
 51
270.0
  0
ARC
  5
280
100
AcDbEntity
  8
0
100
AcDbCircle
 62
7
  6
CONTINUOUS
 10
6.4107439438
 20
5.507342119
 40
0.0138888889
100
AcDbArc
 50
270.0
 51
337.5
  0
ARC
  5
281
100
AcDbEntity
  8
0
100
AcDbCircle
 62
7
  6
CONTINUOUS
 10
6.3499906086
 20
5.507342119
 40
0.0138888889
100
AcDbArc
 50
202.5
 51
270.0
  0
ARC
  5
282
100
AcDbEntity
  8
0
100
AcDbCircle
 62
7
  6
CONTINUOUS
 10
5.7719707821
 20
5.5141939708
 40
0.0092592593
100
AcDbArc
 50
90.0
 51
157.5
  0
ARC
  5
283
100
AcDbEntity
  8
0
100
AcDbCircle
 62
7
  6
CONTINUOUS
 10
5.6554304369
 20
5.5141939708
 40
0.0092592593
100
AcDbArc
 50
22.5
 51
90.0
  0
ARC
  5
284
100
AcDbEntity
  8
0
100
AcDbCircle
 62
7
  6
CONTINUOUS
 10
5.9386374487
 20
5.5141939708
 40
0.0092592593
100
AcDbArc
 50
90.0
 51
157.5
  0
ARC
  5
285
100
AcDbEntity
  8
0
100
AcDbCircle
 62
7
  6
CONTINUOUS
 10
5.8220971036
 20
5.5141939708
 40
0.0092592593
100
AcDbArc
 50
22.5
 51
90.0
  0
ARC
  5
286
100
AcDbEntity
  8
0
100
AcDbCircle
 62
7
  6
CONTINUOUS
 10
6.1053041154
 20
5.5141939708
 40
0.0092592593
100
AcDbArc
 50
90.0
 51
157.5
  0
ARC
  5
287
100
AcDbEntity
  8
0
100
AcDbCircle
 62
7
  6
CONTINUOUS
 10
5.9887637703
 20
5.5141939708
 40
0.0092592593
100
AcDbArc
 50
22.5
 51
90.0
  0
ARC
  5
288
100
AcDbEntity
  8
0
100
AcDbCircle
 62
7
  6
CONTINUOUS
 10
6.2719707821
 20
5.5141939708
 40
0.0092592593
100
AcDbArc
 50
90.0
 51
157.5
  0
ARC
  5
289
100
AcDbEntity
  8
0
100
AcDbCircle
 62
7
  6
CONTINUOUS
 10
6.1554304369
 20
5.5141939708
 40
0.0092592593
100
AcDbArc
 50
22.5
 51
90.0
  0
ARC
  5
28A
100
AcDbEntity
  8
0
100
AcDbCircle
 62
7
  6
CONTINUOUS
 10
6.4386374487
 20
5.5141939708
 40
0.0092592593
100
AcDbArc
 50
90.0
 51
157.5
  0
ARC
  5
28B
100
AcDbEntity
  8
0
100
AcDbCircle
 62
7
  6
CONTINUOUS
 10
6.3220971036
 20
5.5141939708
 40
0.0092592593
100
AcDbArc
 50
22.5
 51
90.0
  0
ARC
  5
28C
100
AcDbEntity
  8
0
100
AcDbCircle
 62
7
  6
CONTINUOUS
 10
6.6053041154
 20
5.5141939708
 40
0.0092592593
100
AcDbArc
 50
90.0
 51
157.5
  0
ARC
  5
28D
100
AcDbEntity
  8
0
100
AcDbCircle
 62
7
  6
CONTINUOUS
 10
6.4887637703
 20
5.5141939708
 40
0.0092592593
100
AcDbArc
 50
22.5
 51
90.0
  0
SPLINE
  5
28E
100
AcDbEntity
  8
0
100
AcDbSpline
 62
7
  6
CONTINUOUS
 70
0
 71
3
 72
11
 73
7
 74
0
 42
0.0000001
 43
0.0000001
 44
0.0000000001
 40
0.0
 40
0.0
 40
0.0
 40
0.0
 40
0.2024261553
 40
0.4302053648
 40
0.6966241457
 40
1.0
 40
1.0
 40
1.0
 40
1.0
 10
14.4930347871
 20
10.4209831582
 30
0.0
 10
14.4931782964
 20
10.4214442991
 30
0.0
 10
14.4937335119
 20
10.4223568296
 30
0.0
 10
14.4951332692
 20
10.4233153072
 30
0.0
 10
14.4969677773
 20
10.4238887898
 30
0.0
 10
14.4983322588
 20
10.4240052671
 30
0.0
 10
14.4990560634
 20
10.4240052671
 30
0.0
  0
SPLINE
  5
28F
100
AcDbEntity
  8
0
100
AcDbSpline
 62
7
  6
CONTINUOUS
 70
0
 71
3
 72
11
 73
7
 74
0
 42
0.0000001
 43
0.0000001
 44
0.0000000001
 40
0.0
 40
0.0
 40
0.0
 40
0.0
 40
0.2024261553
 40
0.4302053648
 40
0.6966241457
 40
1.0
 40
1.0
 40
1.0
 40
1.0
 10
14.6465449528
 20
10.4209831582
 30
0.0
 10
14.6466884621
 20
10.4214442991
 30
0.0
 10
14.6472436775
 20
10.4223568296
 30
0.0
 10
14.6486434349
 20
10.4233153072
 30
0.0
 10
14.650477943
 20
10.4238887898
 30
0.0
 10
14.6518424245
 20
10.4240052671
 30
0.0
 10
14.6525662291
 20
10.4240052671
 30
0.0
  0
SPLINE
  5
290
100
AcDbEntity
  8
0
100
AcDbSpline
 62
7
  6
CONTINUOUS
 70
0
 71
3
 72
11
 73
7
 74
0
 42
0.0000001
 43
0.0000001
 44
0.0000000001
 40
0.0
 40
0.0
 40
0.0
 40
0.0
 40
0.2024261553
 40
0.4302053648
 40
0.6966241457
 40
1.0
 40
1.0
 40
1.0
 40
1.0
 10
14.8000551184
 20
10.4209831582
 30
0.0
 10
14.8001986277
 20
10.4214442991
 30
0.0
 10
14.8007538432
 20
10.4223568296
 30
0.0
 10
14.8021536006
 20
10.4233153072
 30
0.0
 10
14.8039881087
 20
10.4238887898
 30
0.0
 10
14.8053525901
 20
10.4240052671
 30
0.0
 10
14.8060763947
 20
10.4240052671
 30
0.0
  0
SPLINE
  5
291
100
AcDbEntity
  8
0
100
AcDbSpline
 62
7
  6
CONTINUOUS
 70
0
 71
3
 72
11
 73
7
 74
0
 42
0.0000001
 43
0.0000001
 44
0.0000000001
 40
0.0
 40
0.0
 40
0.0
 40
0.0
 40
0.2024261553
 40
0.4302053648
 40
0.6966241457
 40
1.0
 40
1.0
 40
1.0
 40
1.0
 10
14.9535652841
 20
10.4209831582
 30
0.0
 10
14.9537087934
 20
10.4214442991
 30
0.0
 10
14.9542640089
 20
10.4223568296
 30
0.0
 10
14.9556637662
 20
10.4233153072
 30
0.0
 10
14.9574982743
 20
10.4238887898
 30
0.0
 10
14.9588627558
 20
10.4240052671
 30
0.0
 10
14.9595865604
 20
10.4240052671
 30
0.0
  0
SPLINE
  5
292
100
AcDbEntity
  8
0
100
AcDbSpline
 62
7
  6
CONTINUOUS
 70
0
 71
3
 72
11
 73
7
 74
0
 42
0.0000001
 43
0.0000001
 44
0.0000000001
 40
0.0
 40
0.0
 40
0.0
 40
0.0
 40
0.2024261553
 40
0.4302053648
 40
0.6966241457
 40
1.0
 40
1.0
 40
1.0
 40
1.0
 10
15.1070754498
 20
10.4209831582
 30
0.0
 10
15.1072189591
 20
10.4214442991
 30
0.0
 10
15.1077741745
 20
10.4223568296
 30
0.0
 10
15.1091739319
 20
10.4233153072
 30
0.0
 10
15.11100844
 20
10.4238887898
 30
0.0
 10
15.1123729215
 20
10.4240052671
 30
0.0
 10
15.1130967261
 20
10.4240052671
 30
0.0
  0
SPLINE
  5
293
100
AcDbEntity
  8
0
100
AcDbSpline
 62
7
  6
CONTINUOUS
 70
0
 71
3
 72
11
 73
7
 74
0
 42
0.0000001
 43
0.0000001
 44
0.0000000001
 40
0.0
 40
0.0
 40
0.0
 40
0.0
 40
0.2024261553
 40
0.4302053648
 40
0.6966241457
 40
1.0
 40
1.0
 40
1.0
 40
1.0
 10
15.2605856154
 20
10.4209831582
 30
0.0
 10
15.2607291247
 20
10.4214442991
 30
0.0
 10
15.2612843402
 20
10.4223568296
 30
0.0
 10
15.2626840976
 20
10.4233153072
 30
0.0
 10
15.2645186057
 20
10.4238887898
 30
0.0
 10
15.2658830871
 20
10.4240052671
 30
0.0
 10
15.2666068917
 20
10.4240052671
 30
0.0
  0
SPLINE
  5
294
100
AcDbEntity
  8
0
100
AcDbSpline
 62
7
  6
CONTINUOUS
 70
0
 71
3
 72
11
 73
7
 74
0
 42
0.0000001
 43
0.0000001
 44
0.0000000001
 40
0.0
 40
0.0
 40
0.0
 40
0.0
 40
0.3033875
 40
0.569824422
 40
0.7975916296
 40
1.0
 40
1.0
 40
1.0
 40
1.0
 10
14.4825157
 20
10.4053569681
 30
0.0
 10
14.4836014496
 20
10.4053569681
 30
0.0
 10
14.4856482699
 20
10.4055317783
 30
0.0
 10
14.4884001091
 20
10.4063919881
 30
0.0
 10
14.4904996724
 20
10.407829744
 30
0.0
 10
14.4913324136
 20
10.4091984628
 30
0.0
 10
14.4915476321
 20
10.4098901223
 30
0.0
  0
SPLINE
  5
295
100
AcDbEntity
  8
0
100
AcDbSpline
 62
7
  6
CONTINUOUS
 70
0
 71
3
 72
11
 73
7
 74
0
 42
0.0000001
 43
0.0000001
 44
0.0000000001
 40
0.0
 40
0.0
 40
0.0
 40
0.0
 40
0.2358844218
 40
0.4908533969
 40
0.7506225284
 40
1.0
 40
1.0
 40
1.0
 40
1.0
 10
14.4121240505
 20
10.4106865532
 30
0.0
 10
14.413038201
 20
10.4098588806
 30
0.0
 10
14.4151495409
 20
10.4083633289
 30
0.0
 10
14.4187217337
 20
10.4066969501
 30
0.0
 10
14.422589216
 20
10.4056294499
 30
0.0
 10
14.4252544608
 20
10.4053569681
 30
0.0
 10
14.4265581727
 20
10.4053569681
 30
0.0
  0
SPLINE
  5
296
100
AcDbEntity
  8
0
100
AcDbSpline
 62
7
  6
CONTINUOUS
 70
0
 71
3
 72
11
 73
7
 74
0
 42
0.0000001
 43
0.0000001
 44
0.0000000001
 40
0.0
 40
0.0
 40
0.0
 40
0.0
 40
0.3033875
 40
0.569824422
 40
0.7975916296
 40
1.0
 40
1.0
 40
1.0
 40
1.0
 10
15.2500665283
 20
10.4053569681
 30
0.0
 10
15.2511522779
 20
10.4053569681
 30
0.0
 10
15.2531990982
 20
10.4055317783
 30
0.0
 10
15.2559509374
 20
10.4063919881
 30
0.0
 10
15.2580505008
 20
10.407829744
 30
0.0
 10
15.258883242
 20
10.4091984628
 30
0.0
 10
15.2590984604
 20
10.4098901223
 30
0.0
  0
SPLINE
  5
297
100
AcDbEntity
  8
0
100
AcDbSpline
 62
7
  6
CONTINUOUS
 70
0
 71
3
 72
11
 73
7
 74
0
 42
0.0000001
 43
0.0000001
 44
0.0000000001
 40
0.0
 40
0.0
 40
0.0
 40
0.0
 40
0.2358844218
 40
0.4908533969
 40
0.7506225284
 40
1.0
 40
1.0
 40
1.0
 40
1.0
 10
15.1796748788
 20
10.4106865532
 30
0.0
 10
15.1805890294
 20
10.4098588806
 30
0.0
 10
15.1827003692
 20
10.4083633289
 30
0.0
 10
15.186272562
 20
10.4066969501
 30
0.0
 10
15.1901400444
 20
10.4056294499
 30
0.0
 10
15.1928052891
 20
10.4053569681
 30
0.0
 10
15.194109001
 20
10.4053569681
 30
0.0
  0
SPLINE
  5
298
100
AcDbEntity
  8
0
100
AcDbSpline
 62
7
  6
CONTINUOUS
 70
0
 71
3
 72
11
 73
7
 74
0
 42
0.0000001
 43
0.0000001
 44
0.0000000001
 40
0.0
 40
0.0
 40
0.0
 40
0.0
 40
0.3033875
 40
0.569824422
 40
0.7975916296
 40
1.0
 40
1.0
 40
1.0
 40
1.0
 10
15.0965563627
 20
10.4053569681
 30
0.0
 10
15.0976421123
 20
10.4053569681
 30
0.0
 10
15.0996889325
 20
10.4055317783
 30
0.0
 10
15.1024407717
 20
10.4063919881
 30
0.0
 10
15.1045403351
 20
10.407829744
 30
0.0
 10
15.1053730763
 20
10.4091984628
 30
0.0
 10
15.1055882948
 20
10.4098901223
 30
0.0
  0
SPLINE
  5
299
100
AcDbEntity
  8
0
100
AcDbSpline
 62
7
  6
CONTINUOUS
 70
0
 71
3
 72
11
 73
7
 74
0
 42
0.0000001
 43
0.0000001
 44
0.0000000001
 40
0.0
 40
0.0
 40
0.0
 40
0.0
 40
0.2358844218
 40
0.4908533969
 40
0.7506225284
 40
1.0
 40
1.0
 40
1.0
 40
1.0
 10
15.0261647131
 20
10.4106865532
 30
0.0
 10
15.0270788637
 20
10.4098588806
 30
0.0
 10
15.0291902036
 20
10.4083633289
 30
0.0
 10
15.0327623964
 20
10.4066969501
 30
0.0
 10
15.0366298787
 20
10.4056294499
 30
0.0
 10
15.0392951235
 20
10.4053569681
 30
0.0
 10
15.0405988353
 20
10.4053569681
 30
0.0
  0
SPLINE
  5
29A
100
AcDbEntity
  8
0
100
AcDbSpline
 62
7
  6
CONTINUOUS
 70
0
 71
3
 72
11
 73
7
 74
0
 42
0.0000001
 43
0.0000001
 44
0.0000000001
 40
0.0
 40
0.0
 40
0.0
 40
0.0
 40
0.3033875
 40
0.569824422
 40
0.7975916296
 40
1.0
 40
1.0
 40
1.0
 40
1.0
 10
14.943046197
 20
10.4053569681
 30
0.0
 10
14.9441319466
 20
10.4053569681
 30
0.0
 10
14.9461787669
 20
10.4055317783
 30
0.0
 10
14.9489306061
 20
10.4063919881
 30
0.0
 10
14.9510301694
 20
10.407829744
 30
0.0
 10
14.9518629106
 20
10.4091984628
 30
0.0
 10
14.9520781291
 20
10.4098901223
 30
0.0
  0
SPLINE
  5
29B
100
AcDbEntity
  8
0
100
AcDbSpline
 62
7
  6
CONTINUOUS
 70
0
 71
3
 72
11
 73
7
 74
0
 42
0.0000001
 43
0.0000001
 44
0.0000000001
 40
0.0
 40
0.0
 40
0.0
 40
0.0
 40
0.2358844218
 40
0.4908533969
 40
0.7506225284
 40
1.0
 40
1.0
 40
1.0
 40
1.0
 10
14.8726545475
 20
10.4106865532
 30
0.0
 10
14.873568698
 20
10.4098588806
 30
0.0
 10
14.8756800379
 20
10.4083633289
 30
0.0
 10
14.8792522307
 20
10.4066969501
 30
0.0
 10
14.883119713
 20
10.4056294499
 30
0.0
 10
14.8857849578
 20
10.4053569681
 30
0.0
 10
14.8870886697
 20
10.4053569681
 30
0.0
  0
SPLINE
  5
29C
100
AcDbEntity
  8
0
100
AcDbSpline
 62
7
  6
CONTINUOUS
 70
0
 71
3
 72
11
 73
7
 74
0
 42
0.0000001
 43
0.0000001
 44
0.0000000001
 40
0.0
 40
0.0
 40
0.0
 40
0.0
 40
0.3033875
 40
0.569824422
 40
0.7975916296
 40
1.0
 40
1.0
 40
1.0
 40
1.0
 10
14.7895360313
 20
10.4053569681
 30
0.0
 10
14.7906217809
 20
10.4053569681
 30
0.0
 10
14.7926686012
 20
10.4055317783
 30
0.0
 10
14.7954204404
 20
10.4063919881
 30
0.0
 10
14.7975200037
 20
10.407829744
 30
0.0
 10
14.798352745
 20
10.4091984628
 30
0.0
 10
14.7985679634
 20
10.4098901223
 30
0.0
  0
SPLINE
  5
29D
100
AcDbEntity
  8
0
100
AcDbSpline
 62
7
  6
CONTINUOUS
 70
0
 71
3
 72
11
 73
7
 74
0
 42
0.0000001
 43
0.0000001
 44
0.0000000001
 40
0.0
 40
0.0
 40
0.0
 40
0.0
 40
0.2358844218
 40
0.4908533969
 40
0.7506225284
 40
1.0
 40
1.0
 40
1.0
 40
1.0
 10
14.7191443818
 20
10.4106865532
 30
0.0
 10
14.7200585324
 20
10.4098588806
 30
0.0
 10
14.7221698722
 20
10.4083633289
 30
0.0
 10
14.725742065
 20
10.4066969501
 30
0.0
 10
14.7296095474
 20
10.4056294499
 30
0.0
 10
14.7322747921
 20
10.4053569681
 30
0.0
 10
14.733578504
 20
10.4053569681
 30
0.0
  0
SPLINE
  5
29E
100
AcDbEntity
  8
0
100
AcDbSpline
 62
7
  6
CONTINUOUS
 70
0
 71
3
 72
11
 73
7
 74
0
 42
0.0000001
 43
0.0000001
 44
0.0000000001
 40
0.0
 40
0.0
 40
0.0
 40
0.0
 40
0.3033875
 40
0.569824422
 40
0.7975916296
 40
1.0
 40
1.0
 40
1.0
 40
1.0
 10
14.6360258657
 20
10.4053569681
 30
0.0
 10
14.6371116153
 20
10.4053569681
 30
0.0
 10
14.6391584355
 20
10.4055317783
 30
0.0
 10
14.6419102747
 20
10.4063919881
 30
0.0
 10
14.6440098381
 20
10.407829744
 30
0.0
 10
14.6448425793
 20
10.4091984628
 30
0.0
 10
14.6450577978
 20
10.4098901223
 30
0.0
  0
SPLINE
  5
29F
100
AcDbEntity
  8
0
100
AcDbSpline
 62
7
  6
CONTINUOUS
 70
0
 71
3
 72
11
 73
7
 74
0
 42
0.0000001
 43
0.0000001
 44
0.0000000001
 40
0.0
 40
0.0
 40
0.0
 40
0.0
 40
0.2358844218
 40
0.4908533969
 40
0.7506225284
 40
1.0
 40
1.0
 40
1.0
 40
1.0
 10
14.5656342161
 20
10.4106865532
 30
0.0
 10
14.5665483667
 20
10.4098588806
 30
0.0
 10
14.5686597066
 20
10.4083633289
 30
0.0
 10
14.5722318994
 20
10.4066969501
 30
0.0
 10
14.5760993817
 20
10.4056294499
 30
0.0
 10
14.5787646265
 20
10.4053569681
 30
0.0
 10
14.5800683383
 20
10.4053569681
 30
0.0
  0
SPLINE
  5
2A0
100
AcDbEntity
  8
0
100
AcDbSpline
 62
7
  6
CONTINUOUS
 70
0
 71
3
 72
11
 73
7
 74
0
 42
0.0000001
 43
0.0000001
 44
0.0000000001
 40
0.0
 40
0.0
 40
0.0
 40
0.0
 40
0.2493923391
 40
0.5091777233
 40
0.7641307014
 40
1.0
 40
1.0
 40
1.0
 40
1.0
 10
14.3917152973
 20
10.4240052671
 30
0.0
 10
14.3925844904
 20
10.4240052671
 30
0.0
 10
14.3943614252
 20
10.4238235511
 30
0.0
 10
14.3969397929
 20
10.4231118692
 30
0.0
 10
14.399321214
 20
10.4220009737
 30
0.0
 10
14.4007286507
 20
10.4210039568
 30
0.0
 10
14.4013380454
 20
10.4204522103
 30
0.0
  0
SPLINE
  5
2A1
100
AcDbEntity
  8
0
100
AcDbSpline
 62
7
  6
CONTINUOUS
 70
0
 71
3
 72
11
 73
7
 74
0
 42
0.0000001
 43
0.0000001
 44
0.0000000001
 40
0.0
 40
0.0
 40
0.0
 40
0.0
 40
0.2493923391
 40
0.5091777233
 40
0.7641307014
 40
1.0
 40
1.0
 40
1.0
 40
1.0
 10
14.5452254629
 20
10.4240052671
 30
0.0
 10
14.546094656
 20
10.4240052671
 30
0.0
 10
14.5478715909
 20
10.4238235511
 30
0.0
 10
14.5504499585
 20
10.4231118692
 30
0.0
 10
14.5528313797
 20
10.4220009737
 30
0.0
 10
14.5542388164
 20
10.4210039568
 30
0.0
 10
14.5548482111
 20
10.4204522103
 30
0.0
  0
SPLINE
  5
2A2
100
AcDbEntity
  8
0
100
AcDbSpline
 62
7
  6
CONTINUOUS
 70
0
 71
3
 72
11
 73
7
 74
0
 42
0.0000001
 43
0.0000001
 44
0.0000000001
 40
0.0
 40
0.0
 40
0.0
 40
0.0
 40
0.2493923391
 40
0.5091777233
 40
0.7641307014
 40
1.0
 40
1.0
 40
1.0
 40
1.0
 10
14.6987356286
 20
10.4240052671
 30
0.0
 10
14.6996048217
 20
10.4240052671
 30
0.0
 10
14.7013817565
 20
10.4238235511
 30
0.0
 10
14.7039601242
 20
10.4231118692
 30
0.0
 10
14.7063415454
 20
10.4220009737
 30
0.0
 10
14.7077489821
 20
10.4210039568
 30
0.0
 10
14.7083583767
 20
10.4204522103
 30
0.0
  0
SPLINE
  5
2A3
100
AcDbEntity
  8
0
100
AcDbSpline
 62
7
  6
CONTINUOUS
 70
0
 71
3
 72
11
 73
7
 74
0
 42
0.0000001
 43
0.0000001
 44
0.0000000001
 40
0.0
 40
0.0
 40
0.0
 40
0.0
 40
0.2493923391
 40
0.5091777233
 40
0.7641307014
 40
1.0
 40
1.0
 40
1.0
 40
1.0
 10
14.8522457943
 20
10.4240052671
 30
0.0
 10
14.8531149874
 20
10.4240052671
 30
0.0
 10
14.8548919222
 20
10.4238235511
 30
0.0
 10
14.8574702899
 20
10.4231118692
 30
0.0
 10
14.8598517111
 20
10.4220009737
 30
0.0
 10
14.8612591477
 20
10.4210039568
 30
0.0
 10
14.8618685424
 20
10.4204522103
 30
0.0
  0
SPLINE
  5
2A4
100
AcDbEntity
  8
0
100
AcDbSpline
 62
7
  6
CONTINUOUS
 70
0
 71
3
 72
11
 73
7
 74
0
 42
0.0000001
 43
0.0000001
 44
0.0000000001
 40
0.0
 40
0.0
 40
0.0
 40
0.0
 40
0.2493923391
 40
0.5091777233
 40
0.7641307014
 40
1.0
 40
1.0
 40
1.0
 40
1.0
 10
15.0057559599
 20
10.4240052671
 30
0.0
 10
15.006625153
 20
10.4240052671
 30
0.0
 10
15.0084020879
 20
10.4238235511
 30
0.0
 10
15.0109804555
 20
10.4231118692
 30
0.0
 10
15.0133618767
 20
10.4220009737
 30
0.0
 10
15.0147693134
 20
10.4210039568
 30
0.0
 10
15.0153787081
 20
10.4204522103
 30
0.0
  0
SPLINE
  5
2A5
100
AcDbEntity
  8
0
100
AcDbSpline
 62
7
  6
CONTINUOUS
 70
0
 71
3
 72
11
 73
7
 74
0
 42
0.0000001
 43
0.0000001
 44
0.0000000001
 40
0.0
 40
0.0
 40
0.0
 40
0.0
 40
0.2493923391
 40
0.5091777233
 40
0.7641307014
 40
1.0
 40
1.0
 40
1.0
 40
1.0
 10
15.1592661256
 20
10.4240052671
 30
0.0
 10
15.1601353187
 20
10.4240052671
 30
0.0
 10
15.1619122535
 20
10.4238235511
 30
0.0
 10
15.1644906212
 20
10.4231118692
 30
0.0
 10
15.1668720424
 20
10.4220009737
 30
0.0
 10
15.1682794791
 20
10.4210039568
 30
0.0
 10
15.1688888737
 20
10.4204522103
 30
0.0
  0
ENDSEC
  0
SECTION
  2
OBJECTS
  0
DICTIONARY
  5
C
100
AcDbDictionary
280
0
281
1
  3
ACAD_GROUP
350
D
  3
ACAD_MLINESTYLE
350
17
  3
ACAD_LAYOUT
350
1A
  3
ACAD_PLOTSETTINGS
350
19
  3
ACAD_PLOTSTYLENAME
350
E
  0
DICTIONARY
  5
D
102
{ACAD_REACTORS
330
C
102
}
100
AcDbDictionary
280
0
281
1
  0
ACDBDICTIONARYWDFLT
  5
E
102
{ACAD_REACTORS
330
C
102
}
100
AcDbDictionary
281
1
  3
Normal
350
F
100
AcDbDictionaryWithDefault
340
F
  0
DICTIONARY
  5
17
102
{ACAD_REACTORS
330
C
102
}
100
AcDbDictionary
280
0
281
1
  3
Standard
350
18
  0
DICTIONARY
  5
19
102
{ACAD_REACTORS
330
C
102
}
100
AcDbDictionary
281
1
  0
DICTIONARY
  5
1A
102
{ACAD_REACTORS
330
C
102
}
100
AcDbDictionary
281
1
  3
Model
350
2A6
  3
Layout1
350
2A7
  0
ACDBPLACEHOLDER
  5
F
102
{ACAD_REACTORS
330
E
102
}
  0
MLINESTYLE
  5
18
102
{ACAD_REACTORS
330
17
102
}
100
AcDbMlineStyle
  2
STANDARD
 70
0
  3

 62
256
 51
90.0
 52
90.0
 71
2
 49
0.5
 62
256
  6
BYLAYER
 49
-0.5
 62
256
  6
BYLAYER
  0
LAYOUT
  5
2A6
102
{ACAD_REACTORS
330
1A
102
}
100
AcDbPlotSettings
  1

  2
none_device
  4
ANSI_C_(22.00_x_17.00_Inches)
  6

 40
0.0
 41
0.0
 42
0.0
 43
0.0
 44
558.8
 45
431.8
 46
0.0
 47
0.0
 48
0.0
 49
0.0
140
0.0
141
0.0
142
1.0
143
1.0
 70
1024
 72
0
 73
0
 74
0
  7

 75
0
147
1.0
148
0.0
149
0.0
100
AcDbLayout
  1
Model
 70
0
 71
0
 10
0.0
 20
0.0
 11
22.0
 21
17.0
 12
0.0
 22
0.0
 32
0.0
 14
0.0
 24
0.0
 34
0.0
 15
0.0
 25
0.0
 35
0.0
146
0.0
 13
0.0
 23
0.0
 33
0.0
 16
1.0
 26
0.0
 36
0.0
 17
0.0
 27
1.0
 37
0.0
 76
0
330
216
345
0
346
0
  0
LAYOUT
  5
2A7
102
{ACAD_REACTORS
330
1A
102
}
100
AcDbPlotSettings
  1

  2
none_device
  4
ANSI_C_(22.00_x_17.00_Inches)
  6

 40
0.0
 41
0.0
 42
0.0
 43
0.0
 44
558.8
 45
431.8
 46
0.0
 47
0.0
 48
0.0
 49
0.0
140
0.0
141
0.0
142
1.0
143
1.0
 70
0
 72
0
 73
0
 74
0
  7

 75
0
147
1.0
148
0.0
149
0.0
100
AcDbLayout
  1
Layout1
 70
0
 71
1
 10
0.0
 20
0.0
 11
22.0
 21
17.0
 12
0.0
 22
0.0
 32
0.0
 14
0.0
 24
0.0
 34
0.0
 15
0.0
 25
0.0
 35
0.0
146
0.0
 13
0.0
 23
0.0
 33
0.0
 16
1.0
 26
0.0
 36
0.0
 17
0.0
 27
1.0
 37
0.0
 76
0
330
217
345
0
346
0
  0
ENDSEC
  0
EOF