999
DXF file: _cgs_temp_output.dxf
999
Pro/ENGINEER 2016360 by Parametric Technology Corporation
  0
SECTION
  2
HEADER
  9
$ACADVER
  1
AC1021
  9
$DWGCODEPAGE
  3
ANSI_1252
  9
$EXTMAX
 10
22.0
 20
17.0
 30
0.0
  9
$EXTMIN
 10
0.0
 20
0.0
 30
0.0
  9
$LIMMIN
 10
0.0
 20
0.0
  9
$LIMMAX
 10
22.0
 20
17.0
  9
$VIEWCTR
 10
11.0
 20
8.5
  9
$VIEWSIZE
 40
17.0
  9
$CLAYER
  8
0
  9
$LTSCALE
 40
1.21
  9
$CELTYPE
  6
BYLAYER
  9
$DIMSCALE
 40
1.0
  9
$DIMASZ
 40
0.1875
  9
$DIMEXO
 40
0.0625
  9
$DIMDLI
 40
0.836
  9
$DIMEXE
 40
0.125
  9
$DIMCEN
 40
0.198
  9
$DIMLFAC
 40
1.0
  9
$DIMBLK
  1
_CLOSED
  9
$DIMALT
 70
0
  9
$DIMALTF
 40
25.4
  9
$DIMTXT
 40
0.15625
  9
$DIMTOL
 70
0
  9
$DIMLIM
 70
0
  9
$DIMTFAC
 40
1.0
  9
$DIMGAP
 40
0.09
  9
$DIMDSEP
 70
46
  9
$AUNITS
 70
0
  9
$PDMODE
 70
3
  9
$PDSIZE
 40
0.3125
  9
$HANDSEED
  5
2AE
  9
$TILEMODE
 70
1
  9
$MEASUREMENT
 70
0
  9
$INSUNITS
 70
1
  0
ENDSEC
  0
SECTION
  2
CLASSES
  0
CLASS
  1
ACDBDICTIONARYWDFLT
  2
AcDbDictionaryWithDefault
  3
AutoCAD 2000
 90
0
 91
1
280
0
281
0
  0
CLASS
  1
ACDBPLACEHOLDER
  2
AcDbPlaceHolder
  3
AutoCAD 2000
 90
0
 91
1
280
0
281
0
  0
CLASS
  1
LAYOUT
  2
AcDbLayout
  3
AutoCAD 2000
 90
0
 91
0
280
0
281
0
  0
ENDSEC
  0
SECTION
  2
TABLES
  0
TABLE
  2
VPORT
  5
8
100
AcDbSymbolTable
 70
2
  0
VPORT
  5
1F4
100
AcDbSymbolTableRecord
100
AcDbViewportTableRecord
  2
*ACTIVE
 70
0
 10
0.0
 20
0.0
 11
1.0
 21
1.0
 12
11.0
 22
8.5
 13
0.0
 23
0.0
 14
1.0
 24
1.0
 15
0.0
 25
0.0
 16
0.0
 26
0.0
 36
1.0
 17
0.0
 27
0.0
 37
0.0
 40
17.0
 41
1.2941176471
 42
50.0
 43
0.0
 44
0.0
 50
0.0
 51
0.0
 71
0
 72
100
 73
1
 74
1
 75
0
 76
0
 77
0
 78
0
  0
ENDTAB
  0
TABLE
  2
LTYPE
  5
5
100
AcDbSymbolTable
 70
6
  0
LTYPE
  5
14
100
AcDbSymbolTableRecord
100
AcDbLinetypeTableRecord
  2
BYBLOCK
 70
0
  3

 72
65
 73
0
 40
0.0
  0
LTYPE
  5
15
100
AcDbSymbolTableRecord
100
AcDbLinetypeTableRecord
  2
BYLAYER
 70
0
  3

 72
65
 73
0
 40
0.0
  0
LTYPE
  5
16
100
AcDbSymbolTableRecord
100
AcDbLinetypeTableRecord
  2
CONTINUOUS
 70
64
  3
Solid line
 72
65
 73
0
 40
0.0
  0
LTYPE
  5
1F5
100
AcDbSymbolTableRecord
100
AcDbLinetypeTableRecord
  2
CENTER
 70
64
  3
____ _ ____ _ ____ _ ____ _ ____ _ ____ _ ____
 72
65
 73
4
 40
0.6
 49
0.375
 74
0
 49
-0.075
 74
0
 49
0.075
 74
0
 49
-0.075
 74
0
  0
LTYPE
  5
1F6
100
AcDbSymbolTableRecord
100
AcDbLinetypeTableRecord
  2
HIDDEN
 70
64
  3
- - - - - - - - - - - - - - - - - - - -
 72
65
 73
2
 40
0.2
 49
0.1
 74
0
 49
-0.1
 74
0
  0
LTYPE
  5
1F7
100
AcDbSymbolTableRecord
100
AcDbLinetypeTableRecord
  2
PHANTOM
 70
64
  3
_____ _ _ _____ _ _ _____ _ _ _____
 72
65
 73
6
 40
0.8
 49
0.45
 74
0
 49
-0.05
 74
0
 49
0.1
 74
0
 49
-0.05
 74
0
 49
0.1
 74
0
 49
-0.05
 74
0
  0
LTYPE
  5
1F8
100
AcDbSymbolTableRecord
100
AcDbLinetypeTableRecord
  2
DOT
 70
64
  3
. . . . . . . . . . . . . . . . . . . .
 72
65
 73
2
 40
0.2
 49
0.1
 74
0
 49
-0.1
 74
0
  0
LTYPE
  5
1F9
100
AcDbSymbolTableRecord
100
AcDbLinetypeTableRecord
  2
DASHED
 70
64
  3
- - - - - - - - - - - - - - - - - - - -
 72
65
 73
2
 40
0.2
 49
0.1
 74
0
 49
-0.1
 74
0
  0
ENDTAB
  0
TABLE
  2
LAYER
  5
2
100
AcDbSymbolTable
 70
36
  0
LAYER
  5
10
100
AcDbSymbolTableRecord
100
AcDbLayerTableRecord
  2
0
 70
0
 62
7
  6
CONTINUOUS
370
-3
390
F
  0
LAYER
  5
1FA
100
AcDbSymbolTableRecord
100
AcDbLayerTableRecord
  2
DEFAULT_1
 70
0
 62
7
  6
CENTER
370
-3
390
F
  0
LAYER
  5
1FB
100
AcDbSymbolTableRecord
100
AcDbLayerTableRecord
  2
DEFAULT_2
 70
0
 62
8
  6
HIDDEN
370
-3
390
F
  0
LAYER
  5
1FC
100
AcDbSymbolTableRecord
100
AcDbLayerTableRecord
  2
DEFAULT_3
 70
0
 62
7
  6
PHANTOM
370
-3
390
F
  0
LAYER
  5
1FD
100
AcDbSymbolTableRecord
100
AcDbLayerTableRecord
  2
01_ALL_DTM_PLN
 70
0
 62
7
  6
CONTINUOUS
370
-3
390
F
  0
LAYER
  5
1FE
100
AcDbSymbolTableRecord
100
AcDbLayerTableRecord
  2
01__ASM_ALL_DTM_PLN
 70
0
 62
7
  6
CONTINUOUS
370
-3
390
F
  0
LAYER
  5
1FF
100
AcDbSymbolTableRecord
100
AcDbLayerTableRecord
  2
01__ASM_DEF_DTM_PLN
 70
0
 62
7
  6
CONTINUOUS
370
-3
390
F
  0
LAYER
  5
200
100
AcDbSymbolTableRecord
100
AcDbLayerTableRecord
  2
01___PRT_ALL_DTM_PLN
 70
0
 62
7
  6
CONTINUOUS
370
-3
390
F
  0
LAYER
  5
201
100
AcDbSymbolTableRecord
100
AcDbLayerTableRecord
  2
01___PRT_DEF_DTM_PLN
 70
0
 62
7
  6
CONTINUOUS
370
-3
390
F
  0
LAYER
  5
202
100
AcDbSymbolTableRecord
100
AcDbLayerTableRecord
  2
02_ALL_AXES
 70
0
 62
7
  6
CONTINUOUS
370
-3
390
F
  0
LAYER
  5
203
100
AcDbSymbolTableRecord
100
AcDbLayerTableRecord
  2
02__ASM_ALL_AXES
 70
0
 62
7
  6
CONTINUOUS
370
-3
390
F
  0
LAYER
  5
204
100
AcDbSymbolTableRecord
100
AcDbLayerTableRecord
  2
02___PRT_ALL_AXES
 70
0
 62
7
  6
CONTINUOUS
370
-3
390
F
  0
LAYER
  5
205
100
AcDbSymbolTableRecord
100
AcDbLayerTableRecord
  2
03_ALL_CURVES
 70
0
 62
7
  6
CONTINUOUS
370
-3
390
F
  0
LAYER
  5
206
100
AcDbSymbolTableRecord
100
AcDbLayerTableRecord
  2
03__ASM_ALL_CURVES
 70
0
 62
7
  6
CONTINUOUS
370
-3
390
F
  0
LAYER
  5
207
100
AcDbSymbolTableRecord
100
AcDbLayerTableRecord
  2
03___PRT_ALL_CURVES
 70
0
 62
7
  6
CONTINUOUS
370
-3
390
F
  0
LAYER
  5
208
100
AcDbSymbolTableRecord
100
AcDbLayerTableRecord
  2
04_ALL_DTM_PNT
 70
0
 62
7
  6
CONTINUOUS
370
-3
390
F
  0
LAYER
  5
209
100
AcDbSymbolTableRecord
100
AcDbLayerTableRecord
  2
04__ASM_ALL_DTM_PNT
 70
0
 62
7
  6
CONTINUOUS
370
-3
390
F
  0
LAYER
  5
20A
100
AcDbSymbolTableRecord
100
AcDbLayerTableRecord
  2
04___PRT_ALL_DTM_PNT
 70
0
 62
7
  6
CONTINUOUS
370
-3
390
F
  0
LAYER
  5
20B
100
AcDbSymbolTableRecord
100
AcDbLayerTableRecord
  2
05_ALL_DTM_CSYS
 70
0
 62
7
  6
CONTINUOUS
370
-3
390
F
  0
LAYER
  5
20C
100
AcDbSymbolTableRecord
100
AcDbLayerTableRecord
  2
05__ASM_ALL_DTM_CSYS
 70
0
 62
7
  6
CONTINUOUS
370
-3
390
F
  0
LAYER
  5
20D
100
AcDbSymbolTableRecord
100
AcDbLayerTableRecord
  2
05__ASM_DEF_DTM_CSYS
 70
0
 62
7
  6
CONTINUOUS
370
-3
390
F
  0
LAYER
  5
20E
100
AcDbSymbolTableRecord
100
AcDbLayerTableRecord
  2
05___PRT_ALL_DTM_CSYS
 70
0
 62
7
  6
CONTINUOUS
370
-3
390
F
  0
LAYER
  5
20F
100
AcDbSymbolTableRecord
100
AcDbLayerTableRecord
  2
05___PRT_DEF_DTM_CSYS
 70
0
 62
7
  6
CONTINUOUS
370
-3
390
F
  0
LAYER
  5
210
100
AcDbSymbolTableRecord
100
AcDbLayerTableRecord
  2
06_ALL_SURFS
 70
0
 62
7
  6
CONTINUOUS
370
-3
390
F
  0
LAYER
  5
211
100
AcDbSymbolTableRecord
100
AcDbLayerTableRecord
  2
06__ASM_ALL_SURFS
 70
0
 62
7
  6
CONTINUOUS
370
-3
390
F
  0
LAYER
  5
212
100
AcDbSymbolTableRecord
100
AcDbLayerTableRecord
  2
06___PRT_ALL_SURFS
 70
0
 62
7
  6
CONTINUOUS
370
-3
390
F
  0
LAYER
  5
213
100
AcDbSymbolTableRecord
100
AcDbLayerTableRecord
  2
07__ASM_ALL_SKELETONS
 70
0
 62
7
  6
CONTINUOUS
370
-3
390
F
  0
ENDTAB
  0
TABLE
  2
STYLE
  5
3
100
AcDbSymbolTable
 70
1
  0
STYLE
  5
11
100
AcDbSymbolTableRecord
100
AcDbTextStyleTableRecord
  2
STANDARD
 70
0
 40
0.0
 41
0.8
 50
0.0
 71
0
 42
0.2
  3
txt
  4

  0
STYLE
  5
214
100
AcDbSymbolTableRecord
100
AcDbTextStyleTableRecord
  2
TEXTSTYLE_1
 70
0
 40
0.0
 41
0.8
 50
0.0
 71
0
 42
0.2
  3
gdt
  4

  0
ENDTAB
  0
TABLE
  2
VIEW
  5
6
100
AcDbSymbolTable
 70
0
  0
ENDTAB
  0
TABLE
  2
UCS
  5
7
100
AcDbSymbolTable
 70
0
  0
ENDTAB
  0
TABLE
  2
APPID
  5
9
100
AcDbSymbolTable
 70
1
  0
APPID
  5
215
100
AcDbSymbolTableRecord
100
AcDbRegAppTableRecord
  2
ACAD
 70
0
  0
ENDTAB
  0
TABLE
  2
BLOCK_RECORD
  5
1
100
AcDbSymbolTable
 70
0
  0
BLOCK_RECORD
  5
216
100
AcDbSymbolTableRecord
100
AcDbBlockTableRecord
  2
*Model_Space
  0
BLOCK_RECORD
  5
217
100
AcDbSymbolTableRecord
100
AcDbBlockTableRecord
  2
*Paper_Space
  0
ENDTAB
  0
TABLE
  2
DIMSTYLE
  5
A
100
AcDbSymbolTable
 70
1
100
AcDbDimStyleTable
 71
0
  0
DIMSTYLE
105
218
100
AcDbSymbolTableRecord
100
AcDbDimStyleTableRecord
  2
STANDARD
 70
0
  3

  4

 40
1.0
 41
0.1875
 42
0.0625
 43
0.38
 44
0.125
 45
0.0
 46
0.0
 47
0.0001
 48
0.0001
140
0.15625
141
0.09
142
0.0
143
25.4
144
1.0
145
0.0
146
1.0
147
0.09
 71
0.0
 72
0.0
 73
1
 74
1
 75
0
 76
0
 77
0
 78
4
 79
1
170
0
171
3
172
0
173
0
174
0
175
0
176
0
177
0
178
0
270
2
179
4
271
4
272
4
273
2
274
2
275
0
280
0
281
0
282
0
283
1
284
4
285
0
286
0
287
3
288
0
340
11
278
46
  0
ENDTAB
  0
ENDSEC
  0
SECTION
  2
BLOCKS
  0
BLOCK
  5
20
100
AcDbEntity
  8
0
100
AcDbBlockBegin
  2
*Model_Space
 70
0
 10
0.0
 20
0.0
 30
0.0
  3
*Model_Space
  1

  0
ENDBLK
  5
21
100
AcDbEntity
  8
0
100
AcDbBlockEnd
  0
BLOCK
  5
1C
100
AcDbEntity
  8
0
100
AcDbBlockBegin
  2
*Paper_Space
 70
0
 10
0.0
 20
0.0
 30
0.0
  3
*Paper_Space
  1

  0
ENDBLK
  5
1D
100
AcDbEntity
  8
0
100
AcDbBlockEnd
  0
ENDSEC
  0
SECTION
  2
ENTITIES
  0
MTEXT
  5
219
100
AcDbEntity
  8
0
100
AcDbMText
 62
7
  6
CONTINUOUS
  7
STANDARD
 71
1
 72
1
 10
15.9560215477
 20
0.9479130325
 30
0.0
 11
1.0
 21
0.0
 31
0.0
 44
0.9
  1
SCALE: 1:0.500
 40
0.3
 41
3.36
  0
LINE
  5
21A
100
AcDbEntity
  8
0
100
AcDbLine
 62
7
  6
CONTINUOUS
 10
0.0
 20
0.0
 11
0.0
 21
17.0
  0
LINE
  5
21B
100
AcDbEntity
  8
0
100
AcDbLine
 62
7
  6
CONTINUOUS
 10
0.0
 20
0.0
 11
22.0
 21
0.0
  0
LINE
  5
21C
100
AcDbEntity
  8
0
100
AcDbLine
 62
7
  6
CONTINUOUS
 10
0.0
 20
17.0
 11
22.0
 21
17.0
  0
LINE
  5
21D
100
AcDbEntity
  8
0
100
AcDbLine
 62
7
  6
CONTINUOUS
 10
22.0
 20
0.0
 11
22.0
 21
17.0
  0
LINE
  5
21E
100
AcDbEntity
  8
0
100
AcDbLine
 62
7
  6
CONTINUOUS
 10
5.3803672762
 20
5.5601198968
 11
5.3803672762
 21
5.5251198968
  0
LINE
  5
21F
100
AcDbEntity
  8
0
100
AcDbLine
 62
7
  6
CONTINUOUS
 10
5.4307936775
 20
5.5165460555
 11
5.4405547845
 21
5.4929806586
  0
LINE
  5
220
100
AcDbEntity
  8
0
100
AcDbLine
 62
7
  6
CONTINUOUS
 10
5.5701797678
 20
5.4929806586
 11
5.5799408749
 21
5.5165460555
  0
LINE
  5
221
100
AcDbEntity
  8
0
100
AcDbLine
 62
7
  6
CONTINUOUS
 10
5.6807936775
 20
5.5165460555
 11
5.6905547845
 21
5.4929806586
  0
LINE
  5
222
100
AcDbEntity
  8
0
100
AcDbLine
 62
7
  6
CONTINUOUS
 10
5.8201797678
 20
5.4929806586
 11
5.8299408749
 21
5.5165460555
  0
LINE
  5
223
100
AcDbEntity
  8
0
100
AcDbLine
 62
7
  6
CONTINUOUS
 10
5.9307936775
 20
5.5165460555
 11
5.9405547845
 21
5.4929806586
  0
LINE
  5
224
100
AcDbEntity
  8
0
100
AcDbLine
 62
7
  6
CONTINUOUS
 10
6.0701797678
 20
5.4929806586
 11
6.0799408749
 21
5.5165460555
  0
LINE
  5
225
100
AcDbEntity
  8
0
100
AcDbLine
 62
7
  6
CONTINUOUS
 10
5.4598022748
 20
5.4801198968
 11
5.5509322776
 21
5.4801198968
  0
LINE
  5
226
100
AcDbEntity
  8
0
100
AcDbLine
 62
7
  6
CONTINUOUS
 10
5.7098022748
 20
5.4801198968
 11
5.8009322776
 21
5.4801198968
  0
LINE
  5
227
100
AcDbEntity
  8
0
100
AcDbLine
 62
7
  6
CONTINUOUS
 10
5.9598022748
 20
5.4801198968
 11
6.0509322776
 21
5.4801198968
  0
LINE
  5
228
100
AcDbEntity
  8
0
100
AcDbLine
 62
7
  6
CONTINUOUS
 10
6.2098022748
 20
5.4801198968
 11
6.3009322776
 21
5.4801198968
  0
LINE
  5
229
100
AcDbEntity
  8
0
100
AcDbLine
 62
7
  6
CONTINUOUS
 10
6.4598022748
 20
5.4801198968
 11
6.5509322776
 21
5.4801198968
  0
LINE
  5
22A
100
AcDbEntity
  8
0
100
AcDbLine
 62
7
  6
CONTINUOUS
 10
6.7098022748
 20
5.4801198968
 11
6.8009322776
 21
5.4801198968
  0
LINE
  5
22B
100
AcDbEntity
  8
0
100
AcDbLine
 62
7
  6
CONTINUOUS
 10
5.3803672762
 20
5.5251198968
 11
5.4179620173
 21
5.5251198968
  0
LINE
  5
22C
100
AcDbEntity
  8
0
100
AcDbLine
 62
7
  6
CONTINUOUS
 10
5.592772535
 20
5.5251198968
 11
5.6679620173
 21
5.5251198968
  0
LINE
  5
22D
100
AcDbEntity
  8
0
100
AcDbLine
 62
7
  6
CONTINUOUS
 10
5.842772535
 20
5.5251198968
 11
5.9179620173
 21
5.5251198968
  0
LINE
  5
22E
100
AcDbEntity
  8
0
100
AcDbLine
 62
7
  6
CONTINUOUS
 10
6.092772535
 20
5.5251198968
 11
6.1679620173
 21
5.5251198968
  0
LINE
  5
22F
100
AcDbEntity
  8
0
100
AcDbLine
 62
7
  6
CONTINUOUS
 10
6.342772535
 20
5.5251198968
 11
6.4179620173
 21
5.5251198968
  0
LINE
  5
230
100
AcDbEntity
  8
0
100
AcDbLine
 62
7
  6
CONTINUOUS
 10
6.592772535
 20
5.5251198968
 11
6.6679620173
 21
5.5251198968
  0
LINE
  5
231
100
AcDbEntity
  8
0
100
AcDbLine
 62
7
  6
CONTINUOUS
 10
6.842772535
 20
5.5251198968
 11
6.8803672762
 21
5.5251198968
  0
LINE
  5
232
100
AcDbEntity
  8
0
100
AcDbLine
 62
7
  6
CONTINUOUS
 10
6.8803672762
 20
5.5601198968
 11
5.3803672762
 21
5.5601198968
  0
LINE
  5
233
100
AcDbEntity
  8
0
100
AcDbLine
 62
7
  6
CONTINUOUS
 10
6.1807936775
 20
5.5165460555
 11
6.1905547845
 21
5.4929806586
  0
LINE
  5
234
100
AcDbEntity
  8
0
100
AcDbLine
 62
7
  6
CONTINUOUS
 10
6.3201797678
 20
5.4929806586
 11
6.3299408749
 21
5.5165460555
  0
LINE
  5
235
100
AcDbEntity
  8
0
100
AcDbLine
 62
7
  6
CONTINUOUS
 10
6.4307936775
 20
5.5165460555
 11
6.4405547845
 21
5.4929806586
  0
LINE
  5
236
100
AcDbEntity
  8
0
100
AcDbLine
 62
7
  6
CONTINUOUS
 10
6.5701797678
 20
5.4929806586
 11
6.5799408749
 21
5.5165460555
  0
LINE
  5
237
100
AcDbEntity
  8
0
100
AcDbLine
 62
7
  6
CONTINUOUS
 10
6.6807936775
 20
5.5165460555
 11
6.6905547845
 21
5.4929806586
  0
LINE
  5
238
100
AcDbEntity
  8
0
100
AcDbLine
 62
7
  6
CONTINUOUS
 10
6.8201797678
 20
5.4929806586
 11
6.8299408749
 21
5.5165460555
  0
LINE
  5
239
100
AcDbEntity
  8
0
100
AcDbLine
 62
7
  6
CONTINUOUS
 10
6.8803672762
 20
5.5251198968
 11
6.8803672762
 21
5.5601198968
  0
LINE
  5
23A
100
AcDbEntity
  8
0
100
AcDbLine
 62
7
  6
CONTINUOUS
 10
6.8208720839
 20
9.1000477814
 11
5.3208720839
 21
9.1000477814
  0
LINE
  5
23B
100
AcDbEntity
  8
0
100
AcDbLine
 62
7
  6
CONTINUOUS
 10
5.3208720839
 20
16.1000477814
 11
5.3208720839
 21
9.1000477814
  0
LINE
  5
23C
100
AcDbEntity
  8
0
100
AcDbLine
 62
7
  6
CONTINUOUS
 10
6.8208720839
 20
16.1000477814
 11
6.8208720839
 21
9.1000477814
  0
LINE
  5
23D
100
AcDbEntity
  8
0
100
AcDbLine
 62
7
  6
CONTINUOUS
 10
5.3208720839
 20
16.1000477814
 11
6.8208720839
 21
16.1000477814
  0
LINE
  5
23E
100
AcDbEntity
  8
0
100
AcDbLine
 62
7
  6
CONTINUOUS
 10
12.0603552569
 20
5.4206247044
 11
12.0603552569
 21
5.5006247044
  0
LINE
  5
23F
100
AcDbEntity
  8
0
100
AcDbLine
 62
7
  6
CONTINUOUS
 10
12.0603552569
 20
5.4206247044
 11
19.0603552569
 21
5.4206247044
  0
LINE
  5
240
100
AcDbEntity
  8
0
100
AcDbLine
 62
7
  6
CONTINUOUS
 10
19.0603552569
 20
5.4656247044
 11
12.0603552569
 21
5.4656247044
  0
LINE
  5
241
100
AcDbEntity
  8
0
100
AcDbLine
 62
7
  6
CONTINUOUS
 10
19.0603552569
 20
5.5006247044
 11
12.0603552569
 21
5.5006247044
  0
LINE
  5
242
100
AcDbEntity
  8
0
100
AcDbLine
 62
7
  6
CONTINUOUS
 10
19.0603552569
 20
5.4206247044
 11
19.0603552569
 21
5.5006247044
  0
LINE
  5
243
100
AcDbEntity
  8
0
100
AcDbLine
 62
7
  6
CONTINUOUS
 10
13.9874839956
 20
9.7669392739
 11
14.0036630032
 21
9.7522907882
  0
LINE
  5
244
100
AcDbEntity
  8
0
100
AcDbLine
 62
7
  6
CONTINUOUS
 10
14.0253141865
 20
9.7442964105
 11
14.1092504774
 21
9.7442964105
  0
LINE
  5
245
100
AcDbEntity
  8
0
100
AcDbLine
 62
7
  6
CONTINUOUS
 10
14.255579435
 20
9.7442964105
 11
14.3395157259
 21
9.7442964105
  0
LINE
  5
246
100
AcDbEntity
  8
0
100
AcDbLine
 62
7
  6
CONTINUOUS
 10
14.4858446835
 20
9.7442964105
 11
14.5697809744
 21
9.7442964105
  0
LINE
  5
247
100
AcDbEntity
  8
0
100
AcDbLine
 62
7
  6
CONTINUOUS
 10
14.716109932
 20
9.7442964105
 11
14.800046223
 21
9.7442964105
  0
LINE
  5
248
100
AcDbEntity
  8
0
100
AcDbLine
 62
7
  6
CONTINUOUS
 10
14.9463751805
 20
9.7442964105
 11
15.0303114715
 21
9.7442964105
  0
LINE
  5
249
100
AcDbEntity
  8
0
100
AcDbLine
 62
7
  6
CONTINUOUS
 10
15.176640429
 20
9.7442964105
 11
15.26057672
 21
9.7442964105
  0
LINE
  5
24A
100
AcDbEntity
  8
0
100
AcDbLine
 62
7
  6
CONTINUOUS
 10
13.9384228237
 20
9.7722688591
 11
13.9730498734
 21
9.7722688591
  0
LINE
  5
24B
100
AcDbEntity
  8
0
100
AcDbLine
 62
7
  6
CONTINUOUS
 10
14.1340610226
 20
9.7722688591
 11
14.2033151219
 21
9.7722688591
  0
LINE
  5
24C
100
AcDbEntity
  8
0
100
AcDbLine
 62
7
  6
CONTINUOUS
 10
14.3643262711
 20
9.7722688591
 11
14.4335803704
 21
9.7722688591
  0
LINE
  5
24D
100
AcDbEntity
  8
0
100
AcDbLine
 62
7
  6
CONTINUOUS
 10
14.5945915196
 20
9.7722688591
 11
14.6638456189
 21
9.7722688591
  0
LINE
  5
24E
100
AcDbEntity
  8
0
100
AcDbLine
 62
7
  6
CONTINUOUS
 10
14.8248567681
 20
9.7722688591
 11
14.8941108674
 21
9.7722688591
  0
LINE
  5
24F
100
AcDbEntity
  8
0
100
AcDbLine
 62
7
  6
CONTINUOUS
 10
15.0551220166
 20
9.7722688591
 11
15.1243761159
 21
9.7722688591
  0
LINE
  5
250
100
AcDbEntity
  8
0
100
AcDbLine
 62
7
  6
CONTINUOUS
 10
15.2853872651
 20
9.7722688591
 11
15.3200143147
 21
9.7722688591
  0
LINE
  5
251
100
AcDbEntity
  8
0
100
AcDbLine
 62
7
  6
CONTINUOUS
 10
14.2177492441
 20
9.7669392739
 11
14.2339282517
 21
9.7522907882
  0
LINE
  5
252
100
AcDbEntity
  8
0
100
AcDbLine
 62
7
  6
CONTINUOUS
 10
14.4480144926
 20
9.7669392739
 11
14.4641935002
 21
9.7522907882
  0
LINE
  5
253
100
AcDbEntity
  8
0
100
AcDbLine
 62
7
  6
CONTINUOUS
 10
15.3093378494
 20
9.7940252079
 11
13.9277463584
 21
9.7940252079
  0
LINE
  5
254
100
AcDbEntity
  8
0
100
AcDbLine
 62
7
  6
CONTINUOUS
 10
14.6782797411
 20
9.7669392739
 11
14.6944587487
 21
9.7522907882
  0
LINE
  5
255
100
AcDbEntity
  8
0
100
AcDbLine
 62
7
  6
CONTINUOUS
 10
13.9277463584
 20
9.7940252079
 11
13.9384228237
 21
9.7722688591
  0
LINE
  5
256
100
AcDbEntity
  8
0
100
AcDbLine
 62
7
  6
CONTINUOUS
 10
14.9085449896
 20
9.7669392739
 11
14.9247239972
 21
9.7522907882
  0
LINE
  5
257
100
AcDbEntity
  8
0
100
AcDbLine
 62
7
  6
CONTINUOUS
 10
15.1388102381
 20
9.7669392739
 11
15.1549892457
 21
9.7522907882
  0
LINE
  5
258
100
AcDbEntity
  8
0
100
AcDbLine
 62
7
  6
CONTINUOUS
 10
15.3200143147
 20
9.7722688591
 11
15.3093378494
 21
9.7940252079
  0
LINE
  5
259
100
AcDbEntity
  8
0
100
AcDbLine
 62
7
  6
CONTINUOUS
 10
14.1230555192
 20
9.7522907882
 11
14.1248576614
 21
9.7669392739
  0
LINE
  5
25A
100
AcDbEntity
  8
0
100
AcDbLine
 62
7
  6
CONTINUOUS
 10
14.3533207677
 20
9.7522907882
 11
14.3551229099
 21
9.7669392739
  0
LINE
  5
25B
100
AcDbEntity
  8
0
100
AcDbLine
 62
7
  6
CONTINUOUS
 10
14.1227871576
 20
9.7510996195
 11
14.1230555192
 21
9.7522907882
  0
LINE
  5
25C
100
AcDbEntity
  8
0
100
AcDbLine
 62
7
  6
CONTINUOUS
 10
14.1248576614
 20
9.7669392739
 11
14.1250373352
 21
9.7677331474
  0
LINE
  5
25D
100
AcDbEntity
  8
0
100
AcDbLine
 62
7
  6
CONTINUOUS
 10
15.6222106222
 20
15.2773135753
 11
13.9277463584
 21
9.7940252079
  0
LINE
  5
25E
100
AcDbEntity
  8
0
100
AcDbLine
 62
7
  6
CONTINUOUS
 10
14.5835860162
 20
9.7522907882
 11
14.5853881584
 21
9.7669392739
  0
LINE
  5
25F
100
AcDbEntity
  8
0
100
AcDbLine
 62
7
  6
CONTINUOUS
 10
14.3530524061
 20
9.7510996195
 11
14.3533207677
 21
9.7522907882
  0
LINE
  5
260
100
AcDbEntity
  8
0
100
AcDbLine
 62
7
  6
CONTINUOUS
 10
14.3551229099
 20
9.7669392739
 11
14.3553025837
 21
9.7677331474
  0
LINE
  5
261
100
AcDbEntity
  8
0
100
AcDbLine
 62
7
  6
CONTINUOUS
 10
14.1228000395
 20
9.7510956312
 11
14.1290628397
 21
9.7713620601
  0
LINE
  5
262
100
AcDbEntity
  8
0
100
AcDbLine
 62
7
  6
CONTINUOUS
 10
14.8138512647
 20
9.7522907882
 11
14.8156534069
 21
9.7669392739
  0
LINE
  5
263
100
AcDbEntity
  8
0
100
AcDbLine
 62
7
  6
CONTINUOUS
 10
14.5833176546
 20
9.7510996195
 11
14.5835860162
 21
9.7522907882
  0
LINE
  5
264
100
AcDbEntity
  8
0
100
AcDbLine
 62
7
  6
CONTINUOUS
 10
14.5853881584
 20
9.7669392739
 11
14.5855678322
 21
9.7677331474
  0
LINE
  5
265
100
AcDbEntity
  8
0
100
AcDbLine
 62
7
  6
CONTINUOUS
 10
14.353065288
 20
9.7510956312
 11
14.3593280882
 21
9.7713620601
  0
LINE
  5
266
100
AcDbEntity
  8
0
100
AcDbLine
 62
7
  6
CONTINUOUS
 10
15.0441165132
 20
9.7522907882
 11
15.0459186554
 21
9.7669392739
  0
LINE
  5
267
100
AcDbEntity
  8
0
100
AcDbLine
 62
7
  6
CONTINUOUS
 10
14.8135829031
 20
9.7510996195
 11
14.8138512647
 21
9.7522907882
  0
LINE
  5
268
100
AcDbEntity
  8
0
100
AcDbLine
 62
7
  6
CONTINUOUS
 10
14.8156534069
 20
9.7669392739
 11
14.8158330807
 21
9.7677331474
  0
LINE
  5
269
100
AcDbEntity
  8
0
100
AcDbLine
 62
7
  6
CONTINUOUS
 10
14.5833305365
 20
9.7510956312
 11
14.5895933367
 21
9.7713620601
  0
LINE
  5
26A
100
AcDbEntity
  8
0
100
AcDbLine
 62
7
  6
CONTINUOUS
 10
15.2743817617
 20
9.7522907882
 11
15.2761839039
 21
9.7669392739
  0
LINE
  5
26B
100
AcDbEntity
  8
0
100
AcDbLine
 62
7
  6
CONTINUOUS
 10
15.0438481516
 20
9.7510996195
 11
15.0441165132
 21
9.7522907882
  0
LINE
  5
26C
100
AcDbEntity
  8
0
100
AcDbLine
 62
7
  6
CONTINUOUS
 10
15.0459186554
 20
9.7669392739
 11
15.0460983292
 21
9.7677331474
  0
LINE
  5
26D
100
AcDbEntity
  8
0
100
AcDbLine
 62
7
  6
CONTINUOUS
 10
14.813595785
 20
9.7510956312
 11
14.8198585852
 21
9.7713620601
  0
LINE
  5
26E
100
AcDbEntity
  8
0
100
AcDbLine
 62
7
  6
CONTINUOUS
 10
15.2741134001
 20
9.7510996195
 11
15.2743817617
 21
9.7522907882
  0
LINE
  5
26F
100
AcDbEntity
  8
0
100
AcDbLine
 62
7
  6
CONTINUOUS
 10
15.2761839039
 20
9.7669392739
 11
15.2763635777
 21
9.7677331474
  0
LINE
  5
270
100
AcDbEntity
  8
0
100
AcDbLine
 62
7
  6
CONTINUOUS
 10
15.0438610335
 20
9.7510956312
 11
15.0501238337
 21
9.7713620601
  0
LINE
  5
271
100
AcDbEntity
  8
0
100
AcDbLine
 62
7
  6
CONTINUOUS
 10
15.274126282
 20
9.7510956312
 11
15.2803890822
 21
9.7713620601
  0
LINE
  5
272
100
AcDbEntity
  8
0
100
AcDbLine
 62
7
  6
CONTINUOUS
 10
17.0038021132
 20
15.2773135753
 11
15.3093378494
 21
9.7940252079
  0
LINE
  5
273
100
AcDbEntity
  8
0
100
AcDbLine
 62
7
  6
CONTINUOUS
 10
17.0144785786
 20
15.2555572264
 11
15.3200143147
 21
9.7722688591
  0
LINE
  5
274
100
AcDbEntity
  8
0
100
AcDbLine
 62
7
  6
CONTINUOUS
 10
15.6222106222
 20
15.2773135753
 11
17.0038021132
 21
15.2773135753
  0
LINE
  5
275
100
AcDbEntity
  8
0
100
AcDbLine
 62
7
  6
CONTINUOUS
 10
17.0144785786
 20
15.2555572264
 11
17.0038021132
 21
15.2773135753
  0
ARC
  5
276
100
AcDbEntity
  8
0
100
AcDbCircle
 62
7
  6
CONTINUOUS
 10
5.7098022748
 20
5.5009532301
 40
0.0208333333
100
AcDbArc
 50
202.5
 51
270.0
  0
ARC
  5
277
100
AcDbEntity
  8
0
100
AcDbCircle
 62
7
  6
CONTINUOUS
 10
5.8009322776
 20
5.5009532301
 40
0.0208333333
100
AcDbArc
 50
270.0
 51
337.5
  0
ARC
  5
278
100
AcDbEntity
  8
0
100
AcDbCircle
 62
7
  6
CONTINUOUS
 10
5.9598022748
 20
5.5009532301
 40
0.0208333333
100
AcDbArc
 50
202.5
 51
270.0
  0
ARC
  5
279
100
AcDbEntity
  8
0
100
AcDbCircle
 62
7
  6
CONTINUOUS
 10
6.0509322776
 20
5.5009532301
 40
0.0208333333
100
AcDbArc
 50
270.0
 51
337.5
  0
ARC
  5
27A
100
AcDbEntity
  8
0
100
AcDbCircle
 62
7
  6
CONTINUOUS
 10
6.2098022748
 20
5.5009532301
 40
0.0208333333
100
AcDbArc
 50
202.5
 51
270.0
  0
ARC
  5
27B
100
AcDbEntity
  8
0
100
AcDbCircle
 62
7
  6
CONTINUOUS
 10
6.3009322776
 20
5.5009532301
 40
0.0208333333
100
AcDbArc
 50
270.0
 51
337.5
  0
ARC
  5
27C
100
AcDbEntity
  8
0
100
AcDbCircle
 62
7
  6
CONTINUOUS
 10
5.5509322776
 20
5.5009532301
 40
0.0208333333
100
AcDbArc
 50
270.0
 51
337.5
  0
ARC
  5
27D
100
AcDbEntity
  8
0
100
AcDbCircle
 62
7
  6
CONTINUOUS
 10
5.4598022748
 20
5.5009532301
 40
0.0208333333
100
AcDbArc
 50
202.5
 51
270.0
  0
ARC
  5
27E
100
AcDbEntity
  8
0
100
AcDbCircle
 62
7
  6
CONTINUOUS
 10
6.8009322776
 20
5.5009532301
 40
0.0208333333
100
AcDbArc
 50
270.0
 51
337.5
  0
ARC
  5
27F
100
AcDbEntity
  8
0
100
AcDbCircle
 62
7
  6
CONTINUOUS
 10
6.7098022748
 20
5.5009532301
 40
0.0208333333
100
AcDbArc
 50
202.5
 51
270.0
  0
ARC
  5
280
100
AcDbEntity
  8
0
100
AcDbCircle
 62
7
  6
CONTINUOUS
 10
6.5509322776
 20
5.5009532301
 40
0.0208333333
100
AcDbArc
 50
270.0
 51
337.5
  0
ARC
  5
281
100
AcDbEntity
  8
0
100
AcDbCircle
 62
7
  6
CONTINUOUS
 10
6.4598022748
 20
5.5009532301
 40
0.0208333333
100
AcDbArc
 50
202.5
 51
270.0
  0
ARC
  5
282
100
AcDbEntity
  8
0
100
AcDbCircle
 62
7
  6
CONTINUOUS
 10
5.592772535
 20
5.5112310079
 40
0.0138888889
100
AcDbArc
 50
90.0
 51
157.5
  0
ARC
  5
283
100
AcDbEntity
  8
0
100
AcDbCircle
 62
7
  6
CONTINUOUS
 10
5.4179620173
 20
5.5112310079
 40
0.0138888889
100
AcDbArc
 50
22.5
 51
90.0
  0
ARC
  5
284
100
AcDbEntity
  8
0
100
AcDbCircle
 62
7
  6
CONTINUOUS
 10
5.842772535
 20
5.5112310079
 40
0.0138888889
100
AcDbArc
 50
90.0
 51
157.5
  0
ARC
  5
285
100
AcDbEntity
  8
0
100
AcDbCircle
 62
7
  6
CONTINUOUS
 10
5.6679620173
 20
5.5112310079
 40
0.0138888889
100
AcDbArc
 50
22.5
 51
90.0
  0
ARC
  5
286
100
AcDbEntity
  8
0
100
AcDbCircle
 62
7
  6
CONTINUOUS
 10
6.092772535
 20
5.5112310079
 40
0.0138888889
100
AcDbArc
 50
90.0
 51
157.5
  0
ARC
  5
287
100
AcDbEntity
  8
0
100
AcDbCircle
 62
7
  6
CONTINUOUS
 10
5.9179620173
 20
5.5112310079
 40
0.0138888889
100
AcDbArc
 50
22.5
 51
90.0
  0
ARC
  5
288
100
AcDbEntity
  8
0
100
AcDbCircle
 62
7
  6
CONTINUOUS
 10
6.342772535
 20
5.5112310079
 40
0.0138888889
100
AcDbArc
 50
90.0
 51
157.5
  0
ARC
  5
289
100
AcDbEntity
  8
0
100
AcDbCircle
 62
7
  6
CONTINUOUS
 10
6.1679620173
 20
5.5112310079
 40
0.0138888889
100
AcDbArc
 50
22.5
 51
90.0
  0
ARC
  5
28A
100
AcDbEntity
  8
0
100
AcDbCircle
 62
7
  6
CONTINUOUS
 10
6.592772535
 20
5.5112310079
 40
0.0138888889
100
AcDbArc
 50
90.0
 51
157.5
  0
ARC
  5
28B
100
AcDbEntity
  8
0
100
AcDbCircle
 62
7
  6
CONTINUOUS
 10
6.4179620173
 20
5.5112310079
 40
0.0138888889
100
AcDbArc
 50
22.5
 51
90.0
  0
ARC
  5
28C
100
AcDbEntity
  8
0
100
AcDbCircle
 62
7
  6
CONTINUOUS
 10
6.842772535
 20
5.5112310079
 40
0.0138888889
100
AcDbArc
 50
90.0
 51
157.5
  0
ARC
  5
28D
100
AcDbEntity
  8
0
100
AcDbCircle
 62
7
  6
CONTINUOUS
 10
6.6679620173
 20
5.5112310079
 40
0.0138888889
100
AcDbArc
 50
22.5
 51
90.0
  0
SPLINE
  5
28E
100
AcDbEntity
  8
0
100
AcDbSpline
 62
7
  6
CONTINUOUS
 70
0
 71
3
 72
11
 73
7
 74
0
 42
0.0000001
 43
0.0000001
 44
0.0000000001
 40
0.0
 40
0.0
 40
0.0
 40
0.0
 40
0.2229693885
 40
0.4585209345
 40
0.7156987727
 40
1.0
 40
1.0
 40
1.0
 40
1.0
 10
14.1250291081
 20
9.7677356956
 30
0.0
 10
14.1251648309
 20
9.7681718159
 30
0.0
 10
14.1255831069
 20
9.7690306344
 30
0.0
 10
14.1265811355
 20
9.7701272447
 30
0.0
 10
14.1279173604
 20
9.7710155613
 30
0.0
 10
14.1289499822
 20
9.7714388162
 30
0.0
 10
14.1295044504
 20
9.7716169785
 30
0.0
  0
SPLINE
  5
28F
100
AcDbEntity
  8
0
100
AcDbSpline
 62
7
  6
CONTINUOUS
 70
0
 71
3
 72
9
 73
5
 74
0
 42
0.0000001
 43
0.0000001
 44
0.0000000001
 40
0.0
 40
0.0
 40
0.0
 40
0.0
 40
0.233940852
 40
1.0
 40
1.0
 40
1.0
 40
1.0
 10
14.1295044504
 20
9.7716169785
 30
0.0
 10
14.129846971
 20
9.7717270375
 30
0.0
 10
14.1313339227
 20
9.772125866
 30
0.0
 10
14.1328829304
 20
9.7722688591
 30
0.0
 10
14.1340610226
 20
9.7722688591
 30
0.0
  0
SPLINE
  5
290
100
AcDbEntity
  8
0
100
AcDbSpline
 62
7
  6
CONTINUOUS
 70
0
 71
3
 72
11
 73
7
 74
0
 42
0.0000001
 43
0.0000001
 44
0.0000000001
 40
0.0
 40
0.0
 40
0.0
 40
0.0
 40
0.2229693885
 40
0.4585209345
 40
0.7156987727
 40
1.0
 40
1.0
 40
1.0
 40
1.0
 10
14.3552943566
 20
9.7677356956
 30
0.0
 10
14.3554300794
 20
9.7681718159
 30
0.0
 10
14.3558483554
 20
9.7690306344
 30
0.0
 10
14.356846384
 20
9.7701272447
 30
0.0
 10
14.3581826089
 20
9.7710155613
 30
0.0
 10
14.3592152307
 20
9.7714388162
 30
0.0
 10
14.3597696989
 20
9.7716169785
 30
0.0
  0
SPLINE
  5
291
100
AcDbEntity
  8
0
100
AcDbSpline
 62
7
  6
CONTINUOUS
 70
0
 71
3
 72
9
 73
5
 74
0
 42
0.0000001
 43
0.0000001
 44
0.0000000001
 40
0.0
 40
0.0
 40
0.0
 40
0.0
 40
0.233940852
 40
1.0
 40
1.0
 40
1.0
 40
1.0
 10
14.3597696989
 20
9.7716169785
 30
0.0
 10
14.3601122195
 20
9.7717270375
 30
0.0
 10
14.3615991712
 20
9.772125866
 30
0.0
 10
14.3631481789
 20
9.7722688591
 30
0.0
 10
14.3643262711
 20
9.7722688591
 30
0.0
  0
SPLINE
  5
292
100
AcDbEntity
  8
0
100
AcDbSpline
 62
7
  6
CONTINUOUS
 70
0
 71
3
 72
11
 73
7
 74
0
 42
0.0000001
 43
0.0000001
 44
0.0000000001
 40
0.0
 40
0.0
 40
0.0
 40
0.0
 40
0.2229693885
 40
0.4585209345
 40
0.7156987727
 40
1.0
 40
1.0
 40
1.0
 40
1.0
 10
14.5855596051
 20
9.7677356956
 30
0.0
 10
14.5856953279
 20
9.7681718159
 30
0.0
 10
14.5861136039
 20
9.7690306344
 30
0.0
 10
14.5871116325
 20
9.7701272447
 30
0.0
 10
14.5884478574
 20
9.7710155613
 30
0.0
 10
14.5894804792
 20
9.7714388162
 30
0.0
 10
14.5900349474
 20
9.7716169785
 30
0.0
  0
SPLINE
  5
293
100
AcDbEntity
  8
0
100
AcDbSpline
 62
7
  6
CONTINUOUS
 70
0
 71
3
 72
9
 73
5
 74
0
 42
0.0000001
 43
0.0000001
 44
0.0000000001
 40
0.0
 40
0.0
 40
0.0
 40
0.0
 40
0.233940852
 40
1.0
 40
1.0
 40
1.0
 40
1.0
 10
14.5900349474
 20
9.7716169785
 30
0.0
 10
14.590377468
 20
9.7717270375
 30
0.0
 10
14.5918644197
 20
9.772125866
 30
0.0
 10
14.5934134274
 20
9.7722688591
 30
0.0
 10
14.5945915196
 20
9.7722688591
 30
0.0
  0
SPLINE
  5
294
100
AcDbEntity
  8
0
100
AcDbSpline
 62
7
  6
CONTINUOUS
 70
0
 71
3
 72
11
 73
7
 74
0
 42
0.0000001
 43
0.0000001
 44
0.0000000001
 40
0.0
 40
0.0
 40
0.0
 40
0.0
 40
0.2229693885
 40
0.4585209345
 40
0.7156987727
 40
1.0
 40
1.0
 40
1.0
 40
1.0
 10
14.8158248536
 20
9.7677356956
 30
0.0
 10
14.8159605764
 20
9.7681718159
 30
0.0
 10
14.8163788524
 20
9.7690306344
 30
0.0
 10
14.817376881
 20
9.7701272447
 30
0.0
 10
14.8187131059
 20
9.7710155613
 30
0.0
 10
14.8197457277
 20
9.7714388162
 30
0.0
 10
14.8203001959
 20
9.7716169785
 30
0.0
  0
SPLINE
  5
295
100
AcDbEntity
  8
0
100
AcDbSpline
 62
7
  6
CONTINUOUS
 70
0
 71
3
 72
9
 73
5
 74
0
 42
0.0000001
 43
0.0000001
 44
0.0000000001
 40
0.0
 40
0.0
 40
0.0
 40
0.0
 40
0.233940852
 40
1.0
 40
1.0
 40
1.0
 40
1.0
 10
14.8203001959
 20
9.7716169785
 30
0.0
 10
14.8206427165
 20
9.7717270375
 30
0.0
 10
14.8221296682
 20
9.772125866
 30
0.0
 10
14.8236786759
 20
9.7722688591
 30
0.0
 10
14.8248567681
 20
9.7722688591
 30
0.0
  0
SPLINE
  5
296
100
AcDbEntity
  8
0
100
AcDbSpline
 62
7
  6
CONTINUOUS
 70
0
 71
3
 72
11
 73
7
 74
0
 42
0.0000001
 43
0.0000001
 44
0.0000000001
 40
0.0
 40
0.0
 40
0.0
 40
0.0
 40
0.2229693885
 40
0.4585209345
 40
0.7156987727
 40
1.0
 40
1.0
 40
1.0
 40
1.0
 10
15.0460901021
 20
9.7677356956
 30
0.0
 10
15.0462258249
 20
9.7681718159
 30
0.0
 10
15.0466441009
 20
9.7690306344
 30
0.0
 10
15.0476421295
 20
9.7701272447
 30
0.0
 10
15.0489783544
 20
9.7710155613
 30
0.0
 10
15.0500109762
 20
9.7714388162
 30
0.0
 10
15.0505654444
 20
9.7716169785
 30
0.0
  0
SPLINE
  5
297
100
AcDbEntity
  8
0
100
AcDbSpline
 62
7
  6
CONTINUOUS
 70
0
 71
3
 72
9
 73
5
 74
0
 42
0.0000001
 43
0.0000001
 44
0.0000000001
 40
0.0
 40
0.0
 40
0.0
 40
0.0
 40
0.233940852
 40
1.0
 40
1.0
 40
1.0
 40
1.0
 10
15.0505654444
 20
9.7716169785
 30
0.0
 10
15.050907965
 20
9.7717270375
 30
0.0
 10
15.0523949167
 20
9.772125866
 30
0.0
 10
15.0539439244
 20
9.7722688591
 30
0.0
 10
15.0551220166
 20
9.7722688591
 30
0.0
  0
SPLINE
  5
298
100
AcDbEntity
  8
0
100
AcDbSpline
 62
7
  6
CONTINUOUS
 70
0
 71
3
 72
11
 73
7
 74
0
 42
0.0000001
 43
0.0000001
 44
0.0000000001
 40
0.0
 40
0.0
 40
0.0
 40
0.0
 40
0.2229693885
 40
0.4585209345
 40
0.7156987727
 40
1.0
 40
1.0
 40
1.0
 40
1.0
 10
15.2763553506
 20
9.7677356956
 30
0.0
 10
15.2764910734
 20
9.7681718159
 30
0.0
 10
15.2769093494
 20
9.7690306344
 30
0.0
 10
15.277907378
 20
9.7701272447
 30
0.0
 10
15.2792436029
 20
9.7710155613
 30
0.0
 10
15.2802762247
 20
9.7714388162
 30
0.0
 10
15.2808306929
 20
9.7716169785
 30
0.0
  0
SPLINE
  5
299
100
AcDbEntity
  8
0
100
AcDbSpline
 62
7
  6
CONTINUOUS
 70
0
 71
3
 72
9
 73
5
 74
0
 42
0.0000001
 43
0.0000001
 44
0.0000000001
 40
0.0
 40
0.0
 40
0.0
 40
0.0
 40
0.233940852
 40
1.0
 40
1.0
 40
1.0
 40
1.0
 10
15.2808306929
 20
9.7716169785
 30
0.0
 10
15.2811732135
 20
9.7717270375
 30
0.0
 10
15.2826601652
 20
9.772125866
 30
0.0
 10
15.2842091729
 20
9.7722688591
 30
0.0
 10
15.2853872651
 20
9.7722688591
 30
0.0
  0
SPLINE
  5
29A
100
AcDbEntity
  8
0
100
AcDbSpline
 62
7
  6
CONTINUOUS
 70
0
 71
3
 72
12
 73
8
 74
0
 42
0.0000001
 43
0.0000001
 44
0.0000000001
 40
0.0
 40
0.0
 40
0.0
 40
0.0
 40
0.3030047926
 40
0.5691021255
 40
0.7965735441
 40
0.9001161588
 40
1.0
 40
1.0
 40
1.0
 40
1.0
 10
14.1092504774
 20
9.7442964105
 30
0.0
 10
14.1108791169
 20
9.7442964105
 30
0.0
 10
14.1139497957
 20
9.7445603988
 30
0.0
 10
14.1180758258
 20
9.7458439964
 30
0.0
 10
14.1207831549
 20
9.7477117338
 30
0.0
 10
14.1221881192
 20
9.7495746912
 30
0.0
 10
14.1226388421
 20
9.7505835237
 30
0.0
 10
14.1227983624
 20
9.7510961491
 30
0.0
  0
SPLINE
  5
29B
100
AcDbEntity
  8
0
100
AcDbSpline
 62
7
  6
CONTINUOUS
 70
0
 71
3
 72
11
 73
7
 74
0
 42
0.0000001
 43
0.0000001
 44
0.0000000001
 40
0.0
 40
0.0
 40
0.0
 40
0.0
 40
0.2358876976
 40
0.4908517604
 40
0.7506177769
 40
1.0
 40
1.0
 40
1.0
 40
1.0
 10
14.0036630032
 20
9.7522907882
 30
0.0
 10
14.0050342479
 20
9.7510492622
 30
0.0
 10
14.0082012751
 20
9.7488059885
 30
0.0
 10
14.0135594838
 20
9.7463063356
 30
0.0
 10
14.0193607123
 20
9.7447051979
 30
0.0
 10
14.0233585817
 20
9.7442964105
 30
0.0
 10
14.0253141865
 20
9.7442964105
 30
0.0
  0
SPLINE
  5
29C
100
AcDbEntity
  8
0
100
AcDbSpline
 62
7
  6
CONTINUOUS
 70
0
 71
3
 72
12
 73
8
 74
0
 42
0.0000001
 43
0.0000001
 44
0.0000000001
 40
0.0
 40
0.0
 40
0.0
 40
0.0
 40
0.3030047926
 40
0.5691021255
 40
0.7965735441
 40
0.9001161588
 40
1.0
 40
1.0
 40
1.0
 40
1.0
 10
15.26057672
 20
9.7442964105
 30
0.0
 10
15.2622053594
 20
9.7442964105
 30
0.0
 10
15.2652760382
 20
9.7445603988
 30
0.0
 10
15.2694020683
 20
9.7458439964
 30
0.0
 10
15.2721093974
 20
9.7477117338
 30
0.0
 10
15.2735143617
 20
9.7495746912
 30
0.0
 10
15.2739650846
 20
9.7505835237
 30
0.0
 10
15.2741246049
 20
9.7510961491
 30
0.0
  0
SPLINE
  5
29D
100
AcDbEntity
  8
0
100
AcDbSpline
 62
7
  6
CONTINUOUS
 70
0
 71
3
 72
11
 73
7
 74
0
 42
0.0000001
 43
0.0000001
 44
0.0000000001
 40
0.0
 40
0.0
 40
0.0
 40
0.0
 40
0.2358876976
 40
0.4908517604
 40
0.7506177769
 40
1.0
 40
1.0
 40
1.0
 40
1.0
 10
15.1549892457
 20
9.7522907882
 30
0.0
 10
15.1563604904
 20
9.7510492622
 30
0.0
 10
15.1595275176
 20
9.7488059885
 30
0.0
 10
15.1648857263
 20
9.7463063356
 30
0.0
 10
15.1706869549
 20
9.7447051979
 30
0.0
 10
15.1746848242
 20
9.7442964105
 30
0.0
 10
15.176640429
 20
9.7442964105
 30
0.0
  0
SPLINE
  5
29E
100
AcDbEntity
  8
0
100
AcDbSpline
 62
7
  6
CONTINUOUS
 70
0
 71
3
 72
12
 73
8
 74
0
 42
0.0000001
 43
0.0000001
 44
0.0000000001
 40
0.0
 40
0.0
 40
0.0
 40
0.0
 40
0.3030047926
 40
0.5691021255
 40
0.7965735441
 40
0.9001161588
 40
1.0
 40
1.0
 40
1.0
 40
1.0
 10
15.0303114715
 20
9.7442964105
 30
0.0
 10
15.0319401109
 20
9.7442964105
 30
0.0
 10
15.0350107897
 20
9.7445603988
 30
0.0
 10
15.0391368198
 20
9.7458439964
 30
0.0
 10
15.0418441489
 20
9.7477117338
 30
0.0
 10
15.0432491132
 20
9.7495746912
 30
0.0
 10
15.0436998361
 20
9.7505835237
 30
0.0
 10
15.0438593564
 20
9.7510961491
 30
0.0
  0
SPLINE
  5
29F
100
AcDbEntity
  8
0
100
AcDbSpline
 62
7
  6
CONTINUOUS
 70
0
 71
3
 72
11
 73
7
 74
0
 42
0.0000001
 43
0.0000001
 44
0.0000000001
 40
0.0
 40
0.0
 40
0.0
 40
0.0
 40
0.2358876976
 40
0.4908517604
 40
0.7506177769
 40
1.0
 40
1.0
 40
1.0
 40
1.0
 10
14.9247239972
 20
9.7522907882
 30
0.0
 10
14.9260952419
 20
9.7510492622
 30
0.0
 10
14.9292622691
 20
9.7488059885
 30
0.0
 10
14.9346204778
 20
9.7463063356
 30
0.0
 10
14.9404217064
 20
9.7447051979
 30
0.0
 10
14.9444195757
 20
9.7442964105
 30
0.0
 10
14.9463751805
 20
9.7442964105
 30
0.0
  0
SPLINE
  5
2A0
100
AcDbEntity
  8
0
100
AcDbSpline
 62
7
  6
CONTINUOUS
 70
0
 71
3
 72
12
 73
8
 74
0
 42
0.0000001
 43
0.0000001
 44
0.0000000001
 40
0.0
 40
0.0
 40
0.0
 40
0.0
 40
0.3030047926
 40
0.5691021255
 40
0.7965735441
 40
0.9001161588
 40
1.0
 40
1.0
 40
1.0
 40
1.0
 10
14.800046223
 20
9.7442964105
 30
0.0
 10
14.8016748624
 20
9.7442964105
 30
0.0
 10
14.8047455412
 20
9.7445603988
 30
0.0
 10
14.8088715713
 20
9.7458439964
 30
0.0
 10
14.8115789004
 20
9.7477117338
 30
0.0
 10
14.8129838647
 20
9.7495746912
 30
0.0
 10
14.8134345876
 20
9.7505835237
 30
0.0
 10
14.8135941079
 20
9.7510961491
 30
0.0
  0
SPLINE
  5
2A1
100
AcDbEntity
  8
0
100
AcDbSpline
 62
7
  6
CONTINUOUS
 70
0
 71
3
 72
11
 73
7
 74
0
 42
0.0000001
 43
0.0000001
 44
0.0000000001
 40
0.0
 40
0.0
 40
0.0
 40
0.0
 40
0.2358876976
 40
0.4908517604
 40
0.7506177769
 40
1.0
 40
1.0
 40
1.0
 40
1.0
 10
14.6944587487
 20
9.7522907882
 30
0.0
 10
14.6958299934
 20
9.7510492622
 30
0.0
 10
14.6989970206
 20
9.7488059885
 30
0.0
 10
14.7043552293
 20
9.7463063356
 30
0.0
 10
14.7101564579
 20
9.7447051979
 30
0.0
 10
14.7141543272
 20
9.7442964105
 30
0.0
 10
14.716109932
 20
9.7442964105
 30
0.0
  0
SPLINE
  5
2A2
100
AcDbEntity
  8
0
100
AcDbSpline
 62
7
  6
CONTINUOUS
 70
0
 71
3
 72
12
 73
8
 74
0
 42
0.0000001
 43
0.0000001
 44
0.0000000001
 40
0.0
 40
0.0
 40
0.0
 40
0.0
 40
0.3030047926
 40
0.5691021255
 40
0.7965735441
 40
0.9001161588
 40
1.0
 40
1.0
 40
1.0
 40
1.0
 10
14.5697809744
 20
9.7442964105
 30
0.0
 10
14.5714096139
 20
9.7442964105
 30
0.0
 10
14.5744802927
 20
9.7445603988
 30
0.0
 10
14.5786063228
 20
9.7458439964
 30
0.0
 10
14.5813136519
 20
9.7477117338
 30
0.0
 10
14.5827186162
 20
9.7495746912
 30
0.0
 10
14.5831693391
 20
9.7505835237
 30
0.0
 10
14.5833288594
 20
9.7510961491
 30
0.0
  0
SPLINE
  5
2A3
100
AcDbEntity
  8
0
100
AcDbSpline
 62
7
  6
CONTINUOUS
 70
0
 71
3
 72
11
 73
7
 74
0
 42
0.0000001
 43
0.0000001
 44
0.0000000001
 40
0.0
 40
0.0
 40
0.0
 40
0.0
 40
0.2358876976
 40
0.4908517604
 40
0.7506177769
 40
1.0
 40
1.0
 40
1.0
 40
1.0
 10
14.4641935002
 20
9.7522907882
 30
0.0
 10
14.4655647449
 20
9.7510492622
 30
0.0
 10
14.4687317721
 20
9.7488059885
 30
0.0
 10
14.4740899808
 20
9.7463063356
 30
0.0
 10
14.4798912094
 20
9.7447051979
 30
0.0
 10
14.4838890787
 20
9.7442964105
 30
0.0
 10
14.4858446835
 20
9.7442964105
 30
0.0
  0
SPLINE
  5
2A4
100
AcDbEntity
  8
0
100
AcDbSpline
 62
7
  6
CONTINUOUS
 70
0
 71
3
 72
12
 73
8
 74
0
 42
0.0000001
 43
0.0000001
 44
0.0000000001
 40
0.0
 40
0.0
 40
0.0
 40
0.0
 40
0.3030047926
 40
0.5691021255
 40
0.7965735441
 40
0.9001161588
 40
1.0
 40
1.0
 40
1.0
 40
1.0
 10
14.3395157259
 20
9.7442964105
 30
0.0
 10
14.3411443654
 20
9.7442964105
 30
0.0
 10
14.3442150442
 20
9.7445603988
 30
0.0
 10
14.3483410743
 20
9.7458439964
 30
0.0
 10
14.3510484034
 20
9.7477117338
 30
0.0
 10
14.3524533677
 20
9.7495746912
 30
0.0
 10
14.3529040906
 20
9.7505835237
 30
0.0
 10
14.3530636109
 20
9.7510961491
 30
0.0
  0
SPLINE
  5
2A5
100
AcDbEntity
  8
0
100
AcDbSpline
 62
7
  6
CONTINUOUS
 70
0
 71
3
 72
11
 73
7
 74
0
 42
0.0000001
 43
0.0000001
 44
0.0000000001
 40
0.0
 40
0.0
 40
0.0
 40
0.0
 40
0.2358876976
 40
0.4908517604
 40
0.7506177769
 40
1.0
 40
1.0
 40
1.0
 40
1.0
 10
14.2339282517
 20
9.7522907882
 30
0.0
 10
14.2352994964
 20
9.7510492622
 30
0.0
 10
14.2384665236
 20
9.7488059885
 30
0.0
 10
14.2438247323
 20
9.7463063356
 30
0.0
 10
14.2496259609
 20
9.7447051979
 30
0.0
 10
14.2536238302
 20
9.7442964105
 30
0.0
 10
14.255579435
 20
9.7442964105
 30
0.0
  0
SPLINE
  5
2A6
100
AcDbEntity
  8
0
100
AcDbSpline
 62
7
  6
CONTINUOUS
 70
0
 71
3
 72
11
 73
7
 74
0
 42
0.0000001
 43
0.0000001
 44
0.0000000001
 40
0.0
 40
0.0
 40
0.0
 40
0.0
 40
0.2493923391
 40
0.5091777233
 40
0.7641307014
 40
1.0
 40
1.0
 40
1.0
 40
1.0
 10
13.9730498734
 20
9.7722688591
 30
0.0
 10
13.974353663
 20
9.7722688591
 30
0.0
 10
13.9770190653
 20
9.771996285
 30
0.0
 10
13.9808866167
 20
9.7709287621
 30
0.0
 10
13.9844587485
 20
9.7692624189
 30
0.0
 10
13.9865699035
 20
9.7677668935
 30
0.0
 10
13.9874839956
 20
9.7669392739
 30
0.0
  0
SPLINE
  5
2A7
100
AcDbEntity
  8
0
100
AcDbSpline
 62
7
  6
CONTINUOUS
 70
0
 71
3
 72
11
 73
7
 74
0
 42
0.0000001
 43
0.0000001
 44
0.0000000001
 40
0.0
 40
0.0
 40
0.0
 40
0.0
 40
0.2493923391
 40
0.5091777233
 40
0.7641307014
 40
1.0
 40
1.0
 40
1.0
 40
1.0
 10
14.2033151219
 20
9.7722688591
 30
0.0
 10
14.2046189115
 20
9.7722688591
 30
0.0
 10
14.2072843138
 20
9.771996285
 30
0.0
 10
14.2111518652
 20
9.7709287621
 30
0.0
 10
14.214723997
 20
9.7692624189
 30
0.0
 10
14.216835152
 20
9.7677668935
 30
0.0
 10
14.2177492441
 20
9.7669392739
 30
0.0
  0
SPLINE
  5
2A8
100
AcDbEntity
  8
0
100
AcDbSpline
 62
7
  6
CONTINUOUS
 70
0
 71
3
 72
11
 73
7
 74
0
 42
0.0000001
 43
0.0000001
 44
0.0000000001
 40
0.0
 40
0.0
 40
0.0
 40
0.0
 40
0.2493923391
 40
0.5091777233
 40
0.7641307014
 40
1.0
 40
1.0
 40
1.0
 40
1.0
 10
14.4335803704
 20
9.7722688591
 30
0.0
 10
14.43488416
 20
9.7722688591
 30
0.0
 10
14.4375495623
 20
9.771996285
 30
0.0
 10
14.4414171137
 20
9.7709287621
 30
0.0
 10
14.4449892455
 20
9.7692624189
 30
0.0
 10
14.4471004005
 20
9.7677668935
 30
0.0
 10
14.4480144926
 20
9.7669392739
 30
0.0
  0
SPLINE
  5
2A9
100
AcDbEntity
  8
0
100
AcDbSpline
 62
7
  6
CONTINUOUS
 70
0
 71
3
 72
11
 73
7
 74
0
 42
0.0000001
 43
0.0000001
 44
0.0000000001
 40
0.0
 40
0.0
 40
0.0
 40
0.0
 40
0.2493923391
 40
0.5091777233
 40
0.7641307014
 40
1.0
 40
1.0
 40
1.0
 40
1.0
 10
14.6638456189
 20
9.7722688591
 30
0.0
 10
14.6651494085
 20
9.7722688591
 30
0.0
 10
14.6678148108
 20
9.771996285
 30
0.0
 10
14.6716823622
 20
9.7709287621
 30
0.0
 10
14.675254494
 20
9.7692624189
 30
0.0
 10
14.677365649
 20
9.7677668935
 30
0.0
 10
14.6782797411
 20
9.7669392739
 30
0.0
  0
SPLINE
  5
2AA
100
AcDbEntity
  8
0
100
AcDbSpline
 62
7
  6
CONTINUOUS
 70
0
 71
3
 72
11
 73
7
 74
0
 42
0.0000001
 43
0.0000001
 44
0.0000000001
 40
0.0
 40
0.0
 40
0.0
 40
0.0
 40
0.2493923391
 40
0.5091777233
 40
0.7641307014
 40
1.0
 40
1.0
 40
1.0
 40
1.0
 10
14.8941108674
 20
9.7722688591
 30
0.0
 10
14.895414657
 20
9.7722688591
 30
0.0
 10
14.8980800593
 20
9.771996285
 30
0.0
 10
14.9019476107
 20
9.7709287621
 30
0.0
 10
14.9055197425
 20
9.7692624189
 30
0.0
 10
14.9076308975
 20
9.7677668935
 30
0.0
 10
14.9085449896
 20
9.7669392739
 30
0.0
  0
SPLINE
  5
2AB
100
AcDbEntity
  8
0
100
AcDbSpline
 62
7
  6
CONTINUOUS
 70
0
 71
3
 72
11
 73
7
 74
0
 42
0.0000001
 43
0.0000001
 44
0.0000000001
 40
0.0
 40
0.0
 40
0.0
 40
0.0
 40
0.2493923391
 40
0.5091777233
 40
0.7641307014
 40
1.0
 40
1.0
 40
1.0
 40
1.0
 10
15.1243761159
 20
9.7722688591
 30
0.0
 10
15.1256799055
 20
9.7722688591
 30
0.0
 10
15.1283453078
 20
9.771996285
 30
0.0
 10
15.1322128592
 20
9.7709287621
 30
0.0
 10
15.135784991
 20
9.7692624189
 30
0.0
 10
15.137896146
 20
9.7677668935
 30
0.0
 10
15.1388102381
 20
9.7669392739
 30
0.0
  0
ENDSEC
  0
SECTION
  2
OBJECTS
  0
DICTIONARY
  5
C
100
AcDbDictionary
280
0
281
1
  3
ACAD_GROUP
350
D
  3
ACAD_MLINESTYLE
350
17
  3
ACAD_LAYOUT
350
1A
  3
ACAD_PLOTSETTINGS
350
19
  3
ACAD_PLOTSTYLENAME
350
E
  0
DICTIONARY
  5
D
102
{ACAD_REACTORS
330
C
102
}
100
AcDbDictionary
280
0
281
1
  0
ACDBDICTIONARYWDFLT
  5
E
102
{ACAD_REACTORS
330
C
102
}
100
AcDbDictionary
281
1
  3
Normal
350
F
100
AcDbDictionaryWithDefault
340
F
  0
DICTIONARY
  5
17
102
{ACAD_REACTORS
330
C
102
}
100
AcDbDictionary
280
0
281
1
  3
Standard
350
18
  0
DICTIONARY
  5
19
102
{ACAD_REACTORS
330
C
102
}
100
AcDbDictionary
281
1
  0
DICTIONARY
  5
1A
102
{ACAD_REACTORS
330
C
102
}
100
AcDbDictionary
281
1
  3
Model
350
2AC
  3
Layout1
350
2AD
  0
ACDBPLACEHOLDER
  5
F
102
{ACAD_REACTORS
330
E
102
}
  0
MLINESTYLE
  5
18
102
{ACAD_REACTORS
330
17
102
}
100
AcDbMlineStyle
  2
STANDARD
 70
0
  3

 62
256
 51
90.0
 52
90.0
 71
2
 49
0.5
 62
256
  6
BYLAYER
 49
-0.5
 62
256
  6
BYLAYER
  0
LAYOUT
  5
2AC
102
{ACAD_REACTORS
330
1A
102
}
100
AcDbPlotSettings
  1

  2
none_device
  4
ANSI_C_(22.00_x_17.00_Inches)
  6

 40
0.0
 41
0.0
 42
0.0
 43
0.0
 44
558.8
 45
431.8
 46
0.0
 47
0.0
 48
0.0
 49
0.0
140
0.0
141
0.0
142
1.0
143
1.0
 70
1024
 72
0
 73
0
 74
0
  7

 75
0
147
1.0
148
0.0
149
0.0
100
AcDbLayout
  1
Model
 70
0
 71
0
 10
0.0
 20
0.0
 11
22.0
 21
17.0
 12
0.0
 22
0.0
 32
0.0
 14
0.0
 24
0.0
 34
0.0
 15
0.0
 25
0.0
 35
0.0
146
0.0
 13
0.0
 23
0.0
 33
0.0
 16
1.0
 26
0.0
 36
0.0
 17
0.0
 27
1.0
 37
0.0
 76
0
330
216
345
0
346
0
  0
LAYOUT
  5
2AD
102
{ACAD_REACTORS
330
1A
102
}
100
AcDbPlotSettings
  1

  2
none_device
  4
ANSI_C_(22.00_x_17.00_Inches)
  6

 40
0.0
 41
0.0
 42
0.0
 43
0.0
 44
558.8
 45
431.8
 46
0.0
 47
0.0
 48
0.0
 49
0.0
140
0.0
141
0.0
142
1.0
143
1.0
 70
0
 72
0
 73
0
 74
0
  7

 75
0
147
1.0
148
0.0
149
0.0
100
AcDbLayout
  1
Layout1
 70
0
 71
1
 10
0.0
 20
0.0
 11
22.0
 21
17.0
 12
0.0
 22
0.0
 32
0.0
 14
0.0
 24
0.0
 34
0.0
 15
0.0
 25
0.0
 35
0.0
146
0.0
 13
0.0
 23
0.0
 33
0.0
 16
1.0
 26
0.0
 36
0.0
 17
0.0
 27
1.0
 37
0.0
 76
0
330
217
345
0
346
0
  0
ENDSEC
  0
EOF