999
DXF file: _cgs_temp_output.dxf
999
Pro/ENGINEER 2015110 by Parametric Technology Corporation
  0
SECTION
  2
HEADER
  9
$ACADVER
  1
AC1021
  9
$DWGCODEPAGE
  3
ANSI_1252
  9
$EXTMAX
 10
22.0
 20
17.0
 30
0.0
  9
$EXTMIN
 10
0.0
 20
0.0
 30
0.0
  9
$LIMMIN
 10
0.0
 20
0.0
  9
$LIMMAX
 10
22.0
 20
17.0
  9
$VIEWCTR
 10
11.0
 20
8.5
  9
$VIEWSIZE
 40
17.0
  9
$CLAYER
  8
0
  9
$LTSCALE
 40
1.21
  9
$CELTYPE
  6
BYLAYER
  9
$DIMSCALE
 40
1.0
  9
$DIMASZ
 40
0.1875
  9
$DIMEXO
 40
0.0625
  9
$DIMDLI
 40
0.836
  9
$DIMEXE
 40
0.125
  9
$DIMCEN
 40
0.198
  9
$DIMLFAC
 40
1.0
  9
$DIMBLK
  1
_CLOSED
  9
$DIMALT
 70
0
  9
$DIMALTF
 40
25.4
  9
$DIMTXT
 40
0.15625
  9
$DIMTOL
 70
0
  9
$DIMLIM
 70
0
  9
$DIMTFAC
 40
1.0
  9
$DIMGAP
 40
0.09
  9
$DIMDSEP
 70
46
  9
$AUNITS
 70
0
  9
$PDMODE
 70
3
  9
$PDSIZE
 40
0.3125
  9
$HANDSEED
  5
345
  9
$TILEMODE
 70
1
  9
$MEASUREMENT
 70
0
  9
$INSUNITS
 70
1
  0
ENDSEC
  0
SECTION
  2
CLASSES
  0
CLASS
  1
ACDBDICTIONARYWDFLT
  2
AcDbDictionaryWithDefault
  3
AutoCAD 2000
 90
0
 91
1
280
0
281
0
  0
CLASS
  1
ACDBPLACEHOLDER
  2
AcDbPlaceHolder
  3
AutoCAD 2000
 90
0
 91
1
280
0
281
0
  0
CLASS
  1
LAYOUT
  2
AcDbLayout
  3
AutoCAD 2000
 90
0
 91
0
280
0
281
0
  0
ENDSEC
  0
SECTION
  2
TABLES
  0
TABLE
  2
VPORT
  5
8
100
AcDbSymbolTable
 70
2
  0
VPORT
  5
1F4
100
AcDbSymbolTableRecord
100
AcDbViewportTableRecord
  2
*ACTIVE
 70
0
 10
0.0
 20
0.0
 11
1.0
 21
1.0
 12
11.0
 22
8.5
 13
0.0
 23
0.0
 14
1.0
 24
1.0
 15
0.0
 25
0.0
 16
0.0
 26
0.0
 36
1.0
 17
0.0
 27
0.0
 37
0.0
 40
17.0
 41
1.2941176471
 42
50.0
 43
0.0
 44
0.0
 50
0.0
 51
0.0
 71
0
 72
100
 73
1
 74
1
 75
0
 76
0
 77
0
 78
0
  0
ENDTAB
  0
TABLE
  2
LTYPE
  5
5
100
AcDbSymbolTable
 70
6
  0
LTYPE
  5
14
100
AcDbSymbolTableRecord
100
AcDbLinetypeTableRecord
  2
BYBLOCK
 70
0
  3

 72
65
 73
0
 40
0.0
  0
LTYPE
  5
15
100
AcDbSymbolTableRecord
100
AcDbLinetypeTableRecord
  2
BYLAYER
 70
0
  3

 72
65
 73
0
 40
0.0
  0
LTYPE
  5
16
100
AcDbSymbolTableRecord
100
AcDbLinetypeTableRecord
  2
CONTINUOUS
 70
64
  3
Solid line
 72
65
 73
0
 40
0.0
  0
LTYPE
  5
1F5
100
AcDbSymbolTableRecord
100
AcDbLinetypeTableRecord
  2
CENTER
 70
64
  3
____ _ ____ _ ____ _ ____ _ ____ _ ____ _ ____
 72
65
 73
4
 40
0.6
 49
0.375
 74
0
 49
-0.075
 74
0
 49
0.075
 74
0
 49
-0.075
 74
0
  0
LTYPE
  5
1F6
100
AcDbSymbolTableRecord
100
AcDbLinetypeTableRecord
  2
HIDDEN
 70
64
  3
- - - - - - - - - - - - - - - - - - - -
 72
65
 73
2
 40
0.2
 49
0.1
 74
0
 49
-0.1
 74
0
  0
LTYPE
  5
1F7
100
AcDbSymbolTableRecord
100
AcDbLinetypeTableRecord
  2
PHANTOM
 70
64
  3
_____ _ _ _____ _ _ _____ _ _ _____
 72
65
 73
6
 40
0.8
 49
0.45
 74
0
 49
-0.05
 74
0
 49
0.1
 74
0
 49
-0.05
 74
0
 49
0.1
 74
0
 49
-0.05
 74
0
  0
LTYPE
  5
1F8
100
AcDbSymbolTableRecord
100
AcDbLinetypeTableRecord
  2
DOT
 70
64
  3
. . . . . . . . . . . . . . . . . . . .
 72
65
 73
2
 40
0.2
 49
0.1
 74
0
 49
-0.1
 74
0
  0
LTYPE
  5
1F9
100
AcDbSymbolTableRecord
100
AcDbLinetypeTableRecord
  2
DASHED
 70
64
  3
- - - - - - - - - - - - - - - - - - - -
 72
65
 73
2
 40
0.2
 49
0.1
 74
0
 49
-0.1
 74
0
  0
ENDTAB
  0
TABLE
  2
LAYER
  5
2
100
AcDbSymbolTable
 70
36
  0
LAYER
  5
10
100
AcDbSymbolTableRecord
100
AcDbLayerTableRecord
  2
0
 70
0
 62
7
  6
CONTINUOUS
370
-3
390
F
  0
LAYER
  5
1FA
100
AcDbSymbolTableRecord
100
AcDbLayerTableRecord
  2
DEFAULT_1
 70
0
 62
7
  6
CENTER
370
-3
390
F
  0
LAYER
  5
1FB
100
AcDbSymbolTableRecord
100
AcDbLayerTableRecord
  2
DEFAULT_2
 70
0
 62
8
  6
HIDDEN
370
-3
390
F
  0
LAYER
  5
1FC
100
AcDbSymbolTableRecord
100
AcDbLayerTableRecord
  2
DEFAULT_3
 70
0
 62
7
  6
PHANTOM
370
-3
390
F
  0
LAYER
  5
1FD
100
AcDbSymbolTableRecord
100
AcDbLayerTableRecord
  2
01_ALL_DTM_PLN
 70
0
 62
7
  6
CONTINUOUS
370
-3
390
F
  0
LAYER
  5
1FE
100
AcDbSymbolTableRecord
100
AcDbLayerTableRecord
  2
01__ASM_ALL_DTM_PLN
 70
0
 62
7
  6
CONTINUOUS
370
-3
390
F
  0
LAYER
  5
1FF
100
AcDbSymbolTableRecord
100
AcDbLayerTableRecord
  2
01__ASM_DEF_DTM_PLN
 70
0
 62
7
  6
CONTINUOUS
370
-3
390
F
  0
LAYER
  5
200
100
AcDbSymbolTableRecord
100
AcDbLayerTableRecord
  2
01___PRT_ALL_DTM_PLN
 70
0
 62
7
  6
CONTINUOUS
370
-3
390
F
  0
LAYER
  5
201
100
AcDbSymbolTableRecord
100
AcDbLayerTableRecord
  2
01___PRT_DEF_DTM_PLN
 70
0
 62
7
  6
CONTINUOUS
370
-3
390
F
  0
LAYER
  5
202
100
AcDbSymbolTableRecord
100
AcDbLayerTableRecord
  2
02_ALL_AXES
 70
0
 62
7
  6
CONTINUOUS
370
-3
390
F
  0
LAYER
  5
203
100
AcDbSymbolTableRecord
100
AcDbLayerTableRecord
  2
02__ASM_ALL_AXES
 70
0
 62
7
  6
CONTINUOUS
370
-3
390
F
  0
LAYER
  5
204
100
AcDbSymbolTableRecord
100
AcDbLayerTableRecord
  2
02___PRT_ALL_AXES
 70
0
 62
7
  6
CONTINUOUS
370
-3
390
F
  0
LAYER
  5
205
100
AcDbSymbolTableRecord
100
AcDbLayerTableRecord
  2
03_ALL_CURVES
 70
0
 62
7
  6
CONTINUOUS
370
-3
390
F
  0
LAYER
  5
206
100
AcDbSymbolTableRecord
100
AcDbLayerTableRecord
  2
03__ASM_ALL_CURVES
 70
0
 62
7
  6
CONTINUOUS
370
-3
390
F
  0
LAYER
  5
207
100
AcDbSymbolTableRecord
100
AcDbLayerTableRecord
  2
03___PRT_ALL_CURVES
 70
0
 62
7
  6
CONTINUOUS
370
-3
390
F
  0
LAYER
  5
208
100
AcDbSymbolTableRecord
100
AcDbLayerTableRecord
  2
04_ALL_DTM_PNT
 70
0
 62
7
  6
CONTINUOUS
370
-3
390
F
  0
LAYER
  5
209
100
AcDbSymbolTableRecord
100
AcDbLayerTableRecord
  2
04__ASM_ALL_DTM_PNT
 70
0
 62
7
  6
CONTINUOUS
370
-3
390
F
  0
LAYER
  5
20A
100
AcDbSymbolTableRecord
100
AcDbLayerTableRecord
  2
04___PRT_ALL_DTM_PNT
 70
0
 62
7
  6
CONTINUOUS
370
-3
390
F
  0
LAYER
  5
20B
100
AcDbSymbolTableRecord
100
AcDbLayerTableRecord
  2
05_ALL_DTM_CSYS
 70
0
 62
7
  6
CONTINUOUS
370
-3
390
F
  0
LAYER
  5
20C
100
AcDbSymbolTableRecord
100
AcDbLayerTableRecord
  2
05__ASM_ALL_DTM_CSYS
 70
0
 62
7
  6
CONTINUOUS
370
-3
390
F
  0
LAYER
  5
20D
100
AcDbSymbolTableRecord
100
AcDbLayerTableRecord
  2
05__ASM_DEF_DTM_CSYS
 70
0
 62
7
  6
CONTINUOUS
370
-3
390
F
  0
LAYER
  5
20E
100
AcDbSymbolTableRecord
100
AcDbLayerTableRecord
  2
05___PRT_ALL_DTM_CSYS
 70
0
 62
7
  6
CONTINUOUS
370
-3
390
F
  0
LAYER
  5
20F
100
AcDbSymbolTableRecord
100
AcDbLayerTableRecord
  2
05___PRT_DEF_DTM_CSYS
 70
0
 62
7
  6
CONTINUOUS
370
-3
390
F
  0
LAYER
  5
210
100
AcDbSymbolTableRecord
100
AcDbLayerTableRecord
  2
06_ALL_SURFS
 70
0
 62
7
  6
CONTINUOUS
370
-3
390
F
  0
LAYER
  5
211
100
AcDbSymbolTableRecord
100
AcDbLayerTableRecord
  2
06__ASM_ALL_SURFS
 70
0
 62
7
  6
CONTINUOUS
370
-3
390
F
  0
LAYER
  5
212
100
AcDbSymbolTableRecord
100
AcDbLayerTableRecord
  2
06___PRT_ALL_SURFS
 70
0
 62
7
  6
CONTINUOUS
370
-3
390
F
  0
LAYER
  5
213
100
AcDbSymbolTableRecord
100
AcDbLayerTableRecord
  2
07__ASM_ALL_SKELETONS
 70
0
 62
7
  6
CONTINUOUS
370
-3
390
F
  0
ENDTAB
  0
TABLE
  2
STYLE
  5
3
100
AcDbSymbolTable
 70
1
  0
STYLE
  5
11
100
AcDbSymbolTableRecord
100
AcDbTextStyleTableRecord
  2
STANDARD
 70
0
 40
0.0
 41
0.8
 50
0.0
 71
0
 42
0.2
  3
txt
  4

  0
STYLE
  5
214
100
AcDbSymbolTableRecord
100
AcDbTextStyleTableRecord
  2
TEXTSTYLE_1
 70
0
 40
0.0
 41
0.8
 50
0.0
 71
0
 42
0.2
  3
gdt
  4

  0
ENDTAB
  0
TABLE
  2
VIEW
  5
6
100
AcDbSymbolTable
 70
0
  0
ENDTAB
  0
TABLE
  2
UCS
  5
7
100
AcDbSymbolTable
 70
0
  0
ENDTAB
  0
TABLE
  2
APPID
  5
9
100
AcDbSymbolTable
 70
1
  0
APPID
  5
215
100
AcDbSymbolTableRecord
100
AcDbRegAppTableRecord
  2
ACAD
 70
0
  0
ENDTAB
  0
TABLE
  2
BLOCK_RECORD
  5
1
100
AcDbSymbolTable
 70
0
  0
BLOCK_RECORD
  5
216
100
AcDbSymbolTableRecord
100
AcDbBlockTableRecord
  2
*Model_Space
  0
BLOCK_RECORD
  5
217
100
AcDbSymbolTableRecord
100
AcDbBlockTableRecord
  2
*Paper_Space
  0
ENDTAB
  0
TABLE
  2
DIMSTYLE
  5
A
100
AcDbSymbolTable
 70
1
100
AcDbDimStyleTable
 71
0
  0
DIMSTYLE
105
218
100
AcDbSymbolTableRecord
100
AcDbDimStyleTableRecord
  2
STANDARD
 70
0
  3

  4

 40
1.0
 41
0.1875
 42
0.0625
 43
0.38
 44
0.125
 45
0.0
 46
0.0
 47
0.0001
 48
0.0001
140
0.15625
141
0.09
142
0.0
143
25.4
144
1.0
145
0.0
146
1.0
147
0.09
 71
0.0
 72
0.0
 73
1
 74
1
 75
0
 76
0
 77
0
 78
4
170
0
171
2
172
0
173
0
174
0
175
0
176
0
177
0
178
0
270
2
271
4
272
4
273
2
274
2
275
0
280
0
281
0
282
0
283
1
284
4
285
0
286
0
287
3
288
0
340
11
278
46
  0
ENDTAB
  0
ENDSEC
  0
SECTION
  2
BLOCKS
  0
BLOCK
  5
20
100
AcDbEntity
  8
0
100
AcDbBlockBegin
  2
*Model_Space
 70
0
 10
0.0
 20
0.0
 30
0.0
  3
*Model_Space
  1

  0
ENDBLK
  5
21
100
AcDbEntity
  8
0
100
AcDbBlockEnd
  0
BLOCK
  5
1C
100
AcDbEntity
  8
0
100
AcDbBlockBegin
  2
*Paper_Space
 70
0
 10
0.0
 20
0.0
 30
0.0
  3
*Paper_Space
  1

  0
ENDBLK
  5
1D
100
AcDbEntity
  8
0
100
AcDbBlockEnd
  0
ENDSEC
  0
SECTION
  2
ENTITIES
  0
MTEXT
  5
219
100
AcDbEntity
  8
0
100
AcDbMText
 62
7
  6
CONTINUOUS
  7
STANDARD
 71
1
 72
1
 10
15.9560215477
 20
0.9479130325
 30
0.0
 11
1.0
 21
0.0
 31
0.0
 44
0.9
  1
SCALE: 1:1.000
 40
0.3
 41
3.36
  0
LINE
  5
21A
100
AcDbEntity
  8
0
100
AcDbLine
 62
7
  6
CONTINUOUS
 10
0.0
 20
0.0
 11
0.0
 21
17.0
  0
LINE
  5
21B
100
AcDbEntity
  8
0
100
AcDbLine
 62
7
  6
CONTINUOUS
 10
0.0
 20
0.0
 11
22.0
 21
0.0
  0
LINE
  5
21C
100
AcDbEntity
  8
0
100
AcDbLine
 62
7
  6
CONTINUOUS
 10
0.0
 20
17.0
 11
22.0
 21
17.0
  0
LINE
  5
21D
100
AcDbEntity
  8
0
100
AcDbLine
 62
7
  6
CONTINUOUS
 10
22.0
 20
0.0
 11
22.0
 21
17.0
  0
LINE
  5
21E
100
AcDbEntity
  8
0
100
AcDbLine
 62
7
  6
CONTINUOUS
 10
4.4768239691
 20
5.5716946999
 11
4.4768239691
 21
5.4685450936
  0
LINE
  5
21F
100
AcDbEntity
  8
0
100
AcDbLine
 62
7
  6
CONTINUOUS
 10
4.7262521146
 20
5.2248443062
 11
4.7785769259
 21
5.2248443062
  0
LINE
  5
220
100
AcDbEntity
  8
0
100
AcDbLine
 62
7
  6
CONTINUOUS
 10
5.277433217
 20
5.2248443062
 11
5.3297580283
 21
5.2248443062
  0
LINE
  5
221
100
AcDbEntity
  8
0
100
AcDbLine
 62
7
  6
CONTINUOUS
 10
5.8286143193
 20
5.2248443062
 11
5.8809391306
 21
5.2248443062
  0
LINE
  5
222
100
AcDbEntity
  8
0
100
AcDbLine
 62
7
  6
CONTINUOUS
 10
6.3797954217
 20
5.2248443062
 11
6.432120233
 21
5.2248443062
  0
LINE
  5
223
100
AcDbEntity
  8
0
100
AcDbLine
 62
7
  6
CONTINUOUS
 10
6.9309765241
 20
5.2248443062
 11
6.9833013354
 21
5.2248443062
  0
LINE
  5
224
100
AcDbEntity
  8
0
100
AcDbLine
 62
7
  6
CONTINUOUS
 10
7.4821576264
 20
5.2248443062
 11
7.5344824377
 21
5.2248443062
  0
LINE
  5
225
100
AcDbEntity
  8
0
100
AcDbLine
 62
7
  6
CONTINUOUS
 10
4.4768239691
 20
5.4685450936
 11
4.5098572953
 21
5.4685450936
  0
LINE
  5
226
100
AcDbEntity
  8
0
100
AcDbLine
 62
7
  6
CONTINUOUS
 10
4.9949717453
 20
5.4685450936
 11
5.0610383976
 21
5.4685450936
  0
LINE
  5
227
100
AcDbEntity
  8
0
100
AcDbLine
 62
7
  6
CONTINUOUS
 10
5.5461528476
 20
5.4685450936
 11
5.6122195
 21
5.4685450936
  0
LINE
  5
228
100
AcDbEntity
  8
0
100
AcDbLine
 62
7
  6
CONTINUOUS
 10
6.09733395
 20
5.4685450936
 11
6.1634006024
 21
5.4685450936
  0
LINE
  5
229
100
AcDbEntity
  8
0
100
AcDbLine
 62
7
  6
CONTINUOUS
 10
6.6485150523
 20
5.4685450936
 11
6.7145817047
 21
5.4685450936
  0
LINE
  5
22A
100
AcDbEntity
  8
0
100
AcDbLine
 62
7
  6
CONTINUOUS
 10
7.1996961547
 20
5.4685450936
 11
7.2657628071
 21
5.4685450936
  0
LINE
  5
22B
100
AcDbEntity
  8
0
100
AcDbLine
 62
7
  6
CONTINUOUS
 10
7.7508772571
 20
5.4685450936
 11
7.7839105833
 21
5.4685450936
  0
LINE
  5
22C
100
AcDbEntity
  8
0
100
AcDbLine
 62
7
  6
CONTINUOUS
 10
7.7839105833
 20
5.5716946999
 11
7.7508772571
 21
5.5716946999
  0
LINE
  5
22D
100
AcDbEntity
  8
0
100
AcDbLine
 62
7
  6
CONTINUOUS
 10
7.2657628071
 20
5.5716946999
 11
7.1996961547
 21
5.5716946999
  0
LINE
  5
22E
100
AcDbEntity
  8
0
100
AcDbLine
 62
7
  6
CONTINUOUS
 10
6.7145817047
 20
5.5716946999
 11
6.6485150523
 21
5.5716946999
  0
LINE
  5
22F
100
AcDbEntity
  8
0
100
AcDbLine
 62
7
  6
CONTINUOUS
 10
6.1634006024
 20
5.5716946999
 11
6.09733395
 21
5.5716946999
  0
LINE
  5
230
100
AcDbEntity
  8
0
100
AcDbLine
 62
7
  6
CONTINUOUS
 10
5.6122195
 20
5.5716946999
 11
5.5461528476
 21
5.5716946999
  0
LINE
  5
231
100
AcDbEntity
  8
0
100
AcDbLine
 62
7
  6
CONTINUOUS
 10
5.0610383976
 20
5.5716946999
 11
4.9949717453
 21
5.5716946999
  0
LINE
  5
232
100
AcDbEntity
  8
0
100
AcDbLine
 62
7
  6
CONTINUOUS
 10
4.5098572953
 20
5.5716946999
 11
4.4768239691
 21
5.5716946999
  0
LINE
  5
233
100
AcDbEntity
  8
0
100
AcDbLine
 62
7
  6
CONTINUOUS
 10
7.5344824377
 20
5.8153954873
 11
7.4821576264
 21
5.8153954873
  0
LINE
  5
234
100
AcDbEntity
  8
0
100
AcDbLine
 62
7
  6
CONTINUOUS
 10
6.9833013354
 20
5.8153954873
 11
6.9309765241
 21
5.8153954873
  0
LINE
  5
235
100
AcDbEntity
  8
0
100
AcDbLine
 62
7
  6
CONTINUOUS
 10
6.432120233
 20
5.8153954873
 11
6.3797954217
 21
5.8153954873
  0
LINE
  5
236
100
AcDbEntity
  8
0
100
AcDbLine
 62
7
  6
CONTINUOUS
 10
5.8809391306
 20
5.8153954873
 11
5.8286143193
 21
5.8153954873
  0
LINE
  5
237
100
AcDbEntity
  8
0
100
AcDbLine
 62
7
  6
CONTINUOUS
 10
5.3297580283
 20
5.8153954873
 11
5.277433217
 21
5.8153954873
  0
LINE
  5
238
100
AcDbEntity
  8
0
100
AcDbLine
 62
7
  6
CONTINUOUS
 10
4.7785769259
 20
5.8153954873
 11
4.7262521146
 21
5.8153954873
  0
LINE
  5
239
100
AcDbEntity
  8
0
100
AcDbLine
 62
7
  6
CONTINUOUS
 10
7.7839105833
 20
5.4685450936
 11
7.7839105833
 21
5.5716946999
  0
LINE
  5
23A
100
AcDbEntity
  8
0
100
AcDbLine
 62
7
  6
CONTINUOUS
 10
4.4173287768
 20
13.6827249467
 11
4.4173287768
 21
11.517370616
  0
LINE
  5
23B
100
AcDbEntity
  8
0
100
AcDbLine
 62
7
  6
CONTINUOUS
 10
7.7244153909
 20
11.517370616
 11
4.4173287768
 21
11.517370616
  0
LINE
  5
23C
100
AcDbEntity
  8
0
100
AcDbLine
 62
7
  6
CONTINUOUS
 10
4.4173287768
 20
13.6827249467
 11
7.7244153909
 21
13.6827249467
  0
LINE
  5
23D
100
AcDbEntity
  8
0
100
AcDbLine
 62
7
  6
CONTINUOUS
 10
7.7244153909
 20
13.6827249467
 11
7.7244153909
 21
11.517370616
  0
LINE
  5
23E
100
AcDbEntity
  8
0
100
AcDbLine
 62
7
  6
CONTINUOUS
 10
14.4776780916
 20
5.1653491139
 11
14.4776780916
 21
5.755900295
  0
LINE
  5
23F
100
AcDbEntity
  8
0
100
AcDbLine
 62
7
  6
CONTINUOUS
 10
14.4776780916
 20
5.1653491139
 11
16.6430324223
 21
5.1653491139
  0
LINE
  5
240
100
AcDbEntity
  8
0
100
AcDbLine
 62
7
  6
CONTINUOUS
 10
16.6430324223
 20
5.4090499013
 11
14.4776780916
 21
5.4090499013
  0
LINE
  5
241
100
AcDbEntity
  8
0
100
AcDbLine
 62
7
  6
CONTINUOUS
 10
16.6430324223
 20
5.5121995076
 11
14.4776780916
 21
5.5121995076
  0
LINE
  5
242
100
AcDbEntity
  8
0
100
AcDbLine
 62
7
  6
CONTINUOUS
 10
14.4776780916
 20
5.755900295
 11
16.6430324223
 21
5.755900295
  0
LINE
  5
243
100
AcDbEntity
  8
0
100
AcDbLine
 62
7
  6
CONTINUOUS
 10
16.6430324223
 20
5.1653491139
 11
16.6430324223
 21
5.755900295
  0
LINE
  5
244
100
AcDbEntity
  8
0
100
AcDbLine
 62
7
  6
CONTINUOUS
 10
13.6702860713
 20
11.6947742466
 11
13.7017510198
 21
11.6306554231
  0
LINE
  5
245
100
AcDbEntity
  8
0
100
AcDbLine
 62
7
  6
CONTINUOUS
 10
13.7510023987
 20
11.8087852629
 11
13.7506522728
 21
11.8075790252
  0
LINE
  5
246
100
AcDbEntity
  8
0
100
AcDbLine
 62
7
  6
CONTINUOUS
 10
14.1944454331
 20
13.3909545627
 11
13.6702860713
 21
11.6947742466
  0
LINE
  5
247
100
AcDbEntity
  8
0
100
AcDbLine
 62
7
  6
CONTINUOUS
 10
13.7510030385
 20
11.8087850653
 11
14.2751624002
 21
13.5049653815
  0
LINE
  5
248
100
AcDbEntity
  8
0
100
AcDbLine
 62
7
  6
CONTINUOUS
 10
14.1287061064
 20
11.5166444068
 11
14.1290562323
 21
11.5178506445
  0
LINE
  5
249
100
AcDbEntity
  8
0
100
AcDbLine
 62
7
  6
CONTINUOUS
 10
14.2586738127
 20
11.8087852629
 11
14.2583236868
 21
11.8075790252
  0
LINE
  5
24A
100
AcDbEntity
  8
0
100
AcDbLine
 62
7
  6
CONTINUOUS
 10
14.1287054666
 20
11.5166446043
 11
14.1635463263
 21
11.6293896675
  0
LINE
  5
24B
100
AcDbEntity
  8
0
100
AcDbLine
 62
7
  6
CONTINUOUS
 10
14.2586744525
 20
11.8087850653
 11
14.7828338142
 21
13.5049653815
  0
LINE
  5
24C
100
AcDbEntity
  8
0
100
AcDbLine
 62
7
  6
CONTINUOUS
 10
14.0058284985
 20
11.4791685844
 11
14.0540228412
 21
11.4791685844
  0
LINE
  5
24D
100
AcDbEntity
  8
0
100
AcDbLine
 62
7
  6
CONTINUOUS
 10
14.5134999126
 20
11.4791685844
 11
14.5616942553
 21
11.4791685844
  0
LINE
  5
24E
100
AcDbEntity
  8
0
100
AcDbLine
 62
7
  6
CONTINUOUS
 10
15.0211713266
 20
11.4791685844
 11
15.0693656693
 21
11.4791685844
  0
LINE
  5
24F
100
AcDbEntity
  8
0
100
AcDbLine
 62
7
  6
CONTINUOUS
 10
15.5288427406
 20
11.4791685844
 11
15.5770370833
 21
11.4791685844
  0
LINE
  5
250
100
AcDbEntity
  8
0
100
AcDbLine
 62
7
  6
CONTINUOUS
 10
16.0365141546
 20
11.4791685844
 11
16.0847084973
 21
11.4791685844
  0
LINE
  5
251
100
AcDbEntity
  8
0
100
AcDbLine
 62
7
  6
CONTINUOUS
 10
16.5441855686
 20
11.4791685844
 11
16.5923799113
 21
11.4791685844
  0
LINE
  5
252
100
AcDbEntity
  8
0
100
AcDbLine
 62
7
  6
CONTINUOUS
 10
13.7017510198
 20
11.6306554231
 11
13.732176728
 21
11.6306554231
  0
LINE
  5
253
100
AcDbEntity
  8
0
100
AcDbLine
 62
7
  6
CONTINUOUS
 10
14.1789967256
 20
11.6306554231
 11
14.2398481421
 21
11.6306554231
  0
LINE
  5
254
100
AcDbEntity
  8
0
100
AcDbLine
 62
7
  6
CONTINUOUS
 10
14.6866681396
 20
11.6306554231
 11
14.7475195561
 21
11.6306554231
  0
LINE
  5
255
100
AcDbEntity
  8
0
100
AcDbLine
 62
7
  6
CONTINUOUS
 10
15.1943395536
 20
11.6306554231
 11
15.2551909701
 21
11.6306554231
  0
LINE
  5
256
100
AcDbEntity
  8
0
100
AcDbLine
 62
7
  6
CONTINUOUS
 10
15.7020109676
 20
11.6306554231
 11
15.7628623841
 21
11.6306554231
  0
LINE
  5
257
100
AcDbEntity
  8
0
100
AcDbLine
 62
7
  6
CONTINUOUS
 10
16.2096823816
 20
11.6306554231
 11
16.2705337981
 21
11.6306554231
  0
LINE
  5
258
100
AcDbEntity
  8
0
100
AcDbLine
 62
7
  6
CONTINUOUS
 10
16.7173537956
 20
11.6306554231
 11
16.7477795039
 21
11.6306554231
  0
LINE
  5
259
100
AcDbEntity
  8
0
100
AcDbLine
 62
7
  6
CONTINUOUS
 10
16.7163145554
 20
11.6947742466
 11
16.6858888472
 21
11.6947742466
  0
LINE
  5
25A
100
AcDbEntity
  8
0
100
AcDbLine
 62
7
  6
CONTINUOUS
 10
16.2390688497
 20
11.6947742466
 11
16.1782174332
 21
11.6947742466
  0
LINE
  5
25B
100
AcDbEntity
  8
0
100
AcDbLine
 62
7
  6
CONTINUOUS
 10
15.7313974357
 20
11.6947742466
 11
15.6705460192
 21
11.6947742466
  0
LINE
  5
25C
100
AcDbEntity
  8
0
100
AcDbLine
 62
7
  6
CONTINUOUS
 10
15.2237260216
 20
11.6947742466
 11
15.1628746051
 21
11.6947742466
  0
LINE
  5
25D
100
AcDbEntity
  8
0
100
AcDbLine
 62
7
  6
CONTINUOUS
 10
14.7160546076
 20
11.6947742466
 11
14.6552031911
 21
11.6947742466
  0
LINE
  5
25E
100
AcDbEntity
  8
0
100
AcDbLine
 62
7
  6
CONTINUOUS
 10
14.2083831936
 20
11.6947742466
 11
14.1475317771
 21
11.6947742466
  0
LINE
  5
25F
100
AcDbEntity
  8
0
100
AcDbLine
 62
7
  6
CONTINUOUS
 10
13.7007117796
 20
11.6947742466
 11
13.6702860713
 21
11.6947742466
  0
LINE
  5
260
100
AcDbEntity
  8
0
100
AcDbLine
 62
7
  6
CONTINUOUS
 10
16.4122370767
 20
11.8462610853
 11
16.364042734
 21
11.8462610853
  0
LINE
  5
261
100
AcDbEntity
  8
0
100
AcDbLine
 62
7
  6
CONTINUOUS
 10
15.9045656627
 20
11.8462610853
 11
15.85637132
 21
11.8462610853
  0
LINE
  5
262
100
AcDbEntity
  8
0
100
AcDbLine
 62
7
  6
CONTINUOUS
 10
15.3968942487
 20
11.8462610853
 11
15.348699906
 21
11.8462610853
  0
LINE
  5
263
100
AcDbEntity
  8
0
100
AcDbLine
 62
7
  6
CONTINUOUS
 10
14.8892228347
 20
11.8462610853
 11
14.8410284919
 21
11.8462610853
  0
LINE
  5
264
100
AcDbEntity
  8
0
100
AcDbLine
 62
7
  6
CONTINUOUS
 10
14.3815514206
 20
11.8462610853
 11
14.3333570779
 21
11.8462610853
  0
LINE
  5
265
100
AcDbEntity
  8
0
100
AcDbLine
 62
7
  6
CONTINUOUS
 10
13.8738800066
 20
11.8462610853
 11
13.8256856639
 21
11.8462610853
  0
LINE
  5
266
100
AcDbEntity
  8
0
100
AcDbLine
 62
7
  6
CONTINUOUS
 10
14.6363775205
 20
11.5166444068
 11
14.6367276464
 21
11.5178506445
  0
LINE
  5
267
100
AcDbEntity
  8
0
100
AcDbLine
 62
7
  6
CONTINUOUS
 10
14.7663452267
 20
11.8087852629
 11
14.7659951009
 21
11.8075790252
  0
LINE
  5
268
100
AcDbEntity
  8
0
100
AcDbLine
 62
7
  6
CONTINUOUS
 10
14.6363768806
 20
11.5166446043
 11
14.6712177403
 21
11.6293896675
  0
LINE
  5
269
100
AcDbEntity
  8
0
100
AcDbLine
 62
7
  6
CONTINUOUS
 10
14.7663458666
 20
11.8087850653
 11
15.2905052283
 21
13.5049653815
  0
LINE
  5
26A
100
AcDbEntity
  8
0
100
AcDbLine
 62
7
  6
CONTINUOUS
 10
15.1440489345
 20
11.5166444068
 11
15.1443990604
 21
11.5178506445
  0
LINE
  5
26B
100
AcDbEntity
  8
0
100
AcDbLine
 62
7
  6
CONTINUOUS
 10
15.2740166408
 20
11.8087852629
 11
15.2736665149
 21
11.8075790252
  0
LINE
  5
26C
100
AcDbEntity
  8
0
100
AcDbLine
 62
7
  6
CONTINUOUS
 10
15.1440482947
 20
11.5166446043
 11
15.1788891543
 21
11.6293896675
  0
LINE
  5
26D
100
AcDbEntity
  8
0
100
AcDbLine
 62
7
  6
CONTINUOUS
 10
15.2740172806
 20
11.8087850653
 11
15.7981766423
 21
13.5049653815
  0
LINE
  5
26E
100
AcDbEntity
  8
0
100
AcDbLine
 62
7
  6
CONTINUOUS
 10
15.6517203485
 20
11.5166444068
 11
15.6520704744
 21
11.5178506445
  0
LINE
  5
26F
100
AcDbEntity
  8
0
100
AcDbLine
 62
7
  6
CONTINUOUS
 10
15.7816880548
 20
11.8087852629
 11
15.7813379289
 21
11.8075790252
  0
LINE
  5
270
100
AcDbEntity
  8
0
100
AcDbLine
 62
7
  6
CONTINUOUS
 10
15.6517197087
 20
11.5166446043
 11
15.6865605683
 21
11.6293896675
  0
LINE
  5
271
100
AcDbEntity
  8
0
100
AcDbLine
 62
7
  6
CONTINUOUS
 10
15.7816886946
 20
11.8087850653
 11
16.3058480563
 21
13.5049653815
  0
LINE
  5
272
100
AcDbEntity
  8
0
100
AcDbLine
 62
7
  6
CONTINUOUS
 10
16.7477795039
 20
11.6306554231
 11
16.7163145554
 21
11.6947742466
  0
LINE
  5
273
100
AcDbEntity
  8
0
100
AcDbLine
 62
7
  6
CONTINUOUS
 10
16.1593917625
 20
11.5166444068
 11
16.1597418884
 21
11.5178506445
  0
LINE
  5
274
100
AcDbEntity
  8
0
100
AcDbLine
 62
7
  6
CONTINUOUS
 10
16.2893594688
 20
11.8087852629
 11
16.2890093429
 21
11.8075790252
  0
LINE
  5
275
100
AcDbEntity
  8
0
100
AcDbLine
 62
7
  6
CONTINUOUS
 10
16.1593911227
 20
11.5166446043
 11
16.1942319824
 21
11.6293896675
  0
LINE
  5
276
100
AcDbEntity
  8
0
100
AcDbLine
 62
7
  6
CONTINUOUS
 10
17.2404739172
 20
13.3909545627
 11
17.2100482089
 21
13.3909545627
  0
LINE
  5
277
100
AcDbEntity
  8
0
100
AcDbLine
 62
7
  6
CONTINUOUS
 10
14.2248711413
 20
13.3909545627
 11
14.1944454331
 21
13.3909545627
  0
LINE
  5
278
100
AcDbEntity
  8
0
100
AcDbLine
 62
7
  6
CONTINUOUS
 10
14.6716911388
 20
13.3909545627
 11
14.7325425553
 21
13.3909545627
  0
LINE
  5
279
100
AcDbEntity
  8
0
100
AcDbLine
 62
7
  6
CONTINUOUS
 10
15.1793625528
 20
13.3909545627
 11
15.2402139693
 21
13.3909545627
  0
LINE
  5
27A
100
AcDbEntity
  8
0
100
AcDbLine
 62
7
  6
CONTINUOUS
 10
15.6870339669
 20
13.3909545627
 11
15.7478853834
 21
13.3909545627
  0
LINE
  5
27B
100
AcDbEntity
  8
0
100
AcDbLine
 62
7
  6
CONTINUOUS
 10
16.1947053809
 20
13.3909545627
 11
16.2555567974
 21
13.3909545627
  0
LINE
  5
27C
100
AcDbEntity
  8
0
100
AcDbLine
 62
7
  6
CONTINUOUS
 10
16.7023767949
 20
13.3909545627
 11
16.7632282114
 21
13.3909545627
  0
LINE
  5
27D
100
AcDbEntity
  8
0
100
AcDbLine
 62
7
  6
CONTINUOUS
 10
16.2893601086
 20
11.8087850653
 11
16.8135194703
 21
13.5049653815
  0
LINE
  5
27E
100
AcDbEntity
  8
0
100
AcDbLine
 62
7
  6
CONTINUOUS
 10
16.9363964384
 20
13.5424414014
 11
16.8882020957
 21
13.5424414014
  0
LINE
  5
27F
100
AcDbEntity
  8
0
100
AcDbLine
 62
7
  6
CONTINUOUS
 10
16.4287250244
 20
13.5424414014
 11
16.3805306817
 21
13.5424414014
  0
LINE
  5
280
100
AcDbEntity
  8
0
100
AcDbLine
 62
7
  6
CONTINUOUS
 10
15.9210536104
 20
13.5424414014
 11
15.8728592677
 21
13.5424414014
  0
LINE
  5
281
100
AcDbEntity
  8
0
100
AcDbLine
 62
7
  6
CONTINUOUS
 10
15.4133821964
 20
13.5424414014
 11
15.3651878536
 21
13.5424414014
  0
LINE
  5
282
100
AcDbEntity
  8
0
100
AcDbLine
 62
7
  6
CONTINUOUS
 10
14.9057107823
 20
13.5424414014
 11
14.8575164396
 21
13.5424414014
  0
LINE
  5
283
100
AcDbEntity
  8
0
100
AcDbLine
 62
7
  6
CONTINUOUS
 10
14.3980393683
 20
13.5424414014
 11
14.3498450256
 21
13.5424414014
  0
LINE
  5
284
100
AcDbEntity
  8
0
100
AcDbLine
 62
7
  6
CONTINUOUS
 10
16.6670631765
 20
11.5166444068
 11
16.6674133024
 21
11.5178506445
  0
LINE
  5
285
100
AcDbEntity
  8
0
100
AcDbLine
 62
7
  6
CONTINUOUS
 10
17.2404739172
 20
13.3909545627
 11
16.7163145554
 21
11.6947742466
  0
LINE
  5
286
100
AcDbEntity
  8
0
100
AcDbLine
 62
7
  6
CONTINUOUS
 10
16.6670625367
 20
11.5166446043
 11
16.7019033964
 21
11.6293896675
  0
LINE
  5
287
100
AcDbEntity
  8
0
100
AcDbLine
 62
7
  6
CONTINUOUS
 10
17.2719388656
 20
13.3268357392
 11
16.7477795039
 21
11.6306554231
  0
LINE
  5
288
100
AcDbEntity
  8
0
100
AcDbLine
 62
7
  6
CONTINUOUS
 10
17.2719388656
 20
13.3268357392
 11
17.2404739172
 21
13.3909545627
  0
ARC
  5
289
100
AcDbEntity
  8
0
100
AcDbCircle
 62
7
  6
CONTINUOUS
 10
4.9763318431
 20
5.4685450936
 40
0.3961614173
100
AcDbArc
 50
189.3197114863
 51
207.2630120422
  0
ARC
  5
28A
100
AcDbEntity
  8
0
100
AcDbCircle
 62
7
  6
CONTINUOUS
 10
4.5284971974
 20
5.4685450936
 40
0.3961614173
100
AcDbArc
 50
332.7369879578
 51
350.6802885137
  0
ARC
  5
28B
100
AcDbEntity
  8
0
100
AcDbCircle
 62
7
  6
CONTINUOUS
 10
5.5275129455
 20
5.4685450936
 40
0.3961614173
100
AcDbArc
 50
189.3197114863
 51
207.2630120422
  0
ARC
  5
28C
100
AcDbEntity
  8
0
100
AcDbCircle
 62
7
  6
CONTINUOUS
 10
5.0796782998
 20
5.4685450936
 40
0.3961614173
100
AcDbArc
 50
332.7369879578
 51
350.6802885137
  0
ARC
  5
28D
100
AcDbEntity
  8
0
100
AcDbCircle
 62
7
  6
CONTINUOUS
 10
6.0786940478
 20
5.4685450936
 40
0.3961614173
100
AcDbArc
 50
189.3197114863
 51
207.2630120422
  0
ARC
  5
28E
100
AcDbEntity
  8
0
100
AcDbCircle
 62
7
  6
CONTINUOUS
 10
5.6308594022
 20
5.4685450936
 40
0.3961614173
100
AcDbArc
 50
332.7369879578
 51
350.6802885137
  0
ARC
  5
28F
100
AcDbEntity
  8
0
100
AcDbCircle
 62
7
  6
CONTINUOUS
 10
4.7262521146
 20
5.3396737025
 40
0.1148293963
100
AcDbArc
 50
207.2630120422
 51
270.0
  0
ARC
  5
290
100
AcDbEntity
  8
0
100
AcDbCircle
 62
7
  6
CONTINUOUS
 10
4.7785769259
 20
5.3396737025
 40
0.1148293963
100
AcDbArc
 50
270.0
 51
332.7369879578
  0
ARC
  5
291
100
AcDbEntity
  8
0
100
AcDbCircle
 62
7
  6
CONTINUOUS
 10
5.277433217
 20
5.3396737025
 40
0.1148293963
100
AcDbArc
 50
207.2630120422
 51
270.0
  0
ARC
  5
292
100
AcDbEntity
  8
0
100
AcDbCircle
 62
7
  6
CONTINUOUS
 10
5.3297580283
 20
5.3396737025
 40
0.1148293963
100
AcDbArc
 50
270.0
 51
332.7369879578
  0
ARC
  5
293
100
AcDbEntity
  8
0
100
AcDbCircle
 62
7
  6
CONTINUOUS
 10
5.8286143193
 20
5.3396737025
 40
0.1148293963
100
AcDbArc
 50
207.2630120422
 51
270.0
  0
ARC
  5
294
100
AcDbEntity
  8
0
100
AcDbCircle
 62
7
  6
CONTINUOUS
 10
5.8809391306
 20
5.3396737025
 40
0.1148293963
100
AcDbArc
 50
270.0
 51
332.7369879578
  0
ARC
  5
295
100
AcDbEntity
  8
0
100
AcDbCircle
 62
7
  6
CONTINUOUS
 10
4.9949717453
 20
5.3919921627
 40
0.0765529309
100
AcDbArc
 50
90.0
 51
170.6802885137
  0
ARC
  5
296
100
AcDbEntity
  8
0
100
AcDbCircle
 62
7
  6
CONTINUOUS
 10
4.5098572953
 20
5.3919921627
 40
0.0765529309
100
AcDbArc
 50
9.3197114863
 51
90.0
  0
ARC
  5
297
100
AcDbEntity
  8
0
100
AcDbCircle
 62
7
  6
CONTINUOUS
 10
5.5461528476
 20
5.3919921627
 40
0.0765529309
100
AcDbArc
 50
90.0
 51
170.6802885137
  0
ARC
  5
298
100
AcDbEntity
  8
0
100
AcDbCircle
 62
7
  6
CONTINUOUS
 10
5.0610383976
 20
5.3919921627
 40
0.0765529309
100
AcDbArc
 50
9.3197114863
 51
90.0
  0
ARC
  5
299
100
AcDbEntity
  8
0
100
AcDbCircle
 62
7
  6
CONTINUOUS
 10
6.09733395
 20
5.3919921627
 40
0.0765529309
100
AcDbArc
 50
90.0
 51
170.6802885137
  0
ARC
  5
29A
100
AcDbEntity
  8
0
100
AcDbCircle
 62
7
  6
CONTINUOUS
 10
5.6122195
 20
5.3919921627
 40
0.0765529309
100
AcDbArc
 50
9.3197114863
 51
90.0
  0
ARC
  5
29B
100
AcDbEntity
  8
0
100
AcDbCircle
 62
7
  6
CONTINUOUS
 10
4.9763318431
 20
5.5716946999
 40
0.3961614173
100
AcDbArc
 50
152.7369879578
 51
170.6802885137
  0
ARC
  5
29C
100
AcDbEntity
  8
0
100
AcDbCircle
 62
7
  6
CONTINUOUS
 10
4.5284971974
 20
5.5716946999
 40
0.3961614173
100
AcDbArc
 50
9.3197114863
 51
27.2630120422
  0
ARC
  5
29D
100
AcDbEntity
  8
0
100
AcDbCircle
 62
7
  6
CONTINUOUS
 10
5.5275129455
 20
5.5716946999
 40
0.3961614173
100
AcDbArc
 50
152.7369879578
 51
170.6802885137
  0
ARC
  5
29E
100
AcDbEntity
  8
0
100
AcDbCircle
 62
7
  6
CONTINUOUS
 10
5.0796782998
 20
5.5716946999
 40
0.3961614173
100
AcDbArc
 50
9.3197114863
 51
27.2630120422
  0
ARC
  5
29F
100
AcDbEntity
  8
0
100
AcDbCircle
 62
7
  6
CONTINUOUS
 10
6.0786940478
 20
5.5716946999
 40
0.3961614173
100
AcDbArc
 50
152.7369879578
 51
170.6802885137
  0
ARC
  5
2A0
100
AcDbEntity
  8
0
100
AcDbCircle
 62
7
  6
CONTINUOUS
 10
5.6308594022
 20
5.5716946999
 40
0.3961614173
100
AcDbArc
 50
9.3197114863
 51
27.2630120422
  0
ARC
  5
2A1
100
AcDbEntity
  8
0
100
AcDbCircle
 62
7
  6
CONTINUOUS
 10
4.7785769259
 20
5.700566091
 40
0.1148293963
100
AcDbArc
 50
27.2630120422
 51
90.0
  0
ARC
  5
2A2
100
AcDbEntity
  8
0
100
AcDbCircle
 62
7
  6
CONTINUOUS
 10
4.7262521146
 20
5.700566091
 40
0.1148293963
100
AcDbArc
 50
90.0
 51
152.7369879578
  0
ARC
  5
2A3
100
AcDbEntity
  8
0
100
AcDbCircle
 62
7
  6
CONTINUOUS
 10
5.277433217
 20
5.700566091
 40
0.1148293963
100
AcDbArc
 50
90.0
 51
152.7369879578
  0
ARC
  5
2A4
100
AcDbEntity
  8
0
100
AcDbCircle
 62
7
  6
CONTINUOUS
 10
5.3297580283
 20
5.700566091
 40
0.1148293963
100
AcDbArc
 50
27.2630120422
 51
90.0
  0
ARC
  5
2A5
100
AcDbEntity
  8
0
100
AcDbCircle
 62
7
  6
CONTINUOUS
 10
5.8286143193
 20
5.700566091
 40
0.1148293963
100
AcDbArc
 50
90.0
 51
152.7369879578
  0
ARC
  5
2A6
100
AcDbEntity
  8
0
100
AcDbCircle
 62
7
  6
CONTINUOUS
 10
5.8809391306
 20
5.700566091
 40
0.1148293963
100
AcDbArc
 50
27.2630120422
 51
90.0
  0
ARC
  5
2A7
100
AcDbEntity
  8
0
100
AcDbCircle
 62
7
  6
CONTINUOUS
 10
4.9949717453
 20
5.6482476308
 40
0.0765529309
100
AcDbArc
 50
189.3197114863
 51
270.0
  0
ARC
  5
2A8
100
AcDbEntity
  8
0
100
AcDbCircle
 62
7
  6
CONTINUOUS
 10
4.5098572953
 20
5.6482476308
 40
0.0765529309
100
AcDbArc
 50
270.0
 51
350.6802885137
  0
ARC
  5
2A9
100
AcDbEntity
  8
0
100
AcDbCircle
 62
7
  6
CONTINUOUS
 10
5.5461528476
 20
5.6482476308
 40
0.0765529309
100
AcDbArc
 50
189.3197114863
 51
270.0
  0
ARC
  5
2AA
100
AcDbEntity
  8
0
100
AcDbCircle
 62
7
  6
CONTINUOUS
 10
5.0610383976
 20
5.6482476308
 40
0.0765529309
100
AcDbArc
 50
270.0
 51
350.6802885137
  0
ARC
  5
2AB
100
AcDbEntity
  8
0
100
AcDbCircle
 62
7
  6
CONTINUOUS
 10
6.09733395
 20
5.6482476308
 40
0.0765529309
100
AcDbArc
 50
189.3197114863
 51
270.0
  0
ARC
  5
2AC
100
AcDbEntity
  8
0
100
AcDbCircle
 62
7
  6
CONTINUOUS
 10
5.6122195
 20
5.6482476308
 40
0.0765529309
100
AcDbArc
 50
270.0
 51
350.6802885137
  0
ARC
  5
2AD
100
AcDbEntity
  8
0
100
AcDbCircle
 62
7
  6
CONTINUOUS
 10
6.6298751502
 20
5.4685450936
 40
0.3961614173
100
AcDbArc
 50
189.3197114863
 51
207.2630120422
  0
ARC
  5
2AE
100
AcDbEntity
  8
0
100
AcDbCircle
 62
7
  6
CONTINUOUS
 10
6.1820405045
 20
5.4685450936
 40
0.3961614173
100
AcDbArc
 50
332.7369879578
 51
350.6802885137
  0
ARC
  5
2AF
100
AcDbEntity
  8
0
100
AcDbCircle
 62
7
  6
CONTINUOUS
 10
7.1810562525
 20
5.4685450936
 40
0.3961614173
100
AcDbArc
 50
189.3197114863
 51
207.2630120422
  0
ARC
  5
2B0
100
AcDbEntity
  8
0
100
AcDbCircle
 62
7
  6
CONTINUOUS
 10
6.7332216069
 20
5.4685450936
 40
0.3961614173
100
AcDbArc
 50
332.7369879578
 51
350.6802885137
  0
ARC
  5
2B1
100
AcDbEntity
  8
0
100
AcDbCircle
 62
7
  6
CONTINUOUS
 10
7.2844027092
 20
5.4685450936
 40
0.3961614173
100
AcDbArc
 50
332.7369879578
 51
350.6802885137
  0
ARC
  5
2B2
100
AcDbEntity
  8
0
100
AcDbCircle
 62
7
  6
CONTINUOUS
 10
7.7322373549
 20
5.4685450936
 40
0.3961614173
100
AcDbArc
 50
189.3197114863
 51
207.2630120422
  0
ARC
  5
2B3
100
AcDbEntity
  8
0
100
AcDbCircle
 62
7
  6
CONTINUOUS
 10
6.3797954217
 20
5.3396737025
 40
0.1148293963
100
AcDbArc
 50
207.2630120422
 51
270.0
  0
ARC
  5
2B4
100
AcDbEntity
  8
0
100
AcDbCircle
 62
7
  6
CONTINUOUS
 10
6.432120233
 20
5.3396737025
 40
0.1148293963
100
AcDbArc
 50
270.0
 51
332.7369879578
  0
ARC
  5
2B5
100
AcDbEntity
  8
0
100
AcDbCircle
 62
7
  6
CONTINUOUS
 10
6.9309765241
 20
5.3396737025
 40
0.1148293963
100
AcDbArc
 50
207.2630120422
 51
270.0
  0
ARC
  5
2B6
100
AcDbEntity
  8
0
100
AcDbCircle
 62
7
  6
CONTINUOUS
 10
6.9833013354
 20
5.3396737025
 40
0.1148293963
100
AcDbArc
 50
270.0
 51
332.7369879578
  0
ARC
  5
2B7
100
AcDbEntity
  8
0
100
AcDbCircle
 62
7
  6
CONTINUOUS
 10
7.5344824377
 20
5.3396737025
 40
0.1148293963
100
AcDbArc
 50
270.0
 51
332.7369879578
  0
ARC
  5
2B8
100
AcDbEntity
  8
0
100
AcDbCircle
 62
7
  6
CONTINUOUS
 10
7.4821576264
 20
5.3396737025
 40
0.1148293963
100
AcDbArc
 50
207.2630120422
 51
270.0
  0
ARC
  5
2B9
100
AcDbEntity
  8
0
100
AcDbCircle
 62
7
  6
CONTINUOUS
 10
6.6485150523
 20
5.3919921627
 40
0.0765529309
100
AcDbArc
 50
90.0
 51
170.6802885137
  0
ARC
  5
2BA
100
AcDbEntity
  8
0
100
AcDbCircle
 62
7
  6
CONTINUOUS
 10
6.1634006024
 20
5.3919921627
 40
0.0765529309
100
AcDbArc
 50
9.3197114863
 51
90.0
  0
ARC
  5
2BB
100
AcDbEntity
  8
0
100
AcDbCircle
 62
7
  6
CONTINUOUS
 10
7.1996961547
 20
5.3919921627
 40
0.0765529309
100
AcDbArc
 50
90.0
 51
170.6802885137
  0
ARC
  5
2BC
100
AcDbEntity
  8
0
100
AcDbCircle
 62
7
  6
CONTINUOUS
 10
6.7145817047
 20
5.3919921627
 40
0.0765529309
100
AcDbArc
 50
9.3197114863
 51
90.0
  0
ARC
  5
2BD
100
AcDbEntity
  8
0
100
AcDbCircle
 62
7
  6
CONTINUOUS
 10
7.7508772571
 20
5.3919921627
 40
0.0765529309
100
AcDbArc
 50
90.0
 51
170.6802885137
  0
ARC
  5
2BE
100
AcDbEntity
  8
0
100
AcDbCircle
 62
7
  6
CONTINUOUS
 10
7.2657628071
 20
5.3919921627
 40
0.0765529309
100
AcDbArc
 50
9.3197114863
 51
90.0
  0
ARC
  5
2BF
100
AcDbEntity
  8
0
100
AcDbCircle
 62
7
  6
CONTINUOUS
 10
6.6298751502
 20
5.5716946999
 40
0.3961614173
100
AcDbArc
 50
152.7369879578
 51
170.6802885137
  0
ARC
  5
2C0
100
AcDbEntity
  8
0
100
AcDbCircle
 62
7
  6
CONTINUOUS
 10
6.1820405045
 20
5.5716946999
 40
0.3961614173
100
AcDbArc
 50
9.3197114863
 51
27.2630120422
  0
ARC
  5
2C1
100
AcDbEntity
  8
0
100
AcDbCircle
 62
7
  6
CONTINUOUS
 10
7.1810562525
 20
5.5716946999
 40
0.3961614173
100
AcDbArc
 50
152.7369879578
 51
170.6802885137
  0
ARC
  5
2C2
100
AcDbEntity
  8
0
100
AcDbCircle
 62
7
  6
CONTINUOUS
 10
6.7332216069
 20
5.5716946999
 40
0.3961614173
100
AcDbArc
 50
9.3197114863
 51
27.2630120422
  0
ARC
  5
2C3
100
AcDbEntity
  8
0
100
AcDbCircle
 62
7
  6
CONTINUOUS
 10
7.7322373549
 20
5.5716946999
 40
0.3961614173
100
AcDbArc
 50
152.7369879578
 51
170.6802885137
  0
ARC
  5
2C4
100
AcDbEntity
  8
0
100
AcDbCircle
 62
7
  6
CONTINUOUS
 10
7.2844027092
 20
5.5716946999
 40
0.3961614173
100
AcDbArc
 50
9.3197114863
 51
27.2630120422
  0
ARC
  5
2C5
100
AcDbEntity
  8
0
100
AcDbCircle
 62
7
  6
CONTINUOUS
 10
6.3797954217
 20
5.700566091
 40
0.1148293963
100
AcDbArc
 50
90.0
 51
152.7369879578
  0
ARC
  5
2C6
100
AcDbEntity
  8
0
100
AcDbCircle
 62
7
  6
CONTINUOUS
 10
6.432120233
 20
5.700566091
 40
0.1148293963
100
AcDbArc
 50
27.2630120422
 51
90.0
  0
ARC
  5
2C7
100
AcDbEntity
  8
0
100
AcDbCircle
 62
7
  6
CONTINUOUS
 10
6.9309765241
 20
5.700566091
 40
0.1148293963
100
AcDbArc
 50
90.0
 51
152.7369879578
  0
ARC
  5
2C8
100
AcDbEntity
  8
0
100
AcDbCircle
 62
7
  6
CONTINUOUS
 10
6.9833013354
 20
5.700566091
 40
0.1148293963
100
AcDbArc
 50
27.2630120422
 51
90.0
  0
ARC
  5
2C9
100
AcDbEntity
  8
0
100
AcDbCircle
 62
7
  6
CONTINUOUS
 10
7.4821576264
 20
5.700566091
 40
0.1148293963
100
AcDbArc
 50
90.0
 51
152.7369879578
  0
ARC
  5
2CA
100
AcDbEntity
  8
0
100
AcDbCircle
 62
7
  6
CONTINUOUS
 10
7.5344824377
 20
5.700566091
 40
0.1148293963
100
AcDbArc
 50
27.2630120422
 51
90.0
  0
ARC
  5
2CB
100
AcDbEntity
  8
0
100
AcDbCircle
 62
7
  6
CONTINUOUS
 10
6.6485150523
 20
5.6482476308
 40
0.0765529309
100
AcDbArc
 50
189.3197114863
 51
270.0
  0
ARC
  5
2CC
100
AcDbEntity
  8
0
100
AcDbCircle
 62
7
  6
CONTINUOUS
 10
6.1634006024
 20
5.6482476308
 40
0.0765529309
100
AcDbArc
 50
270.0
 51
350.6802885137
  0
ARC
  5
2CD
100
AcDbEntity
  8
0
100
AcDbCircle
 62
7
  6
CONTINUOUS
 10
7.1996961547
 20
5.6482476308
 40
0.0765529309
100
AcDbArc
 50
189.3197114863
 51
270.0
  0
ARC
  5
2CE
100
AcDbEntity
  8
0
100
AcDbCircle
 62
7
  6
CONTINUOUS
 10
6.7145817047
 20
5.6482476308
 40
0.0765529309
100
AcDbArc
 50
270.0
 51
350.6802885137
  0
ARC
  5
2CF
100
AcDbEntity
  8
0
100
AcDbCircle
 62
7
  6
CONTINUOUS
 10
7.7508772571
 20
5.6482476308
 40
0.0765529309
100
AcDbArc
 50
189.3197114863
 51
270.0
  0
ARC
  5
2D0
100
AcDbEntity
  8
0
100
AcDbCircle
 62
7
  6
CONTINUOUS
 10
7.2657628071
 20
5.6482476308
 40
0.0765529309
100
AcDbArc
 50
270.0
 51
350.6802885137
  0
SPLINE
  5
2D1
100
AcDbEntity
  8
0
100
AcDbSpline
 62
7
  6
CONTINUOUS
 70
0
 71
3
 72
9
 73
5
 74
0
 42
0.0000001
 43
0.0000001
 44
0.0000000001
 40
0.0
 40
0.0
 40
0.0
 40
0.0
 40
0.2355953265
 40
1.0
 40
1.0
 40
1.0
 40
1.0
 10
14.5825417738
 20
13.4308343823
 30
0.0
 10
14.577788329
 20
13.437311387
 30
0.0
 10
14.5565235501
 20
13.4640022374
 30
0.0
 10
14.5314198332
 20
13.487509393
 30
0.0
 10
14.5110375554
 20
13.5037593413
 30
0.0
  0
SPLINE
  5
2D2
100
AcDbEntity
  8
0
100
AcDbSpline
 62
7
  6
CONTINUOUS
 70
0
 71
3
 72
11
 73
7
 74
0
 42
0.0000001
 43
0.0000001
 44
0.0000000001
 40
0.0
 40
0.0
 40
0.0
 40
0.0
 40
0.2472607571
 40
0.5047666201
 40
0.7597954733
 40
1.0
 40
1.0
 40
1.0
 40
1.0
 10
14.3980393683
 20
13.5424414014
 30
0.0
 10
14.408044552
 20
13.5424414014
 30
0.0
 10
14.4284963254
 20
13.5405111922
 30
0.0
 10
14.4583765357
 20
13.5327953339
 30
0.0
 10
14.4864650351
 20
13.5207155218
 30
0.0
 10
14.5034376242
 20
13.5098184526
 30
0.0
 10
14.5110375554
 20
13.5037593413
 30
0.0
  0
SPLINE
  5
2D3
100
AcDbEntity
  8
0
100
AcDbSpline
 62
7
  6
CONTINUOUS
 70
0
 71
3
 72
11
 73
7
 74
0
 42
0.0000001
 43
0.0000001
 44
0.0000000001
 40
0.0
 40
0.0
 40
0.0
 40
0.0
 40
0.2022213647
 40
0.4300649414
 40
0.6961820034
 40
1.0
 40
1.0
 40
1.0
 40
1.0
 10
14.129208412
 20
11.6056713699
 30
0.0
 10
14.1303864395
 20
11.6094825338
 30
0.0
 10
14.134989803
 20
11.6170202816
 30
0.0
 10
14.1465516212
 20
11.6249363907
 30
0.0
 10
14.1617166199
 20
11.629705586
 30
0.0
 10
14.1730035271
 20
11.6306554231
 30
0.0
 10
14.1789967256
 20
11.6306554231
 30
0.0
  0
SPLINE
  5
2D4
100
AcDbEntity
  8
0
100
AcDbSpline
 62
7
  6
CONTINUOUS
 70
0
 71
3
 72
11
 73
7
 74
0
 42
0.0000001
 43
0.0000001
 44
0.0000000001
 40
0.0
 40
0.0
 40
0.0
 40
0.0
 40
0.2022213647
 40
0.4300649414
 40
0.6961820034
 40
1.0
 40
1.0
 40
1.0
 40
1.0
 10
14.636879826
 20
11.6056713699
 30
0.0
 10
14.6380578535
 20
11.6094825338
 30
0.0
 10
14.642661217
 20
11.6170202816
 30
0.0
 10
14.6542230352
 20
11.6249363907
 30
0.0
 10
14.6693880339
 20
11.629705586
 30
0.0
 10
14.6806749411
 20
11.6306554231
 30
0.0
 10
14.6866681396
 20
11.6306554231
 30
0.0
  0
SPLINE
  5
2D5
100
AcDbEntity
  8
0
100
AcDbSpline
 62
7
  6
CONTINUOUS
 70
0
 71
3
 72
11
 73
7
 74
0
 42
0.0000001
 43
0.0000001
 44
0.0000000001
 40
0.0
 40
0.0
 40
0.0
 40
0.0
 40
0.2022213647
 40
0.4300649414
 40
0.6961820034
 40
1.0
 40
1.0
 40
1.0
 40
1.0
 10
15.14455124
 20
11.6056713699
 30
0.0
 10
15.1457292675
 20
11.6094825338
 30
0.0
 10
15.150332631
 20
11.6170202816
 30
0.0
 10
15.1618944492
 20
11.6249363907
 30
0.0
 10
15.1770594479
 20
11.629705586
 30
0.0
 10
15.1883463551
 20
11.6306554231
 30
0.0
 10
15.1943395536
 20
11.6306554231
 30
0.0
  0
SPLINE
  5
2D6
100
AcDbEntity
  8
0
100
AcDbSpline
 62
7
  6
CONTINUOUS
 70
0
 71
3
 72
11
 73
7
 74
0
 42
0.0000001
 43
0.0000001
 44
0.0000000001
 40
0.0
 40
0.0
 40
0.0
 40
0.0
 40
0.2022213647
 40
0.4300649414
 40
0.6961820034
 40
1.0
 40
1.0
 40
1.0
 40
1.0
 10
15.652222654
 20
11.6056713699
 30
0.0
 10
15.6534006816
 20
11.6094825338
 30
0.0
 10
15.658004045
 20
11.6170202816
 30
0.0
 10
15.6695658633
 20
11.6249363907
 30
0.0
 10
15.684730862
 20
11.629705586
 30
0.0
 10
15.6960177691
 20
11.6306554231
 30
0.0
 10
15.7020109676
 20
11.6306554231
 30
0.0
  0
SPLINE
  5
2D7
100
AcDbEntity
  8
0
100
AcDbSpline
 62
7
  6
CONTINUOUS
 70
0
 71
3
 72
11
 73
7
 74
0
 42
0.0000001
 43
0.0000001
 44
0.0000000001
 40
0.0
 40
0.0
 40
0.0
 40
0.0
 40
0.2022213647
 40
0.4300649414
 40
0.6961820034
 40
1.0
 40
1.0
 40
1.0
 40
1.0
 10
16.159894068
 20
11.6056713699
 30
0.0
 10
16.1610720956
 20
11.6094825338
 30
0.0
 10
16.165675459
 20
11.6170202816
 30
0.0
 10
16.1772372773
 20
11.6249363907
 30
0.0
 10
16.192402276
 20
11.629705586
 30
0.0
 10
16.2036891831
 20
11.6306554231
 30
0.0
 10
16.2096823816
 20
11.6306554231
 30
0.0
  0
SPLINE
  5
2D8
100
AcDbEntity
  8
0
100
AcDbSpline
 62
7
  6
CONTINUOUS
 70
0
 71
3
 72
11
 73
7
 74
0
 42
0.0000001
 43
0.0000001
 44
0.0000000001
 40
0.0
 40
0.0
 40
0.0
 40
0.0
 40
0.2022213647
 40
0.4300649414
 40
0.6961820034
 40
1.0
 40
1.0
 40
1.0
 40
1.0
 10
16.6675654821
 20
11.6056713699
 30
0.0
 10
16.6687435096
 20
11.6094825338
 30
0.0
 10
16.673346873
 20
11.6170202816
 30
0.0
 10
16.6849086913
 20
11.6249363907
 30
0.0
 10
16.70007369
 20
11.629705586
 30
0.0
 10
16.7113605972
 20
11.6306554231
 30
0.0
 10
16.7173537956
 20
11.6306554231
 30
0.0
  0
SPLINE
  5
2D9
100
AcDbEntity
  8
0
100
AcDbSpline
 62
7
  6
CONTINUOUS
 70
0
 71
3
 72
12
 73
8
 74
0
 42
0.0000001
 43
0.0000001
 44
0.0000000001
 40
0.0
 40
0.0
 40
0.0
 40
0.0
 40
0.0998442575
 40
0.2032927289
 40
0.430824395
 40
0.6965819889
 40
1.0
 40
1.0
 40
1.0
 40
1.0
 10
14.2751625328
 20
13.5049653402
 30
0.0
 10
14.276036494
 20
13.507791462
 30
0.0
 10
14.2785138845
 20
13.5133529005
 30
0.0
 10
14.2862778831
 20
13.5236051377
 30
0.0
 10
14.3011859511
 20
13.5338910198
 30
0.0
 10
14.3239232592
 20
13.5410070639
 30
0.0
 10
14.340855403
 20
13.5424414014
 30
0.0
 10
14.3498450256
 20
13.5424414014
 30
0.0
  0
SPLINE
  5
2DA
100
AcDbEntity
  8
0
100
AcDbSpline
 62
7
  6
CONTINUOUS
 70
0
 71
3
 72
9
 73
5
 74
0
 42
0.0000001
 43
0.0000001
 44
0.0000000001
 40
0.0
 40
0.0
 40
0.0
 40
0.0
 40
0.2356730812
 40
1.0
 40
1.0
 40
1.0
 40
1.0
 10
17.1208988439
 20
13.4308343823
 30
0.0
 10
17.1161438255
 20
13.4373135312
 30
0.0
 10
17.0948797453
 20
13.4640050203
 30
0.0
 10
17.0697748506
 20
13.4875110295
 30
0.0
 10
17.0493946255
 20
13.5037593413
 30
0.0
  0
SPLINE
  5
2DB
100
AcDbEntity
  8
0
100
AcDbSpline
 62
7
  6
CONTINUOUS
 70
0
 71
3
 72
11
 73
7
 74
0
 42
0.0000001
 43
0.0000001
 44
0.0000000001
 40
0.0
 40
0.0
 40
0.0
 40
0.0
 40
0.2472607571
 40
0.5047666201
 40
0.7597954733
 40
1.0
 40
1.0
 40
1.0
 40
1.0
 10
16.9363964384
 20
13.5424414014
 30
0.0
 10
16.9464016221
 20
13.5424414014
 30
0.0
 10
16.9668533955
 20
13.5405111922
 30
0.0
 10
16.9967336058
 20
13.5327953339
 30
0.0
 10
17.0248221052
 20
13.5207155218
 30
0.0
 10
17.0417946943
 20
13.5098184526
 30
0.0
 10
17.0493946255
 20
13.5037593413
 30
0.0
  0
SPLINE
  5
2DC
100
AcDbEntity
  8
0
100
AcDbSpline
 62
7
  6
CONTINUOUS
 70
0
 71
3
 72
9
 73
5
 74
0
 42
0.0000001
 43
0.0000001
 44
0.0000000001
 40
0.0
 40
0.0
 40
0.0
 40
0.0
 40
0.2355957311
 40
1.0
 40
1.0
 40
1.0
 40
1.0
 10
16.6132274299
 20
13.4308343823
 30
0.0
 10
16.6084739769
 20
13.4373113981
 30
0.0
 10
16.5872091819
 20
13.4640022353
 30
0.0
 10
16.5621054784
 20
13.4875094017
 30
0.0
 10
16.5417232115
 20
13.5037593413
 30
0.0
  0
SPLINE
  5
2DD
100
AcDbEntity
  8
0
100
AcDbSpline
 62
7
  6
CONTINUOUS
 70
0
 71
3
 72
11
 73
7
 74
0
 42
0.0000001
 43
0.0000001
 44
0.0000000001
 40
0.0
 40
0.0
 40
0.0
 40
0.0
 40
0.2472607571
 40
0.5047666201
 40
0.7597954733
 40
1.0
 40
1.0
 40
1.0
 40
1.0
 10
16.4287250244
 20
13.5424414014
 30
0.0
 10
16.4387302081
 20
13.5424414014
 30
0.0
 10
16.4591819814
 20
13.5405111922
 30
0.0
 10
16.4890621918
 20
13.5327953339
 30
0.0
 10
16.5171506912
 20
13.5207155218
 30
0.0
 10
16.5341232803
 20
13.5098184526
 30
0.0
 10
16.5417232115
 20
13.5037593413
 30
0.0
  0
SPLINE
  5
2DE
100
AcDbEntity
  8
0
100
AcDbSpline
 62
7
  6
CONTINUOUS
 70
0
 71
3
 72
12
 73
8
 74
0
 42
0.0000001
 43
0.0000001
 44
0.0000000001
 40
0.0
 40
0.0
 40
0.0
 40
0.0
 40
0.0998442575
 40
0.2032927289
 40
0.430824395
 40
0.6965819889
 40
1.0
 40
1.0
 40
1.0
 40
1.0
 10
14.7828339469
 20
13.5049653402
 30
0.0
 10
14.783707908
 20
13.507791462
 30
0.0
 10
14.7861852985
 20
13.5133529005
 30
0.0
 10
14.7939492972
 20
13.5236051377
 30
0.0
 10
14.8088573652
 20
13.5338910198
 30
0.0
 10
14.8315946732
 20
13.5410070639
 30
0.0
 10
14.8485268171
 20
13.5424414014
 30
0.0
 10
14.8575164396
 20
13.5424414014
 30
0.0
  0
SPLINE
  5
2DF
100
AcDbEntity
  8
0
100
AcDbSpline
 62
7
  6
CONTINUOUS
 70
0
 71
3
 72
9
 73
5
 74
0
 42
0.0000001
 43
0.0000001
 44
0.0000000001
 40
0.0
 40
0.0
 40
0.0
 40
0.0
 40
0.2355953265
 40
1.0
 40
1.0
 40
1.0
 40
1.0
 10
16.1055560159
 20
13.4308343823
 30
0.0
 10
16.1008025711
 20
13.437311387
 30
0.0
 10
16.0795377921
 20
13.4640022374
 30
0.0
 10
16.0544340753
 20
13.487509393
 30
0.0
 10
16.0340517975
 20
13.5037593413
 30
0.0
  0
SPLINE
  5
2E0
100
AcDbEntity
  8
0
100
AcDbSpline
 62
7
  6
CONTINUOUS
 70
0
 71
3
 72
11
 73
7
 74
0
 42
0.0000001
 43
0.0000001
 44
0.0000000001
 40
0.0
 40
0.0
 40
0.0
 40
0.0
 40
0.2472607571
 40
0.5047666201
 40
0.7597954733
 40
1.0
 40
1.0
 40
1.0
 40
1.0
 10
15.9210536104
 20
13.5424414014
 30
0.0
 10
15.9310587941
 20
13.5424414014
 30
0.0
 10
15.9515105674
 20
13.5405111922
 30
0.0
 10
15.9813907778
 20
13.5327953339
 30
0.0
 10
16.0094792772
 20
13.5207155218
 30
0.0
 10
16.0264518663
 20
13.5098184526
 30
0.0
 10
16.0340517975
 20
13.5037593413
 30
0.0
  0
SPLINE
  5
2E1
100
AcDbEntity
  8
0
100
AcDbSpline
 62
7
  6
CONTINUOUS
 70
0
 71
3
 72
9
 73
5
 74
0
 42
0.0000001
 43
0.0000001
 44
0.0000000001
 40
0.0
 40
0.0
 40
0.0
 40
0.0
 40
0.2355953265
 40
1.0
 40
1.0
 40
1.0
 40
1.0
 10
15.5978846018
 20
13.4308343823
 30
0.0
 10
15.593131157
 20
13.437311387
 30
0.0
 10
15.5718663781
 20
13.4640022374
 30
0.0
 10
15.5467626613
 20
13.487509393
 30
0.0
 10
15.5263803835
 20
13.5037593413
 30
0.0
  0
SPLINE
  5
2E2
100
AcDbEntity
  8
0
100
AcDbSpline
 62
7
  6
CONTINUOUS
 70
0
 71
3
 72
11
 73
7
 74
0
 42
0.0000001
 43
0.0000001
 44
0.0000000001
 40
0.0
 40
0.0
 40
0.0
 40
0.0
 40
0.2472607571
 40
0.5047666201
 40
0.7597954733
 40
1.0
 40
1.0
 40
1.0
 40
1.0
 10
15.4133821964
 20
13.5424414014
 30
0.0
 10
15.42338738
 20
13.5424414014
 30
0.0
 10
15.4438391534
 20
13.5405111922
 30
0.0
 10
15.4737193638
 20
13.5327953339
 30
0.0
 10
15.5018078632
 20
13.5207155218
 30
0.0
 10
15.5187804523
 20
13.5098184526
 30
0.0
 10
15.5263803835
 20
13.5037593413
 30
0.0
  0
SPLINE
  5
2E3
100
AcDbEntity
  8
0
100
AcDbSpline
 62
7
  6
CONTINUOUS
 70
0
 71
3
 72
12
 73
8
 74
0
 42
0.0000001
 43
0.0000001
 44
0.0000000001
 40
0.0
 40
0.0
 40
0.0
 40
0.0
 40
0.0998442575
 40
0.2032927289
 40
0.430824395
 40
0.6965819889
 40
1.0
 40
1.0
 40
1.0
 40
1.0
 10
15.2905053609
 20
13.5049653402
 30
0.0
 10
15.291379322
 20
13.507791462
 30
0.0
 10
15.2938567125
 20
13.5133529005
 30
0.0
 10
15.3016207112
 20
13.5236051377
 30
0.0
 10
15.3165287792
 20
13.5338910198
 30
0.0
 10
15.3392660872
 20
13.5410070639
 30
0.0
 10
15.3561982311
 20
13.5424414014
 30
0.0
 10
15.3651878536
 20
13.5424414014
 30
0.0
  0
SPLINE
  5
2E4
100
AcDbEntity
  8
0
100
AcDbSpline
 62
7
  6
CONTINUOUS
 70
0
 71
3
 72
9
 73
5
 74
0
 42
0.0000001
 43
0.0000001
 44
0.0000000001
 40
0.0
 40
0.0
 40
0.0
 40
0.0
 40
0.2355953265
 40
1.0
 40
1.0
 40
1.0
 40
1.0
 10
15.0902131878
 20
13.4308343823
 30
0.0
 10
15.085459743
 20
13.437311387
 30
0.0
 10
15.0641949641
 20
13.4640022374
 30
0.0
 10
15.0390912472
 20
13.487509393
 30
0.0
 10
15.0187089695
 20
13.5037593413
 30
0.0
  0
SPLINE
  5
2E5
100
AcDbEntity
  8
0
100
AcDbSpline
 62
7
  6
CONTINUOUS
 70
0
 71
3
 72
11
 73
7
 74
0
 42
0.0000001
 43
0.0000001
 44
0.0000000001
 40
0.0
 40
0.0
 40
0.0
 40
0.0
 40
0.2472607571
 40
0.5047666201
 40
0.7597954733
 40
1.0
 40
1.0
 40
1.0
 40
1.0
 10
14.9057107823
 20
13.5424414014
 30
0.0
 10
14.915715966
 20
13.5424414014
 30
0.0
 10
14.9361677394
 20
13.5405111922
 30
0.0
 10
14.9660479497
 20
13.5327953339
 30
0.0
 10
14.9941364491
 20
13.5207155218
 30
0.0
 10
15.0111090383
 20
13.5098184526
 30
0.0
 10
15.0187089695
 20
13.5037593413
 30
0.0
  0
SPLINE
  5
2E6
100
AcDbEntity
  8
0
100
AcDbSpline
 62
7
  6
CONTINUOUS
 70
0
 71
3
 72
9
 73
5
 74
0
 42
0.0000001
 43
0.0000001
 44
0.0000000001
 40
0.0
 40
0.0
 40
0.0
 40
0.0
 40
0.4871870484
 40
1.0
 40
1.0
 40
1.0
 40
1.0
 10
14.2583236868
 20
11.8075790252
 30
0.0
 10
14.2551806346
 20
11.7960592851
 30
0.0
 10
14.2520371644
 20
11.7714061973
 30
0.0
 10
14.2553718099
 20
11.7468546612
 30
0.0
 10
14.2583922126
 20
11.7346540662
 30
0.0
  0
SPLINE
  5
2E7
100
AcDbEntity
  8
0
100
AcDbSpline
 62
7
  6
CONTINUOUS
 70
0
 71
3
 72
9
 73
5
 74
0
 42
0.0000001
 43
0.0000001
 44
0.0000000001
 40
0.0
 40
0.0
 40
0.0
 40
0.0
 40
0.4871870484
 40
1.0
 40
1.0
 40
1.0
 40
1.0
 10
14.7659951009
 20
11.8075790252
 30
0.0
 10
14.7628520486
 20
11.7960592851
 30
0.0
 10
14.7597085784
 20
11.7714061973
 30
0.0
 10
14.763043224
 20
11.7468546612
 30
0.0
 10
14.7660636267
 20
11.7346540662
 30
0.0
  0
SPLINE
  5
2E8
100
AcDbEntity
  8
0
100
AcDbSpline
 62
7
  6
CONTINUOUS
 70
0
 71
3
 72
9
 73
5
 74
0
 42
0.0000001
 43
0.0000001
 44
0.0000000001
 40
0.0
 40
0.0
 40
0.0
 40
0.0
 40
0.4871870484
 40
1.0
 40
1.0
 40
1.0
 40
1.0
 10
15.2736665149
 20
11.8075790252
 30
0.0
 10
15.2705234626
 20
11.7960592851
 30
0.0
 10
15.2673799924
 20
11.7714061973
 30
0.0
 10
15.270714638
 20
11.7468546612
 30
0.0
 10
15.2737350407
 20
11.7346540662
 30
0.0
  0
SPLINE
  5
2E9
100
AcDbEntity
  8
0
100
AcDbSpline
 62
7
  6
CONTINUOUS
 70
0
 71
3
 72
9
 73
5
 74
0
 42
0.0000001
 43
0.0000001
 44
0.0000000001
 40
0.0
 40
0.0
 40
0.0
 40
0.0
 40
0.4871862864
 40
1.0
 40
1.0
 40
1.0
 40
1.0
 10
15.7813379289
 20
11.8075790252
 30
0.0
 10
15.7781948815
 20
11.7960593031
 30
0.0
 10
15.7750514058
 20
11.7714062173
 30
0.0
 10
15.7783860475
 20
11.7468546793
 30
0.0
 10
15.7814064547
 20
11.7346540662
 30
0.0
  0
SPLINE
  5
2EA
100
AcDbEntity
  8
0
100
AcDbSpline
 62
7
  6
CONTINUOUS
 70
0
 71
3
 72
9
 73
5
 74
0
 42
0.0000001
 43
0.0000001
 44
0.0000000001
 40
0.0
 40
0.0
 40
0.0
 40
0.0
 40
0.4871860435
 40
1.0
 40
1.0
 40
1.0
 40
1.0
 10
16.2890093429
 20
11.8075790252
 30
0.0
 10
16.2858662958
 20
11.7960593042
 30
0.0
 10
16.2827225861
 20
11.7714062251
 30
0.0
 10
16.2860574589
 20
11.7468546901
 30
0.0
 10
16.2890778687
 20
11.7346540662
 30
0.0
  0
SPLINE
  5
2EB
100
AcDbEntity
  8
0
100
AcDbSpline
 62
7
  6
CONTINUOUS
 70
0
 71
3
 72
12
 73
8
 74
0
 42
0.0000001
 43
0.0000001
 44
0.0000000001
 40
0.0
 40
0.0
 40
0.0
 40
0.0
 40
0.3034180111
 40
0.569175605
 40
0.7967072711
 40
0.9001557425
 40
1.0
 40
1.0
 40
1.0
 40
1.0
 10
16.5923799113
 20
11.4791685844
 30
0.0
 10
16.6013695339
 20
11.4791685844
 30
0.0
 10
16.6183016777
 20
11.4806029219
 30
0.0
 10
16.6410389858
 20
11.487718966
 30
0.0
 10
16.6559470538
 20
11.4980048482
 30
0.0
 10
16.6637110524
 20
11.5082570853
 30
0.0
 10
16.666188443
 20
11.5138185238
 30
0.0
 10
16.6670624041
 20
11.5166446456
 30
0.0
  0
SPLINE
  5
2EC
100
AcDbEntity
  8
0
100
AcDbSpline
 62
7
  6
CONTINUOUS
 70
0
 71
3
 72
11
 73
7
 74
0
 42
0.0000001
 43
0.0000001
 44
0.0000000001
 40
0.0
 40
0.0
 40
0.0
 40
0.0
 40
0.2402045267
 40
0.4952333799
 40
0.7527392429
 40
1.0
 40
1.0
 40
1.0
 40
1.0
 10
16.4311873815
 20
11.5178506445
 30
0.0
 10
16.4387873127
 20
11.5117915332
 30
0.0
 10
16.4557599018
 20
11.500894464
 30
0.0
 10
16.4838484012
 20
11.4888146519
 30
0.0
 10
16.5137286116
 20
11.4810987936
 30
0.0
 10
16.5341803849
 20
11.4791685844
 30
0.0
 10
16.5441855686
 20
11.4791685844
 30
0.0
  0
SPLINE
  5
2ED
100
AcDbEntity
  8
0
100
AcDbSpline
 62
7
  6
CONTINUOUS
 70
0
 71
3
 72
9
 73
5
 74
0
 42
0.0000001
 43
0.0000001
 44
0.0000000001
 40
0.0
 40
0.0
 40
0.0
 40
0.0
 40
0.2356730812
 40
1.0
 40
1.0
 40
1.0
 40
1.0
 10
16.3596831631
 20
11.5907756035
 30
0.0
 10
16.3644381815
 20
11.5842964546
 30
0.0
 10
16.3857022617
 20
11.5576049655
 30
0.0
 10
16.4108071564
 20
11.5340989563
 30
0.0
 10
16.4311873815
 20
11.5178506445
 30
0.0
  0
SPLINE
  5
2EE
100
AcDbEntity
  8
0
100
AcDbSpline
 62
7
  6
CONTINUOUS
 70
0
 71
3
 72
12
 73
8
 74
0
 42
0.0000001
 43
0.0000001
 44
0.0000000001
 40
0.0
 40
0.0
 40
0.0
 40
0.0
 40
0.3034180111
 40
0.569175605
 40
0.7967072711
 40
0.9001557425
 40
1.0
 40
1.0
 40
1.0
 40
1.0
 10
16.0847084973
 20
11.4791685844
 30
0.0
 10
16.0936981199
 20
11.4791685844
 30
0.0
 10
16.1106302637
 20
11.4806029219
 30
0.0
 10
16.1333675718
 20
11.487718966
 30
0.0
 10
16.1482756398
 20
11.4980048482
 30
0.0
 10
16.1560396384
 20
11.5082570853
 30
0.0
 10
16.1585170289
 20
11.5138185238
 30
0.0
 10
16.1593909901
 20
11.5166446456
 30
0.0
  0
SPLINE
  5
2EF
100
AcDbEntity
  8
0
100
AcDbSpline
 62
7
  6
CONTINUOUS
 70
0
 71
3
 72
11
 73
7
 74
0
 42
0.0000001
 43
0.0000001
 44
0.0000000001
 40
0.0
 40
0.0
 40
0.0
 40
0.0
 40
0.2402045267
 40
0.4952333799
 40
0.7527392429
 40
1.0
 40
1.0
 40
1.0
 40
1.0
 10
15.9235159675
 20
11.5178506445
 30
0.0
 10
15.9311158987
 20
11.5117915332
 30
0.0
 10
15.9480884878
 20
11.500894464
 30
0.0
 10
15.9761769872
 20
11.4888146519
 30
0.0
 10
16.0060571976
 20
11.4810987936
 30
0.0
 10
16.0265089709
 20
11.4791685844
 30
0.0
 10
16.0365141546
 20
11.4791685844
 30
0.0
  0
SPLINE
  5
2F0
100
AcDbEntity
  8
0
100
AcDbSpline
 62
7
  6
CONTINUOUS
 70
0
 71
3
 72
9
 73
5
 74
0
 42
0.0000001
 43
0.0000001
 44
0.0000000001
 40
0.0
 40
0.0
 40
0.0
 40
0.0
 40
0.2355957311
 40
1.0
 40
1.0
 40
1.0
 40
1.0
 10
15.8520117491
 20
11.5907756035
 30
0.0
 10
15.8567652021
 20
11.5842985877
 30
0.0
 10
15.8780299971
 20
11.5576077505
 30
0.0
 10
15.9031337006
 20
11.5341005841
 30
0.0
 10
15.9235159675
 20
11.5178506445
 30
0.0
  0
SPLINE
  5
2F1
100
AcDbEntity
  8
0
100
AcDbSpline
 62
7
  6
CONTINUOUS
 70
0
 71
3
 72
12
 73
8
 74
0
 42
0.0000001
 43
0.0000001
 44
0.0000000001
 40
0.0
 40
0.0
 40
0.0
 40
0.0
 40
0.3034180111
 40
0.569175605
 40
0.7967072711
 40
0.9001557425
 40
1.0
 40
1.0
 40
1.0
 40
1.0
 10
15.5770370833
 20
11.4791685844
 30
0.0
 10
15.5860267059
 20
11.4791685844
 30
0.0
 10
15.6029588497
 20
11.4806029219
 30
0.0
 10
15.6256961578
 20
11.487718966
 30
0.0
 10
15.6406042258
 20
11.4980048482
 30
0.0
 10
15.6483682244
 20
11.5082570853
 30
0.0
 10
15.6508456149
 20
11.5138185238
 30
0.0
 10
15.6517195761
 20
11.5166446456
 30
0.0
  0
SPLINE
  5
2F2
100
AcDbEntity
  8
0
100
AcDbSpline
 62
7
  6
CONTINUOUS
 70
0
 71
3
 72
11
 73
7
 74
0
 42
0.0000001
 43
0.0000001
 44
0.0000000001
 40
0.0
 40
0.0
 40
0.0
 40
0.0
 40
0.2402045267
 40
0.4952333799
 40
0.7527392429
 40
1.0
 40
1.0
 40
1.0
 40
1.0
 10
15.4158445535
 20
11.5178506445
 30
0.0
 10
15.4234444847
 20
11.5117915332
 30
0.0
 10
15.4404170738
 20
11.500894464
 30
0.0
 10
15.4685055732
 20
11.4888146519
 30
0.0
 10
15.4983857835
 20
11.4810987936
 30
0.0
 10
15.5188375569
 20
11.4791685844
 30
0.0
 10
15.5288427406
 20
11.4791685844
 30
0.0
  0
SPLINE
  5
2F3
100
AcDbEntity
  8
0
100
AcDbSpline
 62
7
  6
CONTINUOUS
 70
0
 71
3
 72
9
 73
5
 74
0
 42
0.0000001
 43
0.0000001
 44
0.0000000001
 40
0.0
 40
0.0
 40
0.0
 40
0.0
 40
0.2355953265
 40
1.0
 40
1.0
 40
1.0
 40
1.0
 10
15.3443403351
 20
11.5907756035
 30
0.0
 10
15.3490937799
 20
11.5842985988
 30
0.0
 10
15.3703585588
 20
11.5576077484
 30
0.0
 10
15.3954622757
 20
11.5341005928
 30
0.0
 10
15.4158445535
 20
11.5178506445
 30
0.0
  0
SPLINE
  5
2F4
100
AcDbEntity
  8
0
100
AcDbSpline
 62
7
  6
CONTINUOUS
 70
0
 71
3
 72
12
 73
8
 74
0
 42
0.0000001
 43
0.0000001
 44
0.0000000001
 40
0.0
 40
0.0
 40
0.0
 40
0.0
 40
0.3034180111
 40
0.569175605
 40
0.7967072711
 40
0.9001557425
 40
1.0
 40
1.0
 40
1.0
 40
1.0
 10
15.0693656693
 20
11.4791685844
 30
0.0
 10
15.0783552919
 20
11.4791685844
 30
0.0
 10
15.0952874357
 20
11.4806029219
 30
0.0
 10
15.1180247438
 20
11.487718966
 30
0.0
 10
15.1329328118
 20
11.4980048482
 30
0.0
 10
15.1406968104
 20
11.5082570853
 30
0.0
 10
15.1431742009
 20
11.5138185238
 30
0.0
 10
15.1440481621
 20
11.5166446456
 30
0.0
  0
SPLINE
  5
2F5
100
AcDbEntity
  8
0
100
AcDbSpline
 62
7
  6
CONTINUOUS
 70
0
 71
3
 72
11
 73
7
 74
0
 42
0.0000001
 43
0.0000001
 44
0.0000000001
 40
0.0
 40
0.0
 40
0.0
 40
0.0
 40
0.2402045267
 40
0.4952333799
 40
0.7527392429
 40
1.0
 40
1.0
 40
1.0
 40
1.0
 10
14.9081731394
 20
11.5178506445
 30
0.0
 10
14.9157730707
 20
11.5117915332
 30
0.0
 10
14.9327456598
 20
11.500894464
 30
0.0
 10
14.9608341592
 20
11.4888146519
 30
0.0
 10
14.9907143695
 20
11.4810987936
 30
0.0
 10
15.0111661429
 20
11.4791685844
 30
0.0
 10
15.0211713266
 20
11.4791685844
 30
0.0
  0
SPLINE
  5
2F6
100
AcDbEntity
  8
0
100
AcDbSpline
 62
7
  6
CONTINUOUS
 70
0
 71
3
 72
9
 73
5
 74
0
 42
0.0000001
 43
0.0000001
 44
0.0000000001
 40
0.0
 40
0.0
 40
0.0
 40
0.0
 40
0.2355953265
 40
1.0
 40
1.0
 40
1.0
 40
1.0
 10
14.8366689211
 20
11.5907756035
 30
0.0
 10
14.8414223659
 20
11.5842985988
 30
0.0
 10
14.8626871448
 20
11.5576077484
 30
0.0
 10
14.8877908617
 20
11.5341005928
 30
0.0
 10
14.9081731394
 20
11.5178506445
 30
0.0
  0
SPLINE
  5
2F7
100
AcDbEntity
  8
0
100
AcDbSpline
 62
7
  6
CONTINUOUS
 70
0
 71
3
 72
12
 73
8
 74
0
 42
0.0000001
 43
0.0000001
 44
0.0000000001
 40
0.0
 40
0.0
 40
0.0
 40
0.0
 40
0.3034180111
 40
0.569175605
 40
0.7967072711
 40
0.9001557425
 40
1.0
 40
1.0
 40
1.0
 40
1.0
 10
14.5616942553
 20
11.4791685844
 30
0.0
 10
14.5706838778
 20
11.4791685844
 30
0.0
 10
14.5876160217
 20
11.4806029219
 30
0.0
 10
14.6103533297
 20
11.487718966
 30
0.0
 10
14.6252613977
 20
11.4980048482
 30
0.0
 10
14.6330253964
 20
11.5082570853
 30
0.0
 10
14.6355027869
 20
11.5138185238
 30
0.0
 10
14.636376748
 20
11.5166446456
 30
0.0
  0
SPLINE
  5
2F8
100
AcDbEntity
  8
0
100
AcDbSpline
 62
7
  6
CONTINUOUS
 70
0
 71
3
 72
11
 73
7
 74
0
 42
0.0000001
 43
0.0000001
 44
0.0000000001
 40
0.0
 40
0.0
 40
0.0
 40
0.0
 40
0.2402045267
 40
0.4952333799
 40
0.7527392429
 40
1.0
 40
1.0
 40
1.0
 40
1.0
 10
14.4005017254
 20
11.5178506445
 30
0.0
 10
14.4081016566
 20
11.5117915332
 30
0.0
 10
14.4250742458
 20
11.500894464
 30
0.0
 10
14.4531627452
 20
11.4888146519
 30
0.0
 10
14.4830429555
 20
11.4810987936
 30
0.0
 10
14.5034947289
 20
11.4791685844
 30
0.0
 10
14.5134999126
 20
11.4791685844
 30
0.0
  0
SPLINE
  5
2F9
100
AcDbEntity
  8
0
100
AcDbSpline
 62
7
  6
CONTINUOUS
 70
0
 71
3
 72
9
 73
5
 74
0
 42
0.0000001
 43
0.0000001
 44
0.0000000001
 40
0.0
 40
0.0
 40
0.0
 40
0.0
 40
0.2355953265
 40
1.0
 40
1.0
 40
1.0
 40
1.0
 10
14.3289975071
 20
11.5907756035
 30
0.0
 10
14.3337509519
 20
11.5842985988
 30
0.0
 10
14.3550157308
 20
11.5576077484
 30
0.0
 10
14.3801194477
 20
11.5341005928
 30
0.0
 10
14.4005017254
 20
11.5178506445
 30
0.0
  0
SPLINE
  5
2FA
100
AcDbEntity
  8
0
100
AcDbSpline
 62
7
  6
CONTINUOUS
 70
0
 71
3
 72
12
 73
8
 74
0
 42
0.0000001
 43
0.0000001
 44
0.0000000001
 40
0.0
 40
0.0
 40
0.0
 40
0.0
 40
0.3034180111
 40
0.569175605
 40
0.7967072711
 40
0.9001557425
 40
1.0
 40
1.0
 40
1.0
 40
1.0
 10
14.0540228412
 20
11.4791685844
 30
0.0
 10
14.0630124638
 20
11.4791685844
 30
0.0
 10
14.0799446077
 20
11.4806029219
 30
0.0
 10
14.1026819157
 20
11.487718966
 30
0.0
 10
14.1175899837
 20
11.4980048482
 30
0.0
 10
14.1253539824
 20
11.5082570853
 30
0.0
 10
14.1278313729
 20
11.5138185238
 30
0.0
 10
14.128705334
 20
11.5166446456
 30
0.0
  0
SPLINE
  5
2FB
100
AcDbEntity
  8
0
100
AcDbSpline
 62
7
  6
CONTINUOUS
 70
0
 71
3
 72
11
 73
7
 74
0
 42
0.0000001
 43
0.0000001
 44
0.0000000001
 40
0.0
 40
0.0
 40
0.0
 40
0.0
 40
0.2402045267
 40
0.4952333799
 40
0.7527392429
 40
1.0
 40
1.0
 40
1.0
 40
1.0
 10
13.8928303114
 20
11.5178506445
 30
0.0
 10
13.9004302426
 20
11.5117915332
 30
0.0
 10
13.9174028317
 20
11.500894464
 30
0.0
 10
13.9454913311
 20
11.4888146519
 30
0.0
 10
13.9753715415
 20
11.4810987936
 30
0.0
 10
13.9958233149
 20
11.4791685844
 30
0.0
 10
14.0058284985
 20
11.4791685844
 30
0.0
  0
SPLINE
  5
2FC
100
AcDbEntity
  8
0
100
AcDbSpline
 62
7
  6
CONTINUOUS
 70
0
 71
3
 72
9
 73
5
 74
0
 42
0.0000001
 43
0.0000001
 44
0.0000000001
 40
0.0
 40
0.0
 40
0.0
 40
0.0
 40
0.2355953265
 40
1.0
 40
1.0
 40
1.0
 40
1.0
 10
13.8213260931
 20
11.5907756035
 30
0.0
 10
13.8260795379
 20
11.5842985988
 30
0.0
 10
13.8473443168
 20
11.5576077484
 30
0.0
 10
13.8724480336
 20
11.5341005928
 30
0.0
 10
13.8928303114
 20
11.5178506445
 30
0.0
  0
SPLINE
  5
2FD
100
AcDbEntity
  8
0
100
AcDbSpline
 62
7
  6
CONTINUOUS
 70
0
 71
3
 72
9
 73
5
 74
0
 42
0.0000001
 43
0.0000001
 44
0.0000000001
 40
0.0
 40
0.0
 40
0.0
 40
0.0
 40
0.4871870484
 40
1.0
 40
1.0
 40
1.0
 40
1.0
 10
13.7506522728
 20
11.8075790252
 30
0.0
 10
13.7475092205
 20
11.7960592851
 30
0.0
 10
13.7443657504
 20
11.7714061973
 30
0.0
 10
13.7477003959
 20
11.7468546612
 30
0.0
 10
13.7507207986
 20
11.7346540662
 30
0.0
  0
SPLINE
  5
2FE
100
AcDbEntity
  8
0
100
AcDbSpline
 62
7
  6
CONTINUOUS
 70
0
 71
3
 72
12
 73
8
 74
0
 42
0.0000001
 43
0.0000001
 44
0.0000000001
 40
0.0
 40
0.0
 40
0.0
 40
0.0
 40
0.0998442575
 40
0.2032927289
 40
0.430824395
 40
0.6965819889
 40
1.0
 40
1.0
 40
1.0
 40
1.0
 10
15.7981767749
 20
13.5049653402
 30
0.0
 10
15.799050736
 20
13.507791462
 30
0.0
 10
15.8015281266
 20
13.5133529005
 30
0.0
 10
15.8092921252
 20
13.5236051377
 30
0.0
 10
15.8242001932
 20
13.5338910198
 30
0.0
 10
15.8469375013
 20
13.5410070639
 30
0.0
 10
15.8638696451
 20
13.5424414014
 30
0.0
 10
15.8728592677
 20
13.5424414014
 30
0.0
  0
SPLINE
  5
2FF
100
AcDbEntity
  8
0
100
AcDbSpline
 62
7
  6
CONTINUOUS
 70
0
 71
3
 72
12
 73
8
 74
0
 42
0.0000001
 43
0.0000001
 44
0.0000000001
 40
0.0
 40
0.0
 40
0.0
 40
0.0
 40
0.0998442575
 40
0.2032927289
 40
0.430824395
 40
0.6965819889
 40
1.0
 40
1.0
 40
1.0
 40
1.0
 10
16.3058481889
 20
13.5049653402
 30
0.0
 10
16.3067221501
 20
13.507791462
 30
0.0
 10
16.3091995406
 20
13.5133529005
 30
0.0
 10
16.3169635392
 20
13.5236051377
 30
0.0
 10
16.3318716072
 20
13.5338910198
 30
0.0
 10
16.3546089153
 20
13.5410070639
 30
0.0
 10
16.3715410591
 20
13.5424414014
 30
0.0
 10
16.3805306817
 20
13.5424414014
 30
0.0
  0
SPLINE
  5
300
100
AcDbEntity
  8
0
100
AcDbSpline
 62
7
  6
CONTINUOUS
 70
0
 71
3
 72
12
 73
8
 74
0
 42
0.0000001
 43
0.0000001
 44
0.0000000001
 40
0.0
 40
0.0
 40
0.0
 40
0.0
 40
0.0998442575
 40
0.2032927289
 40
0.430824395
 40
0.6965819889
 40
1.0
 40
1.0
 40
1.0
 40
1.0
 10
16.8135196029
 20
13.5049653402
 30
0.0
 10
16.8143935641
 20
13.507791462
 30
0.0
 10
16.8168709546
 20
13.5133529005
 30
0.0
 10
16.8246349532
 20
13.5236051377
 30
0.0
 10
16.8395430212
 20
13.5338910198
 30
0.0
 10
16.8622803293
 20
13.5410070639
 30
0.0
 10
16.8792124731
 20
13.5424414014
 30
0.0
 10
16.8882020957
 20
13.5424414014
 30
0.0
  0
SPLINE
  5
301
100
AcDbEntity
  8
0
100
AcDbSpline
 62
7
  6
CONTINUOUS
 70
0
 71
3
 72
11
 73
7
 74
0
 42
0.0000001
 43
0.0000001
 44
0.0000000001
 40
0.0
 40
0.0
 40
0.0
 40
0.0
 40
0.2575925021
 40
0.5240194776
 40
0.777584884
 40
1.0
 40
1.0
 40
1.0
 40
1.0
 10
13.732176728
 20
11.6306554231
 30
0.0
 10
13.7408135919
 20
11.6306554231
 30
0.0
 10
13.7584149756
 20
11.6285217628
 30
0.0
 10
13.7833309009
 20
11.6203142106
 30
0.0
 10
13.8051033125
 20
11.6079187574
 30
0.0
 10
13.8169138629
 20
11.596787672
 30
0.0
 10
13.8213260931
 20
11.5907756035
 30
0.0
  0
SPLINE
  5
302
100
AcDbEntity
  8
0
100
AcDbSpline
 62
7
  6
CONTINUOUS
 70
0
 71
3
 72
11
 73
7
 74
0
 42
0.0000001
 43
0.0000001
 44
0.0000000001
 40
0.0
 40
0.0
 40
0.0
 40
0.0
 40
0.222415116
 40
0.4759805224
 40
0.7424074979
 40
1.0
 40
1.0
 40
1.0
 40
1.0
 10
14.5825417738
 20
13.4308343823
 30
0.0
 10
14.586954004
 20
13.4248223138
 30
0.0
 10
14.5987645544
 20
13.4136912284
 30
0.0
 10
14.6205369659
 20
13.4012957752
 30
0.0
 10
14.6454528913
 20
13.393088223
 30
0.0
 10
14.6630542749
 20
13.3909545627
 30
0.0
 10
14.6716911388
 20
13.3909545627
 30
0.0
  0
SPLINE
  5
303
100
AcDbEntity
  8
0
100
AcDbSpline
 62
7
  6
CONTINUOUS
 70
0
 71
3
 72
9
 73
5
 74
0
 42
0.0000001
 43
0.0000001
 44
0.0000000001
 40
0.0
 40
0.0
 40
0.0
 40
0.0
 40
0.5127289516
 40
1.0
 40
1.0
 40
1.0
 40
1.0
 10
13.7507207986
 20
11.7346540662
 30
0.0
 10
13.7513384152
 20
11.7321592697
 30
0.0
 10
13.7519880475
 20
11.7271263328
 30
0.0
 10
13.7512213959
 20
11.7220918639
 30
0.0
 10
13.7505000932
 20
11.7197582998
 30
0.0
  0
SPLINE
  5
304
100
AcDbEntity
  8
0
100
AcDbSpline
 62
7
  6
CONTINUOUS
 70
0
 71
3
 72
9
 73
5
 74
0
 42
0.0000001
 43
0.0000001
 44
0.0000000001
 40
0.0
 40
0.0
 40
0.0
 40
0.0
 40
0.2582734054
 40
1.0
 40
1.0
 40
1.0
 40
1.0
 10
14.2248711413
 20
13.3909545627
 30
0.0
 10
14.2262074184
 20
13.3909545627
 30
0.0
 10
14.2313802907
 20
13.39105489
 30
0.0
 10
14.2365493878
 20
13.3915602776
 30
0.0
 10
14.2403319606
 20
13.3922078763
 30
0.0
  0
SPLINE
  5
305
100
AcDbEntity
  8
0
100
AcDbSpline
 62
7
  6
CONTINUOUS
 70
0
 71
3
 72
11
 73
7
 74
0
 42
0.0000001
 43
0.0000001
 44
0.0000000001
 40
0.0
 40
0.0
 40
0.0
 40
0.0
 40
0.2575925021
 40
0.5240194776
 40
0.777584884
 40
1.0
 40
1.0
 40
1.0
 40
1.0
 10
14.2398481421
 20
11.6306554231
 30
0.0
 10
14.248485006
 20
11.6306554231
 30
0.0
 10
14.2660863896
 20
11.6285217628
 30
0.0
 10
14.2910023149
 20
11.6203142106
 30
0.0
 10
14.3127747265
 20
11.6079187574
 30
0.0
 10
14.3245852769
 20
11.596787672
 30
0.0
 10
14.3289975071
 20
11.5907756035
 30
0.0
  0
SPLINE
  5
306
100
AcDbEntity
  8
0
100
AcDbSpline
 62
7
  6
CONTINUOUS
 70
0
 71
3
 72
11
 73
7
 74
0
 42
0.0000001
 43
0.0000001
 44
0.0000000001
 40
0.0
 40
0.0
 40
0.0
 40
0.0
 40
0.222415116
 40
0.4759805224
 40
0.7424074979
 40
1.0
 40
1.0
 40
1.0
 40
1.0
 10
15.0902131878
 20
13.4308343823
 30
0.0
 10
15.094625418
 20
13.4248223138
 30
0.0
 10
15.1064359684
 20
13.4136912284
 30
0.0
 10
15.1282083799
 20
13.4012957752
 30
0.0
 10
15.1531243053
 20
13.393088223
 30
0.0
 10
15.1707256889
 20
13.3909545627
 30
0.0
 10
15.1793625528
 20
13.3909545627
 30
0.0
  0
SPLINE
  5
307
100
AcDbEntity
  8
0
100
AcDbSpline
 62
7
  6
CONTINUOUS
 70
0
 71
3
 72
9
 73
5
 74
0
 42
0.0000001
 43
0.0000001
 44
0.0000000001
 40
0.0
 40
0.0
 40
0.0
 40
0.0
 40
0.5127289516
 40
1.0
 40
1.0
 40
1.0
 40
1.0
 10
14.2583922126
 20
11.7346540662
 30
0.0
 10
14.2590098292
 20
11.7321592697
 30
0.0
 10
14.2596594615
 20
11.7271263328
 30
0.0
 10
14.2588928099
 20
11.7220918639
 30
0.0
 10
14.2581715072
 20
11.7197582998
 30
0.0
  0
SPLINE
  5
308
100
AcDbEntity
  8
0
100
AcDbSpline
 62
7
  6
CONTINUOUS
 70
0
 71
3
 72
9
 73
5
 74
0
 42
0.0000001
 43
0.0000001
 44
0.0000000001
 40
0.0
 40
0.0
 40
0.0
 40
0.0
 40
0.2582734054
 40
1.0
 40
1.0
 40
1.0
 40
1.0
 10
14.7325425553
 20
13.3909545627
 30
0.0
 10
14.7338788324
 20
13.3909545627
 30
0.0
 10
14.7390517047
 20
13.39105489
 30
0.0
 10
14.7442208018
 20
13.3915602776
 30
0.0
 10
14.7480033746
 20
13.3922078763
 30
0.0
  0
SPLINE
  5
309
100
AcDbEntity
  8
0
100
AcDbSpline
 62
7
  6
CONTINUOUS
 70
0
 71
3
 72
11
 73
7
 74
0
 42
0.0000001
 43
0.0000001
 44
0.0000000001
 40
0.0
 40
0.0
 40
0.0
 40
0.0
 40
0.2575925021
 40
0.5240194776
 40
0.777584884
 40
1.0
 40
1.0
 40
1.0
 40
1.0
 10
14.7475195561
 20
11.6306554231
 30
0.0
 10
14.75615642
 20
11.6306554231
 30
0.0
 10
14.7737578036
 20
11.6285217628
 30
0.0
 10
14.798673729
 20
11.6203142106
 30
0.0
 10
14.8204461405
 20
11.6079187574
 30
0.0
 10
14.8322566909
 20
11.596787672
 30
0.0
 10
14.8366689211
 20
11.5907756035
 30
0.0
  0
SPLINE
  5
30A
100
AcDbEntity
  8
0
100
AcDbSpline
 62
7
  6
CONTINUOUS
 70
0
 71
3
 72
11
 73
7
 74
0
 42
0.0000001
 43
0.0000001
 44
0.0000000001
 40
0.0
 40
0.0
 40
0.0
 40
0.0
 40
0.222415116
 40
0.4759805224
 40
0.7424074979
 40
1.0
 40
1.0
 40
1.0
 40
1.0
 10
15.5978846018
 20
13.4308343823
 30
0.0
 10
15.602296832
 20
13.4248223138
 30
0.0
 10
15.6141073824
 20
13.4136912284
 30
0.0
 10
15.635879794
 20
13.4012957752
 30
0.0
 10
15.6607957193
 20
13.393088223
 30
0.0
 10
15.678397103
 20
13.3909545627
 30
0.0
 10
15.6870339669
 20
13.3909545627
 30
0.0
  0
SPLINE
  5
30B
100
AcDbEntity
  8
0
100
AcDbSpline
 62
7
  6
CONTINUOUS
 70
0
 71
3
 72
9
 73
5
 74
0
 42
0.0000001
 43
0.0000001
 44
0.0000000001
 40
0.0
 40
0.0
 40
0.0
 40
0.0
 40
0.5127289516
 40
1.0
 40
1.0
 40
1.0
 40
1.0
 10
14.7660636267
 20
11.7346540662
 30
0.0
 10
14.7666812433
 20
11.7321592697
 30
0.0
 10
14.7673308755
 20
11.7271263328
 30
0.0
 10
14.7665642239
 20
11.7220918639
 30
0.0
 10
14.7658429212
 20
11.7197582998
 30
0.0
  0
SPLINE
  5
30C
100
AcDbEntity
  8
0
100
AcDbSpline
 62
7
  6
CONTINUOUS
 70
0
 71
3
 72
9
 73
5
 74
0
 42
0.0000001
 43
0.0000001
 44
0.0000000001
 40
0.0
 40
0.0
 40
0.0
 40
0.0
 40
0.2582734054
 40
1.0
 40
1.0
 40
1.0
 40
1.0
 10
15.2402139693
 20
13.3909545627
 30
0.0
 10
15.2415502465
 20
13.3909545627
 30
0.0
 10
15.2467231187
 20
13.39105489
 30
0.0
 10
15.2518922158
 20
13.3915602776
 30
0.0
 10
15.2556747886
 20
13.3922078763
 30
0.0
  0
SPLINE
  5
30D
100
AcDbEntity
  8
0
100
AcDbSpline
 62
7
  6
CONTINUOUS
 70
0
 71
3
 72
11
 73
7
 74
0
 42
0.0000001
 43
0.0000001
 44
0.0000000001
 40
0.0
 40
0.0
 40
0.0
 40
0.0
 40
0.2575925021
 40
0.5240194776
 40
0.777584884
 40
1.0
 40
1.0
 40
1.0
 40
1.0
 10
15.2551909701
 20
11.6306554231
 30
0.0
 10
15.263827834
 20
11.6306554231
 30
0.0
 10
15.2814292176
 20
11.6285217628
 30
0.0
 10
15.306345143
 20
11.6203142106
 30
0.0
 10
15.3281175545
 20
11.6079187574
 30
0.0
 10
15.3399281049
 20
11.596787672
 30
0.0
 10
15.3443403351
 20
11.5907756035
 30
0.0
  0
SPLINE
  5
30E
100
AcDbEntity
  8
0
100
AcDbSpline
 62
7
  6
CONTINUOUS
 70
0
 71
3
 72
11
 73
7
 74
0
 42
0.0000001
 43
0.0000001
 44
0.0000000001
 40
0.0
 40
0.0
 40
0.0
 40
0.0
 40
0.222415116
 40
0.4759805224
 40
0.7424074979
 40
1.0
 40
1.0
 40
1.0
 40
1.0
 10
16.1055560159
 20
13.4308343823
 30
0.0
 10
16.1099682461
 20
13.4248223138
 30
0.0
 10
16.1217787964
 20
13.4136912284
 30
0.0
 10
16.143551208
 20
13.4012957752
 30
0.0
 10
16.1684671334
 20
13.393088223
 30
0.0
 10
16.186068517
 20
13.3909545627
 30
0.0
 10
16.1947053809
 20
13.3909545627
 30
0.0
  0
SPLINE
  5
30F
100
AcDbEntity
  8
0
100
AcDbSpline
 62
7
  6
CONTINUOUS
 70
0
 71
3
 72
9
 73
5
 74
0
 42
0.0000001
 43
0.0000001
 44
0.0000000001
 40
0.0
 40
0.0
 40
0.0
 40
0.0
 40
0.5127289516
 40
1.0
 40
1.0
 40
1.0
 40
1.0
 10
15.2737350407
 20
11.7346540662
 30
0.0
 10
15.2743526573
 20
11.7321592697
 30
0.0
 10
15.2750022895
 20
11.7271263328
 30
0.0
 10
15.2742356379
 20
11.7220918639
 30
0.0
 10
15.2735143352
 20
11.7197582998
 30
0.0
  0
SPLINE
  5
310
100
AcDbEntity
  8
0
100
AcDbSpline
 62
7
  6
CONTINUOUS
 70
0
 71
3
 72
9
 73
5
 74
0
 42
0.0000001
 43
0.0000001
 44
0.0000000001
 40
0.0
 40
0.0
 40
0.0
 40
0.0
 40
0.2582734054
 40
1.0
 40
1.0
 40
1.0
 40
1.0
 10
15.7478853834
 20
13.3909545627
 30
0.0
 10
15.7492216605
 20
13.3909545627
 30
0.0
 10
15.7543945327
 20
13.39105489
 30
0.0
 10
15.7595636299
 20
13.3915602776
 30
0.0
 10
15.7633462026
 20
13.3922078763
 30
0.0
  0
SPLINE
  5
311
100
AcDbEntity
  8
0
100
AcDbSpline
 62
7
  6
CONTINUOUS
 70
0
 71
3
 72
11
 73
7
 74
0
 42
0.0000001
 43
0.0000001
 44
0.0000000001
 40
0.0
 40
0.0
 40
0.0
 40
0.0
 40
0.2575925021
 40
0.5240194776
 40
0.777584884
 40
1.0
 40
1.0
 40
1.0
 40
1.0
 10
15.7628623841
 20
11.6306554231
 30
0.0
 10
15.771499248
 20
11.6306554231
 30
0.0
 10
15.7891006316
 20
11.6285217628
 30
0.0
 10
15.814016557
 20
11.6203142106
 30
0.0
 10
15.8357889685
 20
11.6079187574
 30
0.0
 10
15.8475995189
 20
11.596787672
 30
0.0
 10
15.8520117491
 20
11.5907756035
 30
0.0
  0
SPLINE
  5
312
100
AcDbEntity
  8
0
100
AcDbSpline
 62
7
  6
CONTINUOUS
 70
0
 71
3
 72
11
 73
7
 74
0
 42
0.0000001
 43
0.0000001
 44
0.0000000001
 40
0.0
 40
0.0
 40
0.0
 40
0.0
 40
0.222415116
 40
0.4759805224
 40
0.7424074979
 40
1.0
 40
1.0
 40
1.0
 40
1.0
 10
16.6132274299
 20
13.4308343823
 30
0.0
 10
16.6176396601
 20
13.4248223138
 30
0.0
 10
16.6294502105
 20
13.4136912284
 30
0.0
 10
16.651222622
 20
13.4012957752
 30
0.0
 10
16.6761385474
 20
13.393088223
 30
0.0
 10
16.693739931
 20
13.3909545627
 30
0.0
 10
16.7023767949
 20
13.3909545627
 30
0.0
  0
SPLINE
  5
313
100
AcDbEntity
  8
0
100
AcDbSpline
 62
7
  6
CONTINUOUS
 70
0
 71
3
 72
9
 73
5
 74
0
 42
0.0000001
 43
0.0000001
 44
0.0000000001
 40
0.0
 40
0.0
 40
0.0
 40
0.0
 40
0.5127289516
 40
1.0
 40
1.0
 40
1.0
 40
1.0
 10
15.7814064547
 20
11.7346540662
 30
0.0
 10
15.7820240713
 20
11.7321592697
 30
0.0
 10
15.7826737036
 20
11.7271263328
 30
0.0
 10
15.7819070519
 20
11.7220918639
 30
0.0
 10
15.7811857493
 20
11.7197582998
 30
0.0
  0
SPLINE
  5
314
100
AcDbEntity
  8
0
100
AcDbSpline
 62
7
  6
CONTINUOUS
 70
0
 71
3
 72
9
 73
5
 74
0
 42
0.0000001
 43
0.0000001
 44
0.0000000001
 40
0.0
 40
0.0
 40
0.0
 40
0.0
 40
0.2582734054
 40
1.0
 40
1.0
 40
1.0
 40
1.0
 10
16.2555567974
 20
13.3909545627
 30
0.0
 10
16.2568930745
 20
13.3909545627
 30
0.0
 10
16.2620659467
 20
13.39105489
 30
0.0
 10
16.2672350439
 20
13.3915602776
 30
0.0
 10
16.2710176167
 20
13.3922078763
 30
0.0
  0
SPLINE
  5
315
100
AcDbEntity
  8
0
100
AcDbSpline
 62
7
  6
CONTINUOUS
 70
0
 71
3
 72
11
 73
7
 74
0
 42
0.0000001
 43
0.0000001
 44
0.0000000001
 40
0.0
 40
0.0
 40
0.0
 40
0.0
 40
0.2575925021
 40
0.5240194776
 40
0.777584884
 40
1.0
 40
1.0
 40
1.0
 40
1.0
 10
16.2705337981
 20
11.6306554231
 30
0.0
 10
16.279170662
 20
11.6306554231
 30
0.0
 10
16.2967720456
 20
11.6285217628
 30
0.0
 10
16.321687971
 20
11.6203142106
 30
0.0
 10
16.3434603826
 20
11.6079187574
 30
0.0
 10
16.3552709329
 20
11.596787672
 30
0.0
 10
16.3596831631
 20
11.5907756035
 30
0.0
  0
SPLINE
  5
316
100
AcDbEntity
  8
0
100
AcDbSpline
 62
7
  6
CONTINUOUS
 70
0
 71
3
 72
11
 73
7
 74
0
 42
0.0000001
 43
0.0000001
 44
0.0000000001
 40
0.0
 40
0.0
 40
0.0
 40
0.0
 40
0.222415116
 40
0.4759805224
 40
0.7424074979
 40
1.0
 40
1.0
 40
1.0
 40
1.0
 10
17.1208988439
 20
13.4308343823
 30
0.0
 10
17.1253110741
 20
13.4248223138
 30
0.0
 10
17.1371216245
 20
13.4136912284
 30
0.0
 10
17.158894036
 20
13.4012957752
 30
0.0
 10
17.1838099614
 20
13.393088223
 30
0.0
 10
17.201411345
 20
13.3909545627
 30
0.0
 10
17.2100482089
 20
13.3909545627
 30
0.0
  0
SPLINE
  5
317
100
AcDbEntity
  8
0
100
AcDbSpline
 62
7
  6
CONTINUOUS
 70
0
 71
3
 72
9
 73
5
 74
0
 42
0.0000001
 43
0.0000001
 44
0.0000000001
 40
0.0
 40
0.0
 40
0.0
 40
0.0
 40
0.5127289516
 40
1.0
 40
1.0
 40
1.0
 40
1.0
 10
16.2890778687
 20
11.7346540662
 30
0.0
 10
16.2896954853
 20
11.7321592697
 30
0.0
 10
16.2903451176
 20
11.7271263328
 30
0.0
 10
16.2895784659
 20
11.7220918639
 30
0.0
 10
16.2888571633
 20
11.7197582998
 30
0.0
  0
SPLINE
  5
318
100
AcDbEntity
  8
0
100
AcDbSpline
 62
7
  6
CONTINUOUS
 70
0
 71
3
 72
9
 73
5
 74
0
 42
0.0000001
 43
0.0000001
 44
0.0000000001
 40
0.0
 40
0.0
 40
0.0
 40
0.0
 40
0.2582734054
 40
1.0
 40
1.0
 40
1.0
 40
1.0
 10
16.7632282114
 20
13.3909545627
 30
0.0
 10
16.7645644885
 20
13.3909545627
 30
0.0
 10
16.7697373608
 20
13.39105489
 30
0.0
 10
16.7749064579
 20
13.3915602776
 30
0.0
 10
16.7786890307
 20
13.3922078763
 30
0.0
  0
SPLINE
  5
319
100
AcDbEntity
  8
0
100
AcDbSpline
 62
7
  6
CONTINUOUS
 70
0
 71
3
 72
9
 73
5
 74
0
 42
0.0000001
 43
0.0000001
 44
0.0000000001
 40
0.0
 40
0.0
 40
0.0
 40
0.0
 40
0.4871860435
 40
1.0
 40
1.0
 40
1.0
 40
1.0
 10
16.6674133024
 20
11.5178506445
 30
0.0
 10
16.6705563495
 20
11.5293703655
 30
0.0
 10
16.6737000593
 20
11.5540234446
 30
0.0
 10
16.6703651865
 20
11.5785749796
 30
0.0
 10
16.6673447766
 20
11.5907756035
 30
0.0
  0
SPLINE
  5
31A
100
AcDbEntity
  8
0
100
AcDbSpline
 62
7
  6
CONTINUOUS
 70
0
 71
3
 72
11
 73
7
 74
0
 42
0.0000001
 43
0.0000001
 44
0.0000000001
 40
0.0
 40
0.0
 40
0.0
 40
0.0
 40
0.2022213647
 40
0.4300649414
 40
0.6961820034
 40
1.0
 40
1.0
 40
1.0
 40
1.0
 10
15.7811857493
 20
11.7197582998
 30
0.0
 10
15.7800077217
 20
11.7159471359
 30
0.0
 10
15.7754043583
 20
11.7084093881
 30
0.0
 10
15.76384254
 20
11.700493279
 30
0.0
 10
15.7486775413
 20
11.6957240837
 30
0.0
 10
15.7373906341
 20
11.6947742466
 30
0.0
 10
15.7313974357
 20
11.6947742466
 30
0.0
  0
SPLINE
  5
31B
100
AcDbEntity
  8
0
100
AcDbSpline
 62
7
  6
CONTINUOUS
 70
0
 71
3
 72
11
 73
7
 74
0
 42
0.0000001
 43
0.0000001
 44
0.0000000001
 40
0.0
 40
0.0
 40
0.0
 40
0.0
 40
0.2022213647
 40
0.4300649414
 40
0.6961820034
 40
1.0
 40
1.0
 40
1.0
 40
1.0
 10
14.2581715072
 20
11.7197582998
 30
0.0
 10
14.2569934797
 20
11.7159471359
 30
0.0
 10
14.2523901162
 20
11.7084093881
 30
0.0
 10
14.240828298
 20
11.700493279
 30
0.0
 10
14.2256632993
 20
11.6957240837
 30
0.0
 10
14.2143763921
 20
11.6947742466
 30
0.0
 10
14.2083831936
 20
11.6947742466
 30
0.0
  0
SPLINE
  5
31C
100
AcDbEntity
  8
0
100
AcDbSpline
 62
7
  6
CONTINUOUS
 70
0
 71
3
 72
9
 73
5
 74
0
 42
0.0000001
 43
0.0000001
 44
0.0000000001
 40
0.0
 40
0.0
 40
0.0
 40
0.0
 40
0.2355953265
 40
1.0
 40
1.0
 40
1.0
 40
1.0
 10
14.0583824121
 20
11.7346540662
 30
0.0
 10
14.0536289673
 20
11.7411310709
 30
0.0
 10
14.0323641884
 20
11.7678219213
 30
0.0
 10
14.0072604715
 20
11.7913290768
 30
0.0
 10
13.9868781937
 20
11.8075790252
 30
0.0
  0
SPLINE
  5
31D
100
AcDbEntity
  8
0
100
AcDbSpline
 62
7
  6
CONTINUOUS
 70
0
 71
3
 72
9
 73
5
 74
0
 42
0.0000001
 43
0.0000001
 44
0.0000000001
 40
0.0
 40
0.0
 40
0.0
 40
0.0
 40
0.4871862864
 40
1.0
 40
1.0
 40
1.0
 40
1.0
 10
16.1597418884
 20
11.5178506445
 30
0.0
 10
16.1628849358
 20
11.5293703666
 30
0.0
 10
16.1660284115
 20
11.5540234524
 30
0.0
 10
16.1626937698
 20
11.5785749904
 30
0.0
 10
16.1596733626
 20
11.5907756035
 30
0.0
  0
SPLINE
  5
31E
100
AcDbEntity
  8
0
100
AcDbSpline
 62
7
  6
CONTINUOUS
 70
0
 71
3
 72
11
 73
7
 74
0
 42
0.0000001
 43
0.0000001
 44
0.0000000001
 40
0.0
 40
0.0
 40
0.0
 40
0.0
 40
0.2022213647
 40
0.4300649414
 40
0.6961820034
 40
1.0
 40
1.0
 40
1.0
 40
1.0
 10
14.7658429212
 20
11.7197582998
 30
0.0
 10
14.7646648937
 20
11.7159471359
 30
0.0
 10
14.7600615302
 20
11.7084093881
 30
0.0
 10
14.748499712
 20
11.700493279
 30
0.0
 10
14.7333347133
 20
11.6957240837
 30
0.0
 10
14.7220478061
 20
11.6947742466
 30
0.0
 10
14.7160546076
 20
11.6947742466
 30
0.0
  0
SPLINE
  5
31F
100
AcDbEntity
  8
0
100
AcDbSpline
 62
7
  6
CONTINUOUS
 70
0
 71
3
 72
12
 73
8
 74
0
 42
0.0000001
 43
0.0000001
 44
0.0000000001
 40
0.0
 40
0.0
 40
0.0
 40
0.0
 40
0.3034180111
 40
0.569175605
 40
0.7967072711
 40
0.9001557425
 40
1.0
 40
1.0
 40
1.0
 40
1.0
 10
14.3333570779
 20
11.8462610853
 30
0.0
 10
14.3243674554
 20
11.8462610853
 30
0.0
 10
14.3074353115
 20
11.8448267478
 30
0.0
 10
14.2846980035
 20
11.8377107037
 30
0.0
 10
14.2697899354
 20
11.8274248215
 30
0.0
 10
14.2620259368
 20
11.8171725844
 30
0.0
 10
14.2595485463
 20
11.8116111459
 30
0.0
 10
14.2586745852
 20
11.8087850241
 30
0.0
  0
SPLINE
  5
320
100
AcDbEntity
  8
0
100
AcDbSpline
 62
7
  6
CONTINUOUS
 70
0
 71
3
 72
11
 73
7
 74
0
 42
0.0000001
 43
0.0000001
 44
0.0000000001
 40
0.0
 40
0.0
 40
0.0
 40
0.0
 40
0.2402045267
 40
0.4952333799
 40
0.7527392429
 40
1.0
 40
1.0
 40
1.0
 40
1.0
 10
14.4945496078
 20
11.8075790252
 30
0.0
 10
14.4869496766
 20
11.8136381365
 30
0.0
 10
14.4699770874
 20
11.8245352057
 30
0.0
 10
14.441888588
 20
11.8366150178
 30
0.0
 10
14.4120083777
 20
11.8443308761
 30
0.0
 10
14.3915566043
 20
11.8462610853
 30
0.0
 10
14.3815514206
 20
11.8462610853
 30
0.0
  0
SPLINE
  5
321
100
AcDbEntity
  8
0
100
AcDbSpline
 62
7
  6
CONTINUOUS
 70
0
 71
3
 72
9
 73
5
 74
0
 42
0.0000001
 43
0.0000001
 44
0.0000000001
 40
0.0
 40
0.0
 40
0.0
 40
0.0
 40
0.4871870484
 40
1.0
 40
1.0
 40
1.0
 40
1.0
 10
15.6520704744
 20
11.5178506445
 30
0.0
 10
15.6552135267
 20
11.5293703846
 30
0.0
 10
15.6583569968
 20
11.5540234724
 30
0.0
 10
15.6550223513
 20
11.5785750085
 30
0.0
 10
15.6520019486
 20
11.5907756035
 30
0.0
  0
SPLINE
  5
322
100
AcDbEntity
  8
0
100
AcDbSpline
 62
7
  6
CONTINUOUS
 70
0
 71
3
 72
9
 73
5
 74
0
 42
0.0000001
 43
0.0000001
 44
0.0000000001
 40
0.0
 40
0.0
 40
0.0
 40
0.0
 40
0.5127289516
 40
1.0
 40
1.0
 40
1.0
 40
1.0
 10
14.1289877065
 20
11.5907756035
 30
0.0
 10
14.1283700899
 20
11.5932704
 30
0.0
 10
14.1277204577
 20
11.5983033369
 30
0.0
 10
14.1284871093
 20
11.6033378058
 30
0.0
 10
14.129208412
 20
11.6056713699
 30
0.0
  0
SPLINE
  5
323
100
AcDbEntity
  8
0
100
AcDbSpline
 62
7
  6
CONTINUOUS
 70
0
 71
3
 72
9
 73
5
 74
0
 42
0.0000001
 43
0.0000001
 44
0.0000000001
 40
0.0
 40
0.0
 40
0.0
 40
0.0
 40
0.2355953265
 40
1.0
 40
1.0
 40
1.0
 40
1.0
 10
14.5660538261
 20
11.7346540662
 30
0.0
 10
14.5613003813
 20
11.7411310709
 30
0.0
 10
14.5400356024
 20
11.7678219213
 30
0.0
 10
14.5149318855
 20
11.7913290768
 30
0.0
 10
14.4945496078
 20
11.8075790252
 30
0.0
  0
SPLINE
  5
324
100
AcDbEntity
  8
0
100
AcDbSpline
 62
7
  6
CONTINUOUS
 70
0
 71
3
 72
11
 73
7
 74
0
 42
0.0000001
 43
0.0000001
 44
0.0000000001
 40
0.0
 40
0.0
 40
0.0
 40
0.0
 40
0.2575925021
 40
0.5240194776
 40
0.777584884
 40
1.0
 40
1.0
 40
1.0
 40
1.0
 10
14.1475317771
 20
11.6947742466
 30
0.0
 10
14.1388949132
 20
11.6947742466
 30
0.0
 10
14.1212935296
 20
11.6969079069
 30
0.0
 10
14.0963776042
 20
11.7051154591
 30
0.0
 10
14.0746051927
 20
11.7175109123
 30
0.0
 10
14.0627946423
 20
11.7286419977
 30
0.0
 10
14.0583824121
 20
11.7346540662
 30
0.0
  0
SPLINE
  5
325
100
AcDbEntity
  8
0
100
AcDbSpline
 62
7
  6
CONTINUOUS
 70
0
 71
3
 72
11
 73
7
 74
0
 42
0.0000001
 43
0.0000001
 44
0.0000000001
 40
0.0
 40
0.0
 40
0.0
 40
0.0
 40
0.2022213647
 40
0.4300649414
 40
0.6961820034
 40
1.0
 40
1.0
 40
1.0
 40
1.0
 10
13.7505000932
 20
11.7197582998
 30
0.0
 10
13.7493220656
 20
11.7159471359
 30
0.0
 10
13.7447187022
 20
11.7084093881
 30
0.0
 10
13.733156884
 20
11.700493279
 30
0.0
 10
13.7179918852
 20
11.6957240837
 30
0.0
 10
13.7067049781
 20
11.6947742466
 30
0.0
 10
13.7007117796
 20
11.6947742466
 30
0.0
  0
SPLINE
  5
326
100
AcDbEntity
  8
0
100
AcDbSpline
 62
7
  6
CONTINUOUS
 70
0
 71
3
 72
12
 73
8
 74
0
 42
0.0000001
 43
0.0000001
 44
0.0000000001
 40
0.0
 40
0.0
 40
0.0
 40
0.0
 40
0.3034180111
 40
0.569175605
 40
0.7967072711
 40
0.9001557425
 40
1.0
 40
1.0
 40
1.0
 40
1.0
 10
14.8410284919
 20
11.8462610853
 30
0.0
 10
14.8320388694
 20
11.8462610853
 30
0.0
 10
14.8151067255
 20
11.8448267478
 30
0.0
 10
14.7923694175
 20
11.8377107037
 30
0.0
 10
14.7774613495
 20
11.8274248215
 30
0.0
 10
14.7696973508
 20
11.8171725844
 30
0.0
 10
14.7672199603
 20
11.8116111459
 30
0.0
 10
14.7663459992
 20
11.8087850241
 30
0.0
  0
SPLINE
  5
327
100
AcDbEntity
  8
0
100
AcDbSpline
 62
7
  6
CONTINUOUS
 70
0
 71
3
 72
9
 73
5
 74
0
 42
0.0000001
 43
0.0000001
 44
0.0000000001
 40
0.0
 40
0.0
 40
0.0
 40
0.0
 40
0.4871870484
 40
1.0
 40
1.0
 40
1.0
 40
1.0
 10
15.1443990604
 20
11.5178506445
 30
0.0
 10
15.1475421127
 20
11.5293703846
 30
0.0
 10
15.1506855828
 20
11.5540234724
 30
0.0
 10
15.1473509373
 20
11.5785750085
 30
0.0
 10
15.1443305346
 20
11.5907756035
 30
0.0
  0
SPLINE
  5
328
100
AcDbEntity
  8
0
100
AcDbSpline
 62
7
  6
CONTINUOUS
 70
0
 71
3
 72
11
 73
7
 74
0
 42
0.0000001
 43
0.0000001
 44
0.0000000001
 40
0.0
 40
0.0
 40
0.0
 40
0.0
 40
0.2402045267
 40
0.4952333799
 40
0.7527392429
 40
1.0
 40
1.0
 40
1.0
 40
1.0
 10
15.0022210218
 20
11.8075790252
 30
0.0
 10
14.9946210906
 20
11.8136381365
 30
0.0
 10
14.9776485014
 20
11.8245352057
 30
0.0
 10
14.949560002
 20
11.8366150178
 30
0.0
 10
14.9196797917
 20
11.8443308761
 30
0.0
 10
14.8992280183
 20
11.8462610853
 30
0.0
 10
14.8892228347
 20
11.8462610853
 30
0.0
  0
SPLINE
  5
329
100
AcDbEntity
  8
0
100
AcDbSpline
 62
7
  6
CONTINUOUS
 70
0
 71
3
 72
9
 73
5
 74
0
 42
0.0000001
 43
0.0000001
 44
0.0000000001
 40
0.0
 40
0.0
 40
0.0
 40
0.0
 40
0.5127289516
 40
1.0
 40
1.0
 40
1.0
 40
1.0
 10
14.6366591206
 20
11.5907756035
 30
0.0
 10
14.6360415039
 20
11.5932704
 30
0.0
 10
14.6353918717
 20
11.5983033369
 30
0.0
 10
14.6361585233
 20
11.6033378058
 30
0.0
 10
14.636879826
 20
11.6056713699
 30
0.0
  0
SPLINE
  5
32A
100
AcDbEntity
  8
0
100
AcDbSpline
 62
7
  6
CONTINUOUS
 70
0
 71
3
 72
9
 73
5
 74
0
 42
0.0000001
 43
0.0000001
 44
0.0000000001
 40
0.0
 40
0.0
 40
0.0
 40
0.0
 40
0.2355953265
 40
1.0
 40
1.0
 40
1.0
 40
1.0
 10
15.0737252401
 20
11.7346540662
 30
0.0
 10
15.0689717953
 20
11.7411310709
 30
0.0
 10
15.0477070164
 20
11.7678219213
 30
0.0
 10
15.0226032995
 20
11.7913290768
 30
0.0
 10
15.0022210218
 20
11.8075790252
 30
0.0
  0
SPLINE
  5
32B
100
AcDbEntity
  8
0
100
AcDbSpline
 62
7
  6
CONTINUOUS
 70
0
 71
3
 72
11
 73
7
 74
0
 42
0.0000001
 43
0.0000001
 44
0.0000000001
 40
0.0
 40
0.0
 40
0.0
 40
0.0
 40
0.2575925021
 40
0.5240194776
 40
0.777584884
 40
1.0
 40
1.0
 40
1.0
 40
1.0
 10
14.6552031911
 20
11.6947742466
 30
0.0
 10
14.6465663272
 20
11.6947742466
 30
0.0
 10
14.6289649436
 20
11.6969079069
 30
0.0
 10
14.6040490182
 20
11.7051154591
 30
0.0
 10
14.5822766067
 20
11.7175109123
 30
0.0
 10
14.5704660563
 20
11.7286419977
 30
0.0
 10
14.5660538261
 20
11.7346540662
 30
0.0
  0
SPLINE
  5
32C
100
AcDbEntity
  8
0
100
AcDbSpline
 62
7
  6
CONTINUOUS
 70
0
 71
3
 72
11
 73
7
 74
0
 42
0.0000001
 43
0.0000001
 44
0.0000000001
 40
0.0
 40
0.0
 40
0.0
 40
0.0
 40
0.2022213647
 40
0.4300649414
 40
0.6961820034
 40
1.0
 40
1.0
 40
1.0
 40
1.0
 10
15.2735143352
 20
11.7197582998
 30
0.0
 10
15.2723363077
 20
11.7159471359
 30
0.0
 10
15.2677329443
 20
11.7084093881
 30
0.0
 10
15.256171126
 20
11.700493279
 30
0.0
 10
15.2410061273
 20
11.6957240837
 30
0.0
 10
15.2297192201
 20
11.6947742466
 30
0.0
 10
15.2237260216
 20
11.6947742466
 30
0.0
  0
SPLINE
  5
32D
100
AcDbEntity
  8
0
100
AcDbSpline
 62
7
  6
CONTINUOUS
 70
0
 71
3
 72
12
 73
8
 74
0
 42
0.0000001
 43
0.0000001
 44
0.0000000001
 40
0.0
 40
0.0
 40
0.0
 40
0.0
 40
0.3034180111
 40
0.569175605
 40
0.7967072711
 40
0.9001557425
 40
1.0
 40
1.0
 40
1.0
 40
1.0
 10
15.348699906
 20
11.8462610853
 30
0.0
 10
15.3397102834
 20
11.8462610853
 30
0.0
 10
15.3227781395
 20
11.8448267478
 30
0.0
 10
15.3000408315
 20
11.8377107037
 30
0.0
 10
15.2851327635
 20
11.8274248215
 30
0.0
 10
15.2773687648
 20
11.8171725844
 30
0.0
 10
15.2748913743
 20
11.8116111459
 30
0.0
 10
15.2740174132
 20
11.8087850241
 30
0.0
  0
SPLINE
  5
32E
100
AcDbEntity
  8
0
100
AcDbSpline
 62
7
  6
CONTINUOUS
 70
0
 71
3
 72
9
 73
5
 74
0
 42
0.0000001
 43
0.0000001
 44
0.0000000001
 40
0.0
 40
0.0
 40
0.0
 40
0.0
 40
0.4871870484
 40
1.0
 40
1.0
 40
1.0
 40
1.0
 10
14.6367276464
 20
11.5178506445
 30
0.0
 10
14.6398706986
 20
11.5293703846
 30
0.0
 10
14.6430141688
 20
11.5540234724
 30
0.0
 10
14.6396795232
 20
11.5785750085
 30
0.0
 10
14.6366591206
 20
11.5907756035
 30
0.0
  0
SPLINE
  5
32F
100
AcDbEntity
  8
0
100
AcDbSpline
 62
7
  6
CONTINUOUS
 70
0
 71
3
 72
9
 73
5
 74
0
 42
0.0000001
 43
0.0000001
 44
0.0000000001
 40
0.0
 40
0.0
 40
0.0
 40
0.0
 40
0.5127289516
 40
1.0
 40
1.0
 40
1.0
 40
1.0
 10
15.1443305346
 20
11.5907756035
 30
0.0
 10
15.143712918
 20
11.5932704
 30
0.0
 10
15.1430632857
 20
11.5983033369
 30
0.0
 10
15.1438299373
 20
11.6033378058
 30
0.0
 10
15.14455124
 20
11.6056713699
 30
0.0
  0
SPLINE
  5
330
100
AcDbEntity
  8
0
100
AcDbSpline
 62
7
  6
CONTINUOUS
 70
0
 71
3
 72
11
 73
7
 74
0
 42
0.0000001
 43
0.0000001
 44
0.0000000001
 40
0.0
 40
0.0
 40
0.0
 40
0.0
 40
0.2402045267
 40
0.4952333799
 40
0.7527392429
 40
1.0
 40
1.0
 40
1.0
 40
1.0
 10
15.5098924358
 20
11.8075790252
 30
0.0
 10
15.5022925046
 20
11.8136381365
 30
0.0
 10
15.4853199155
 20
11.8245352057
 30
0.0
 10
15.4572314161
 20
11.8366150178
 30
0.0
 10
15.4273512057
 20
11.8443308761
 30
0.0
 10
15.4068994323
 20
11.8462610853
 30
0.0
 10
15.3968942487
 20
11.8462610853
 30
0.0
  0
SPLINE
  5
331
100
AcDbEntity
  8
0
100
AcDbSpline
 62
7
  6
CONTINUOUS
 70
0
 71
3
 72
11
 73
7
 74
0
 42
0.0000001
 43
0.0000001
 44
0.0000000001
 40
0.0
 40
0.0
 40
0.0
 40
0.0
 40
0.2575925021
 40
0.5240194776
 40
0.777584884
 40
1.0
 40
1.0
 40
1.0
 40
1.0
 10
15.1628746051
 20
11.6947742466
 30
0.0
 10
15.1542377412
 20
11.6947742466
 30
0.0
 10
15.1366363576
 20
11.6969079069
 30
0.0
 10
15.1117204323
 20
11.7051154591
 30
0.0
 10
15.0899480207
 20
11.7175109123
 30
0.0
 10
15.0781374703
 20
11.7286419977
 30
0.0
 10
15.0737252401
 20
11.7346540662
 30
0.0
  0
SPLINE
  5
332
100
AcDbEntity
  8
0
100
AcDbSpline
 62
7
  6
CONTINUOUS
 70
0
 71
3
 72
9
 73
5
 74
0
 42
0.0000001
 43
0.0000001
 44
0.0000000001
 40
0.0
 40
0.0
 40
0.0
 40
0.0
 40
0.2355953265
 40
1.0
 40
1.0
 40
1.0
 40
1.0
 10
15.5813966542
 20
11.7346540662
 30
0.0
 10
15.5766432093
 20
11.7411310709
 30
0.0
 10
15.5553784304
 20
11.7678219213
 30
0.0
 10
15.5302747136
 20
11.7913290768
 30
0.0
 10
15.5098924358
 20
11.8075790252
 30
0.0
  0
SPLINE
  5
333
100
AcDbEntity
  8
0
100
AcDbSpline
 62
7
  6
CONTINUOUS
 70
0
 71
3
 72
11
 73
7
 74
0
 42
0.0000001
 43
0.0000001
 44
0.0000000001
 40
0.0
 40
0.0
 40
0.0
 40
0.0
 40
0.2022213647
 40
0.4300649414
 40
0.6961820034
 40
1.0
 40
1.0
 40
1.0
 40
1.0
 10
16.2888571633
 20
11.7197582998
 30
0.0
 10
16.2876791357
 20
11.7159471359
 30
0.0
 10
16.2830757723
 20
11.7084093881
 30
0.0
 10
16.271513954
 20
11.700493279
 30
0.0
 10
16.2563489553
 20
11.6957240837
 30
0.0
 10
16.2450620482
 20
11.6947742466
 30
0.0
 10
16.2390688497
 20
11.6947742466
 30
0.0
  0
SPLINE
  5
334
100
AcDbEntity
  8
0
100
AcDbSpline
 62
7
  6
CONTINUOUS
 70
0
 71
3
 72
9
 73
5
 74
0
 42
0.0000001
 43
0.0000001
 44
0.0000000001
 40
0.0
 40
0.0
 40
0.0
 40
0.0
 40
0.4871870484
 40
1.0
 40
1.0
 40
1.0
 40
1.0
 10
14.1290562323
 20
11.5178506445
 30
0.0
 10
14.1321992846
 20
11.5293703846
 30
0.0
 10
14.1353427548
 20
11.5540234724
 30
0.0
 10
14.1320081092
 20
11.5785750085
 30
0.0
 10
14.1289877065
 20
11.5907756035
 30
0.0
  0
SPLINE
  5
335
100
AcDbEntity
  8
0
100
AcDbSpline
 62
7
  6
CONTINUOUS
 70
0
 71
3
 72
12
 73
8
 74
0
 42
0.0000001
 43
0.0000001
 44
0.0000000001
 40
0.0
 40
0.0
 40
0.0
 40
0.0
 40
0.3034180111
 40
0.569175605
 40
0.7967072711
 40
0.9001557425
 40
1.0
 40
1.0
 40
1.0
 40
1.0
 10
15.85637132
 20
11.8462610853
 30
0.0
 10
15.8473816974
 20
11.8462610853
 30
0.0
 10
15.8304495536
 20
11.8448267478
 30
0.0
 10
15.8077122455
 20
11.8377107037
 30
0.0
 10
15.7928041775
 20
11.8274248215
 30
0.0
 10
15.7850401789
 20
11.8171725844
 30
0.0
 10
15.7825627883
 20
11.8116111459
 30
0.0
 10
15.7816888272
 20
11.8087850241
 30
0.0
  0
SPLINE
  5
336
100
AcDbEntity
  8
0
100
AcDbSpline
 62
7
  6
CONTINUOUS
 70
0
 71
3
 72
9
 73
5
 74
0
 42
0.0000001
 43
0.0000001
 44
0.0000000001
 40
0.0
 40
0.0
 40
0.0
 40
0.0
 40
0.5127289516
 40
1.0
 40
1.0
 40
1.0
 40
1.0
 10
15.6520019486
 20
11.5907756035
 30
0.0
 10
15.651384332
 20
11.5932704
 30
0.0
 10
15.6507346997
 20
11.5983033369
 30
0.0
 10
15.6515013514
 20
11.6033378058
 30
0.0
 10
15.652222654
 20
11.6056713699
 30
0.0
  0
SPLINE
  5
337
100
AcDbEntity
  8
0
100
AcDbSpline
 62
7
  6
CONTINUOUS
 70
0
 71
3
 72
11
 73
7
 74
0
 42
0.0000001
 43
0.0000001
 44
0.0000000001
 40
0.0
 40
0.0
 40
0.0
 40
0.0
 40
0.2575925021
 40
0.5240194776
 40
0.777584884
 40
1.0
 40
1.0
 40
1.0
 40
1.0
 10
15.6705460192
 20
11.6947742466
 30
0.0
 10
15.6619091553
 20
11.6947742466
 30
0.0
 10
15.6443077716
 20
11.6969079069
 30
0.0
 10
15.6193918463
 20
11.7051154591
 30
0.0
 10
15.5976194347
 20
11.7175109123
 30
0.0
 10
15.5858088844
 20
11.7286419977
 30
0.0
 10
15.5813966542
 20
11.7346540662
 30
0.0
  0
SPLINE
  5
338
100
AcDbEntity
  8
0
100
AcDbSpline
 62
7
  6
CONTINUOUS
 70
0
 71
3
 72
11
 73
7
 74
0
 42
0.0000001
 43
0.0000001
 44
0.0000000001
 40
0.0
 40
0.0
 40
0.0
 40
0.0
 40
0.2402045267
 40
0.4952333799
 40
0.7527392429
 40
1.0
 40
1.0
 40
1.0
 40
1.0
 10
16.0175638498
 20
11.8075790252
 30
0.0
 10
16.0099639186
 20
11.8136381365
 30
0.0
 10
15.9929913295
 20
11.8245352057
 30
0.0
 10
15.9649028301
 20
11.8366150178
 30
0.0
 10
15.9350226197
 20
11.8443308761
 30
0.0
 10
15.9145708464
 20
11.8462610853
 30
0.0
 10
15.9045656627
 20
11.8462610853
 30
0.0
  0
SPLINE
  5
339
100
AcDbEntity
  8
0
100
AcDbSpline
 62
7
  6
CONTINUOUS
 70
0
 71
3
 72
9
 73
5
 74
0
 42
0.0000001
 43
0.0000001
 44
0.0000000001
 40
0.0
 40
0.0
 40
0.0
 40
0.0
 40
0.2355957311
 40
1.0
 40
1.0
 40
1.0
 40
1.0
 10
16.0890680682
 20
11.7346540662
 30
0.0
 10
16.0843146152
 20
11.741131082
 30
0.0
 10
16.0630498202
 20
11.7678219192
 30
0.0
 10
16.0379461166
 20
11.7913290856
 30
0.0
 10
16.0175638498
 20
11.8075790252
 30
0.0
  0
SPLINE
  5
33A
100
AcDbEntity
  8
0
100
AcDbSpline
 62
7
  6
CONTINUOUS
 70
0
 71
3
 72
12
 73
8
 74
0
 42
0.0000001
 43
0.0000001
 44
0.0000000001
 40
0.0
 40
0.0
 40
0.0
 40
0.0
 40
0.3034180111
 40
0.569175605
 40
0.7967072711
 40
0.9001557425
 40
1.0
 40
1.0
 40
1.0
 40
1.0
 10
16.364042734
 20
11.8462610853
 30
0.0
 10
16.3550531114
 20
11.8462610853
 30
0.0
 10
16.3381209676
 20
11.8448267478
 30
0.0
 10
16.3153836595
 20
11.8377107037
 30
0.0
 10
16.3004755915
 20
11.8274248215
 30
0.0
 10
16.2927115929
 20
11.8171725844
 30
0.0
 10
16.2902342024
 20
11.8116111459
 30
0.0
 10
16.2893602412
 20
11.8087850241
 30
0.0
  0
SPLINE
  5
33B
100
AcDbEntity
  8
0
100
AcDbSpline
 62
7
  6
CONTINUOUS
 70
0
 71
3
 72
9
 73
5
 74
0
 42
0.0000001
 43
0.0000001
 44
0.0000000001
 40
0.0
 40
0.0
 40
0.0
 40
0.0
 40
0.5127289516
 40
1.0
 40
1.0
 40
1.0
 40
1.0
 10
16.1596733626
 20
11.5907756035
 30
0.0
 10
16.159055746
 20
11.5932704
 30
0.0
 10
16.1584061137
 20
11.5983033369
 30
0.0
 10
16.1591727654
 20
11.6033378058
 30
0.0
 10
16.159894068
 20
11.6056713699
 30
0.0
  0
SPLINE
  5
33C
100
AcDbEntity
  8
0
100
AcDbSpline
 62
7
  6
CONTINUOUS
 70
0
 71
3
 72
11
 73
7
 74
0
 42
0.0000001
 43
0.0000001
 44
0.0000000001
 40
0.0
 40
0.0
 40
0.0
 40
0.0
 40
0.2575925021
 40
0.5240194776
 40
0.777584884
 40
1.0
 40
1.0
 40
1.0
 40
1.0
 10
16.1782174332
 20
11.6947742466
 30
0.0
 10
16.1695805693
 20
11.6947742466
 30
0.0
 10
16.1519791857
 20
11.6969079069
 30
0.0
 10
16.1270632603
 20
11.7051154591
 30
0.0
 10
16.1052908488
 20
11.7175109123
 30
0.0
 10
16.0934802984
 20
11.7286419977
 30
0.0
 10
16.0890680682
 20
11.7346540662
 30
0.0
  0
SPLINE
  5
33D
100
AcDbEntity
  8
0
100
AcDbSpline
 62
7
  6
CONTINUOUS
 70
0
 71
3
 72
12
 73
8
 74
0
 42
0.0000001
 43
0.0000001
 44
0.0000000001
 40
0.0
 40
0.0
 40
0.0
 40
0.0
 40
0.3034180111
 40
0.569175605
 40
0.7967072711
 40
0.9001557425
 40
1.0
 40
1.0
 40
1.0
 40
1.0
 10
13.8256856639
 20
11.8462610853
 30
0.0
 10
13.8166960413
 20
11.8462610853
 30
0.0
 10
13.7997638975
 20
11.8448267478
 30
0.0
 10
13.7770265894
 20
11.8377107037
 30
0.0
 10
13.7621185214
 20
11.8274248215
 30
0.0
 10
13.7543545228
 20
11.8171725844
 30
0.0
 10
13.7518771323
 20
11.8116111459
 30
0.0
 10
13.7510031711
 20
11.8087850241
 30
0.0
  0
SPLINE
  5
33E
100
AcDbEntity
  8
0
100
AcDbSpline
 62
7
  6
CONTINUOUS
 70
0
 71
3
 72
11
 73
7
 74
0
 42
0.0000001
 43
0.0000001
 44
0.0000000001
 40
0.0
 40
0.0
 40
0.0
 40
0.0
 40
0.2402045267
 40
0.4952333799
 40
0.7527392429
 40
1.0
 40
1.0
 40
1.0
 40
1.0
 10
13.9868781937
 20
11.8075790252
 30
0.0
 10
13.9792782625
 20
11.8136381365
 30
0.0
 10
13.9623056734
 20
11.8245352057
 30
0.0
 10
13.934217174
 20
11.8366150178
 30
0.0
 10
13.9043369637
 20
11.8443308761
 30
0.0
 10
13.8838851903
 20
11.8462610853
 30
0.0
 10
13.8738800066
 20
11.8462610853
 30
0.0
  0
SPLINE
  5
33F
100
AcDbEntity
  8
0
100
AcDbSpline
 62
7
  6
CONTINUOUS
 70
0
 71
3
 72
9
 73
5
 74
0
 42
0.0000001
 43
0.0000001
 44
0.0000000001
 40
0.0
 40
0.0
 40
0.0
 40
0.0
 40
0.5127289516
 40
1.0
 40
1.0
 40
1.0
 40
1.0
 10
16.6673447766
 20
11.5907756035
 30
0.0
 10
16.66672716
 20
11.5932704
 30
0.0
 10
16.6660775277
 20
11.5983033369
 30
0.0
 10
16.6668441794
 20
11.6033378058
 30
0.0
 10
16.6675654821
 20
11.6056713699
 30
0.0
  0
SPLINE
  5
340
100
AcDbEntity
  8
0
100
AcDbSpline
 62
7
  6
CONTINUOUS
 70
0
 71
3
 72
11
 73
7
 74
0
 42
0.0000001
 43
0.0000001
 44
0.0000000001
 40
0.0
 40
0.0
 40
0.0
 40
0.0
 40
0.2402045267
 40
0.4952333799
 40
0.7527392429
 40
1.0
 40
1.0
 40
1.0
 40
1.0
 10
16.5252352638
 20
11.8075790252
 30
0.0
 10
16.5176353326
 20
11.8136381365
 30
0.0
 10
16.5006627435
 20
11.8245352057
 30
0.0
 10
16.4725742441
 20
11.8366150178
 30
0.0
 10
16.4426940338
 20
11.8443308761
 30
0.0
 10
16.4222422604
 20
11.8462610853
 30
0.0
 10
16.4122370767
 20
11.8462610853
 30
0.0
  0
SPLINE
  5
341
100
AcDbEntity
  8
0
100
AcDbSpline
 62
7
  6
CONTINUOUS
 70
0
 71
3
 72
11
 73
7
 74
0
 42
0.0000001
 43
0.0000001
 44
0.0000000001
 40
0.0
 40
0.0
 40
0.0
 40
0.0
 40
0.2575925021
 40
0.5240194776
 40
0.777584884
 40
1.0
 40
1.0
 40
1.0
 40
1.0
 10
16.6858888472
 20
11.6947742466
 30
0.0
 10
16.6772519833
 20
11.6947742466
 30
0.0
 10
16.6596505997
 20
11.6969079069
 30
0.0
 10
16.6347346743
 20
11.7051154591
 30
0.0
 10
16.6129622628
 20
11.7175109123
 30
0.0
 10
16.6011517124
 20
11.7286419977
 30
0.0
 10
16.5967394822
 20
11.7346540662
 30
0.0
  0
SPLINE
  5
342
100
AcDbEntity
  8
0
100
AcDbSpline
 62
7
  6
CONTINUOUS
 70
0
 71
3
 72
9
 73
5
 74
0
 42
0.0000001
 43
0.0000001
 44
0.0000000001
 40
0.0
 40
0.0
 40
0.0
 40
0.0
 40
0.2356730812
 40
1.0
 40
1.0
 40
1.0
 40
1.0
 10
16.5967394822
 20
11.7346540662
 30
0.0
 10
16.5919844638
 20
11.7411332151
 30
0.0
 10
16.5707203836
 20
11.7678247042
 30
0.0
 10
16.5456154889
 20
11.7913307134
 30
0.0
 10
16.5252352638
 20
11.8075790252
 30
0.0
  0
ENDSEC
  0
SECTION
  2
OBJECTS
  0
DICTIONARY
  5
C
100
AcDbDictionary
280
0
281
1
  3
ACAD_GROUP
350
D
  3
ACAD_MLINESTYLE
350
17
  3
ACAD_LAYOUT
350
1A
  3
ACAD_PLOTSETTINGS
350
19
  3
ACAD_PLOTSTYLENAME
350
E
  0
DICTIONARY
  5
D
102
{ACAD_REACTORS
330
C
102
}
100
AcDbDictionary
280
0
281
1
  0
ACDBDICTIONARYWDFLT
  5
E
102
{ACAD_REACTORS
330
C
102
}
100
AcDbDictionary
281
1
  3
Normal
350
F
100
AcDbDictionaryWithDefault
340
F
  0
DICTIONARY
  5
17
102
{ACAD_REACTORS
330
C
102
}
100
AcDbDictionary
280
0
281
1
  3
Standard
350
18
  0
DICTIONARY
  5
19
102
{ACAD_REACTORS
330
C
102
}
100
AcDbDictionary
281
1
  0
DICTIONARY
  5
1A
102
{ACAD_REACTORS
330
C
102
}
100
AcDbDictionary
281
1
  3
Model
350
343
  3
Layout1
350
344
  0
ACDBPLACEHOLDER
  5
F
102
{ACAD_REACTORS
330
E
102
}
  0
MLINESTYLE
  5
18
102
{ACAD_REACTORS
330
17
102
}
100
AcDbMlineStyle
  2
STANDARD
 70
0
  3

 62
256
 51
90.0
 52
90.0
 71
2
 49
0.5
 62
256
  6
BYLAYER
 49
-0.5
 62
256
  6
BYLAYER
  0
LAYOUT
  5
343
102
{ACAD_REACTORS
330
1A
102
}
100
AcDbPlotSettings
  1

  2
none_device
  4
ANSI_C_(22.00_x_17.00_Inches)
  6

 40
0.0
 41
0.0
 42
0.0
 43
0.0
 44
558.8
 45
431.8
 46
0.0
 47
0.0
 48
0.0
 49
0.0
140
0.0
141
0.0
142
1.0
143
1.0
 70
1024
 72
0
 73
0
 74
0
  7

 75
0
147
1.0
148
0.0
149
0.0
100
AcDbLayout
  1
Model
 70
0
 71
0
 10
0.0
 20
0.0
 11
22.0
 21
17.0
 12
0.0
 22
0.0
 32
0.0
 14
0.0
 24
0.0
 34
0.0
 15
0.0
 25
0.0
 35
0.0
146
0.0
 13
0.0
 23
0.0
 33
0.0
 16
1.0
 26
0.0
 36
0.0
 17
0.0
 27
1.0
 37
0.0
 76
0
330
216
345
0
346
0
  0
LAYOUT
  5
344
102
{ACAD_REACTORS
330
1A
102
}
100
AcDbPlotSettings
  1

  2
none_device
  4
ANSI_C_(22.00_x_17.00_Inches)
  6

 40
0.0
 41
0.0
 42
0.0
 43
0.0
 44
558.8
 45
431.8
 46
0.0
 47
0.0
 48
0.0
 49
0.0
140
0.0
141
0.0
142
1.0
143
1.0
 70
0
 72
0
 73
0
 74
0
  7

 75
0
147
1.0
148
0.0
149
0.0
100
AcDbLayout
  1
Layout1
 70
0
 71
1
 10
0.0
 20
0.0
 11
22.0
 21
17.0
 12
0.0
 22
0.0
 32
0.0
 14
0.0
 24
0.0
 34
0.0
 15
0.0
 25
0.0
 35
0.0
146
0.0
 13
0.0
 23
0.0
 33
0.0
 16
1.0
 26
0.0
 36
0.0
 17
0.0
 27
1.0
 37
0.0
 76
0
330
217
345
0
346
0
  0
ENDSEC
  0
EOF