999
DXF file: _cgs_temp_output.dxf
999
Pro/ENGINEER 2015110 by Parametric Technology Corporation
  0
SECTION
  2
HEADER
  9
$ACADVER
  1
AC1021
  9
$DWGCODEPAGE
  3
ANSI_1252
  9
$EXTMAX
 10
22.0
 20
17.0
 30
0.0
  9
$EXTMIN
 10
0.0
 20
0.0
 30
0.0
  9
$LIMMIN
 10
0.0
 20
0.0
  9
$LIMMAX
 10
22.0
 20
17.0
  9
$VIEWCTR
 10
11.0
 20
8.5
  9
$VIEWSIZE
 40
17.0
  9
$CLAYER
  8
0
  9
$LTSCALE
 40
1.21
  9
$CELTYPE
  6
BYLAYER
  9
$DIMSCALE
 40
1.0
  9
$DIMASZ
 40
0.1875
  9
$DIMEXO
 40
0.0625
  9
$DIMDLI
 40
0.836
  9
$DIMEXE
 40
0.125
  9
$DIMCEN
 40
0.198
  9
$DIMLFAC
 40
1.0
  9
$DIMBLK
  1
_CLOSED
  9
$DIMALT
 70
0
  9
$DIMALTF
 40
25.4
  9
$DIMTXT
 40
0.15625
  9
$DIMTOL
 70
0
  9
$DIMLIM
 70
0
  9
$DIMTFAC
 40
1.0
  9
$DIMGAP
 40
0.09
  9
$DIMDSEP
 70
46
  9
$AUNITS
 70
0
  9
$PDMODE
 70
3
  9
$PDSIZE
 40
0.3125
  9
$HANDSEED
  5
345
  9
$TILEMODE
 70
1
  9
$MEASUREMENT
 70
0
  9
$INSUNITS
 70
1
  0
ENDSEC
  0
SECTION
  2
CLASSES
  0
CLASS
  1
ACDBDICTIONARYWDFLT
  2
AcDbDictionaryWithDefault
  3
AutoCAD 2000
 90
0
 91
1
280
0
281
0
  0
CLASS
  1
ACDBPLACEHOLDER
  2
AcDbPlaceHolder
  3
AutoCAD 2000
 90
0
 91
1
280
0
281
0
  0
CLASS
  1
LAYOUT
  2
AcDbLayout
  3
AutoCAD 2000
 90
0
 91
0
280
0
281
0
  0
ENDSEC
  0
SECTION
  2
TABLES
  0
TABLE
  2
VPORT
  5
8
100
AcDbSymbolTable
 70
2
  0
VPORT
  5
1F4
100
AcDbSymbolTableRecord
100
AcDbViewportTableRecord
  2
*ACTIVE
 70
0
 10
0.0
 20
0.0
 11
1.0
 21
1.0
 12
11.0
 22
8.5
 13
0.0
 23
0.0
 14
1.0
 24
1.0
 15
0.0
 25
0.0
 16
0.0
 26
0.0
 36
1.0
 17
0.0
 27
0.0
 37
0.0
 40
17.0
 41
1.2941176471
 42
50.0
 43
0.0
 44
0.0
 50
0.0
 51
0.0
 71
0
 72
100
 73
1
 74
1
 75
0
 76
0
 77
0
 78
0
  0
ENDTAB
  0
TABLE
  2
LTYPE
  5
5
100
AcDbSymbolTable
 70
6
  0
LTYPE
  5
14
100
AcDbSymbolTableRecord
100
AcDbLinetypeTableRecord
  2
BYBLOCK
 70
0
  3

 72
65
 73
0
 40
0.0
  0
LTYPE
  5
15
100
AcDbSymbolTableRecord
100
AcDbLinetypeTableRecord
  2
BYLAYER
 70
0
  3

 72
65
 73
0
 40
0.0
  0
LTYPE
  5
16
100
AcDbSymbolTableRecord
100
AcDbLinetypeTableRecord
  2
CONTINUOUS
 70
64
  3
Solid line
 72
65
 73
0
 40
0.0
  0
LTYPE
  5
1F5
100
AcDbSymbolTableRecord
100
AcDbLinetypeTableRecord
  2
CENTER
 70
64
  3
____ _ ____ _ ____ _ ____ _ ____ _ ____ _ ____
 72
65
 73
4
 40
0.6
 49
0.375
 74
0
 49
-0.075
 74
0
 49
0.075
 74
0
 49
-0.075
 74
0
  0
LTYPE
  5
1F6
100
AcDbSymbolTableRecord
100
AcDbLinetypeTableRecord
  2
HIDDEN
 70
64
  3
- - - - - - - - - - - - - - - - - - - -
 72
65
 73
2
 40
0.2
 49
0.1
 74
0
 49
-0.1
 74
0
  0
LTYPE
  5
1F7
100
AcDbSymbolTableRecord
100
AcDbLinetypeTableRecord
  2
PHANTOM
 70
64
  3
_____ _ _ _____ _ _ _____ _ _ _____
 72
65
 73
6
 40
0.8
 49
0.45
 74
0
 49
-0.05
 74
0
 49
0.1
 74
0
 49
-0.05
 74
0
 49
0.1
 74
0
 49
-0.05
 74
0
  0
LTYPE
  5
1F8
100
AcDbSymbolTableRecord
100
AcDbLinetypeTableRecord
  2
DOT
 70
64
  3
. . . . . . . . . . . . . . . . . . . .
 72
65
 73
2
 40
0.2
 49
0.1
 74
0
 49
-0.1
 74
0
  0
LTYPE
  5
1F9
100
AcDbSymbolTableRecord
100
AcDbLinetypeTableRecord
  2
DASHED
 70
64
  3
- - - - - - - - - - - - - - - - - - - -
 72
65
 73
2
 40
0.2
 49
0.1
 74
0
 49
-0.1
 74
0
  0
ENDTAB
  0
TABLE
  2
LAYER
  5
2
100
AcDbSymbolTable
 70
36
  0
LAYER
  5
10
100
AcDbSymbolTableRecord
100
AcDbLayerTableRecord
  2
0
 70
0
 62
7
  6
CONTINUOUS
370
-3
390
F
  0
LAYER
  5
1FA
100
AcDbSymbolTableRecord
100
AcDbLayerTableRecord
  2
DEFAULT_1
 70
0
 62
7
  6
CENTER
370
-3
390
F
  0
LAYER
  5
1FB
100
AcDbSymbolTableRecord
100
AcDbLayerTableRecord
  2
DEFAULT_2
 70
0
 62
8
  6
HIDDEN
370
-3
390
F
  0
LAYER
  5
1FC
100
AcDbSymbolTableRecord
100
AcDbLayerTableRecord
  2
DEFAULT_3
 70
0
 62
7
  6
PHANTOM
370
-3
390
F
  0
LAYER
  5
1FD
100
AcDbSymbolTableRecord
100
AcDbLayerTableRecord
  2
01_ALL_DTM_PLN
 70
0
 62
7
  6
CONTINUOUS
370
-3
390
F
  0
LAYER
  5
1FE
100
AcDbSymbolTableRecord
100
AcDbLayerTableRecord
  2
01__ASM_ALL_DTM_PLN
 70
0
 62
7
  6
CONTINUOUS
370
-3
390
F
  0
LAYER
  5
1FF
100
AcDbSymbolTableRecord
100
AcDbLayerTableRecord
  2
01__ASM_DEF_DTM_PLN
 70
0
 62
7
  6
CONTINUOUS
370
-3
390
F
  0
LAYER
  5
200
100
AcDbSymbolTableRecord
100
AcDbLayerTableRecord
  2
01___PRT_ALL_DTM_PLN
 70
0
 62
7
  6
CONTINUOUS
370
-3
390
F
  0
LAYER
  5
201
100
AcDbSymbolTableRecord
100
AcDbLayerTableRecord
  2
01___PRT_DEF_DTM_PLN
 70
0
 62
7
  6
CONTINUOUS
370
-3
390
F
  0
LAYER
  5
202
100
AcDbSymbolTableRecord
100
AcDbLayerTableRecord
  2
02_ALL_AXES
 70
0
 62
7
  6
CONTINUOUS
370
-3
390
F
  0
LAYER
  5
203
100
AcDbSymbolTableRecord
100
AcDbLayerTableRecord
  2
02__ASM_ALL_AXES
 70
0
 62
7
  6
CONTINUOUS
370
-3
390
F
  0
LAYER
  5
204
100
AcDbSymbolTableRecord
100
AcDbLayerTableRecord
  2
02___PRT_ALL_AXES
 70
0
 62
7
  6
CONTINUOUS
370
-3
390
F
  0
LAYER
  5
205
100
AcDbSymbolTableRecord
100
AcDbLayerTableRecord
  2
03_ALL_CURVES
 70
0
 62
7
  6
CONTINUOUS
370
-3
390
F
  0
LAYER
  5
206
100
AcDbSymbolTableRecord
100
AcDbLayerTableRecord
  2
03__ASM_ALL_CURVES
 70
0
 62
7
  6
CONTINUOUS
370
-3
390
F
  0
LAYER
  5
207
100
AcDbSymbolTableRecord
100
AcDbLayerTableRecord
  2
03___PRT_ALL_CURVES
 70
0
 62
7
  6
CONTINUOUS
370
-3
390
F
  0
LAYER
  5
208
100
AcDbSymbolTableRecord
100
AcDbLayerTableRecord
  2
04_ALL_DTM_PNT
 70
0
 62
7
  6
CONTINUOUS
370
-3
390
F
  0
LAYER
  5
209
100
AcDbSymbolTableRecord
100
AcDbLayerTableRecord
  2
04__ASM_ALL_DTM_PNT
 70
0
 62
7
  6
CONTINUOUS
370
-3
390
F
  0
LAYER
  5
20A
100
AcDbSymbolTableRecord
100
AcDbLayerTableRecord
  2
04___PRT_ALL_DTM_PNT
 70
0
 62
7
  6
CONTINUOUS
370
-3
390
F
  0
LAYER
  5
20B
100
AcDbSymbolTableRecord
100
AcDbLayerTableRecord
  2
05_ALL_DTM_CSYS
 70
0
 62
7
  6
CONTINUOUS
370
-3
390
F
  0
LAYER
  5
20C
100
AcDbSymbolTableRecord
100
AcDbLayerTableRecord
  2
05__ASM_ALL_DTM_CSYS
 70
0
 62
7
  6
CONTINUOUS
370
-3
390
F
  0
LAYER
  5
20D
100
AcDbSymbolTableRecord
100
AcDbLayerTableRecord
  2
05__ASM_DEF_DTM_CSYS
 70
0
 62
7
  6
CONTINUOUS
370
-3
390
F
  0
LAYER
  5
20E
100
AcDbSymbolTableRecord
100
AcDbLayerTableRecord
  2
05___PRT_ALL_DTM_CSYS
 70
0
 62
7
  6
CONTINUOUS
370
-3
390
F
  0
LAYER
  5
20F
100
AcDbSymbolTableRecord
100
AcDbLayerTableRecord
  2
05___PRT_DEF_DTM_CSYS
 70
0
 62
7
  6
CONTINUOUS
370
-3
390
F
  0
LAYER
  5
210
100
AcDbSymbolTableRecord
100
AcDbLayerTableRecord
  2
06_ALL_SURFS
 70
0
 62
7
  6
CONTINUOUS
370
-3
390
F
  0
LAYER
  5
211
100
AcDbSymbolTableRecord
100
AcDbLayerTableRecord
  2
06__ASM_ALL_SURFS
 70
0
 62
7
  6
CONTINUOUS
370
-3
390
F
  0
LAYER
  5
212
100
AcDbSymbolTableRecord
100
AcDbLayerTableRecord
  2
06___PRT_ALL_SURFS
 70
0
 62
7
  6
CONTINUOUS
370
-3
390
F
  0
LAYER
  5
213
100
AcDbSymbolTableRecord
100
AcDbLayerTableRecord
  2
07__ASM_ALL_SKELETONS
 70
0
 62
7
  6
CONTINUOUS
370
-3
390
F
  0
ENDTAB
  0
TABLE
  2
STYLE
  5
3
100
AcDbSymbolTable
 70
1
  0
STYLE
  5
11
100
AcDbSymbolTableRecord
100
AcDbTextStyleTableRecord
  2
STANDARD
 70
0
 40
0.0
 41
0.8
 50
0.0
 71
0
 42
0.2
  3
txt
  4

  0
STYLE
  5
214
100
AcDbSymbolTableRecord
100
AcDbTextStyleTableRecord
  2
TEXTSTYLE_1
 70
0
 40
0.0
 41
0.8
 50
0.0
 71
0
 42
0.2
  3
gdt
  4

  0
ENDTAB
  0
TABLE
  2
VIEW
  5
6
100
AcDbSymbolTable
 70
0
  0
ENDTAB
  0
TABLE
  2
UCS
  5
7
100
AcDbSymbolTable
 70
0
  0
ENDTAB
  0
TABLE
  2
APPID
  5
9
100
AcDbSymbolTable
 70
1
  0
APPID
  5
215
100
AcDbSymbolTableRecord
100
AcDbRegAppTableRecord
  2
ACAD
 70
0
  0
ENDTAB
  0
TABLE
  2
BLOCK_RECORD
  5
1
100
AcDbSymbolTable
 70
0
  0
BLOCK_RECORD
  5
216
100
AcDbSymbolTableRecord
100
AcDbBlockTableRecord
  2
*Model_Space
  0
BLOCK_RECORD
  5
217
100
AcDbSymbolTableRecord
100
AcDbBlockTableRecord
  2
*Paper_Space
  0
ENDTAB
  0
TABLE
  2
DIMSTYLE
  5
A
100
AcDbSymbolTable
 70
1
100
AcDbDimStyleTable
 71
0
  0
DIMSTYLE
105
218
100
AcDbSymbolTableRecord
100
AcDbDimStyleTableRecord
  2
STANDARD
 70
0
  3

  4

 40
1.0
 41
0.1875
 42
0.0625
 43
0.38
 44
0.125
 45
0.0
 46
0.0
 47
0.0001
 48
0.0001
140
0.15625
141
0.09
142
0.0
143
25.4
144
1.0
145
0.0
146
1.0
147
0.09
 71
0.0
 72
0.0
 73
1
 74
1
 75
0
 76
0
 77
0
 78
4
170
0
171
2
172
0
173
0
174
0
175
0
176
0
177
0
178
0
270
2
271
4
272
4
273
2
274
2
275
0
280
0
281
0
282
0
283
1
284
4
285
0
286
0
287
3
288
0
340
11
278
46
  0
ENDTAB
  0
ENDSEC
  0
SECTION
  2
BLOCKS
  0
BLOCK
  5
20
100
AcDbEntity
  8
0
100
AcDbBlockBegin
  2
*Model_Space
 70
0
 10
0.0
 20
0.0
 30
0.0
  3
*Model_Space
  1

  0
ENDBLK
  5
21
100
AcDbEntity
  8
0
100
AcDbBlockEnd
  0
BLOCK
  5
1C
100
AcDbEntity
  8
0
100
AcDbBlockBegin
  2
*Paper_Space
 70
0
 10
0.0
 20
0.0
 30
0.0
  3
*Paper_Space
  1

  0
ENDBLK
  5
1D
100
AcDbEntity
  8
0
100
AcDbBlockEnd
  0
ENDSEC
  0
SECTION
  2
ENTITIES
  0
MTEXT
  5
219
100
AcDbEntity
  8
0
100
AcDbMText
 62
7
  6
CONTINUOUS
  7
STANDARD
 71
1
 72
1
 10
15.9560215477
 20
0.9479130325
 30
0.0
 11
1.0
 21
0.0
 31
0.0
 44
0.9
  1
SCALE: 1:1.000
 40
0.3
 41
3.36
  0
LINE
  5
21A
100
AcDbEntity
  8
0
100
AcDbLine
 62
7
  6
CONTINUOUS
 10
0.0
 20
0.0
 11
0.0
 21
17.0
  0
LINE
  5
21B
100
AcDbEntity
  8
0
100
AcDbLine
 62
7
  6
CONTINUOUS
 10
0.0
 20
0.0
 11
22.0
 21
0.0
  0
LINE
  5
21C
100
AcDbEntity
  8
0
100
AcDbLine
 62
7
  6
CONTINUOUS
 10
0.0
 20
17.0
 11
22.0
 21
17.0
  0
LINE
  5
21D
100
AcDbEntity
  8
0
100
AcDbLine
 62
7
  6
CONTINUOUS
 10
22.0
 20
0.0
 11
22.0
 21
17.0
  0
LINE
  5
21E
100
AcDbEntity
  8
0
100
AcDbLine
 62
7
  6
CONTINUOUS
 10
4.4768239691
 20
5.5716946999
 11
4.4768239691
 21
5.4685450936
  0
LINE
  5
21F
100
AcDbEntity
  8
0
100
AcDbLine
 62
7
  6
CONTINUOUS
 10
4.7262521146
 20
5.2248443062
 11
4.7785769259
 21
5.2248443062
  0
LINE
  5
220
100
AcDbEntity
  8
0
100
AcDbLine
 62
7
  6
CONTINUOUS
 10
5.277433217
 20
5.2248443062
 11
5.3297580283
 21
5.2248443062
  0
LINE
  5
221
100
AcDbEntity
  8
0
100
AcDbLine
 62
7
  6
CONTINUOUS
 10
5.8286143193
 20
5.2248443062
 11
5.8809391306
 21
5.2248443062
  0
LINE
  5
222
100
AcDbEntity
  8
0
100
AcDbLine
 62
7
  6
CONTINUOUS
 10
6.3797954217
 20
5.2248443062
 11
6.432120233
 21
5.2248443062
  0
LINE
  5
223
100
AcDbEntity
  8
0
100
AcDbLine
 62
7
  6
CONTINUOUS
 10
6.9309765241
 20
5.2248443062
 11
6.9833013354
 21
5.2248443062
  0
LINE
  5
224
100
AcDbEntity
  8
0
100
AcDbLine
 62
7
  6
CONTINUOUS
 10
7.4821576264
 20
5.2248443062
 11
7.5344824377
 21
5.2248443062
  0
LINE
  5
225
100
AcDbEntity
  8
0
100
AcDbLine
 62
7
  6
CONTINUOUS
 10
4.4768239691
 20
5.4685450936
 11
4.5098572953
 21
5.4685450936
  0
LINE
  5
226
100
AcDbEntity
  8
0
100
AcDbLine
 62
7
  6
CONTINUOUS
 10
4.9949717453
 20
5.4685450936
 11
5.0610383976
 21
5.4685450936
  0
LINE
  5
227
100
AcDbEntity
  8
0
100
AcDbLine
 62
7
  6
CONTINUOUS
 10
5.5461528476
 20
5.4685450936
 11
5.6122195
 21
5.4685450936
  0
LINE
  5
228
100
AcDbEntity
  8
0
100
AcDbLine
 62
7
  6
CONTINUOUS
 10
6.09733395
 20
5.4685450936
 11
6.1634006024
 21
5.4685450936
  0
LINE
  5
229
100
AcDbEntity
  8
0
100
AcDbLine
 62
7
  6
CONTINUOUS
 10
6.6485150523
 20
5.4685450936
 11
6.7145817047
 21
5.4685450936
  0
LINE
  5
22A
100
AcDbEntity
  8
0
100
AcDbLine
 62
7
  6
CONTINUOUS
 10
7.1996961547
 20
5.4685450936
 11
7.2657628071
 21
5.4685450936
  0
LINE
  5
22B
100
AcDbEntity
  8
0
100
AcDbLine
 62
7
  6
CONTINUOUS
 10
7.7508772571
 20
5.4685450936
 11
7.7839105833
 21
5.4685450936
  0
LINE
  5
22C
100
AcDbEntity
  8
0
100
AcDbLine
 62
7
  6
CONTINUOUS
 10
7.7839105833
 20
5.5716946999
 11
7.7508772571
 21
5.5716946999
  0
LINE
  5
22D
100
AcDbEntity
  8
0
100
AcDbLine
 62
7
  6
CONTINUOUS
 10
7.2657628071
 20
5.5716946999
 11
7.1996961547
 21
5.5716946999
  0
LINE
  5
22E
100
AcDbEntity
  8
0
100
AcDbLine
 62
7
  6
CONTINUOUS
 10
6.7145817047
 20
5.5716946999
 11
6.6485150523
 21
5.5716946999
  0
LINE
  5
22F
100
AcDbEntity
  8
0
100
AcDbLine
 62
7
  6
CONTINUOUS
 10
6.1634006024
 20
5.5716946999
 11
6.09733395
 21
5.5716946999
  0
LINE
  5
230
100
AcDbEntity
  8
0
100
AcDbLine
 62
7
  6
CONTINUOUS
 10
5.6122195
 20
5.5716946999
 11
5.5461528476
 21
5.5716946999
  0
LINE
  5
231
100
AcDbEntity
  8
0
100
AcDbLine
 62
7
  6
CONTINUOUS
 10
5.0610383976
 20
5.5716946999
 11
4.9949717453
 21
5.5716946999
  0
LINE
  5
232
100
AcDbEntity
  8
0
100
AcDbLine
 62
7
  6
CONTINUOUS
 10
4.5098572953
 20
5.5716946999
 11
4.4768239691
 21
5.5716946999
  0
LINE
  5
233
100
AcDbEntity
  8
0
100
AcDbLine
 62
7
  6
CONTINUOUS
 10
7.5344824377
 20
5.8153954873
 11
7.4821576264
 21
5.8153954873
  0
LINE
  5
234
100
AcDbEntity
  8
0
100
AcDbLine
 62
7
  6
CONTINUOUS
 10
6.9833013354
 20
5.8153954873
 11
6.9309765241
 21
5.8153954873
  0
LINE
  5
235
100
AcDbEntity
  8
0
100
AcDbLine
 62
7
  6
CONTINUOUS
 10
6.432120233
 20
5.8153954873
 11
6.3797954217
 21
5.8153954873
  0
LINE
  5
236
100
AcDbEntity
  8
0
100
AcDbLine
 62
7
  6
CONTINUOUS
 10
5.8809391306
 20
5.8153954873
 11
5.8286143193
 21
5.8153954873
  0
LINE
  5
237
100
AcDbEntity
  8
0
100
AcDbLine
 62
7
  6
CONTINUOUS
 10
5.3297580283
 20
5.8153954873
 11
5.277433217
 21
5.8153954873
  0
LINE
  5
238
100
AcDbEntity
  8
0
100
AcDbLine
 62
7
  6
CONTINUOUS
 10
4.7785769259
 20
5.8153954873
 11
4.7262521146
 21
5.8153954873
  0
LINE
  5
239
100
AcDbEntity
  8
0
100
AcDbLine
 62
7
  6
CONTINUOUS
 10
7.7839105833
 20
5.4685450936
 11
7.7839105833
 21
5.5716946999
  0
LINE
  5
23A
100
AcDbEntity
  8
0
100
AcDbLine
 62
7
  6
CONTINUOUS
 10
7.7244153909
 20
10.3362682538
 11
4.4173287768
 21
10.3362682538
  0
LINE
  5
23B
100
AcDbEntity
  8
0
100
AcDbLine
 62
7
  6
CONTINUOUS
 10
4.4173287768
 20
14.8638273089
 11
4.4173287768
 21
10.3362682538
  0
LINE
  5
23C
100
AcDbEntity
  8
0
100
AcDbLine
 62
7
  6
CONTINUOUS
 10
7.7244153909
 20
14.8638273089
 11
7.7244153909
 21
10.3362682538
  0
LINE
  5
23D
100
AcDbEntity
  8
0
100
AcDbLine
 62
7
  6
CONTINUOUS
 10
4.4173287768
 20
14.8638273089
 11
7.7244153909
 21
14.8638273089
  0
LINE
  5
23E
100
AcDbEntity
  8
0
100
AcDbLine
 62
7
  6
CONTINUOUS
 10
13.2965757294
 20
5.1653491139
 11
13.2965757294
 21
5.755900295
  0
LINE
  5
23F
100
AcDbEntity
  8
0
100
AcDbLine
 62
7
  6
CONTINUOUS
 10
13.2965757294
 20
5.1653491139
 11
17.8241347845
 21
5.1653491139
  0
LINE
  5
240
100
AcDbEntity
  8
0
100
AcDbLine
 62
7
  6
CONTINUOUS
 10
17.8241347845
 20
5.4090499013
 11
13.2965757294
 21
5.4090499013
  0
LINE
  5
241
100
AcDbEntity
  8
0
100
AcDbLine
 62
7
  6
CONTINUOUS
 10
17.8241347845
 20
5.5121995076
 11
13.2965757294
 21
5.5121995076
  0
LINE
  5
242
100
AcDbEntity
  8
0
100
AcDbLine
 62
7
  6
CONTINUOUS
 10
13.2965757294
 20
5.755900295
 11
17.8241347845
 21
5.755900295
  0
LINE
  5
243
100
AcDbEntity
  8
0
100
AcDbLine
 62
7
  6
CONTINUOUS
 10
17.8241347845
 20
5.1653491139
 11
17.8241347845
 21
5.755900295
  0
LINE
  5
244
100
AcDbEntity
  8
0
100
AcDbLine
 62
7
  6
CONTINUOUS
 10
13.384380965
 20
10.7695849833
 11
13.4158459134
 21
10.7054661598
  0
LINE
  5
245
100
AcDbEntity
  8
0
100
AcDbLine
 62
7
  6
CONTINUOUS
 10
13.7199233921
 20
10.553979321
 11
13.7681177349
 21
10.553979321
  0
LINE
  5
246
100
AcDbEntity
  8
0
100
AcDbLine
 62
7
  6
CONTINUOUS
 10
14.2275948062
 20
10.553979321
 11
14.2757891489
 21
10.553979321
  0
LINE
  5
247
100
AcDbEntity
  8
0
100
AcDbLine
 62
7
  6
CONTINUOUS
 10
14.7352662202
 20
10.553979321
 11
14.7834605629
 21
10.553979321
  0
LINE
  5
248
100
AcDbEntity
  8
0
100
AcDbLine
 62
7
  6
CONTINUOUS
 10
15.2429376342
 20
10.553979321
 11
15.2911319769
 21
10.553979321
  0
LINE
  5
249
100
AcDbEntity
  8
0
100
AcDbLine
 62
7
  6
CONTINUOUS
 10
15.7506090482
 20
10.553979321
 11
15.7988033909
 21
10.553979321
  0
LINE
  5
24A
100
AcDbEntity
  8
0
100
AcDbLine
 62
7
  6
CONTINUOUS
 10
16.2582804622
 20
10.553979321
 11
16.3064748049
 21
10.553979321
  0
LINE
  5
24B
100
AcDbEntity
  8
0
100
AcDbLine
 62
7
  6
CONTINUOUS
 10
13.4158459134
 20
10.7054661598
 11
13.4462716217
 21
10.7054661598
  0
LINE
  5
24C
100
AcDbEntity
  8
0
100
AcDbLine
 62
7
  6
CONTINUOUS
 10
13.8930916192
 20
10.7054661598
 11
13.9539430357
 21
10.7054661598
  0
LINE
  5
24D
100
AcDbEntity
  8
0
100
AcDbLine
 62
7
  6
CONTINUOUS
 10
14.4007630332
 20
10.7054661598
 11
14.4616144497
 21
10.7054661598
  0
LINE
  5
24E
100
AcDbEntity
  8
0
100
AcDbLine
 62
7
  6
CONTINUOUS
 10
14.9084344472
 20
10.7054661598
 11
14.9692858637
 21
10.7054661598
  0
LINE
  5
24F
100
AcDbEntity
  8
0
100
AcDbLine
 62
7
  6
CONTINUOUS
 10
15.4161058612
 20
10.7054661598
 11
15.4769572777
 21
10.7054661598
  0
LINE
  5
250
100
AcDbEntity
  8
0
100
AcDbLine
 62
7
  6
CONTINUOUS
 10
15.9237772752
 20
10.7054661598
 11
15.9846286917
 21
10.7054661598
  0
LINE
  5
251
100
AcDbEntity
  8
0
100
AcDbLine
 62
7
  6
CONTINUOUS
 10
16.4314486893
 20
10.7054661598
 11
16.4618743975
 21
10.7054661598
  0
LINE
  5
252
100
AcDbEntity
  8
0
100
AcDbLine
 62
7
  6
CONTINUOUS
 10
16.4304094491
 20
10.7695849833
 11
16.3999837408
 21
10.7695849833
  0
LINE
  5
253
100
AcDbEntity
  8
0
100
AcDbLine
 62
7
  6
CONTINUOUS
 10
15.9531637433
 20
10.7695849833
 11
15.8923123268
 21
10.7695849833
  0
LINE
  5
254
100
AcDbEntity
  8
0
100
AcDbLine
 62
7
  6
CONTINUOUS
 10
15.4454923293
 20
10.7695849833
 11
15.3846409128
 21
10.7695849833
  0
LINE
  5
255
100
AcDbEntity
  8
0
100
AcDbLine
 62
7
  6
CONTINUOUS
 10
14.9378209153
 20
10.7695849833
 11
14.8769694988
 21
10.7695849833
  0
LINE
  5
256
100
AcDbEntity
  8
0
100
AcDbLine
 62
7
  6
CONTINUOUS
 10
14.4301495012
 20
10.7695849833
 11
14.3692980847
 21
10.7695849833
  0
LINE
  5
257
100
AcDbEntity
  8
0
100
AcDbLine
 62
7
  6
CONTINUOUS
 10
13.9224780872
 20
10.7695849833
 11
13.8616266707
 21
10.7695849833
  0
LINE
  5
258
100
AcDbEntity
  8
0
100
AcDbLine
 62
7
  6
CONTINUOUS
 10
13.4148066732
 20
10.7695849833
 11
13.384380965
 21
10.7695849833
  0
LINE
  5
259
100
AcDbEntity
  8
0
100
AcDbLine
 62
7
  6
CONTINUOUS
 10
16.1263319703
 20
10.921071822
 11
16.0781376276
 21
10.921071822
  0
LINE
  5
25A
100
AcDbEntity
  8
0
100
AcDbLine
 62
7
  6
CONTINUOUS
 10
15.6186605563
 20
10.921071822
 11
15.5704662136
 21
10.921071822
  0
LINE
  5
25B
100
AcDbEntity
  8
0
100
AcDbLine
 62
7
  6
CONTINUOUS
 10
15.1109891423
 20
10.921071822
 11
15.0627947996
 21
10.921071822
  0
LINE
  5
25C
100
AcDbEntity
  8
0
100
AcDbLine
 62
7
  6
CONTINUOUS
 10
14.6033177283
 20
10.921071822
 11
14.5551233856
 21
10.921071822
  0
LINE
  5
25D
100
AcDbEntity
  8
0
100
AcDbLine
 62
7
  6
CONTINUOUS
 10
14.0956463143
 20
10.921071822
 11
14.0474519715
 21
10.921071822
  0
LINE
  5
25E
100
AcDbEntity
  8
0
100
AcDbLine
 62
7
  6
CONTINUOUS
 10
13.5879749002
 20
10.921071822
 11
13.5397805575
 21
10.921071822
  0
LINE
  5
25F
100
AcDbEntity
  8
0
100
AcDbLine
 62
7
  6
CONTINUOUS
 10
13.4650968302
 20
10.8835961421
 11
13.4647471664
 21
10.8823897618
  0
LINE
  5
260
100
AcDbEntity
  8
0
100
AcDbLine
 62
7
  6
CONTINUOUS
 10
14.4803505394
 20
14.3161438261
 11
13.384380965
 21
10.7695849833
  0
LINE
  5
261
100
AcDbEntity
  8
0
100
AcDbLine
 62
7
  6
CONTINUOUS
 10
13.4650979321
 20
10.883595802
 11
14.5610675066
 21
14.4301546448
  0
LINE
  5
262
100
AcDbEntity
  8
0
100
AcDbLine
 62
7
  6
CONTINUOUS
 10
13.8428014622
 20
10.5914550009
 11
13.8431511259
 21
10.5926613812
  0
LINE
  5
263
100
AcDbEntity
  8
0
100
AcDbLine
 62
7
  6
CONTINUOUS
 10
13.9727682442
 20
10.8835961421
 11
13.9724185805
 21
10.8823897618
  0
LINE
  5
264
100
AcDbEntity
  8
0
100
AcDbLine
 62
7
  6
CONTINUOUS
 10
13.8428003602
 20
10.591455341
 11
13.8776411483
 21
10.7042001723
  0
LINE
  5
265
100
AcDbEntity
  8
0
100
AcDbLine
 62
7
  6
CONTINUOUS
 10
13.9727693462
 20
10.883595802
 11
15.0687389206
 21
14.4301546448
  0
LINE
  5
266
100
AcDbEntity
  8
0
100
AcDbLine
 62
7
  6
CONTINUOUS
 10
14.3504728762
 20
10.5914550009
 11
14.35082254
 21
10.5926613812
  0
LINE
  5
267
100
AcDbEntity
  8
0
100
AcDbLine
 62
7
  6
CONTINUOUS
 10
14.4804396582
 20
10.8835961421
 11
14.4800899945
 21
10.8823897618
  0
LINE
  5
268
100
AcDbEntity
  8
0
100
AcDbLine
 62
7
  6
CONTINUOUS
 10
14.3504717743
 20
10.591455341
 11
14.3853125623
 21
10.7042001723
  0
LINE
  5
269
100
AcDbEntity
  8
0
100
AcDbLine
 62
7
  6
CONTINUOUS
 10
14.4804407602
 20
10.883595802
 11
15.5764103347
 21
14.4301546448
  0
LINE
  5
26A
100
AcDbEntity
  8
0
100
AcDbLine
 62
7
  6
CONTINUOUS
 10
14.8581442902
 20
10.5914550009
 11
14.858493954
 21
10.5926613812
  0
LINE
  5
26B
100
AcDbEntity
  8
0
100
AcDbLine
 62
7
  6
CONTINUOUS
 10
14.9881110723
 20
10.8835961421
 11
14.9877614085
 21
10.8823897618
  0
LINE
  5
26C
100
AcDbEntity
  8
0
100
AcDbLine
 62
7
  6
CONTINUOUS
 10
14.8581431883
 20
10.591455341
 11
14.8929839763
 21
10.7042001723
  0
LINE
  5
26D
100
AcDbEntity
  8
0
100
AcDbLine
 62
7
  6
CONTINUOUS
 10
14.9881121742
 20
10.883595802
 11
16.0840817487
 21
14.4301546448
  0
LINE
  5
26E
100
AcDbEntity
  8
0
100
AcDbLine
 62
7
  6
CONTINUOUS
 10
16.4618743975
 20
10.7054661598
 11
16.4304094491
 21
10.7695849833
  0
LINE
  5
26F
100
AcDbEntity
  8
0
100
AcDbLine
 62
7
  6
CONTINUOUS
 10
15.3658157042
 20
10.5914550009
 11
15.366165368
 21
10.5926613812
  0
LINE
  5
270
100
AcDbEntity
  8
0
100
AcDbLine
 62
7
  6
CONTINUOUS
 10
15.4957824863
 20
10.8835961421
 11
15.4954328225
 21
10.8823897618
  0
LINE
  5
271
100
AcDbEntity
  8
0
100
AcDbLine
 62
7
  6
CONTINUOUS
 10
15.3658146023
 20
10.591455341
 11
15.4006553903
 21
10.7042001723
  0
LINE
  5
272
100
AcDbEntity
  8
0
100
AcDbLine
 62
7
  6
CONTINUOUS
 10
15.4957835882
 20
10.883595802
 11
16.5917531627
 21
14.4301546448
  0
LINE
  5
273
100
AcDbEntity
  8
0
100
AcDbLine
 62
7
  6
CONTINUOUS
 10
15.8734871182
 20
10.5914550009
 11
15.873836782
 21
10.5926613812
  0
LINE
  5
274
100
AcDbEntity
  8
0
100
AcDbLine
 62
7
  6
CONTINUOUS
 10
16.0034539003
 20
10.8835961421
 11
16.0031042365
 21
10.8823897618
  0
LINE
  5
275
100
AcDbEntity
  8
0
100
AcDbLine
 62
7
  6
CONTINUOUS
 10
15.8734860163
 20
10.591455341
 11
15.9083268043
 21
10.7042001723
  0
LINE
  5
276
100
AcDbEntity
  8
0
100
AcDbLine
 62
7
  6
CONTINUOUS
 10
16.0034550022
 20
10.883595802
 11
17.0994245767
 21
14.4301546448
  0
LINE
  5
277
100
AcDbEntity
  8
0
100
AcDbLine
 62
7
  6
CONTINUOUS
 10
16.3811585323
 20
10.5914550009
 11
16.381508196
 21
10.5926613812
  0
LINE
  5
278
100
AcDbEntity
  8
0
100
AcDbLine
 62
7
  6
CONTINUOUS
 10
17.5263790235
 20
14.3161438261
 11
16.4304094491
 21
10.7695849833
  0
LINE
  5
279
100
AcDbEntity
  8
0
100
AcDbLine
 62
7
  6
CONTINUOUS
 10
16.3811574303
 20
10.591455341
 11
16.4159982183
 21
10.7042001723
  0
LINE
  5
27A
100
AcDbEntity
  8
0
100
AcDbLine
 62
7
  6
CONTINUOUS
 10
17.557843972
 20
14.2520250026
 11
16.4618743975
 21
10.7054661598
  0
LINE
  5
27B
100
AcDbEntity
  8
0
100
AcDbLine
 62
7
  6
CONTINUOUS
 10
17.5263790235
 20
14.3161438261
 11
17.4959533153
 21
14.3161438261
  0
LINE
  5
27C
100
AcDbEntity
  8
0
100
AcDbLine
 62
7
  6
CONTINUOUS
 10
14.5107762477
 20
14.3161438261
 11
14.4803505394
 21
14.3161438261
  0
LINE
  5
27D
100
AcDbEntity
  8
0
100
AcDbLine
 62
7
  6
CONTINUOUS
 10
14.9575962452
 20
14.3161438261
 11
15.0184476617
 21
14.3161438261
  0
LINE
  5
27E
100
AcDbEntity
  8
0
100
AcDbLine
 62
7
  6
CONTINUOUS
 10
15.4652676592
 20
14.3161438261
 11
15.5261190757
 21
14.3161438261
  0
LINE
  5
27F
100
AcDbEntity
  8
0
100
AcDbLine
 62
7
  6
CONTINUOUS
 10
15.9729390732
 20
14.3161438261
 11
16.0337904897
 21
14.3161438261
  0
LINE
  5
280
100
AcDbEntity
  8
0
100
AcDbLine
 62
7
  6
CONTINUOUS
 10
16.4806104873
 20
14.3161438261
 11
16.5414619038
 21
14.3161438261
  0
LINE
  5
281
100
AcDbEntity
  8
0
100
AcDbLine
 62
7
  6
CONTINUOUS
 10
16.9882819013
 20
14.3161438261
 11
17.0491333178
 21
14.3161438261
  0
LINE
  5
282
100
AcDbEntity
  8
0
100
AcDbLine
 62
7
  6
CONTINUOUS
 10
17.2223015448
 20
14.4676306648
 11
17.1741072021
 21
14.4676306648
  0
LINE
  5
283
100
AcDbEntity
  8
0
100
AcDbLine
 62
7
  6
CONTINUOUS
 10
16.7146301308
 20
14.4676306648
 11
16.6664357881
 21
14.4676306648
  0
LINE
  5
284
100
AcDbEntity
  8
0
100
AcDbLine
 62
7
  6
CONTINUOUS
 10
16.2069587168
 20
14.4676306648
 11
16.1587643741
 21
14.4676306648
  0
LINE
  5
285
100
AcDbEntity
  8
0
100
AcDbLine
 62
7
  6
CONTINUOUS
 10
15.6992873027
 20
14.4676306648
 11
15.65109296
 21
14.4676306648
  0
LINE
  5
286
100
AcDbEntity
  8
0
100
AcDbLine
 62
7
  6
CONTINUOUS
 10
15.1916158887
 20
14.4676306648
 11
15.143421546
 21
14.4676306648
  0
LINE
  5
287
100
AcDbEntity
  8
0
100
AcDbLine
 62
7
  6
CONTINUOUS
 10
14.6839444747
 20
14.4676306648
 11
14.635750132
 21
14.4676306648
  0
LINE
  5
288
100
AcDbEntity
  8
0
100
AcDbLine
 62
7
  6
CONTINUOUS
 10
17.557843972
 20
14.2520250026
 11
17.5263790235
 21
14.3161438261
  0
ARC
  5
289
100
AcDbEntity
  8
0
100
AcDbCircle
 62
7
  6
CONTINUOUS
 10
4.9763318431
 20
5.4685450936
 40
0.3961614173
100
AcDbArc
 50
189.3197114863
 51
207.2630120422
  0
ARC
  5
28A
100
AcDbEntity
  8
0
100
AcDbCircle
 62
7
  6
CONTINUOUS
 10
4.5284971974
 20
5.4685450936
 40
0.3961614173
100
AcDbArc
 50
332.7369879578
 51
350.6802885137
  0
ARC
  5
28B
100
AcDbEntity
  8
0
100
AcDbCircle
 62
7
  6
CONTINUOUS
 10
5.5275129455
 20
5.4685450936
 40
0.3961614173
100
AcDbArc
 50
189.3197114863
 51
207.2630120422
  0
ARC
  5
28C
100
AcDbEntity
  8
0
100
AcDbCircle
 62
7
  6
CONTINUOUS
 10
5.0796782998
 20
5.4685450936
 40
0.3961614173
100
AcDbArc
 50
332.7369879578
 51
350.6802885137
  0
ARC
  5
28D
100
AcDbEntity
  8
0
100
AcDbCircle
 62
7
  6
CONTINUOUS
 10
6.0786940478
 20
5.4685450936
 40
0.3961614173
100
AcDbArc
 50
189.3197114863
 51
207.2630120422
  0
ARC
  5
28E
100
AcDbEntity
  8
0
100
AcDbCircle
 62
7
  6
CONTINUOUS
 10
5.6308594022
 20
5.4685450936
 40
0.3961614173
100
AcDbArc
 50
332.7369879578
 51
350.6802885137
  0
ARC
  5
28F
100
AcDbEntity
  8
0
100
AcDbCircle
 62
7
  6
CONTINUOUS
 10
4.7262521146
 20
5.3396737025
 40
0.1148293963
100
AcDbArc
 50
207.2630120422
 51
270.0
  0
ARC
  5
290
100
AcDbEntity
  8
0
100
AcDbCircle
 62
7
  6
CONTINUOUS
 10
4.7785769259
 20
5.3396737025
 40
0.1148293963
100
AcDbArc
 50
270.0
 51
332.7369879578
  0
ARC
  5
291
100
AcDbEntity
  8
0
100
AcDbCircle
 62
7
  6
CONTINUOUS
 10
5.277433217
 20
5.3396737025
 40
0.1148293963
100
AcDbArc
 50
207.2630120422
 51
270.0
  0
ARC
  5
292
100
AcDbEntity
  8
0
100
AcDbCircle
 62
7
  6
CONTINUOUS
 10
5.3297580283
 20
5.3396737025
 40
0.1148293963
100
AcDbArc
 50
270.0
 51
332.7369879578
  0
ARC
  5
293
100
AcDbEntity
  8
0
100
AcDbCircle
 62
7
  6
CONTINUOUS
 10
5.8286143193
 20
5.3396737025
 40
0.1148293963
100
AcDbArc
 50
207.2630120422
 51
270.0
  0
ARC
  5
294
100
AcDbEntity
  8
0
100
AcDbCircle
 62
7
  6
CONTINUOUS
 10
5.8809391306
 20
5.3396737025
 40
0.1148293963
100
AcDbArc
 50
270.0
 51
332.7369879578
  0
ARC
  5
295
100
AcDbEntity
  8
0
100
AcDbCircle
 62
7
  6
CONTINUOUS
 10
4.9949717453
 20
5.3919921627
 40
0.0765529309
100
AcDbArc
 50
90.0
 51
170.6802885137
  0
ARC
  5
296
100
AcDbEntity
  8
0
100
AcDbCircle
 62
7
  6
CONTINUOUS
 10
4.5098572953
 20
5.3919921627
 40
0.0765529309
100
AcDbArc
 50
9.3197114863
 51
90.0
  0
ARC
  5
297
100
AcDbEntity
  8
0
100
AcDbCircle
 62
7
  6
CONTINUOUS
 10
5.5461528476
 20
5.3919921627
 40
0.0765529309
100
AcDbArc
 50
90.0
 51
170.6802885137
  0
ARC
  5
298
100
AcDbEntity
  8
0
100
AcDbCircle
 62
7
  6
CONTINUOUS
 10
5.0610383976
 20
5.3919921627
 40
0.0765529309
100
AcDbArc
 50
9.3197114863
 51
90.0
  0
ARC
  5
299
100
AcDbEntity
  8
0
100
AcDbCircle
 62
7
  6
CONTINUOUS
 10
6.09733395
 20
5.3919921627
 40
0.0765529309
100
AcDbArc
 50
90.0
 51
170.6802885137
  0
ARC
  5
29A
100
AcDbEntity
  8
0
100
AcDbCircle
 62
7
  6
CONTINUOUS
 10
5.6122195
 20
5.3919921627
 40
0.0765529309
100
AcDbArc
 50
9.3197114863
 51
90.0
  0
ARC
  5
29B
100
AcDbEntity
  8
0
100
AcDbCircle
 62
7
  6
CONTINUOUS
 10
4.9763318431
 20
5.5716946999
 40
0.3961614173
100
AcDbArc
 50
152.7369879578
 51
170.6802885137
  0
ARC
  5
29C
100
AcDbEntity
  8
0
100
AcDbCircle
 62
7
  6
CONTINUOUS
 10
4.5284971974
 20
5.5716946999
 40
0.3961614173
100
AcDbArc
 50
9.3197114863
 51
27.2630120422
  0
ARC
  5
29D
100
AcDbEntity
  8
0
100
AcDbCircle
 62
7
  6
CONTINUOUS
 10
5.5275129455
 20
5.5716946999
 40
0.3961614173
100
AcDbArc
 50
152.7369879578
 51
170.6802885137
  0
ARC
  5
29E
100
AcDbEntity
  8
0
100
AcDbCircle
 62
7
  6
CONTINUOUS
 10
5.0796782998
 20
5.5716946999
 40
0.3961614173
100
AcDbArc
 50
9.3197114863
 51
27.2630120422
  0
ARC
  5
29F
100
AcDbEntity
  8
0
100
AcDbCircle
 62
7
  6
CONTINUOUS
 10
6.0786940478
 20
5.5716946999
 40
0.3961614173
100
AcDbArc
 50
152.7369879578
 51
170.6802885137
  0
ARC
  5
2A0
100
AcDbEntity
  8
0
100
AcDbCircle
 62
7
  6
CONTINUOUS
 10
5.6308594022
 20
5.5716946999
 40
0.3961614173
100
AcDbArc
 50
9.3197114863
 51
27.2630120422
  0
ARC
  5
2A1
100
AcDbEntity
  8
0
100
AcDbCircle
 62
7
  6
CONTINUOUS
 10
4.7785769259
 20
5.700566091
 40
0.1148293963
100
AcDbArc
 50
27.2630120422
 51
90.0
  0
ARC
  5
2A2
100
AcDbEntity
  8
0
100
AcDbCircle
 62
7
  6
CONTINUOUS
 10
4.7262521146
 20
5.700566091
 40
0.1148293963
100
AcDbArc
 50
90.0
 51
152.7369879578
  0
ARC
  5
2A3
100
AcDbEntity
  8
0
100
AcDbCircle
 62
7
  6
CONTINUOUS
 10
5.277433217
 20
5.700566091
 40
0.1148293963
100
AcDbArc
 50
90.0
 51
152.7369879578
  0
ARC
  5
2A4
100
AcDbEntity
  8
0
100
AcDbCircle
 62
7
  6
CONTINUOUS
 10
5.3297580283
 20
5.700566091
 40
0.1148293963
100
AcDbArc
 50
27.2630120422
 51
90.0
  0
ARC
  5
2A5
100
AcDbEntity
  8
0
100
AcDbCircle
 62
7
  6
CONTINUOUS
 10
5.8286143193
 20
5.700566091
 40
0.1148293963
100
AcDbArc
 50
90.0
 51
152.7369879578
  0
ARC
  5
2A6
100
AcDbEntity
  8
0
100
AcDbCircle
 62
7
  6
CONTINUOUS
 10
5.8809391306
 20
5.700566091
 40
0.1148293963
100
AcDbArc
 50
27.2630120422
 51
90.0
  0
ARC
  5
2A7
100
AcDbEntity
  8
0
100
AcDbCircle
 62
7
  6
CONTINUOUS
 10
4.9949717453
 20
5.6482476308
 40
0.0765529309
100
AcDbArc
 50
189.3197114863
 51
270.0
  0
ARC
  5
2A8
100
AcDbEntity
  8
0
100
AcDbCircle
 62
7
  6
CONTINUOUS
 10
4.5098572953
 20
5.6482476308
 40
0.0765529309
100
AcDbArc
 50
270.0
 51
350.6802885137
  0
ARC
  5
2A9
100
AcDbEntity
  8
0
100
AcDbCircle
 62
7
  6
CONTINUOUS
 10
5.5461528476
 20
5.6482476308
 40
0.0765529309
100
AcDbArc
 50
189.3197114863
 51
270.0
  0
ARC
  5
2AA
100
AcDbEntity
  8
0
100
AcDbCircle
 62
7
  6
CONTINUOUS
 10
5.0610383976
 20
5.6482476308
 40
0.0765529309
100
AcDbArc
 50
270.0
 51
350.6802885137
  0
ARC
  5
2AB
100
AcDbEntity
  8
0
100
AcDbCircle
 62
7
  6
CONTINUOUS
 10
6.09733395
 20
5.6482476308
 40
0.0765529309
100
AcDbArc
 50
189.3197114863
 51
270.0
  0
ARC
  5
2AC
100
AcDbEntity
  8
0
100
AcDbCircle
 62
7
  6
CONTINUOUS
 10
5.6122195
 20
5.6482476308
 40
0.0765529309
100
AcDbArc
 50
270.0
 51
350.6802885137
  0
ARC
  5
2AD
100
AcDbEntity
  8
0
100
AcDbCircle
 62
7
  6
CONTINUOUS
 10
6.6298751502
 20
5.4685450936
 40
0.3961614173
100
AcDbArc
 50
189.3197114863
 51
207.2630120422
  0
ARC
  5
2AE
100
AcDbEntity
  8
0
100
AcDbCircle
 62
7
  6
CONTINUOUS
 10
6.1820405045
 20
5.4685450936
 40
0.3961614173
100
AcDbArc
 50
332.7369879578
 51
350.6802885137
  0
ARC
  5
2AF
100
AcDbEntity
  8
0
100
AcDbCircle
 62
7
  6
CONTINUOUS
 10
7.1810562525
 20
5.4685450936
 40
0.3961614173
100
AcDbArc
 50
189.3197114863
 51
207.2630120422
  0
ARC
  5
2B0
100
AcDbEntity
  8
0
100
AcDbCircle
 62
7
  6
CONTINUOUS
 10
6.7332216069
 20
5.4685450936
 40
0.3961614173
100
AcDbArc
 50
332.7369879578
 51
350.6802885137
  0
ARC
  5
2B1
100
AcDbEntity
  8
0
100
AcDbCircle
 62
7
  6
CONTINUOUS
 10
7.2844027092
 20
5.4685450936
 40
0.3961614173
100
AcDbArc
 50
332.7369879578
 51
350.6802885137
  0
ARC
  5
2B2
100
AcDbEntity
  8
0
100
AcDbCircle
 62
7
  6
CONTINUOUS
 10
7.7322373549
 20
5.4685450936
 40
0.3961614173
100
AcDbArc
 50
189.3197114863
 51
207.2630120422
  0
ARC
  5
2B3
100
AcDbEntity
  8
0
100
AcDbCircle
 62
7
  6
CONTINUOUS
 10
6.3797954217
 20
5.3396737025
 40
0.1148293963
100
AcDbArc
 50
207.2630120422
 51
270.0
  0
ARC
  5
2B4
100
AcDbEntity
  8
0
100
AcDbCircle
 62
7
  6
CONTINUOUS
 10
6.432120233
 20
5.3396737025
 40
0.1148293963
100
AcDbArc
 50
270.0
 51
332.7369879578
  0
ARC
  5
2B5
100
AcDbEntity
  8
0
100
AcDbCircle
 62
7
  6
CONTINUOUS
 10
6.9309765241
 20
5.3396737025
 40
0.1148293963
100
AcDbArc
 50
207.2630120422
 51
270.0
  0
ARC
  5
2B6
100
AcDbEntity
  8
0
100
AcDbCircle
 62
7
  6
CONTINUOUS
 10
6.9833013354
 20
5.3396737025
 40
0.1148293963
100
AcDbArc
 50
270.0
 51
332.7369879578
  0
ARC
  5
2B7
100
AcDbEntity
  8
0
100
AcDbCircle
 62
7
  6
CONTINUOUS
 10
7.5344824377
 20
5.3396737025
 40
0.1148293963
100
AcDbArc
 50
270.0
 51
332.7369879578
  0
ARC
  5
2B8
100
AcDbEntity
  8
0
100
AcDbCircle
 62
7
  6
CONTINUOUS
 10
7.4821576264
 20
5.3396737025
 40
0.1148293963
100
AcDbArc
 50
207.2630120422
 51
270.0
  0
ARC
  5
2B9
100
AcDbEntity
  8
0
100
AcDbCircle
 62
7
  6
CONTINUOUS
 10
6.6485150523
 20
5.3919921627
 40
0.0765529309
100
AcDbArc
 50
90.0
 51
170.6802885137
  0
ARC
  5
2BA
100
AcDbEntity
  8
0
100
AcDbCircle
 62
7
  6
CONTINUOUS
 10
6.1634006024
 20
5.3919921627
 40
0.0765529309
100
AcDbArc
 50
9.3197114863
 51
90.0
  0
ARC
  5
2BB
100
AcDbEntity
  8
0
100
AcDbCircle
 62
7
  6
CONTINUOUS
 10
7.1996961547
 20
5.3919921627
 40
0.0765529309
100
AcDbArc
 50
90.0
 51
170.6802885137
  0
ARC
  5
2BC
100
AcDbEntity
  8
0
100
AcDbCircle
 62
7
  6
CONTINUOUS
 10
6.7145817047
 20
5.3919921627
 40
0.0765529309
100
AcDbArc
 50
9.3197114863
 51
90.0
  0
ARC
  5
2BD
100
AcDbEntity
  8
0
100
AcDbCircle
 62
7
  6
CONTINUOUS
 10
7.7508772571
 20
5.3919921627
 40
0.0765529309
100
AcDbArc
 50
90.0
 51
170.6802885137
  0
ARC
  5
2BE
100
AcDbEntity
  8
0
100
AcDbCircle
 62
7
  6
CONTINUOUS
 10
7.2657628071
 20
5.3919921627
 40
0.0765529309
100
AcDbArc
 50
9.3197114863
 51
90.0
  0
ARC
  5
2BF
100
AcDbEntity
  8
0
100
AcDbCircle
 62
7
  6
CONTINUOUS
 10
6.6298751502
 20
5.5716946999
 40
0.3961614173
100
AcDbArc
 50
152.7369879578
 51
170.6802885137
  0
ARC
  5
2C0
100
AcDbEntity
  8
0
100
AcDbCircle
 62
7
  6
CONTINUOUS
 10
6.1820405045
 20
5.5716946999
 40
0.3961614173
100
AcDbArc
 50
9.3197114863
 51
27.2630120422
  0
ARC
  5
2C1
100
AcDbEntity
  8
0
100
AcDbCircle
 62
7
  6
CONTINUOUS
 10
7.1810562525
 20
5.5716946999
 40
0.3961614173
100
AcDbArc
 50
152.7369879578
 51
170.6802885137
  0
ARC
  5
2C2
100
AcDbEntity
  8
0
100
AcDbCircle
 62
7
  6
CONTINUOUS
 10
6.7332216069
 20
5.5716946999
 40
0.3961614173
100
AcDbArc
 50
9.3197114863
 51
27.2630120422
  0
ARC
  5
2C3
100
AcDbEntity
  8
0
100
AcDbCircle
 62
7
  6
CONTINUOUS
 10
7.7322373549
 20
5.5716946999
 40
0.3961614173
100
AcDbArc
 50
152.7369879578
 51
170.6802885137
  0
ARC
  5
2C4
100
AcDbEntity
  8
0
100
AcDbCircle
 62
7
  6
CONTINUOUS
 10
7.2844027092
 20
5.5716946999
 40
0.3961614173
100
AcDbArc
 50
9.3197114863
 51
27.2630120422
  0
ARC
  5
2C5
100
AcDbEntity
  8
0
100
AcDbCircle
 62
7
  6
CONTINUOUS
 10
6.3797954217
 20
5.700566091
 40
0.1148293963
100
AcDbArc
 50
90.0
 51
152.7369879578
  0
ARC
  5
2C6
100
AcDbEntity
  8
0
100
AcDbCircle
 62
7
  6
CONTINUOUS
 10
6.432120233
 20
5.700566091
 40
0.1148293963
100
AcDbArc
 50
27.2630120422
 51
90.0
  0
ARC
  5
2C7
100
AcDbEntity
  8
0
100
AcDbCircle
 62
7
  6
CONTINUOUS
 10
6.9309765241
 20
5.700566091
 40
0.1148293963
100
AcDbArc
 50
90.0
 51
152.7369879578
  0
ARC
  5
2C8
100
AcDbEntity
  8
0
100
AcDbCircle
 62
7
  6
CONTINUOUS
 10
6.9833013354
 20
5.700566091
 40
0.1148293963
100
AcDbArc
 50
27.2630120422
 51
90.0
  0
ARC
  5
2C9
100
AcDbEntity
  8
0
100
AcDbCircle
 62
7
  6
CONTINUOUS
 10
7.4821576264
 20
5.700566091
 40
0.1148293963
100
AcDbArc
 50
90.0
 51
152.7369879578
  0
ARC
  5
2CA
100
AcDbEntity
  8
0
100
AcDbCircle
 62
7
  6
CONTINUOUS
 10
7.5344824377
 20
5.700566091
 40
0.1148293963
100
AcDbArc
 50
27.2630120422
 51
90.0
  0
ARC
  5
2CB
100
AcDbEntity
  8
0
100
AcDbCircle
 62
7
  6
CONTINUOUS
 10
6.6485150523
 20
5.6482476308
 40
0.0765529309
100
AcDbArc
 50
189.3197114863
 51
270.0
  0
ARC
  5
2CC
100
AcDbEntity
  8
0
100
AcDbCircle
 62
7
  6
CONTINUOUS
 10
6.1634006024
 20
5.6482476308
 40
0.0765529309
100
AcDbArc
 50
270.0
 51
350.6802885137
  0
ARC
  5
2CD
100
AcDbEntity
  8
0
100
AcDbCircle
 62
7
  6
CONTINUOUS
 10
7.1996961547
 20
5.6482476308
 40
0.0765529309
100
AcDbArc
 50
189.3197114863
 51
270.0
  0
ARC
  5
2CE
100
AcDbEntity
  8
0
100
AcDbCircle
 62
7
  6
CONTINUOUS
 10
6.7145817047
 20
5.6482476308
 40
0.0765529309
100
AcDbArc
 50
270.0
 51
350.6802885137
  0
ARC
  5
2CF
100
AcDbEntity
  8
0
100
AcDbCircle
 62
7
  6
CONTINUOUS
 10
7.7508772571
 20
5.6482476308
 40
0.0765529309
100
AcDbArc
 50
189.3197114863
 51
270.0
  0
ARC
  5
2D0
100
AcDbEntity
  8
0
100
AcDbCircle
 62
7
  6
CONTINUOUS
 10
7.2657628071
 20
5.6482476308
 40
0.0765529309
100
AcDbArc
 50
270.0
 51
350.6802885137
  0
SPLINE
  5
2D1
100
AcDbEntity
  8
0
100
AcDbSpline
 62
7
  6
CONTINUOUS
 70
0
 71
3
 72
9
 73
5
 74
0
 42
0.0000001
 43
0.0000001
 44
0.0000000001
 40
0.0
 40
0.0
 40
0.0
 40
0.0
 40
0.2355953265
 40
1.0
 40
1.0
 40
1.0
 40
1.0
 10
14.8684468802
 20
14.3560236457
 30
0.0
 10
14.8636934354
 20
14.3625006504
 30
0.0
 10
14.8424286565
 20
14.3891915007
 30
0.0
 10
14.8173249396
 20
14.4126986563
 30
0.0
 10
14.7969426618
 20
14.4289486046
 30
0.0
  0
SPLINE
  5
2D2
100
AcDbEntity
  8
0
100
AcDbSpline
 62
7
  6
CONTINUOUS
 70
0
 71
3
 72
10
 73
6
 74
0
 42
0.0000001
 43
0.0000001
 44
0.0000000001
 40
0.0
 40
0.0
 40
0.0
 40
0.0
 40
0.5039385503
 40
0.7593945696
 40
1.0
 40
1.0
 40
1.0
 40
1.0
 10
14.6839444747
 20
14.4676306648
 30
0.0
 10
14.704301859
 20
14.4676306648
 30
0.0
 10
14.7351798894
 20
14.4618919026
 30
0.0
 10
14.7723583625
 20
14.4459111701
 30
0.0
 10
14.7893427524
 20
14.4350076986
 30
0.0
 10
14.7969426618
 20
14.4289486046
 30
0.0
  0
SPLINE
  5
2D3
100
AcDbEntity
  8
0
100
AcDbSpline
 62
7
  6
CONTINUOUS
 70
0
 71
3
 72
11
 73
7
 74
0
 42
0.0000001
 43
0.0000001
 44
0.0000000001
 40
0.0
 40
0.0
 40
0.0
 40
0.0
 40
0.2022214466
 40
0.4300661737
 40
0.6961820872
 40
1.0
 40
1.0
 40
1.0
 40
1.0
 10
13.8433033021
 20
10.6804821086
 30
0.0
 10
13.8444813274
 20
10.6842932747
 30
0.0
 10
13.8490847187
 20
10.691831037
 30
0.0
 10
13.8606465458
 20
10.6997471321
 30
0.0
 10
13.8758115389
 20
10.7045163319
 30
0.0
 10
13.8870984226
 20
10.7054661598
 30
0.0
 10
13.8930916192
 20
10.7054661598
 30
0.0
  0
SPLINE
  5
2D4
100
AcDbEntity
  8
0
100
AcDbSpline
 62
7
  6
CONTINUOUS
 70
0
 71
3
 72
11
 73
7
 74
0
 42
0.0000001
 43
0.0000001
 44
0.0000000001
 40
0.0
 40
0.0
 40
0.0
 40
0.0
 40
0.2022214466
 40
0.4300661737
 40
0.6961820872
 40
1.0
 40
1.0
 40
1.0
 40
1.0
 10
14.3509747161
 20
10.6804821086
 30
0.0
 10
14.3521527415
 20
10.6842932747
 30
0.0
 10
14.3567561327
 20
10.691831037
 30
0.0
 10
14.3683179598
 20
10.6997471321
 30
0.0
 10
14.3834829529
 20
10.7045163319
 30
0.0
 10
14.3947698367
 20
10.7054661598
 30
0.0
 10
14.4007630332
 20
10.7054661598
 30
0.0
  0
SPLINE
  5
2D5
100
AcDbEntity
  8
0
100
AcDbSpline
 62
7
  6
CONTINUOUS
 70
0
 71
3
 72
11
 73
7
 74
0
 42
0.0000001
 43
0.0000001
 44
0.0000000001
 40
0.0
 40
0.0
 40
0.0
 40
0.0
 40
0.2022214466
 40
0.4300661737
 40
0.6961820872
 40
1.0
 40
1.0
 40
1.0
 40
1.0
 10
14.8586461301
 20
10.6804821086
 30
0.0
 10
14.8598241555
 20
10.6842932747
 30
0.0
 10
14.8644275467
 20
10.691831037
 30
0.0
 10
14.8759893738
 20
10.6997471321
 30
0.0
 10
14.891154367
 20
10.7045163319
 30
0.0
 10
14.9024412507
 20
10.7054661598
 30
0.0
 10
14.9084344472
 20
10.7054661598
 30
0.0
  0
SPLINE
  5
2D6
100
AcDbEntity
  8
0
100
AcDbSpline
 62
7
  6
CONTINUOUS
 70
0
 71
3
 72
11
 73
7
 74
0
 42
0.0000001
 43
0.0000001
 44
0.0000000001
 40
0.0
 40
0.0
 40
0.0
 40
0.0
 40
0.2022214466
 40
0.4300661737
 40
0.6961820872
 40
1.0
 40
1.0
 40
1.0
 40
1.0
 10
15.3663175441
 20
10.6804821086
 30
0.0
 10
15.3674955695
 20
10.6842932747
 30
0.0
 10
15.3720989607
 20
10.691831037
 30
0.0
 10
15.3836607878
 20
10.6997471321
 30
0.0
 10
15.398825781
 20
10.7045163319
 30
0.0
 10
15.4101126647
 20
10.7054661598
 30
0.0
 10
15.4161058612
 20
10.7054661598
 30
0.0
  0
SPLINE
  5
2D7
100
AcDbEntity
  8
0
100
AcDbSpline
 62
7
  6
CONTINUOUS
 70
0
 71
3
 72
11
 73
7
 74
0
 42
0.0000001
 43
0.0000001
 44
0.0000000001
 40
0.0
 40
0.0
 40
0.0
 40
0.0
 40
0.2022214466
 40
0.4300661737
 40
0.6961820872
 40
1.0
 40
1.0
 40
1.0
 40
1.0
 10
15.8739889581
 20
10.6804821086
 30
0.0
 10
15.8751669835
 20
10.6842932747
 30
0.0
 10
15.8797703748
 20
10.691831037
 30
0.0
 10
15.8913322019
 20
10.6997471321
 30
0.0
 10
15.906497195
 20
10.7045163319
 30
0.0
 10
15.9177840787
 20
10.7054661598
 30
0.0
 10
15.9237772752
 20
10.7054661598
 30
0.0
  0
SPLINE
  5
2D8
100
AcDbEntity
  8
0
100
AcDbSpline
 62
7
  6
CONTINUOUS
 70
0
 71
3
 72
11
 73
7
 74
0
 42
0.0000001
 43
0.0000001
 44
0.0000000001
 40
0.0
 40
0.0
 40
0.0
 40
0.0
 40
0.2022214466
 40
0.4300661737
 40
0.6961820872
 40
1.0
 40
1.0
 40
1.0
 40
1.0
 10
16.3816603722
 20
10.6804821086
 30
0.0
 10
16.3828383975
 20
10.6842932747
 30
0.0
 10
16.3874417888
 20
10.691831037
 30
0.0
 10
16.3990036159
 20
10.6997471321
 30
0.0
 10
16.414168609
 20
10.7045163319
 30
0.0
 10
16.4254554927
 20
10.7054661598
 30
0.0
 10
16.4314486893
 20
10.7054661598
 30
0.0
  0
SPLINE
  5
2D9
100
AcDbEntity
  8
0
100
AcDbSpline
 62
7
  6
CONTINUOUS
 70
0
 71
3
 72
11
 73
7
 74
0
 42
0.0000001
 43
0.0000001
 44
0.0000000001
 40
0.0
 40
0.0
 40
0.0
 40
0.0
 40
0.2022604037
 40
0.4300872151
 40
0.696189881
 40
1.0
 40
1.0
 40
1.0
 40
1.0
 10
14.5610676388
 20
14.4301546034
 30
0.0
 10
14.56283578
 20
14.4358722414
 30
0.0
 10
14.5697390897
 20
14.4471808282
 30
0.0
 10
14.5870849869
 20
14.4590518353
 30
0.0
 10
14.6098305203
 20
14.4662063033
 30
0.0
 10
14.6267605342
 20
14.4676306648
 30
0.0
 10
14.635750132
 20
14.4676306648
 30
0.0
  0
SPLINE
  5
2DA
100
AcDbEntity
  8
0
100
AcDbSpline
 62
7
  6
CONTINUOUS
 70
0
 71
3
 72
9
 73
5
 74
0
 42
0.0000001
 43
0.0000001
 44
0.0000000001
 40
0.0
 40
0.0
 40
0.0
 40
0.0
 40
0.2356730812
 40
1.0
 40
1.0
 40
1.0
 40
1.0
 10
17.4068039503
 20
14.3560236457
 30
0.0
 10
17.4020489319
 20
14.3625027945
 30
0.0
 10
17.3807848517
 20
14.3891942837
 30
0.0
 10
17.355679957
 20
14.4127002929
 30
0.0
 10
17.3352997319
 20
14.4289486046
 30
0.0
  0
SPLINE
  5
2DB
100
AcDbEntity
  8
0
100
AcDbSpline
 62
7
  6
CONTINUOUS
 70
0
 71
3
 72
10
 73
6
 74
0
 42
0.0000001
 43
0.0000001
 44
0.0000000001
 40
0.0
 40
0.0
 40
0.0
 40
0.0
 40
0.5039385503
 40
0.7593945696
 40
1.0
 40
1.0
 40
1.0
 40
1.0
 10
17.2223015448
 20
14.4676306648
 30
0.0
 10
17.242658929
 20
14.4676306648
 30
0.0
 10
17.2735369595
 20
14.4618919026
 30
0.0
 10
17.3107154326
 20
14.4459111701
 30
0.0
 10
17.3276998224
 20
14.4350076986
 30
0.0
 10
17.3352997319
 20
14.4289486046
 30
0.0
  0
SPLINE
  5
2DC
100
AcDbEntity
  8
0
100
AcDbSpline
 62
7
  6
CONTINUOUS
 70
0
 71
3
 72
9
 73
5
 74
0
 42
0.0000001
 43
0.0000001
 44
0.0000000001
 40
0.0
 40
0.0
 40
0.0
 40
0.0
 40
0.2355953265
 40
1.0
 40
1.0
 40
1.0
 40
1.0
 10
16.8991325363
 20
14.3560236457
 30
0.0
 10
16.8943790915
 20
14.3625006504
 30
0.0
 10
16.8731143125
 20
14.3891915007
 30
0.0
 10
16.8480105957
 20
14.4126986563
 30
0.0
 10
16.8276283179
 20
14.4289486046
 30
0.0
  0
SPLINE
  5
2DD
100
AcDbEntity
  8
0
100
AcDbSpline
 62
7
  6
CONTINUOUS
 70
0
 71
3
 72
10
 73
6
 74
0
 42
0.0000001
 43
0.0000001
 44
0.0000000001
 40
0.0
 40
0.0
 40
0.0
 40
0.0
 40
0.5039385503
 40
0.7593945696
 40
1.0
 40
1.0
 40
1.0
 40
1.0
 10
16.7146301308
 20
14.4676306648
 30
0.0
 10
16.734987515
 20
14.4676306648
 30
0.0
 10
16.7658655455
 20
14.4618919026
 30
0.0
 10
16.8030440186
 20
14.4459111701
 30
0.0
 10
16.8200284084
 20
14.4350076986
 30
0.0
 10
16.8276283179
 20
14.4289486046
 30
0.0
  0
SPLINE
  5
2DE
100
AcDbEntity
  8
0
100
AcDbSpline
 62
7
  6
CONTINUOUS
 70
0
 71
3
 72
11
 73
7
 74
0
 42
0.0000001
 43
0.0000001
 44
0.0000000001
 40
0.0
 40
0.0
 40
0.0
 40
0.0
 40
0.2022604037
 40
0.4300872151
 40
0.696189881
 40
1.0
 40
1.0
 40
1.0
 40
1.0
 10
15.0687390528
 20
14.4301546034
 30
0.0
 10
15.070507194
 20
14.4358722414
 30
0.0
 10
15.0774105037
 20
14.4471808282
 30
0.0
 10
15.094756401
 20
14.4590518353
 30
0.0
 10
15.1175019343
 20
14.4662063033
 30
0.0
 10
15.1344319483
 20
14.4676306648
 30
0.0
 10
15.143421546
 20
14.4676306648
 30
0.0
  0
SPLINE
  5
2DF
100
AcDbEntity
  8
0
100
AcDbSpline
 62
7
  6
CONTINUOUS
 70
0
 71
3
 72
9
 73
5
 74
0
 42
0.0000001
 43
0.0000001
 44
0.0000000001
 40
0.0
 40
0.0
 40
0.0
 40
0.0
 40
0.2355953265
 40
1.0
 40
1.0
 40
1.0
 40
1.0
 10
16.3914611222
 20
14.3560236457
 30
0.0
 10
16.3867076774
 20
14.3625006504
 30
0.0
 10
16.3654428985
 20
14.3891915007
 30
0.0
 10
16.3403391817
 20
14.4126986563
 30
0.0
 10
16.3199569039
 20
14.4289486046
 30
0.0
  0
SPLINE
  5
2E0
100
AcDbEntity
  8
0
100
AcDbSpline
 62
7
  6
CONTINUOUS
 70
0
 71
3
 72
10
 73
6
 74
0
 42
0.0000001
 43
0.0000001
 44
0.0000000001
 40
0.0
 40
0.0
 40
0.0
 40
0.0
 40
0.5039385503
 40
0.7593945696
 40
1.0
 40
1.0
 40
1.0
 40
1.0
 10
16.2069587168
 20
14.4676306648
 30
0.0
 10
16.227316101
 20
14.4676306648
 30
0.0
 10
16.2581941315
 20
14.4618919026
 30
0.0
 10
16.2953726045
 20
14.4459111701
 30
0.0
 10
16.3123569944
 20
14.4350076986
 30
0.0
 10
16.3199569039
 20
14.4289486046
 30
0.0
  0
SPLINE
  5
2E1
100
AcDbEntity
  8
0
100
AcDbSpline
 62
7
  6
CONTINUOUS
 70
0
 71
3
 72
9
 73
5
 74
0
 42
0.0000001
 43
0.0000001
 44
0.0000000001
 40
0.0
 40
0.0
 40
0.0
 40
0.0
 40
0.2355953265
 40
1.0
 40
1.0
 40
1.0
 40
1.0
 10
15.8837897082
 20
14.3560236457
 30
0.0
 10
15.8790362634
 20
14.3625006504
 30
0.0
 10
15.8577714845
 20
14.3891915007
 30
0.0
 10
15.8326677676
 20
14.4126986563
 30
0.0
 10
15.8122854899
 20
14.4289486046
 30
0.0
  0
SPLINE
  5
2E2
100
AcDbEntity
  8
0
100
AcDbSpline
 62
7
  6
CONTINUOUS
 70
0
 71
3
 72
10
 73
6
 74
0
 42
0.0000001
 43
0.0000001
 44
0.0000000001
 40
0.0
 40
0.0
 40
0.0
 40
0.0
 40
0.5039385503
 40
0.7593945697
 40
1.0
 40
1.0
 40
1.0
 40
1.0
 10
15.6992873027
 20
14.4676306648
 30
0.0
 10
15.719644687
 20
14.4676306648
 30
0.0
 10
15.7505227175
 20
14.4618919026
 30
0.0
 10
15.7877011905
 20
14.4459111701
 30
0.0
 10
15.8046855804
 20
14.4350076986
 30
0.0
 10
15.8122854899
 20
14.4289486046
 30
0.0
  0
SPLINE
  5
2E3
100
AcDbEntity
  8
0
100
AcDbSpline
 62
7
  6
CONTINUOUS
 70
0
 71
3
 72
11
 73
7
 74
0
 42
0.0000001
 43
0.0000001
 44
0.0000000001
 40
0.0
 40
0.0
 40
0.0
 40
0.0
 40
0.2022604037
 40
0.4300872151
 40
0.696189881
 40
1.0
 40
1.0
 40
1.0
 40
1.0
 10
15.5764104668
 20
14.4301546034
 30
0.0
 10
15.5781786081
 20
14.4358722414
 30
0.0
 10
15.5850819177
 20
14.4471808282
 30
0.0
 10
15.602427815
 20
14.4590518353
 30
0.0
 10
15.6251733483
 20
14.4662063033
 30
0.0
 10
15.6421033623
 20
14.4676306648
 30
0.0
 10
15.65109296
 20
14.4676306648
 30
0.0
  0
SPLINE
  5
2E4
100
AcDbEntity
  8
0
100
AcDbSpline
 62
7
  6
CONTINUOUS
 70
0
 71
3
 72
9
 73
5
 74
0
 42
0.0000001
 43
0.0000001
 44
0.0000000001
 40
0.0
 40
0.0
 40
0.0
 40
0.0
 40
0.2355953265
 40
1.0
 40
1.0
 40
1.0
 40
1.0
 10
15.3761182942
 20
14.3560236457
 30
0.0
 10
15.3713648494
 20
14.3625006504
 30
0.0
 10
15.3501000705
 20
14.3891915007
 30
0.0
 10
15.3249963536
 20
14.4126986563
 30
0.0
 10
15.3046140758
 20
14.4289486046
 30
0.0
  0
SPLINE
  5
2E5
100
AcDbEntity
  8
0
100
AcDbSpline
 62
7
  6
CONTINUOUS
 70
0
 71
3
 72
10
 73
6
 74
0
 42
0.0000001
 43
0.0000001
 44
0.0000000001
 40
0.0
 40
0.0
 40
0.0
 40
0.0
 40
0.5039385503
 40
0.7593945696
 40
1.0
 40
1.0
 40
1.0
 40
1.0
 10
15.1916158887
 20
14.4676306648
 30
0.0
 10
15.211973273
 20
14.4676306648
 30
0.0
 10
15.2428513035
 20
14.4618919026
 30
0.0
 10
15.2800297765
 20
14.4459111701
 30
0.0
 10
15.2970141664
 20
14.4350076986
 30
0.0
 10
15.3046140758
 20
14.4289486046
 30
0.0
  0
SPLINE
  5
2E6
100
AcDbEntity
  8
0
100
AcDbSpline
 62
7
  6
CONTINUOUS
 70
0
 71
3
 72
9
 73
5
 74
0
 42
0.0000001
 43
0.0000001
 44
0.0000000001
 40
0.0
 40
0.0
 40
0.0
 40
0.0
 40
0.4871870484
 40
1.0
 40
1.0
 40
1.0
 40
1.0
 10
13.9724185805
 20
10.8823897618
 30
0.0
 10
13.9692755282
 20
10.8708700218
 30
0.0
 10
13.966132058
 20
10.846216934
 30
0.0
 10
13.9694667036
 20
10.8216653978
 30
0.0
 10
13.9724871063
 20
10.8094648029
 30
0.0
  0
SPLINE
  5
2E7
100
AcDbEntity
  8
0
100
AcDbSpline
 62
7
  6
CONTINUOUS
 70
0
 71
3
 72
9
 73
5
 74
0
 42
0.0000001
 43
0.0000001
 44
0.0000000001
 40
0.0
 40
0.0
 40
0.0
 40
0.0
 40
0.4871870484
 40
1.0
 40
1.0
 40
1.0
 40
1.0
 10
14.4800899945
 20
10.8823897618
 30
0.0
 10
14.4769469422
 20
10.8708700218
 30
0.0
 10
14.473803472
 20
10.846216934
 30
0.0
 10
14.4771381176
 20
10.8216653978
 30
0.0
 10
14.4801585203
 20
10.8094648029
 30
0.0
  0
SPLINE
  5
2E8
100
AcDbEntity
  8
0
100
AcDbSpline
 62
7
  6
CONTINUOUS
 70
0
 71
3
 72
9
 73
5
 74
0
 42
0.0000001
 43
0.0000001
 44
0.0000000001
 40
0.0
 40
0.0
 40
0.0
 40
0.0
 40
0.4871870484
 40
1.0
 40
1.0
 40
1.0
 40
1.0
 10
14.9877614085
 20
10.8823897618
 30
0.0
 10
14.9846183562
 20
10.8708700218
 30
0.0
 10
14.981474886
 20
10.846216934
 30
0.0
 10
14.9848095316
 20
10.8216653978
 30
0.0
 10
14.9878299343
 20
10.8094648029
 30
0.0
  0
SPLINE
  5
2E9
100
AcDbEntity
  8
0
100
AcDbSpline
 62
7
  6
CONTINUOUS
 70
0
 71
3
 72
9
 73
5
 74
0
 42
0.0000001
 43
0.0000001
 44
0.0000000001
 40
0.0
 40
0.0
 40
0.0
 40
0.0
 40
0.4871870484
 40
1.0
 40
1.0
 40
1.0
 40
1.0
 10
15.4954328225
 20
10.8823897618
 30
0.0
 10
15.4922897702
 20
10.8708700218
 30
0.0
 10
15.4891463
 20
10.846216934
 30
0.0
 10
15.4924809456
 20
10.8216653978
 30
0.0
 10
15.4955013483
 20
10.8094648029
 30
0.0
  0
SPLINE
  5
2EA
100
AcDbEntity
  8
0
100
AcDbSpline
 62
7
  6
CONTINUOUS
 70
0
 71
3
 72
9
 73
5
 74
0
 42
0.0000001
 43
0.0000001
 44
0.0000000001
 40
0.0
 40
0.0
 40
0.0
 40
0.0
 40
0.4871860435
 40
1.0
 40
1.0
 40
1.0
 40
1.0
 10
16.0031042365
 20
10.8823897618
 30
0.0
 10
15.9999611894
 20
10.8708700408
 30
0.0
 10
15.9968174797
 20
10.8462169617
 30
0.0
 10
16.0001523525
 20
10.8216654267
 30
0.0
 10
16.0031727623
 20
10.8094648029
 30
0.0
  0
SPLINE
  5
2EB
100
AcDbEntity
  8
0
100
AcDbSpline
 62
7
  6
CONTINUOUS
 70
0
 71
3
 72
11
 73
7
 74
0
 42
0.0000001
 43
0.0000001
 44
0.0000000001
 40
0.0
 40
0.0
 40
0.0
 40
0.0
 40
0.303810119
 40
0.5699127849
 40
0.7977395963
 40
1.0
 40
1.0
 40
1.0
 40
1.0
 10
16.3064748049
 20
10.553979321
 30
0.0
 10
16.3154644027
 20
10.553979321
 30
0.0
 10
16.3323944167
 20
10.5554036825
 30
0.0
 10
16.35513995
 20
10.5625581505
 30
0.0
 10
16.3724858473
 20
10.5744291576
 30
0.0
 10
16.3793891569
 20
10.5857377444
 30
0.0
 10
16.3811572982
 20
10.5914553824
 30
0.0
  0
SPLINE
  5
2EC
100
AcDbEntity
  8
0
100
AcDbSpline
 62
7
  6
CONTINUOUS
 70
0
 71
3
 72
10
 73
6
 74
0
 42
0.0000001
 43
0.0000001
 44
0.0000000001
 40
0.0
 40
0.0
 40
0.0
 40
0.0
 40
0.2406054304
 40
0.4960614497
 40
1.0
 40
1.0
 40
1.0
 40
1.0
 10
16.1452822751
 20
10.5926613812
 30
0.0
 10
16.1528821846
 20
10.5866022872
 30
0.0
 10
16.1698665745
 20
10.5756988157
 30
0.0
 10
16.2070450475
 20
10.5597180832
 30
0.0
 10
16.237923078
 20
10.553979321
 30
0.0
 10
16.2582804622
 20
10.553979321
 30
0.0
  0
SPLINE
  5
2ED
100
AcDbEntity
  8
0
100
AcDbSpline
 62
7
  6
CONTINUOUS
 70
0
 71
3
 72
9
 73
5
 74
0
 42
0.0000001
 43
0.0000001
 44
0.0000000001
 40
0.0
 40
0.0
 40
0.0
 40
0.0
 40
0.2356730812
 40
1.0
 40
1.0
 40
1.0
 40
1.0
 10
16.0737780568
 20
10.6655863402
 30
0.0
 10
16.0785330752
 20
10.6591071913
 30
0.0
 10
16.0997971553
 20
10.6324157022
 30
0.0
 10
16.1249020501
 20
10.608909693
 30
0.0
 10
16.1452822751
 20
10.5926613812
 30
0.0
  0
SPLINE
  5
2EE
100
AcDbEntity
  8
0
100
AcDbSpline
 62
7
  6
CONTINUOUS
 70
0
 71
3
 72
11
 73
7
 74
0
 42
0.0000001
 43
0.0000001
 44
0.0000000001
 40
0.0
 40
0.0
 40
0.0
 40
0.0
 40
0.303810119
 40
0.5699127849
 40
0.7977395963
 40
1.0
 40
1.0
 40
1.0
 40
1.0
 10
15.7988033909
 20
10.553979321
 30
0.0
 10
15.8077929887
 20
10.553979321
 30
0.0
 10
15.8247230027
 20
10.5554036825
 30
0.0
 10
15.847468536
 20
10.5625581505
 30
0.0
 10
15.8648144333
 20
10.5744291576
 30
0.0
 10
15.8717177429
 20
10.5857377444
 30
0.0
 10
15.8734858842
 20
10.5914553824
 30
0.0
  0
SPLINE
  5
2EF
100
AcDbEntity
  8
0
100
AcDbSpline
 62
7
  6
CONTINUOUS
 70
0
 71
3
 72
10
 73
6
 74
0
 42
0.0000001
 43
0.0000001
 44
0.0000000001
 40
0.0
 40
0.0
 40
0.0
 40
0.0
 40
0.2406054304
 40
0.4960614497
 40
1.0
 40
1.0
 40
1.0
 40
1.0
 10
15.6376108611
 20
10.5926613812
 30
0.0
 10
15.6452107706
 20
10.5866022872
 30
0.0
 10
15.6621951604
 20
10.5756988157
 30
0.0
 10
15.6993736335
 20
10.5597180832
 30
0.0
 10
15.730251664
 20
10.553979321
 30
0.0
 10
15.7506090482
 20
10.553979321
 30
0.0
  0
SPLINE
  5
2F0
100
AcDbEntity
  8
0
100
AcDbSpline
 62
7
  6
CONTINUOUS
 70
0
 71
3
 72
9
 73
5
 74
0
 42
0.0000001
 43
0.0000001
 44
0.0000000001
 40
0.0
 40
0.0
 40
0.0
 40
0.0
 40
0.2355953265
 40
1.0
 40
1.0
 40
1.0
 40
1.0
 10
15.5661066427
 20
10.6655863402
 30
0.0
 10
15.5708600875
 20
10.6591093354
 30
0.0
 10
15.5921248665
 20
10.6324184851
 30
0.0
 10
15.6172285833
 20
10.6089113295
 30
0.0
 10
15.6376108611
 20
10.5926613812
 30
0.0
  0
SPLINE
  5
2F1
100
AcDbEntity
  8
0
100
AcDbSpline
 62
7
  6
CONTINUOUS
 70
0
 71
3
 72
11
 73
7
 74
0
 42
0.0000001
 43
0.0000001
 44
0.0000000001
 40
0.0
 40
0.0
 40
0.0
 40
0.0
 40
0.303810119
 40
0.5699127849
 40
0.7977395963
 40
1.0
 40
1.0
 40
1.0
 40
1.0
 10
15.2911319769
 20
10.553979321
 30
0.0
 10
15.3001215747
 20
10.553979321
 30
0.0
 10
15.3170515886
 20
10.5554036825
 30
0.0
 10
15.339797122
 20
10.5625581505
 30
0.0
 10
15.3571430193
 20
10.5744291576
 30
0.0
 10
15.3640463289
 20
10.5857377444
 30
0.0
 10
15.3658144702
 20
10.5914553824
 30
0.0
  0
SPLINE
  5
2F2
100
AcDbEntity
  8
0
100
AcDbSpline
 62
7
  6
CONTINUOUS
 70
0
 71
3
 72
10
 73
6
 74
0
 42
0.0000001
 43
0.0000001
 44
0.0000000001
 40
0.0
 40
0.0
 40
0.0
 40
0.0
 40
0.2406054304
 40
0.4960614497
 40
1.0
 40
1.0
 40
1.0
 40
1.0
 10
15.1299394471
 20
10.5926613812
 30
0.0
 10
15.1375393566
 20
10.5866022872
 30
0.0
 10
15.1545237464
 20
10.5756988157
 30
0.0
 10
15.1917022195
 20
10.5597180832
 30
0.0
 10
15.22258025
 20
10.553979321
 30
0.0
 10
15.2429376342
 20
10.553979321
 30
0.0
  0
SPLINE
  5
2F3
100
AcDbEntity
  8
0
100
AcDbSpline
 62
7
  6
CONTINUOUS
 70
0
 71
3
 72
9
 73
5
 74
0
 42
0.0000001
 43
0.0000001
 44
0.0000000001
 40
0.0
 40
0.0
 40
0.0
 40
0.0
 40
0.2355953265
 40
1.0
 40
1.0
 40
1.0
 40
1.0
 10
15.0584352287
 20
10.6655863402
 30
0.0
 10
15.0631886735
 20
10.6591093354
 30
0.0
 10
15.0844534525
 20
10.6324184851
 30
0.0
 10
15.1095571693
 20
10.6089113295
 30
0.0
 10
15.1299394471
 20
10.5926613812
 30
0.0
  0
SPLINE
  5
2F4
100
AcDbEntity
  8
0
100
AcDbSpline
 62
7
  6
CONTINUOUS
 70
0
 71
3
 72
11
 73
7
 74
0
 42
0.0000001
 43
0.0000001
 44
0.0000000001
 40
0.0
 40
0.0
 40
0.0
 40
0.0
 40
0.303810119
 40
0.5699127849
 40
0.7977395963
 40
1.0
 40
1.0
 40
1.0
 40
1.0
 10
14.7834605629
 20
10.553979321
 30
0.0
 10
14.7924501607
 20
10.553979321
 30
0.0
 10
14.8093801746
 20
10.5554036825
 30
0.0
 10
14.8321257079
 20
10.5625581505
 30
0.0
 10
14.8494716052
 20
10.5744291576
 30
0.0
 10
14.8563749149
 20
10.5857377444
 30
0.0
 10
14.8581430561
 20
10.5914553824
 30
0.0
  0
SPLINE
  5
2F5
100
AcDbEntity
  8
0
100
AcDbSpline
 62
7
  6
CONTINUOUS
 70
0
 71
3
 72
10
 73
6
 74
0
 42
0.0000001
 43
0.0000001
 44
0.0000000001
 40
0.0
 40
0.0
 40
0.0
 40
0.0
 40
0.2406054304
 40
0.4960614497
 40
1.0
 40
1.0
 40
1.0
 40
1.0
 10
14.6222680331
 20
10.5926613812
 30
0.0
 10
14.6298679425
 20
10.5866022872
 30
0.0
 10
14.6468523324
 20
10.5756988157
 30
0.0
 10
14.6840308054
 20
10.5597180832
 30
0.0
 10
14.7149088359
 20
10.553979321
 30
0.0
 10
14.7352662202
 20
10.553979321
 30
0.0
  0
SPLINE
  5
2F6
100
AcDbEntity
  8
0
100
AcDbSpline
 62
7
  6
CONTINUOUS
 70
0
 71
3
 72
9
 73
5
 74
0
 42
0.0000001
 43
0.0000001
 44
0.0000000001
 40
0.0
 40
0.0
 40
0.0
 40
0.0
 40
0.2355953265
 40
1.0
 40
1.0
 40
1.0
 40
1.0
 10
14.5507638147
 20
10.6655863402
 30
0.0
 10
14.5555172595
 20
10.6591093354
 30
0.0
 10
14.5767820384
 20
10.6324184851
 30
0.0
 10
14.6018857553
 20
10.6089113295
 30
0.0
 10
14.6222680331
 20
10.5926613812
 30
0.0
  0
SPLINE
  5
2F7
100
AcDbEntity
  8
0
100
AcDbSpline
 62
7
  6
CONTINUOUS
 70
0
 71
3
 72
11
 73
7
 74
0
 42
0.0000001
 43
0.0000001
 44
0.0000000001
 40
0.0
 40
0.0
 40
0.0
 40
0.0
 40
0.303810119
 40
0.5699127849
 40
0.7977395963
 40
1.0
 40
1.0
 40
1.0
 40
1.0
 10
14.2757891489
 20
10.553979321
 30
0.0
 10
14.2847787466
 20
10.553979321
 30
0.0
 10
14.3017087606
 20
10.5554036825
 30
0.0
 10
14.3244542939
 20
10.5625581505
 30
0.0
 10
14.3418001912
 20
10.5744291576
 30
0.0
 10
14.3487035008
 20
10.5857377444
 30
0.0
 10
14.3504716421
 20
10.5914553824
 30
0.0
  0
SPLINE
  5
2F8
100
AcDbEntity
  8
0
100
AcDbSpline
 62
7
  6
CONTINUOUS
 70
0
 71
3
 72
10
 73
6
 74
0
 42
0.0000001
 43
0.0000001
 44
0.0000000001
 40
0.0
 40
0.0
 40
0.0
 40
0.0
 40
0.2406054304
 40
0.4960614497
 40
1.0
 40
1.0
 40
1.0
 40
1.0
 10
14.114596619
 20
10.5926613812
 30
0.0
 10
14.1221965285
 20
10.5866022872
 30
0.0
 10
14.1391809184
 20
10.5756988157
 30
0.0
 10
14.1763593914
 20
10.5597180832
 30
0.0
 10
14.2072374219
 20
10.553979321
 30
0.0
 10
14.2275948062
 20
10.553979321
 30
0.0
  0
SPLINE
  5
2F9
100
AcDbEntity
  8
0
100
AcDbSpline
 62
7
  6
CONTINUOUS
 70
0
 71
3
 72
9
 73
5
 74
0
 42
0.0000001
 43
0.0000001
 44
0.0000000001
 40
0.0
 40
0.0
 40
0.0
 40
0.0
 40
0.2355953265
 40
1.0
 40
1.0
 40
1.0
 40
1.0
 10
14.0430924007
 20
10.6655863402
 30
0.0
 10
14.0478458455
 20
10.6591093354
 30
0.0
 10
14.0691106244
 20
10.6324184851
 30
0.0
 10
14.0942143413
 20
10.6089113295
 30
0.0
 10
14.114596619
 20
10.5926613812
 30
0.0
  0
SPLINE
  5
2FA
100
AcDbEntity
  8
0
100
AcDbSpline
 62
7
  6
CONTINUOUS
 70
0
 71
3
 72
11
 73
7
 74
0
 42
0.0000001
 43
0.0000001
 44
0.0000000001
 40
0.0
 40
0.0
 40
0.0
 40
0.0
 40
0.303810119
 40
0.5699127849
 40
0.7977395963
 40
1.0
 40
1.0
 40
1.0
 40
1.0
 10
13.7681177349
 20
10.553979321
 30
0.0
 10
13.7771073326
 20
10.553979321
 30
0.0
 10
13.7940373466
 20
10.5554036825
 30
0.0
 10
13.8167828799
 20
10.5625581505
 30
0.0
 10
13.8341287772
 20
10.5744291576
 30
0.0
 10
13.8410320868
 20
10.5857377444
 30
0.0
 10
13.8428002281
 20
10.5914553824
 30
0.0
  0
SPLINE
  5
2FB
100
AcDbEntity
  8
0
100
AcDbSpline
 62
7
  6
CONTINUOUS
 70
0
 71
3
 72
10
 73
6
 74
0
 42
0.0000001
 43
0.0000001
 44
0.0000000001
 40
0.0
 40
0.0
 40
0.0
 40
0.0
 40
0.2406054304
 40
0.4960614497
 40
1.0
 40
1.0
 40
1.0
 40
1.0
 10
13.606925205
 20
10.5926613812
 30
0.0
 10
13.6145251145
 20
10.5866022872
 30
0.0
 10
13.6315095044
 20
10.5756988157
 30
0.0
 10
13.6686879774
 20
10.5597180832
 30
0.0
 10
13.6995660079
 20
10.553979321
 30
0.0
 10
13.7199233921
 20
10.553979321
 30
0.0
  0
SPLINE
  5
2FC
100
AcDbEntity
  8
0
100
AcDbSpline
 62
7
  6
CONTINUOUS
 70
0
 71
3
 72
9
 73
5
 74
0
 42
0.0000001
 43
0.0000001
 44
0.0000000001
 40
0.0
 40
0.0
 40
0.0
 40
0.0
 40
0.2355953265
 40
1.0
 40
1.0
 40
1.0
 40
1.0
 10
13.5354209867
 20
10.6655863402
 30
0.0
 10
13.5401744315
 20
10.6591093354
 30
0.0
 10
13.5614392104
 20
10.6324184851
 30
0.0
 10
13.5865429273
 20
10.6089113295
 30
0.0
 10
13.606925205
 20
10.5926613812
 30
0.0
  0
SPLINE
  5
2FD
100
AcDbEntity
  8
0
100
AcDbSpline
 62
7
  6
CONTINUOUS
 70
0
 71
3
 72
9
 73
5
 74
0
 42
0.0000001
 43
0.0000001
 44
0.0000000001
 40
0.0
 40
0.0
 40
0.0
 40
0.0
 40
0.4871870484
 40
1.0
 40
1.0
 40
1.0
 40
1.0
 10
13.4647471664
 20
10.8823897618
 30
0.0
 10
13.4616041141
 20
10.8708700218
 30
0.0
 10
13.458460644
 20
10.846216934
 30
0.0
 10
13.4617952895
 20
10.8216653978
 30
0.0
 10
13.4648156922
 20
10.8094648029
 30
0.0
  0
SPLINE
  5
2FE
100
AcDbEntity
  8
0
100
AcDbSpline
 62
7
  6
CONTINUOUS
 70
0
 71
3
 72
11
 73
7
 74
0
 42
0.0000001
 43
0.0000001
 44
0.0000000001
 40
0.0
 40
0.0
 40
0.0
 40
0.0
 40
0.2022604037
 40
0.4300872151
 40
0.696189881
 40
1.0
 40
1.0
 40
1.0
 40
1.0
 10
16.0840818808
 20
14.4301546034
 30
0.0
 10
16.0858500221
 20
14.4358722414
 30
0.0
 10
16.0927533317
 20
14.4471808282
 30
0.0
 10
16.110099229
 20
14.4590518353
 30
0.0
 10
16.1328447623
 20
14.4662063033
 30
0.0
 10
16.1497747763
 20
14.4676306648
 30
0.0
 10
16.1587643741
 20
14.4676306648
 30
0.0
  0
SPLINE
  5
2FF
100
AcDbEntity
  8
0
100
AcDbSpline
 62
7
  6
CONTINUOUS
 70
0
 71
3
 72
11
 73
7
 74
0
 42
0.0000001
 43
0.0000001
 44
0.0000000001
 40
0.0
 40
0.0
 40
0.0
 40
0.0
 40
0.2022604037
 40
0.4300872151
 40
0.696189881
 40
1.0
 40
1.0
 40
1.0
 40
1.0
 10
16.5917532948
 20
14.4301546034
 30
0.0
 10
16.5935214361
 20
14.4358722414
 30
0.0
 10
16.6004247457
 20
14.4471808282
 30
0.0
 10
16.617770643
 20
14.4590518353
 30
0.0
 10
16.6405161763
 20
14.4662063033
 30
0.0
 10
16.6574461903
 20
14.4676306648
 30
0.0
 10
16.6664357881
 20
14.4676306648
 30
0.0
  0
SPLINE
  5
300
100
AcDbEntity
  8
0
100
AcDbSpline
 62
7
  6
CONTINUOUS
 70
0
 71
3
 72
11
 73
7
 74
0
 42
0.0000001
 43
0.0000001
 44
0.0000000001
 40
0.0
 40
0.0
 40
0.0
 40
0.0
 40
0.2022604037
 40
0.4300872151
 40
0.696189881
 40
1.0
 40
1.0
 40
1.0
 40
1.0
 10
17.0994247088
 20
14.4301546034
 30
0.0
 10
17.1011928501
 20
14.4358722414
 30
0.0
 10
17.1080961597
 20
14.4471808282
 30
0.0
 10
17.125442057
 20
14.4590518353
 30
0.0
 10
17.1481875904
 20
14.4662063033
 30
0.0
 10
17.1651176043
 20
14.4676306648
 30
0.0
 10
17.1741072021
 20
14.4676306648
 30
0.0
  0
SPLINE
  5
301
100
AcDbEntity
  8
0
100
AcDbSpline
 62
7
  6
CONTINUOUS
 70
0
 71
3
 72
11
 73
7
 74
0
 42
0.0000001
 43
0.0000001
 44
0.0000000001
 40
0.0
 40
0.0
 40
0.0
 40
0.0
 40
0.2575920123
 40
0.5240196544
 40
0.7775852391
 40
1.0
 40
1.0
 40
1.0
 40
1.0
 10
13.4462716217
 20
10.7054661598
 30
0.0
 10
13.4549084693
 20
10.7054661598
 30
0.0
 10
13.4725098602
 20
10.703332508
 30
0.0
 10
13.4974257955
 20
10.6951249452
 30
0.0
 10
13.519198228
 20
10.6827294916
 30
0.0
 10
13.5310087634
 20
10.6715983992
 30
0.0
 10
13.5354209867
 20
10.6655863402
 30
0.0
  0
SPLINE
  5
302
100
AcDbEntity
  8
0
100
AcDbSpline
 62
7
  6
CONTINUOUS
 70
0
 71
3
 72
11
 73
7
 74
0
 42
0.0000001
 43
0.0000001
 44
0.0000000001
 40
0.0
 40
0.0
 40
0.0
 40
0.0
 40
0.2224147609
 40
0.4759803456
 40
0.7424079877
 40
1.0
 40
1.0
 40
1.0
 40
1.0
 10
14.8684468802
 20
14.3560236457
 30
0.0
 10
14.8728591034
 20
14.3500115866
 30
0.0
 10
14.8846696389
 20
14.3388804942
 30
0.0
 10
14.9064420713
 20
14.3264850406
 30
0.0
 10
14.9313580066
 20
14.3182774778
 30
0.0
 10
14.9489593975
 20
14.3161438261
 30
0.0
 10
14.9575962452
 20
14.3161438261
 30
0.0
  0
SPLINE
  5
303
100
AcDbEntity
  8
0
100
AcDbSpline
 62
7
  6
CONTINUOUS
 70
0
 71
3
 72
9
 73
5
 74
0
 42
0.0000001
 43
0.0000001
 44
0.0000000001
 40
0.0
 40
0.0
 40
0.0
 40
0.0
 40
0.2619868488
 40
1.0
 40
1.0
 40
1.0
 40
1.0
 10
13.4648156922
 20
10.8094648029
 30
0.0
 10
13.4651304721
 20
10.8081932832
 30
0.0
 10
13.4660543339
 20
10.8032789978
 30
0.0
 10
13.4656846889
 20
10.7980944442
 30
0.0
 10
13.4645949903
 20
10.7945690344
 30
0.0
  0
SPLINE
  5
304
100
AcDbEntity
  8
0
100
AcDbSpline
 62
7
  6
CONTINUOUS
 70
0
 71
3
 72
9
 73
5
 74
0
 42
0.0000001
 43
0.0000001
 44
0.0000000001
 40
0.0
 40
0.0
 40
0.0
 40
0.0
 40
0.2582735706
 40
1.0
 40
1.0
 40
1.0
 40
1.0
 10
14.5107762477
 20
14.3161438261
 30
0.0
 10
14.5121125459
 20
14.3161438261
 30
0.0
 10
14.5172854965
 20
14.3162441586
 30
0.0
 10
14.5224546712
 20
14.3167495643
 30
0.0
 10
14.5262372992
 20
14.3173971798
 30
0.0
  0
SPLINE
  5
305
100
AcDbEntity
  8
0
100
AcDbSpline
 62
7
  6
CONTINUOUS
 70
0
 71
3
 72
11
 73
7
 74
0
 42
0.0000001
 43
0.0000001
 44
0.0000000001
 40
0.0
 40
0.0
 40
0.0
 40
0.0
 40
0.2575920123
 40
0.5240196544
 40
0.7775852391
 40
1.0
 40
1.0
 40
1.0
 40
1.0
 10
13.9539430357
 20
10.7054661598
 30
0.0
 10
13.9625798833
 20
10.7054661598
 30
0.0
 10
13.9801812743
 20
10.703332508
 30
0.0
 10
14.0050972096
 20
10.6951249452
 30
0.0
 10
14.026869642
 20
10.6827294916
 30
0.0
 10
14.0386801774
 20
10.6715983992
 30
0.0
 10
14.0430924007
 20
10.6655863402
 30
0.0
  0
SPLINE
  5
306
100
AcDbEntity
  8
0
100
AcDbSpline
 62
7
  6
CONTINUOUS
 70
0
 71
3
 72
11
 73
7
 74
0
 42
0.0000001
 43
0.0000001
 44
0.0000000001
 40
0.0
 40
0.0
 40
0.0
 40
0.0
 40
0.2224147609
 40
0.4759803456
 40
0.7424079877
 40
1.0
 40
1.0
 40
1.0
 40
1.0
 10
15.3761182942
 20
14.3560236457
 30
0.0
 10
15.3805305175
 20
14.3500115866
 30
0.0
 10
15.3923410529
 20
14.3388804942
 30
0.0
 10
15.4141134853
 20
14.3264850406
 30
0.0
 10
15.4390294206
 20
14.3182774778
 30
0.0
 10
15.4566308116
 20
14.3161438261
 30
0.0
 10
15.4652676592
 20
14.3161438261
 30
0.0
  0
SPLINE
  5
307
100
AcDbEntity
  8
0
100
AcDbSpline
 62
7
  6
CONTINUOUS
 70
0
 71
3
 72
9
 73
5
 74
0
 42
0.0000001
 43
0.0000001
 44
0.0000000001
 40
0.0
 40
0.0
 40
0.0
 40
0.0
 40
0.2619868488
 40
1.0
 40
1.0
 40
1.0
 40
1.0
 10
13.9724871063
 20
10.8094648029
 30
0.0
 10
13.9728018861
 20
10.8081932832
 30
0.0
 10
13.9737257479
 20
10.8032789978
 30
0.0
 10
13.9733561029
 20
10.7980944442
 30
0.0
 10
13.9722664043
 20
10.7945690344
 30
0.0
  0
SPLINE
  5
308
100
AcDbEntity
  8
0
100
AcDbSpline
 62
7
  6
CONTINUOUS
 70
0
 71
3
 72
9
 73
5
 74
0
 42
0.0000001
 43
0.0000001
 44
0.0000000001
 40
0.0
 40
0.0
 40
0.0
 40
0.0
 40
0.2582735706
 40
1.0
 40
1.0
 40
1.0
 40
1.0
 10
15.0184476617
 20
14.3161438261
 30
0.0
 10
15.0197839599
 20
14.3161438261
 30
0.0
 10
15.0249569105
 20
14.3162441586
 30
0.0
 10
15.0301260852
 20
14.3167495643
 30
0.0
 10
15.0339087132
 20
14.3173971798
 30
0.0
  0
SPLINE
  5
309
100
AcDbEntity
  8
0
100
AcDbSpline
 62
7
  6
CONTINUOUS
 70
0
 71
3
 72
11
 73
7
 74
0
 42
0.0000001
 43
0.0000001
 44
0.0000000001
 40
0.0
 40
0.0
 40
0.0
 40
0.0
 40
0.2575920123
 40
0.5240196544
 40
0.7775852391
 40
1.0
 40
1.0
 40
1.0
 40
1.0
 10
14.4616144497
 20
10.7054661598
 30
0.0
 10
14.4702512973
 20
10.7054661598
 30
0.0
 10
14.4878526883
 20
10.703332508
 30
0.0
 10
14.5127686236
 20
10.6951249452
 30
0.0
 10
14.534541056
 20
10.6827294916
 30
0.0
 10
14.5463515915
 20
10.6715983992
 30
0.0
 10
14.5507638147
 20
10.6655863402
 30
0.0
  0
SPLINE
  5
30A
100
AcDbEntity
  8
0
100
AcDbSpline
 62
7
  6
CONTINUOUS
 70
0
 71
3
 72
11
 73
7
 74
0
 42
0.0000001
 43
0.0000001
 44
0.0000000001
 40
0.0
 40
0.0
 40
0.0
 40
0.0
 40
0.2224147609
 40
0.4759803456
 40
0.7424079877
 40
1.0
 40
1.0
 40
1.0
 40
1.0
 10
15.8837897082
 20
14.3560236457
 30
0.0
 10
15.8882019315
 20
14.3500115866
 30
0.0
 10
15.9000124669
 20
14.3388804942
 30
0.0
 10
15.9217848994
 20
14.3264850406
 30
0.0
 10
15.9467008346
 20
14.3182774778
 30
0.0
 10
15.9643022256
 20
14.3161438261
 30
0.0
 10
15.9729390732
 20
14.3161438261
 30
0.0
  0
SPLINE
  5
30B
100
AcDbEntity
  8
0
100
AcDbSpline
 62
7
  6
CONTINUOUS
 70
0
 71
3
 72
9
 73
5
 74
0
 42
0.0000001
 43
0.0000001
 44
0.0000000001
 40
0.0
 40
0.0
 40
0.0
 40
0.0
 40
0.2619868488
 40
1.0
 40
1.0
 40
1.0
 40
1.0
 10
14.4801585203
 20
10.8094648029
 30
0.0
 10
14.4804733001
 20
10.8081932832
 30
0.0
 10
14.4813971619
 20
10.8032789978
 30
0.0
 10
14.4810275169
 20
10.7980944442
 30
0.0
 10
14.4799378183
 20
10.7945690344
 30
0.0
  0
SPLINE
  5
30C
100
AcDbEntity
  8
0
100
AcDbSpline
 62
7
  6
CONTINUOUS
 70
0
 71
3
 72
9
 73
5
 74
0
 42
0.0000001
 43
0.0000001
 44
0.0000000001
 40
0.0
 40
0.0
 40
0.0
 40
0.0
 40
0.2582735706
 40
1.0
 40
1.0
 40
1.0
 40
1.0
 10
15.5261190757
 20
14.3161438261
 30
0.0
 10
15.5274553739
 20
14.3161438261
 30
0.0
 10
15.5326283246
 20
14.3162441586
 30
0.0
 10
15.5377974992
 20
14.3167495643
 30
0.0
 10
15.5415801272
 20
14.3173971798
 30
0.0
  0
SPLINE
  5
30D
100
AcDbEntity
  8
0
100
AcDbSpline
 62
7
  6
CONTINUOUS
 70
0
 71
3
 72
11
 73
7
 74
0
 42
0.0000001
 43
0.0000001
 44
0.0000000001
 40
0.0
 40
0.0
 40
0.0
 40
0.0
 40
0.2575920123
 40
0.5240196544
 40
0.7775852391
 40
1.0
 40
1.0
 40
1.0
 40
1.0
 10
14.9692858637
 20
10.7054661598
 30
0.0
 10
14.9779227114
 20
10.7054661598
 30
0.0
 10
14.9955241023
 20
10.703332508
 30
0.0
 10
15.0204400376
 20
10.6951249452
 30
0.0
 10
15.04221247
 20
10.6827294916
 30
0.0
 10
15.0540230055
 20
10.6715983992
 30
0.0
 10
15.0584352287
 20
10.6655863402
 30
0.0
  0
SPLINE
  5
30E
100
AcDbEntity
  8
0
100
AcDbSpline
 62
7
  6
CONTINUOUS
 70
0
 71
3
 72
11
 73
7
 74
0
 42
0.0000001
 43
0.0000001
 44
0.0000000001
 40
0.0
 40
0.0
 40
0.0
 40
0.0
 40
0.2224147609
 40
0.4759803456
 40
0.7424079877
 40
1.0
 40
1.0
 40
1.0
 40
1.0
 10
16.3914611222
 20
14.3560236457
 30
0.0
 10
16.3958733455
 20
14.3500115866
 30
0.0
 10
16.407683881
 20
14.3388804942
 30
0.0
 10
16.4294563134
 20
14.3264850406
 30
0.0
 10
16.4543722487
 20
14.3182774778
 30
0.0
 10
16.4719736396
 20
14.3161438261
 30
0.0
 10
16.4806104873
 20
14.3161438261
 30
0.0
  0
SPLINE
  5
30F
100
AcDbEntity
  8
0
100
AcDbSpline
 62
7
  6
CONTINUOUS
 70
0
 71
3
 72
9
 73
5
 74
0
 42
0.0000001
 43
0.0000001
 44
0.0000000001
 40
0.0
 40
0.0
 40
0.0
 40
0.0
 40
0.2619868488
 40
1.0
 40
1.0
 40
1.0
 40
1.0
 10
14.9878299343
 20
10.8094648029
 30
0.0
 10
14.9881447141
 20
10.8081932832
 30
0.0
 10
14.989068576
 20
10.8032789978
 30
0.0
 10
14.9886989309
 20
10.7980944442
 30
0.0
 10
14.9876092324
 20
10.7945690344
 30
0.0
  0
SPLINE
  5
310
100
AcDbEntity
  8
0
100
AcDbSpline
 62
7
  6
CONTINUOUS
 70
0
 71
3
 72
9
 73
5
 74
0
 42
0.0000001
 43
0.0000001
 44
0.0000000001
 40
0.0
 40
0.0
 40
0.0
 40
0.0
 40
0.2582735706
 40
1.0
 40
1.0
 40
1.0
 40
1.0
 10
16.0337904897
 20
14.3161438261
 30
0.0
 10
16.035126788
 20
14.3161438261
 30
0.0
 10
16.0402997386
 20
14.3162441586
 30
0.0
 10
16.0454689132
 20
14.3167495643
 30
0.0
 10
16.0492515412
 20
14.3173971798
 30
0.0
  0
SPLINE
  5
311
100
AcDbEntity
  8
0
100
AcDbSpline
 62
7
  6
CONTINUOUS
 70
0
 71
3
 72
11
 73
7
 74
0
 42
0.0000001
 43
0.0000001
 44
0.0000000001
 40
0.0
 40
0.0
 40
0.0
 40
0.0
 40
0.2575920123
 40
0.5240196544
 40
0.7775852391
 40
1.0
 40
1.0
 40
1.0
 40
1.0
 10
15.4769572777
 20
10.7054661598
 30
0.0
 10
15.4855941254
 20
10.7054661598
 30
0.0
 10
15.5031955163
 20
10.703332508
 30
0.0
 10
15.5281114516
 20
10.6951249452
 30
0.0
 10
15.549883884
 20
10.6827294916
 30
0.0
 10
15.5616944195
 20
10.6715983992
 30
0.0
 10
15.5661066427
 20
10.6655863402
 30
0.0
  0
SPLINE
  5
312
100
AcDbEntity
  8
0
100
AcDbSpline
 62
7
  6
CONTINUOUS
 70
0
 71
3
 72
11
 73
7
 74
0
 42
0.0000001
 43
0.0000001
 44
0.0000000001
 40
0.0
 40
0.0
 40
0.0
 40
0.0
 40
0.2224147609
 40
0.4759803456
 40
0.7424079877
 40
1.0
 40
1.0
 40
1.0
 40
1.0
 10
16.8991325363
 20
14.3560236457
 30
0.0
 10
16.9035447595
 20
14.3500115866
 30
0.0
 10
16.915355295
 20
14.3388804942
 30
0.0
 10
16.9371277274
 20
14.3264850406
 30
0.0
 10
16.9620436627
 20
14.3182774778
 30
0.0
 10
16.9796450536
 20
14.3161438261
 30
0.0
 10
16.9882819013
 20
14.3161438261
 30
0.0
  0
SPLINE
  5
313
100
AcDbEntity
  8
0
100
AcDbSpline
 62
7
  6
CONTINUOUS
 70
0
 71
3
 72
9
 73
5
 74
0
 42
0.0000001
 43
0.0000001
 44
0.0000000001
 40
0.0
 40
0.0
 40
0.0
 40
0.0
 40
0.2619868488
 40
1.0
 40
1.0
 40
1.0
 40
1.0
 10
15.4955013483
 20
10.8094648029
 30
0.0
 10
15.4958161282
 20
10.8081932832
 30
0.0
 10
15.49673999
 20
10.8032789978
 30
0.0
 10
15.496370345
 20
10.7980944442
 30
0.0
 10
15.4952806464
 20
10.7945690344
 30
0.0
  0
SPLINE
  5
314
100
AcDbEntity
  8
0
100
AcDbSpline
 62
7
  6
CONTINUOUS
 70
0
 71
3
 72
9
 73
5
 74
0
 42
0.0000001
 43
0.0000001
 44
0.0000000001
 40
0.0
 40
0.0
 40
0.0
 40
0.0
 40
0.2582735706
 40
1.0
 40
1.0
 40
1.0
 40
1.0
 10
16.5414619038
 20
14.3161438261
 30
0.0
 10
16.542798202
 20
14.3161438261
 30
0.0
 10
16.5479711526
 20
14.3162441586
 30
0.0
 10
16.5531403272
 20
14.3167495643
 30
0.0
 10
16.5569229552
 20
14.3173971798
 30
0.0
  0
SPLINE
  5
315
100
AcDbEntity
  8
0
100
AcDbSpline
 62
7
  6
CONTINUOUS
 70
0
 71
3
 72
11
 73
7
 74
0
 42
0.0000001
 43
0.0000001
 44
0.0000000001
 40
0.0
 40
0.0
 40
0.0
 40
0.0
 40
0.2575920123
 40
0.5240196544
 40
0.7775852391
 40
1.0
 40
1.0
 40
1.0
 40
1.0
 10
15.9846286917
 20
10.7054661598
 30
0.0
 10
15.9932655394
 20
10.7054661598
 30
0.0
 10
16.0108669303
 20
10.703332508
 30
0.0
 10
16.0357828656
 20
10.6951249452
 30
0.0
 10
16.057555298
 20
10.6827294916
 30
0.0
 10
16.0693658335
 20
10.6715983992
 30
0.0
 10
16.0737780568
 20
10.6655863402
 30
0.0
  0
SPLINE
  5
316
100
AcDbEntity
  8
0
100
AcDbSpline
 62
7
  6
CONTINUOUS
 70
0
 71
3
 72
11
 73
7
 74
0
 42
0.0000001
 43
0.0000001
 44
0.0000000001
 40
0.0
 40
0.0
 40
0.0
 40
0.0
 40
0.2224147609
 40
0.4759803456
 40
0.7424079877
 40
1.0
 40
1.0
 40
1.0
 40
1.0
 10
17.4068039503
 20
14.3560236457
 30
0.0
 10
17.4112161735
 20
14.3500115866
 30
0.0
 10
17.423026709
 20
14.3388804942
 30
0.0
 10
17.4447991414
 20
14.3264850406
 30
0.0
 10
17.4697150767
 20
14.3182774778
 30
0.0
 10
17.4873164676
 20
14.3161438261
 30
0.0
 10
17.4959533153
 20
14.3161438261
 30
0.0
  0
SPLINE
  5
317
100
AcDbEntity
  8
0
100
AcDbSpline
 62
7
  6
CONTINUOUS
 70
0
 71
3
 72
9
 73
5
 74
0
 42
0.0000001
 43
0.0000001
 44
0.0000000001
 40
0.0
 40
0.0
 40
0.0
 40
0.0
 40
0.2619868488
 40
1.0
 40
1.0
 40
1.0
 40
1.0
 10
16.0031727623
 20
10.8094648029
 30
0.0
 10
16.0034875422
 20
10.8081932832
 30
0.0
 10
16.004411404
 20
10.8032789978
 30
0.0
 10
16.004041759
 20
10.7980944442
 30
0.0
 10
16.0029520604
 20
10.7945690344
 30
0.0
  0
SPLINE
  5
318
100
AcDbEntity
  8
0
100
AcDbSpline
 62
7
  6
CONTINUOUS
 70
0
 71
3
 72
9
 73
5
 74
0
 42
0.0000001
 43
0.0000001
 44
0.0000000001
 40
0.0
 40
0.0
 40
0.0
 40
0.0
 40
0.2582735706
 40
1.0
 40
1.0
 40
1.0
 40
1.0
 10
17.0491333178
 20
14.3161438261
 30
0.0
 10
17.050469616
 20
14.3161438261
 30
0.0
 10
17.0556425666
 20
14.3162441586
 30
0.0
 10
17.0608117412
 20
14.3167495643
 30
0.0
 10
17.0645943692
 20
14.3173971798
 30
0.0
  0
SPLINE
  5
319
100
AcDbEntity
  8
0
100
AcDbSpline
 62
7
  6
CONTINUOUS
 70
0
 71
3
 72
9
 73
5
 74
0
 42
0.0000001
 43
0.0000001
 44
0.0000000001
 40
0.0
 40
0.0
 40
0.0
 40
0.0
 40
0.4871860435
 40
1.0
 40
1.0
 40
1.0
 40
1.0
 10
16.381508196
 20
10.5926613812
 30
0.0
 10
16.3846512431
 20
10.6041811022
 30
0.0
 10
16.3877949529
 20
10.6288341813
 30
0.0
 10
16.3844600801
 20
10.6533857163
 30
0.0
 10
16.3814396702
 20
10.6655863402
 30
0.0
  0
SPLINE
  5
31A
100
AcDbEntity
  8
0
100
AcDbSpline
 62
7
  6
CONTINUOUS
 70
0
 71
3
 72
11
 73
7
 74
0
 42
0.0000001
 43
0.0000001
 44
0.0000000001
 40
0.0
 40
0.0
 40
0.0
 40
0.0
 40
0.2022214466
 40
0.4300661737
 40
0.6961820872
 40
1.0
 40
1.0
 40
1.0
 40
1.0
 10
15.4952806464
 20
10.7945690344
 30
0.0
 10
15.494102621
 20
10.7907578683
 30
0.0
 10
15.4894992298
 20
10.783220106
 30
0.0
 10
15.4779374027
 20
10.7753040109
 30
0.0
 10
15.4627724095
 20
10.7705348112
 30
0.0
 10
15.4514855258
 20
10.7695849833
 30
0.0
 10
15.4454923293
 20
10.7695849833
 30
0.0
  0
SPLINE
  5
31B
100
AcDbEntity
  8
0
100
AcDbSpline
 62
7
  6
CONTINUOUS
 70
0
 71
3
 72
11
 73
7
 74
0
 42
0.0000001
 43
0.0000001
 44
0.0000000001
 40
0.0
 40
0.0
 40
0.0
 40
0.0
 40
0.2022214466
 40
0.4300661737
 40
0.6961820872
 40
1.0
 40
1.0
 40
1.0
 40
1.0
 10
13.9722664043
 20
10.7945690344
 30
0.0
 10
13.971088379
 20
10.7907578683
 30
0.0
 10
13.9664849877
 20
10.783220106
 30
0.0
 10
13.9549231606
 20
10.7753040109
 30
0.0
 10
13.9397581675
 20
10.7705348112
 30
0.0
 10
13.9284712838
 20
10.7695849833
 30
0.0
 10
13.9224780872
 20
10.7695849833
 30
0.0
  0
SPLINE
  5
31C
100
AcDbEntity
  8
0
100
AcDbSpline
 62
7
  6
CONTINUOUS
 70
0
 71
3
 72
9
 73
5
 74
0
 42
0.0000001
 43
0.0000001
 44
0.0000000001
 40
0.0
 40
0.0
 40
0.0
 40
0.0
 40
0.2355953265
 40
1.0
 40
1.0
 40
1.0
 40
1.0
 10
13.7724773057
 20
10.8094648029
 30
0.0
 10
13.7677238609
 20
10.8159418076
 30
0.0
 10
13.746459082
 20
10.8426326579
 30
0.0
 10
13.7213553651
 20
10.8661398135
 30
0.0
 10
13.7009730874
 20
10.8823897618
 30
0.0
  0
SPLINE
  5
31D
100
AcDbEntity
  8
0
100
AcDbSpline
 62
7
  6
CONTINUOUS
 70
0
 71
3
 72
9
 73
5
 74
0
 42
0.0000001
 43
0.0000001
 44
0.0000000001
 40
0.0
 40
0.0
 40
0.0
 40
0.0
 40
0.4871870484
 40
1.0
 40
1.0
 40
1.0
 40
1.0
 10
15.873836782
 20
10.5926613812
 30
0.0
 10
15.8769798343
 20
10.6041811212
 30
0.0
 10
15.8801233045
 20
10.628834209
 30
0.0
 10
15.8767886589
 20
10.6533857452
 30
0.0
 10
15.8737682562
 20
10.6655863402
 30
0.0
  0
SPLINE
  5
31E
100
AcDbEntity
  8
0
100
AcDbSpline
 62
7
  6
CONTINUOUS
 70
0
 71
3
 72
11
 73
7
 74
0
 42
0.0000001
 43
0.0000001
 44
0.0000000001
 40
0.0
 40
0.0
 40
0.0
 40
0.0
 40
0.2022214466
 40
0.4300661737
 40
0.6961820872
 40
1.0
 40
1.0
 40
1.0
 40
1.0
 10
14.4799378183
 20
10.7945690344
 30
0.0
 10
14.478759793
 20
10.7907578683
 30
0.0
 10
14.4741564017
 20
10.783220106
 30
0.0
 10
14.4625945746
 20
10.7753040109
 30
0.0
 10
14.4474295815
 20
10.7705348112
 30
0.0
 10
14.4361426978
 20
10.7695849833
 30
0.0
 10
14.4301495012
 20
10.7695849833
 30
0.0
  0
SPLINE
  5
31F
100
AcDbEntity
  8
0
100
AcDbSpline
 62
7
  6
CONTINUOUS
 70
0
 71
3
 72
11
 73
7
 74
0
 42
0.0000001
 43
0.0000001
 44
0.0000000001
 40
0.0
 40
0.0
 40
0.0
 40
0.0
 40
0.303810119
 40
0.5699127849
 40
0.7977395963
 40
1.0
 40
1.0
 40
1.0
 40
1.0
 10
14.0474519715
 20
10.921071822
 30
0.0
 10
14.0384623738
 20
10.921071822
 30
0.0
 10
14.0215323598
 20
10.9196474605
 30
0.0
 10
13.9987868265
 20
10.9124929925
 30
0.0
 10
13.9814409292
 20
10.9006219854
 30
0.0
 10
13.9745376196
 20
10.8893133986
 30
0.0
 10
13.9727694783
 20
10.8835957606
 30
0.0
  0
SPLINE
  5
320
100
AcDbEntity
  8
0
100
AcDbSpline
 62
7
  6
CONTINUOUS
 70
0
 71
3
 72
10
 73
6
 74
0
 42
0.0000001
 43
0.0000001
 44
0.0000000001
 40
0.0
 40
0.0
 40
0.0
 40
0.0
 40
0.2406054303
 40
0.4960614497
 40
1.0
 40
1.0
 40
1.0
 40
1.0
 10
14.2086445014
 20
10.8823897618
 30
0.0
 10
14.2010445919
 20
10.8884488558
 30
0.0
 10
14.184060202
 20
10.8993523273
 30
0.0
 10
14.146881729
 20
10.9153330598
 30
0.0
 10
14.1160036985
 20
10.921071822
 30
0.0
 10
14.0956463143
 20
10.921071822
 30
0.0
  0
SPLINE
  5
321
100
AcDbEntity
  8
0
100
AcDbSpline
 62
7
  6
CONTINUOUS
 70
0
 71
3
 72
9
 73
5
 74
0
 42
0.0000001
 43
0.0000001
 44
0.0000000001
 40
0.0
 40
0.0
 40
0.0
 40
0.0
 40
0.4871870484
 40
1.0
 40
1.0
 40
1.0
 40
1.0
 10
15.366165368
 20
10.5926613812
 30
0.0
 10
15.3693084203
 20
10.6041811212
 30
0.0
 10
15.3724518905
 20
10.628834209
 30
0.0
 10
15.3691172449
 20
10.6533857452
 30
0.0
 10
15.3660968422
 20
10.6655863402
 30
0.0
  0
SPLINE
  5
322
100
AcDbEntity
  8
0
100
AcDbSpline
 62
7
  6
CONTINUOUS
 70
0
 71
3
 72
9
 73
5
 74
0
 42
0.0000001
 43
0.0000001
 44
0.0000000001
 40
0.0
 40
0.0
 40
0.0
 40
0.0
 40
0.2619868488
 40
1.0
 40
1.0
 40
1.0
 40
1.0
 10
13.8430826001
 20
10.6655863402
 30
0.0
 10
13.8427678203
 20
10.6668578598
 30
0.0
 10
13.8418439585
 20
10.6717721452
 30
0.0
 10
13.8422136035
 20
10.6769566988
 30
0.0
 10
13.8433033021
 20
10.6804821086
 30
0.0
  0
SPLINE
  5
323
100
AcDbEntity
  8
0
100
AcDbSpline
 62
7
  6
CONTINUOUS
 70
0
 71
3
 72
9
 73
5
 74
0
 42
0.0000001
 43
0.0000001
 44
0.0000000001
 40
0.0
 40
0.0
 40
0.0
 40
0.0
 40
0.2355953265
 40
1.0
 40
1.0
 40
1.0
 40
1.0
 10
14.2801487197
 20
10.8094648029
 30
0.0
 10
14.2753952749
 20
10.8159418076
 30
0.0
 10
14.254130496
 20
10.8426326579
 30
0.0
 10
14.2290267791
 20
10.8661398135
 30
0.0
 10
14.2086445014
 20
10.8823897618
 30
0.0
  0
SPLINE
  5
324
100
AcDbEntity
  8
0
100
AcDbSpline
 62
7
  6
CONTINUOUS
 70
0
 71
3
 72
11
 73
7
 74
0
 42
0.0000001
 43
0.0000001
 44
0.0000000001
 40
0.0
 40
0.0
 40
0.0
 40
0.0
 40
0.2575920123
 40
0.5240196544
 40
0.7775852391
 40
1.0
 40
1.0
 40
1.0
 40
1.0
 10
13.8616266707
 20
10.7695849833
 30
0.0
 10
13.8529898231
 20
10.7695849833
 30
0.0
 10
13.8353884321
 20
10.771718635
 30
0.0
 10
13.8104724968
 20
10.7799261978
 30
0.0
 10
13.7887000644
 20
10.7923216514
 30
0.0
 10
13.776889529
 20
10.8034527438
 30
0.0
 10
13.7724773057
 20
10.8094648029
 30
0.0
  0
SPLINE
  5
325
100
AcDbEntity
  8
0
100
AcDbSpline
 62
7
  6
CONTINUOUS
 70
0
 71
3
 72
11
 73
7
 74
0
 42
0.0000001
 43
0.0000001
 44
0.0000000001
 40
0.0
 40
0.0
 40
0.0
 40
0.0
 40
0.2022214466
 40
0.4300661737
 40
0.6961820872
 40
1.0
 40
1.0
 40
1.0
 40
1.0
 10
13.4645949903
 20
10.7945690344
 30
0.0
 10
13.4634169649
 20
10.7907578683
 30
0.0
 10
13.4588135737
 20
10.783220106
 30
0.0
 10
13.4472517466
 20
10.7753040109
 30
0.0
 10
13.4320867535
 20
10.7705348112
 30
0.0
 10
13.4207998697
 20
10.7695849833
 30
0.0
 10
13.4148066732
 20
10.7695849833
 30
0.0
  0
SPLINE
  5
326
100
AcDbEntity
  8
0
100
AcDbSpline
 62
7
  6
CONTINUOUS
 70
0
 71
3
 72
11
 73
7
 74
0
 42
0.0000001
 43
0.0000001
 44
0.0000000001
 40
0.0
 40
0.0
 40
0.0
 40
0.0
 40
0.303810119
 40
0.5699127849
 40
0.7977395963
 40
1.0
 40
1.0
 40
1.0
 40
1.0
 10
14.5551233856
 20
10.921071822
 30
0.0
 10
14.5461337878
 20
10.921071822
 30
0.0
 10
14.5292037738
 20
10.9196474605
 30
0.0
 10
14.5064582405
 20
10.9124929925
 30
0.0
 10
14.4891123432
 20
10.9006219854
 30
0.0
 10
14.4822090336
 20
10.8893133986
 30
0.0
 10
14.4804408923
 20
10.8835957606
 30
0.0
  0
SPLINE
  5
327
100
AcDbEntity
  8
0
100
AcDbSpline
 62
7
  6
CONTINUOUS
 70
0
 71
3
 72
9
 73
5
 74
0
 42
0.0000001
 43
0.0000001
 44
0.0000000001
 40
0.0
 40
0.0
 40
0.0
 40
0.0
 40
0.4871870484
 40
1.0
 40
1.0
 40
1.0
 40
1.0
 10
14.858493954
 20
10.5926613812
 30
0.0
 10
14.8616370063
 20
10.6041811212
 30
0.0
 10
14.8647804764
 20
10.628834209
 30
0.0
 10
14.8614458309
 20
10.6533857452
 30
0.0
 10
14.8584254282
 20
10.6655863402
 30
0.0
  0
SPLINE
  5
328
100
AcDbEntity
  8
0
100
AcDbSpline
 62
7
  6
CONTINUOUS
 70
0
 71
3
 72
10
 73
6
 74
0
 42
0.0000001
 43
0.0000001
 44
0.0000000001
 40
0.0
 40
0.0
 40
0.0
 40
0.0
 40
0.2406054303
 40
0.4960614497
 40
1.0
 40
1.0
 40
1.0
 40
1.0
 10
14.7163159154
 20
10.8823897618
 30
0.0
 10
14.7087160059
 20
10.8884488558
 30
0.0
 10
14.691731616
 20
10.8993523273
 30
0.0
 10
14.654553143
 20
10.9153330598
 30
0.0
 10
14.6236751125
 20
10.921071822
 30
0.0
 10
14.6033177283
 20
10.921071822
 30
0.0
  0
SPLINE
  5
329
100
AcDbEntity
  8
0
100
AcDbSpline
 62
7
  6
CONTINUOUS
 70
0
 71
3
 72
9
 73
5
 74
0
 42
0.0000001
 43
0.0000001
 44
0.0000000001
 40
0.0
 40
0.0
 40
0.0
 40
0.0
 40
0.2619868488
 40
1.0
 40
1.0
 40
1.0
 40
1.0
 10
14.3507540142
 20
10.6655863402
 30
0.0
 10
14.3504392343
 20
10.6668578598
 30
0.0
 10
14.3495153725
 20
10.6717721452
 30
0.0
 10
14.3498850175
 20
10.6769566988
 30
0.0
 10
14.3509747161
 20
10.6804821086
 30
0.0
  0
SPLINE
  5
32A
100
AcDbEntity
  8
0
100
AcDbSpline
 62
7
  6
CONTINUOUS
 70
0
 71
3
 72
9
 73
5
 74
0
 42
0.0000001
 43
0.0000001
 44
0.0000000001
 40
0.0
 40
0.0
 40
0.0
 40
0.0
 40
0.2355953265
 40
1.0
 40
1.0
 40
1.0
 40
1.0
 10
14.7878201338
 20
10.8094648029
 30
0.0
 10
14.7830666889
 20
10.8159418076
 30
0.0
 10
14.76180191
 20
10.8426326579
 30
0.0
 10
14.7366981932
 20
10.8661398135
 30
0.0
 10
14.7163159154
 20
10.8823897618
 30
0.0
  0
SPLINE
  5
32B
100
AcDbEntity
  8
0
100
AcDbSpline
 62
7
  6
CONTINUOUS
 70
0
 71
3
 72
11
 73
7
 74
0
 42
0.0000001
 43
0.0000001
 44
0.0000000001
 40
0.0
 40
0.0
 40
0.0
 40
0.0
 40
0.2575920123
 40
0.5240196544
 40
0.7775852391
 40
1.0
 40
1.0
 40
1.0
 40
1.0
 10
14.3692980847
 20
10.7695849833
 30
0.0
 10
14.3606612371
 20
10.7695849833
 30
0.0
 10
14.3430598462
 20
10.771718635
 30
0.0
 10
14.3181439109
 20
10.7799261978
 30
0.0
 10
14.2963714784
 20
10.7923216514
 30
0.0
 10
14.284560943
 20
10.8034527438
 30
0.0
 10
14.2801487197
 20
10.8094648029
 30
0.0
  0
SPLINE
  5
32C
100
AcDbEntity
  8
0
100
AcDbSpline
 62
7
  6
CONTINUOUS
 70
0
 71
3
 72
11
 73
7
 74
0
 42
0.0000001
 43
0.0000001
 44
0.0000000001
 40
0.0
 40
0.0
 40
0.0
 40
0.0
 40
0.2022214466
 40
0.4300661737
 40
0.6961820872
 40
1.0
 40
1.0
 40
1.0
 40
1.0
 10
14.9876092324
 20
10.7945690344
 30
0.0
 10
14.986431207
 20
10.7907578683
 30
0.0
 10
14.9818278157
 20
10.783220106
 30
0.0
 10
14.9702659887
 20
10.7753040109
 30
0.0
 10
14.9551009955
 20
10.7705348112
 30
0.0
 10
14.9438141118
 20
10.7695849833
 30
0.0
 10
14.9378209153
 20
10.7695849833
 30
0.0
  0
SPLINE
  5
32D
100
AcDbEntity
  8
0
100
AcDbSpline
 62
7
  6
CONTINUOUS
 70
0
 71
3
 72
11
 73
7
 74
0
 42
0.0000001
 43
0.0000001
 44
0.0000000001
 40
0.0
 40
0.0
 40
0.0
 40
0.0
 40
0.303810119
 40
0.5699127849
 40
0.7977395963
 40
1.0
 40
1.0
 40
1.0
 40
1.0
 10
15.0627947996
 20
10.921071822
 30
0.0
 10
15.0538052018
 20
10.921071822
 30
0.0
 10
15.0368751878
 20
10.9196474605
 30
0.0
 10
15.0141296545
 20
10.9124929925
 30
0.0
 10
14.9967837572
 20
10.9006219854
 30
0.0
 10
14.9898804476
 20
10.8893133986
 30
0.0
 10
14.9881123063
 20
10.8835957606
 30
0.0
  0
SPLINE
  5
32E
100
AcDbEntity
  8
0
100
AcDbSpline
 62
7
  6
CONTINUOUS
 70
0
 71
3
 72
9
 73
5
 74
0
 42
0.0000001
 43
0.0000001
 44
0.0000000001
 40
0.0
 40
0.0
 40
0.0
 40
0.0
 40
0.4871870484
 40
1.0
 40
1.0
 40
1.0
 40
1.0
 10
14.35082254
 20
10.5926613812
 30
0.0
 10
14.3539655923
 20
10.6041811212
 30
0.0
 10
14.3571090624
 20
10.628834209
 30
0.0
 10
14.3537744169
 20
10.6533857452
 30
0.0
 10
14.3507540142
 20
10.6655863402
 30
0.0
  0
SPLINE
  5
32F
100
AcDbEntity
  8
0
100
AcDbSpline
 62
7
  6
CONTINUOUS
 70
0
 71
3
 72
9
 73
5
 74
0
 42
0.0000001
 43
0.0000001
 44
0.0000000001
 40
0.0
 40
0.0
 40
0.0
 40
0.0
 40
0.2619868488
 40
1.0
 40
1.0
 40
1.0
 40
1.0
 10
14.8584254282
 20
10.6655863402
 30
0.0
 10
14.8581106483
 20
10.6668578598
 30
0.0
 10
14.8571867865
 20
10.6717721452
 30
0.0
 10
14.8575564315
 20
10.6769566988
 30
0.0
 10
14.8586461301
 20
10.6804821086
 30
0.0
  0
SPLINE
  5
330
100
AcDbEntity
  8
0
100
AcDbSpline
 62
7
  6
CONTINUOUS
 70
0
 71
3
 72
10
 73
6
 74
0
 42
0.0000001
 43
0.0000001
 44
0.0000000001
 40
0.0
 40
0.0
 40
0.0
 40
0.0
 40
0.2406054303
 40
0.4960614497
 40
1.0
 40
1.0
 40
1.0
 40
1.0
 10
15.2239873294
 20
10.8823897618
 30
0.0
 10
15.2163874199
 20
10.8884488558
 30
0.0
 10
15.1994030301
 20
10.8993523273
 30
0.0
 10
15.162224557
 20
10.9153330598
 30
0.0
 10
15.1313465265
 20
10.921071822
 30
0.0
 10
15.1109891423
 20
10.921071822
 30
0.0
  0
SPLINE
  5
331
100
AcDbEntity
  8
0
100
AcDbSpline
 62
7
  6
CONTINUOUS
 70
0
 71
3
 72
11
 73
7
 74
0
 42
0.0000001
 43
0.0000001
 44
0.0000000001
 40
0.0
 40
0.0
 40
0.0
 40
0.0
 40
0.2575920123
 40
0.5240196544
 40
0.7775852391
 40
1.0
 40
1.0
 40
1.0
 40
1.0
 10
14.8769694988
 20
10.7695849833
 30
0.0
 10
14.8683326511
 20
10.7695849833
 30
0.0
 10
14.8507312602
 20
10.771718635
 30
0.0
 10
14.8258153249
 20
10.7799261978
 30
0.0
 10
14.8040428925
 20
10.7923216514
 30
0.0
 10
14.792232357
 20
10.8034527438
 30
0.0
 10
14.7878201338
 20
10.8094648029
 30
0.0
  0
SPLINE
  5
332
100
AcDbEntity
  8
0
100
AcDbSpline
 62
7
  6
CONTINUOUS
 70
0
 71
3
 72
9
 73
5
 74
0
 42
0.0000001
 43
0.0000001
 44
0.0000000001
 40
0.0
 40
0.0
 40
0.0
 40
0.0
 40
0.2355953265
 40
1.0
 40
1.0
 40
1.0
 40
1.0
 10
15.2954915478
 20
10.8094648029
 30
0.0
 10
15.290738103
 20
10.8159418076
 30
0.0
 10
15.269473324
 20
10.8426326579
 30
0.0
 10
15.2443696072
 20
10.8661398135
 30
0.0
 10
15.2239873294
 20
10.8823897618
 30
0.0
  0
SPLINE
  5
333
100
AcDbEntity
  8
0
100
AcDbSpline
 62
7
  6
CONTINUOUS
 70
0
 71
3
 72
11
 73
7
 74
0
 42
0.0000001
 43
0.0000001
 44
0.0000000001
 40
0.0
 40
0.0
 40
0.0
 40
0.0
 40
0.2022214466
 40
0.4300661737
 40
0.6961820872
 40
1.0
 40
1.0
 40
1.0
 40
1.0
 10
16.0029520604
 20
10.7945690344
 30
0.0
 10
16.001774035
 20
10.7907578683
 30
0.0
 10
15.9971706438
 20
10.783220106
 30
0.0
 10
15.9856088167
 20
10.7753040109
 30
0.0
 10
15.9704438236
 20
10.7705348112
 30
0.0
 10
15.9591569398
 20
10.7695849833
 30
0.0
 10
15.9531637433
 20
10.7695849833
 30
0.0
  0
SPLINE
  5
334
100
AcDbEntity
  8
0
100
AcDbSpline
 62
7
  6
CONTINUOUS
 70
0
 71
3
 72
9
 73
5
 74
0
 42
0.0000001
 43
0.0000001
 44
0.0000000001
 40
0.0
 40
0.0
 40
0.0
 40
0.0
 40
0.4871870484
 40
1.0
 40
1.0
 40
1.0
 40
1.0
 10
13.8431511259
 20
10.5926613812
 30
0.0
 10
13.8462941782
 20
10.6041811212
 30
0.0
 10
13.8494376484
 20
10.628834209
 30
0.0
 10
13.8461030028
 20
10.6533857452
 30
0.0
 10
13.8430826001
 20
10.6655863402
 30
0.0
  0
SPLINE
  5
335
100
AcDbEntity
  8
0
100
AcDbSpline
 62
7
  6
CONTINUOUS
 70
0
 71
3
 72
11
 73
7
 74
0
 42
0.0000001
 43
0.0000001
 44
0.0000000001
 40
0.0
 40
0.0
 40
0.0
 40
0.0
 40
0.303810119
 40
0.5699127849
 40
0.7977395963
 40
1.0
 40
1.0
 40
1.0
 40
1.0
 10
15.5704662136
 20
10.921071822
 30
0.0
 10
15.5614766158
 20
10.921071822
 30
0.0
 10
15.5445466019
 20
10.9196474605
 30
0.0
 10
15.5218010685
 20
10.9124929925
 30
0.0
 10
15.5044551712
 20
10.9006219854
 30
0.0
 10
15.4975518616
 20
10.8893133986
 30
0.0
 10
15.4957837204
 20
10.8835957606
 30
0.0
  0
SPLINE
  5
336
100
AcDbEntity
  8
0
100
AcDbSpline
 62
7
  6
CONTINUOUS
 70
0
 71
3
 72
9
 73
5
 74
0
 42
0.0000001
 43
0.0000001
 44
0.0000000001
 40
0.0
 40
0.0
 40
0.0
 40
0.0
 40
0.2619868488
 40
1.0
 40
1.0
 40
1.0
 40
1.0
 10
15.3660968422
 20
10.6655863402
 30
0.0
 10
15.3657820624
 20
10.6668578598
 30
0.0
 10
15.3648582005
 20
10.6717721452
 30
0.0
 10
15.3652278455
 20
10.6769566988
 30
0.0
 10
15.3663175441
 20
10.6804821086
 30
0.0
  0
SPLINE
  5
337
100
AcDbEntity
  8
0
100
AcDbSpline
 62
7
  6
CONTINUOUS
 70
0
 71
3
 72
11
 73
7
 74
0
 42
0.0000001
 43
0.0000001
 44
0.0000000001
 40
0.0
 40
0.0
 40
0.0
 40
0.0
 40
0.2575920123
 40
0.5240196544
 40
0.7775852391
 40
1.0
 40
1.0
 40
1.0
 40
1.0
 10
15.3846409128
 20
10.7695849833
 30
0.0
 10
15.3760040651
 20
10.7695849833
 30
0.0
 10
15.3584026742
 20
10.771718635
 30
0.0
 10
15.3334867389
 20
10.7799261978
 30
0.0
 10
15.3117143065
 20
10.7923216514
 30
0.0
 10
15.299903771
 20
10.8034527438
 30
0.0
 10
15.2954915478
 20
10.8094648029
 30
0.0
  0
SPLINE
  5
338
100
AcDbEntity
  8
0
100
AcDbSpline
 62
7
  6
CONTINUOUS
 70
0
 71
3
 72
10
 73
6
 74
0
 42
0.0000001
 43
0.0000001
 44
0.0000000001
 40
0.0
 40
0.0
 40
0.0
 40
0.0
 40
0.2406054304
 40
0.4960614497
 40
1.0
 40
1.0
 40
1.0
 40
1.0
 10
15.7316587434
 20
10.8823897618
 30
0.0
 10
15.7240588339
 20
10.8884488558
 30
0.0
 10
15.7070744441
 20
10.8993523273
 30
0.0
 10
15.669895971
 20
10.9153330598
 30
0.0
 10
15.6390179406
 20
10.921071822
 30
0.0
 10
15.6186605563
 20
10.921071822
 30
0.0
  0
SPLINE
  5
339
100
AcDbEntity
  8
0
100
AcDbSpline
 62
7
  6
CONTINUOUS
 70
0
 71
3
 72
9
 73
5
 74
0
 42
0.0000001
 43
0.0000001
 44
0.0000000001
 40
0.0
 40
0.0
 40
0.0
 40
0.0
 40
0.2355953265
 40
1.0
 40
1.0
 40
1.0
 40
1.0
 10
15.8031629618
 20
10.8094648029
 30
0.0
 10
15.798409517
 20
10.8159418076
 30
0.0
 10
15.777144738
 20
10.8426326579
 30
0.0
 10
15.7520410212
 20
10.8661398135
 30
0.0
 10
15.7316587434
 20
10.8823897618
 30
0.0
  0
SPLINE
  5
33A
100
AcDbEntity
  8
0
100
AcDbSpline
 62
7
  6
CONTINUOUS
 70
0
 71
3
 72
11
 73
7
 74
0
 42
0.0000001
 43
0.0000001
 44
0.0000000001
 40
0.0
 40
0.0
 40
0.0
 40
0.0
 40
0.303810119
 40
0.5699127849
 40
0.7977395963
 40
1.0
 40
1.0
 40
1.0
 40
1.0
 10
16.0781376276
 20
10.921071822
 30
0.0
 10
16.0691480299
 20
10.921071822
 30
0.0
 10
16.0522180159
 20
10.9196474605
 30
0.0
 10
16.0294724826
 20
10.9124929925
 30
0.0
 10
16.0121265853
 20
10.9006219854
 30
0.0
 10
16.0052232756
 20
10.8893133986
 30
0.0
 10
16.0034551344
 20
10.8835957606
 30
0.0
  0
SPLINE
  5
33B
100
AcDbEntity
  8
0
100
AcDbSpline
 62
7
  6
CONTINUOUS
 70
0
 71
3
 72
9
 73
5
 74
0
 42
0.0000001
 43
0.0000001
 44
0.0000000001
 40
0.0
 40
0.0
 40
0.0
 40
0.0
 40
0.2619868488
 40
1.0
 40
1.0
 40
1.0
 40
1.0
 10
15.8737682562
 20
10.6655863402
 30
0.0
 10
15.8734534764
 20
10.6668578598
 30
0.0
 10
15.8725296146
 20
10.6717721452
 30
0.0
 10
15.8728992596
 20
10.6769566988
 30
0.0
 10
15.8739889581
 20
10.6804821086
 30
0.0
  0
SPLINE
  5
33C
100
AcDbEntity
  8
0
100
AcDbSpline
 62
7
  6
CONTINUOUS
 70
0
 71
3
 72
11
 73
7
 74
0
 42
0.0000001
 43
0.0000001
 44
0.0000000001
 40
0.0
 40
0.0
 40
0.0
 40
0.0
 40
0.2575920123
 40
0.5240196544
 40
0.7775852391
 40
1.0
 40
1.0
 40
1.0
 40
1.0
 10
15.8923123268
 20
10.7695849833
 30
0.0
 10
15.8836754791
 20
10.7695849833
 30
0.0
 10
15.8660740882
 20
10.771718635
 30
0.0
 10
15.8411581529
 20
10.7799261978
 30
0.0
 10
15.8193857205
 20
10.7923216514
 30
0.0
 10
15.807575185
 20
10.8034527438
 30
0.0
 10
15.8031629618
 20
10.8094648029
 30
0.0
  0
SPLINE
  5
33D
100
AcDbEntity
  8
0
100
AcDbSpline
 62
7
  6
CONTINUOUS
 70
0
 71
3
 72
11
 73
7
 74
0
 42
0.0000001
 43
0.0000001
 44
0.0000000001
 40
0.0
 40
0.0
 40
0.0
 40
0.0
 40
0.303810119
 40
0.5699127849
 40
0.7977395963
 40
1.0
 40
1.0
 40
1.0
 40
1.0
 10
13.5397805575
 20
10.921071822
 30
0.0
 10
13.5307909598
 20
10.921071822
 30
0.0
 10
13.5138609458
 20
10.9196474605
 30
0.0
 10
13.4911154125
 20
10.9124929925
 30
0.0
 10
13.4737695152
 20
10.9006219854
 30
0.0
 10
13.4668662056
 20
10.8893133986
 30
0.0
 10
13.4650980643
 20
10.8835957606
 30
0.0
  0
SPLINE
  5
33E
100
AcDbEntity
  8
0
100
AcDbSpline
 62
7
  6
CONTINUOUS
 70
0
 71
3
 72
10
 73
6
 74
0
 42
0.0000001
 43
0.0000001
 44
0.0000000001
 40
0.0
 40
0.0
 40
0.0
 40
0.0
 40
0.2406054304
 40
0.4960614497
 40
1.0
 40
1.0
 40
1.0
 40
1.0
 10
13.7009730874
 20
10.8823897618
 30
0.0
 10
13.6933731779
 20
10.8884488558
 30
0.0
 10
13.676388788
 20
10.8993523273
 30
0.0
 10
13.639210315
 20
10.9153330598
 30
0.0
 10
13.6083322845
 20
10.921071822
 30
0.0
 10
13.5879749002
 20
10.921071822
 30
0.0
  0
SPLINE
  5
33F
100
AcDbEntity
  8
0
100
AcDbSpline
 62
7
  6
CONTINUOUS
 70
0
 71
3
 72
9
 73
5
 74
0
 42
0.0000001
 43
0.0000001
 44
0.0000000001
 40
0.0
 40
0.0
 40
0.0
 40
0.0
 40
0.2619868488
 40
1.0
 40
1.0
 40
1.0
 40
1.0
 10
16.3814396702
 20
10.6655863402
 30
0.0
 10
16.3811248904
 20
10.6668578598
 30
0.0
 10
16.3802010286
 20
10.6717721452
 30
0.0
 10
16.3805706736
 20
10.6769566988
 30
0.0
 10
16.3816603722
 20
10.6804821086
 30
0.0
  0
SPLINE
  5
340
100
AcDbEntity
  8
0
100
AcDbSpline
 62
7
  6
CONTINUOUS
 70
0
 71
3
 72
10
 73
6
 74
0
 42
0.0000001
 43
0.0000001
 44
0.0000000001
 40
0.0
 40
0.0
 40
0.0
 40
0.0
 40
0.2406054304
 40
0.4960614497
 40
1.0
 40
1.0
 40
1.0
 40
1.0
 10
16.2393301574
 20
10.8823897618
 30
0.0
 10
16.231730248
 20
10.8884488558
 30
0.0
 10
16.2147458581
 20
10.8993523273
 30
0.0
 10
16.1775673851
 20
10.9153330598
 30
0.0
 10
16.1466893546
 20
10.921071822
 30
0.0
 10
16.1263319703
 20
10.921071822
 30
0.0
  0
SPLINE
  5
341
100
AcDbEntity
  8
0
100
AcDbSpline
 62
7
  6
CONTINUOUS
 70
0
 71
3
 72
11
 73
7
 74
0
 42
0.0000001
 43
0.0000001
 44
0.0000000001
 40
0.0
 40
0.0
 40
0.0
 40
0.0
 40
0.2575920123
 40
0.5240196544
 40
0.7775852391
 40
1.0
 40
1.0
 40
1.0
 40
1.0
 10
16.3999837408
 20
10.7695849833
 30
0.0
 10
16.3913468932
 20
10.7695849833
 30
0.0
 10
16.3737455022
 20
10.771718635
 30
0.0
 10
16.3488295669
 20
10.7799261978
 30
0.0
 10
16.3270571345
 20
10.7923216514
 30
0.0
 10
16.3152465991
 20
10.8034527438
 30
0.0
 10
16.3108343758
 20
10.8094648029
 30
0.0
  0
SPLINE
  5
342
100
AcDbEntity
  8
0
100
AcDbSpline
 62
7
  6
CONTINUOUS
 70
0
 71
3
 72
9
 73
5
 74
0
 42
0.0000001
 43
0.0000001
 44
0.0000000001
 40
0.0
 40
0.0
 40
0.0
 40
0.0
 40
0.2356730812
 40
1.0
 40
1.0
 40
1.0
 40
1.0
 10
16.3108343758
 20
10.8094648029
 30
0.0
 10
16.3060793574
 20
10.8159439517
 30
0.0
 10
16.2848152772
 20
10.8426354409
 30
0.0
 10
16.2597103825
 20
10.8661414501
 30
0.0
 10
16.2393301574
 20
10.8823897618
 30
0.0
  0
ENDSEC
  0
SECTION
  2
OBJECTS
  0
DICTIONARY
  5
C
100
AcDbDictionary
280
0
281
1
  3
ACAD_GROUP
350
D
  3
ACAD_MLINESTYLE
350
17
  3
ACAD_LAYOUT
350
1A
  3
ACAD_PLOTSETTINGS
350
19
  3
ACAD_PLOTSTYLENAME
350
E
  0
DICTIONARY
  5
D
102
{ACAD_REACTORS
330
C
102
}
100
AcDbDictionary
280
0
281
1
  0
ACDBDICTIONARYWDFLT
  5
E
102
{ACAD_REACTORS
330
C
102
}
100
AcDbDictionary
281
1
  3
Normal
350
F
100
AcDbDictionaryWithDefault
340
F
  0
DICTIONARY
  5
17
102
{ACAD_REACTORS
330
C
102
}
100
AcDbDictionary
280
0
281
1
  3
Standard
350
18
  0
DICTIONARY
  5
19
102
{ACAD_REACTORS
330
C
102
}
100
AcDbDictionary
281
1
  0
DICTIONARY
  5
1A
102
{ACAD_REACTORS
330
C
102
}
100
AcDbDictionary
281
1
  3
Model
350
343
  3
Layout1
350
344
  0
ACDBPLACEHOLDER
  5
F
102
{ACAD_REACTORS
330
E
102
}
  0
MLINESTYLE
  5
18
102
{ACAD_REACTORS
330
17
102
}
100
AcDbMlineStyle
  2
STANDARD
 70
0
  3

 62
256
 51
90.0
 52
90.0
 71
2
 49
0.5
 62
256
  6
BYLAYER
 49
-0.5
 62
256
  6
BYLAYER
  0
LAYOUT
  5
343
102
{ACAD_REACTORS
330
1A
102
}
100
AcDbPlotSettings
  1

  2
none_device
  4
ANSI_C_(22.00_x_17.00_Inches)
  6

 40
0.0
 41
0.0
 42
0.0
 43
0.0
 44
558.8
 45
431.8
 46
0.0
 47
0.0
 48
0.0
 49
0.0
140
0.0
141
0.0
142
1.0
143
1.0
 70
1024
 72
0
 73
0
 74
0
  7

 75
0
147
1.0
148
0.0
149
0.0
100
AcDbLayout
  1
Model
 70
0
 71
0
 10
0.0
 20
0.0
 11
22.0
 21
17.0
 12
0.0
 22
0.0
 32
0.0
 14
0.0
 24
0.0
 34
0.0
 15
0.0
 25
0.0
 35
0.0
146
0.0
 13
0.0
 23
0.0
 33
0.0
 16
1.0
 26
0.0
 36
0.0
 17
0.0
 27
1.0
 37
0.0
 76
0
330
216
345
0
346
0
  0
LAYOUT
  5
344
102
{ACAD_REACTORS
330
1A
102
}
100
AcDbPlotSettings
  1

  2
none_device
  4
ANSI_C_(22.00_x_17.00_Inches)
  6

 40
0.0
 41
0.0
 42
0.0
 43
0.0
 44
558.8
 45
431.8
 46
0.0
 47
0.0
 48
0.0
 49
0.0
140
0.0
141
0.0
142
1.0
143
1.0
 70
0
 72
0
 73
0
 74
0
  7

 75
0
147
1.0
148
0.0
149
0.0
100
AcDbLayout
  1
Layout1
 70
0
 71
1
 10
0.0
 20
0.0
 11
22.0
 21
17.0
 12
0.0
 22
0.0
 32
0.0
 14
0.0
 24
0.0
 34
0.0
 15
0.0
 25
0.0
 35
0.0
146
0.0
 13
0.0
 23
0.0
 33
0.0
 16
1.0
 26
0.0
 36
0.0
 17
0.0
 27
1.0
 37
0.0
 76
0
330
217
345
0
346
0
  0
ENDSEC
  0
EOF