999
DXF file: _cgs_temp_output.dxf
999
Pro/ENGINEER 2015110 by Parametric Technology Corporation
  0
SECTION
  2
HEADER
  9
$ACADVER
  1
AC1021
  9
$DWGCODEPAGE
  3
ANSI_1252
  9
$EXTMAX
 10
22.0
 20
17.0
 30
0.0
  9
$EXTMIN
 10
0.0
 20
0.0
 30
0.0
  9
$LIMMIN
 10
0.0
 20
0.0
  9
$LIMMAX
 10
22.0
 20
17.0
  9
$VIEWCTR
 10
11.0
 20
8.5
  9
$VIEWSIZE
 40
17.0
  9
$CLAYER
  8
0
  9
$LTSCALE
 40
1.21
  9
$CELTYPE
  6
BYLAYER
  9
$DIMSCALE
 40
1.0
  9
$DIMASZ
 40
0.1875
  9
$DIMEXO
 40
0.0625
  9
$DIMDLI
 40
0.836
  9
$DIMEXE
 40
0.125
  9
$DIMCEN
 40
0.198
  9
$DIMLFAC
 40
1.0
  9
$DIMBLK
  1
_CLOSED
  9
$DIMALT
 70
0
  9
$DIMALTF
 40
25.4
  9
$DIMTXT
 40
0.15625
  9
$DIMTOL
 70
0
  9
$DIMLIM
 70
0
  9
$DIMTFAC
 40
1.0
  9
$DIMGAP
 40
0.09
  9
$DIMDSEP
 70
46
  9
$AUNITS
 70
0
  9
$PDMODE
 70
3
  9
$PDSIZE
 40
0.3125
  9
$HANDSEED
  5
37C
  9
$TILEMODE
 70
1
  9
$MEASUREMENT
 70
0
  9
$INSUNITS
 70
1
  0
ENDSEC
  0
SECTION
  2
CLASSES
  0
CLASS
  1
ACDBDICTIONARYWDFLT
  2
AcDbDictionaryWithDefault
  3
AutoCAD 2000
 90
0
 91
1
280
0
281
0
  0
CLASS
  1
ACDBPLACEHOLDER
  2
AcDbPlaceHolder
  3
AutoCAD 2000
 90
0
 91
1
280
0
281
0
  0
CLASS
  1
LAYOUT
  2
AcDbLayout
  3
AutoCAD 2000
 90
0
 91
0
280
0
281
0
  0
ENDSEC
  0
SECTION
  2
TABLES
  0
TABLE
  2
VPORT
  5
8
100
AcDbSymbolTable
 70
2
  0
VPORT
  5
1F4
100
AcDbSymbolTableRecord
100
AcDbViewportTableRecord
  2
*ACTIVE
 70
0
 10
0.0
 20
0.0
 11
1.0
 21
1.0
 12
11.0
 22
8.5
 13
0.0
 23
0.0
 14
1.0
 24
1.0
 15
0.0
 25
0.0
 16
0.0
 26
0.0
 36
1.0
 17
0.0
 27
0.0
 37
0.0
 40
17.0
 41
1.2941176471
 42
50.0
 43
0.0
 44
0.0
 50
0.0
 51
0.0
 71
0
 72
100
 73
1
 74
1
 75
0
 76
0
 77
0
 78
0
  0
ENDTAB
  0
TABLE
  2
LTYPE
  5
5
100
AcDbSymbolTable
 70
6
  0
LTYPE
  5
14
100
AcDbSymbolTableRecord
100
AcDbLinetypeTableRecord
  2
BYBLOCK
 70
0
  3

 72
65
 73
0
 40
0.0
  0
LTYPE
  5
15
100
AcDbSymbolTableRecord
100
AcDbLinetypeTableRecord
  2
BYLAYER
 70
0
  3

 72
65
 73
0
 40
0.0
  0
LTYPE
  5
16
100
AcDbSymbolTableRecord
100
AcDbLinetypeTableRecord
  2
CONTINUOUS
 70
64
  3
Solid line
 72
65
 73
0
 40
0.0
  0
LTYPE
  5
1F5
100
AcDbSymbolTableRecord
100
AcDbLinetypeTableRecord
  2
CENTER
 70
64
  3
____ _ ____ _ ____ _ ____ _ ____ _ ____ _ ____
 72
65
 73
4
 40
0.6
 49
0.375
 74
0
 49
-0.075
 74
0
 49
0.075
 74
0
 49
-0.075
 74
0
  0
LTYPE
  5
1F6
100
AcDbSymbolTableRecord
100
AcDbLinetypeTableRecord
  2
HIDDEN
 70
64
  3
- - - - - - - - - - - - - - - - - - - -
 72
65
 73
2
 40
0.2
 49
0.1
 74
0
 49
-0.1
 74
0
  0
LTYPE
  5
1F7
100
AcDbSymbolTableRecord
100
AcDbLinetypeTableRecord
  2
PHANTOM
 70
64
  3
_____ _ _ _____ _ _ _____ _ _ _____
 72
65
 73
6
 40
0.8
 49
0.45
 74
0
 49
-0.05
 74
0
 49
0.1
 74
0
 49
-0.05
 74
0
 49
0.1
 74
0
 49
-0.05
 74
0
  0
LTYPE
  5
1F8
100
AcDbSymbolTableRecord
100
AcDbLinetypeTableRecord
  2
DOT
 70
64
  3
. . . . . . . . . . . . . . . . . . . .
 72
65
 73
2
 40
0.2
 49
0.1
 74
0
 49
-0.1
 74
0
  0
LTYPE
  5
1F9
100
AcDbSymbolTableRecord
100
AcDbLinetypeTableRecord
  2
DASHED
 70
64
  3
- - - - - - - - - - - - - - - - - - - -
 72
65
 73
2
 40
0.2
 49
0.1
 74
0
 49
-0.1
 74
0
  0
ENDTAB
  0
TABLE
  2
LAYER
  5
2
100
AcDbSymbolTable
 70
36
  0
LAYER
  5
10
100
AcDbSymbolTableRecord
100
AcDbLayerTableRecord
  2
0
 70
0
 62
7
  6
CONTINUOUS
370
-3
390
F
  0
LAYER
  5
1FA
100
AcDbSymbolTableRecord
100
AcDbLayerTableRecord
  2
DEFAULT_1
 70
0
 62
7
  6
CENTER
370
-3
390
F
  0
LAYER
  5
1FB
100
AcDbSymbolTableRecord
100
AcDbLayerTableRecord
  2
DEFAULT_2
 70
0
 62
8
  6
HIDDEN
370
-3
390
F
  0
LAYER
  5
1FC
100
AcDbSymbolTableRecord
100
AcDbLayerTableRecord
  2
DEFAULT_3
 70
0
 62
7
  6
PHANTOM
370
-3
390
F
  0
LAYER
  5
1FD
100
AcDbSymbolTableRecord
100
AcDbLayerTableRecord
  2
01_ALL_DTM_PLN
 70
0
 62
7
  6
CONTINUOUS
370
-3
390
F
  0
LAYER
  5
1FE
100
AcDbSymbolTableRecord
100
AcDbLayerTableRecord
  2
01__ASM_ALL_DTM_PLN
 70
0
 62
7
  6
CONTINUOUS
370
-3
390
F
  0
LAYER
  5
1FF
100
AcDbSymbolTableRecord
100
AcDbLayerTableRecord
  2
01__ASM_DEF_DTM_PLN
 70
0
 62
7
  6
CONTINUOUS
370
-3
390
F
  0
LAYER
  5
200
100
AcDbSymbolTableRecord
100
AcDbLayerTableRecord
  2
01___PRT_ALL_DTM_PLN
 70
0
 62
7
  6
CONTINUOUS
370
-3
390
F
  0
LAYER
  5
201
100
AcDbSymbolTableRecord
100
AcDbLayerTableRecord
  2
01___PRT_DEF_DTM_PLN
 70
0
 62
7
  6
CONTINUOUS
370
-3
390
F
  0
LAYER
  5
202
100
AcDbSymbolTableRecord
100
AcDbLayerTableRecord
  2
02_ALL_AXES
 70
0
 62
7
  6
CONTINUOUS
370
-3
390
F
  0
LAYER
  5
203
100
AcDbSymbolTableRecord
100
AcDbLayerTableRecord
  2
02__ASM_ALL_AXES
 70
0
 62
7
  6
CONTINUOUS
370
-3
390
F
  0
LAYER
  5
204
100
AcDbSymbolTableRecord
100
AcDbLayerTableRecord
  2
02___PRT_ALL_AXES
 70
0
 62
7
  6
CONTINUOUS
370
-3
390
F
  0
LAYER
  5
205
100
AcDbSymbolTableRecord
100
AcDbLayerTableRecord
  2
03_ALL_CURVES
 70
0
 62
7
  6
CONTINUOUS
370
-3
390
F
  0
LAYER
  5
206
100
AcDbSymbolTableRecord
100
AcDbLayerTableRecord
  2
03__ASM_ALL_CURVES
 70
0
 62
7
  6
CONTINUOUS
370
-3
390
F
  0
LAYER
  5
207
100
AcDbSymbolTableRecord
100
AcDbLayerTableRecord
  2
03___PRT_ALL_CURVES
 70
0
 62
7
  6
CONTINUOUS
370
-3
390
F
  0
LAYER
  5
208
100
AcDbSymbolTableRecord
100
AcDbLayerTableRecord
  2
04_ALL_DTM_PNT
 70
0
 62
7
  6
CONTINUOUS
370
-3
390
F
  0
LAYER
  5
209
100
AcDbSymbolTableRecord
100
AcDbLayerTableRecord
  2
04__ASM_ALL_DTM_PNT
 70
0
 62
7
  6
CONTINUOUS
370
-3
390
F
  0
LAYER
  5
20A
100
AcDbSymbolTableRecord
100
AcDbLayerTableRecord
  2
04___PRT_ALL_DTM_PNT
 70
0
 62
7
  6
CONTINUOUS
370
-3
390
F
  0
LAYER
  5
20B
100
AcDbSymbolTableRecord
100
AcDbLayerTableRecord
  2
05_ALL_DTM_CSYS
 70
0
 62
7
  6
CONTINUOUS
370
-3
390
F
  0
LAYER
  5
20C
100
AcDbSymbolTableRecord
100
AcDbLayerTableRecord
  2
05__ASM_ALL_DTM_CSYS
 70
0
 62
7
  6
CONTINUOUS
370
-3
390
F
  0
LAYER
  5
20D
100
AcDbSymbolTableRecord
100
AcDbLayerTableRecord
  2
05__ASM_DEF_DTM_CSYS
 70
0
 62
7
  6
CONTINUOUS
370
-3
390
F
  0
LAYER
  5
20E
100
AcDbSymbolTableRecord
100
AcDbLayerTableRecord
  2
05___PRT_ALL_DTM_CSYS
 70
0
 62
7
  6
CONTINUOUS
370
-3
390
F
  0
LAYER
  5
20F
100
AcDbSymbolTableRecord
100
AcDbLayerTableRecord
  2
05___PRT_DEF_DTM_CSYS
 70
0
 62
7
  6
CONTINUOUS
370
-3
390
F
  0
LAYER
  5
210
100
AcDbSymbolTableRecord
100
AcDbLayerTableRecord
  2
06_ALL_SURFS
 70
0
 62
7
  6
CONTINUOUS
370
-3
390
F
  0
LAYER
  5
211
100
AcDbSymbolTableRecord
100
AcDbLayerTableRecord
  2
06__ASM_ALL_SURFS
 70
0
 62
7
  6
CONTINUOUS
370
-3
390
F
  0
LAYER
  5
212
100
AcDbSymbolTableRecord
100
AcDbLayerTableRecord
  2
06___PRT_ALL_SURFS
 70
0
 62
7
  6
CONTINUOUS
370
-3
390
F
  0
LAYER
  5
213
100
AcDbSymbolTableRecord
100
AcDbLayerTableRecord
  2
07__ASM_ALL_SKELETONS
 70
0
 62
7
  6
CONTINUOUS
370
-3
390
F
  0
ENDTAB
  0
TABLE
  2
STYLE
  5
3
100
AcDbSymbolTable
 70
1
  0
STYLE
  5
11
100
AcDbSymbolTableRecord
100
AcDbTextStyleTableRecord
  2
STANDARD
 70
0
 40
0.0
 41
0.8
 50
0.0
 71
0
 42
0.2
  3
txt
  4

  0
STYLE
  5
214
100
AcDbSymbolTableRecord
100
AcDbTextStyleTableRecord
  2
TEXTSTYLE_1
 70
0
 40
0.0
 41
0.8
 50
0.0
 71
0
 42
0.2
  3
gdt
  4

  0
ENDTAB
  0
TABLE
  2
VIEW
  5
6
100
AcDbSymbolTable
 70
0
  0
ENDTAB
  0
TABLE
  2
UCS
  5
7
100
AcDbSymbolTable
 70
0
  0
ENDTAB
  0
TABLE
  2
APPID
  5
9
100
AcDbSymbolTable
 70
1
  0
APPID
  5
215
100
AcDbSymbolTableRecord
100
AcDbRegAppTableRecord
  2
ACAD
 70
0
  0
ENDTAB
  0
TABLE
  2
BLOCK_RECORD
  5
1
100
AcDbSymbolTable
 70
0
  0
BLOCK_RECORD
  5
216
100
AcDbSymbolTableRecord
100
AcDbBlockTableRecord
  2
*Model_Space
  0
BLOCK_RECORD
  5
217
100
AcDbSymbolTableRecord
100
AcDbBlockTableRecord
  2
*Paper_Space
  0
ENDTAB
  0
TABLE
  2
DIMSTYLE
  5
A
100
AcDbSymbolTable
 70
1
100
AcDbDimStyleTable
 71
0
  0
DIMSTYLE
105
218
100
AcDbSymbolTableRecord
100
AcDbDimStyleTableRecord
  2
STANDARD
 70
0
  3

  4

 40
1.0
 41
0.1875
 42
0.0625
 43
0.38
 44
0.125
 45
0.0
 46
0.0
 47
0.0001
 48
0.0001
140
0.15625
141
0.09
142
0.0
143
25.4
144
1.0
145
0.0
146
1.0
147
0.09
 71
0.0
 72
0.0
 73
1
 74
1
 75
0
 76
0
 77
0
 78
4
170
0
171
2
172
0
173
0
174
0
175
0
176
0
177
0
178
0
270
2
271
4
272
4
273
2
274
2
275
0
280
0
281
0
282
0
283
1
284
4
285
0
286
0
287
3
288
0
340
11
278
46
  0
ENDTAB
  0
ENDSEC
  0
SECTION
  2
BLOCKS
  0
BLOCK
  5
20
100
AcDbEntity
  8
0
100
AcDbBlockBegin
  2
*Model_Space
 70
0
 10
0.0
 20
0.0
 30
0.0
  3
*Model_Space
  1

  0
ENDBLK
  5
21
100
AcDbEntity
  8
0
100
AcDbBlockEnd
  0
BLOCK
  5
1C
100
AcDbEntity
  8
0
100
AcDbBlockBegin
  2
*Paper_Space
 70
0
 10
0.0
 20
0.0
 30
0.0
  3
*Paper_Space
  1

  0
ENDBLK
  5
1D
100
AcDbEntity
  8
0
100
AcDbBlockEnd
  0
ENDSEC
  0
SECTION
  2
ENTITIES
  0
MTEXT
  5
219
100
AcDbEntity
  8
0
100
AcDbMText
 62
7
  6
CONTINUOUS
  7
STANDARD
 71
1
 72
1
 10
15.9560215477
 20
0.9479130325
 30
0.0
 11
1.0
 21
0.0
 31
0.0
 44
0.9
  1
SCALE: 1:1.000
 40
0.3
 41
3.36
  0
LINE
  5
21A
100
AcDbEntity
  8
0
100
AcDbLine
 62
7
  6
CONTINUOUS
 10
0.0
 20
0.0
 11
0.0
 21
17.0
  0
LINE
  5
21B
100
AcDbEntity
  8
0
100
AcDbLine
 62
7
  6
CONTINUOUS
 10
0.0
 20
0.0
 11
22.0
 21
0.0
  0
LINE
  5
21C
100
AcDbEntity
  8
0
100
AcDbLine
 62
7
  6
CONTINUOUS
 10
0.0
 20
17.0
 11
22.0
 21
17.0
  0
LINE
  5
21D
100
AcDbEntity
  8
0
100
AcDbLine
 62
7
  6
CONTINUOUS
 10
22.0
 20
0.0
 11
22.0
 21
17.0
  0
LINE
  5
21E
100
AcDbEntity
  8
0
100
AcDbLine
 62
7
  6
CONTINUOUS
 10
4.6303672762
 20
5.5551198968
 11
4.6303672762
 21
5.4851198968
  0
LINE
  5
21F
100
AcDbEntity
  8
0
100
AcDbLine
 62
7
  6
CONTINUOUS
 10
4.8371572762
 20
5.3951198968
 11
4.9235772762
 21
5.3951198968
  0
LINE
  5
220
100
AcDbEntity
  8
0
100
AcDbLine
 62
7
  6
CONTINUOUS
 10
5.3371572762
 20
5.3951198968
 11
5.4235772762
 21
5.3951198968
  0
LINE
  5
221
100
AcDbEntity
  8
0
100
AcDbLine
 62
7
  6
CONTINUOUS
 10
5.8371572762
 20
5.3951198968
 11
5.9235772762
 21
5.3951198968
  0
LINE
  5
222
100
AcDbEntity
  8
0
100
AcDbLine
 62
7
  6
CONTINUOUS
 10
6.3371572762
 20
5.3951198968
 11
6.4235772762
 21
5.3951198968
  0
LINE
  5
223
100
AcDbEntity
  8
0
100
AcDbLine
 62
7
  6
CONTINUOUS
 10
6.8371572762
 20
5.3951198968
 11
6.9235772762
 21
5.3951198968
  0
LINE
  5
224
100
AcDbEntity
  8
0
100
AcDbLine
 62
7
  6
CONTINUOUS
 10
7.3371572762
 20
5.3951198968
 11
7.4235772762
 21
5.3951198968
  0
LINE
  5
225
100
AcDbEntity
  8
0
100
AcDbLine
 62
7
  6
CONTINUOUS
 10
4.6303672762
 20
5.4851198968
 11
4.7274372762
 21
5.4851198968
  0
LINE
  5
226
100
AcDbEntity
  8
0
100
AcDbLine
 62
7
  6
CONTINUOUS
 10
5.0332972762
 20
5.4851198968
 11
5.2274372762
 21
5.4851198968
  0
LINE
  5
227
100
AcDbEntity
  8
0
100
AcDbLine
 62
7
  6
CONTINUOUS
 10
5.5332972762
 20
5.4851198968
 11
5.7274372762
 21
5.4851198968
  0
LINE
  5
228
100
AcDbEntity
  8
0
100
AcDbLine
 62
7
  6
CONTINUOUS
 10
6.0332972762
 20
5.4851198968
 11
6.2274372762
 21
5.4851198968
  0
LINE
  5
229
100
AcDbEntity
  8
0
100
AcDbLine
 62
7
  6
CONTINUOUS
 10
6.5332972762
 20
5.4851198968
 11
6.7274372762
 21
5.4851198968
  0
LINE
  5
22A
100
AcDbEntity
  8
0
100
AcDbLine
 62
7
  6
CONTINUOUS
 10
7.0332972762
 20
5.4851198968
 11
7.2274372762
 21
5.4851198968
  0
LINE
  5
22B
100
AcDbEntity
  8
0
100
AcDbLine
 62
7
  6
CONTINUOUS
 10
7.5332972762
 20
5.4851198968
 11
7.6303672762
 21
5.4851198968
  0
LINE
  5
22C
100
AcDbEntity
  8
0
100
AcDbLine
 62
7
  6
CONTINUOUS
 10
7.6303672762
 20
5.5551198968
 11
7.5332972762
 21
5.5551198968
  0
LINE
  5
22D
100
AcDbEntity
  8
0
100
AcDbLine
 62
7
  6
CONTINUOUS
 10
7.2274372762
 20
5.5551198968
 11
7.0332972762
 21
5.5551198968
  0
LINE
  5
22E
100
AcDbEntity
  8
0
100
AcDbLine
 62
7
  6
CONTINUOUS
 10
6.7274372762
 20
5.5551198968
 11
6.5332972762
 21
5.5551198968
  0
LINE
  5
22F
100
AcDbEntity
  8
0
100
AcDbLine
 62
7
  6
CONTINUOUS
 10
6.2274372762
 20
5.5551198968
 11
6.0332972762
 21
5.5551198968
  0
LINE
  5
230
100
AcDbEntity
  8
0
100
AcDbLine
 62
7
  6
CONTINUOUS
 10
5.7274372762
 20
5.5551198968
 11
5.5332972762
 21
5.5551198968
  0
LINE
  5
231
100
AcDbEntity
  8
0
100
AcDbLine
 62
7
  6
CONTINUOUS
 10
5.2274372762
 20
5.5551198968
 11
5.0332972762
 21
5.5551198968
  0
LINE
  5
232
100
AcDbEntity
  8
0
100
AcDbLine
 62
7
  6
CONTINUOUS
 10
4.7274372762
 20
5.5551198968
 11
4.6303672762
 21
5.5551198968
  0
LINE
  5
233
100
AcDbEntity
  8
0
100
AcDbLine
 62
7
  6
CONTINUOUS
 10
7.4235772762
 20
5.6451198968
 11
7.3371572762
 21
5.6451198968
  0
LINE
  5
234
100
AcDbEntity
  8
0
100
AcDbLine
 62
7
  6
CONTINUOUS
 10
6.9235772762
 20
5.6451198968
 11
6.8371572762
 21
5.6451198968
  0
LINE
  5
235
100
AcDbEntity
  8
0
100
AcDbLine
 62
7
  6
CONTINUOUS
 10
6.4235772762
 20
5.6451198968
 11
6.3371572762
 21
5.6451198968
  0
LINE
  5
236
100
AcDbEntity
  8
0
100
AcDbLine
 62
7
  6
CONTINUOUS
 10
5.9235772762
 20
5.6451198968
 11
5.8371572762
 21
5.6451198968
  0
LINE
  5
237
100
AcDbEntity
  8
0
100
AcDbLine
 62
7
  6
CONTINUOUS
 10
5.4235772762
 20
5.6451198968
 11
5.3371572762
 21
5.6451198968
  0
LINE
  5
238
100
AcDbEntity
  8
0
100
AcDbLine
 62
7
  6
CONTINUOUS
 10
4.9235772762
 20
5.6451198968
 11
4.8371572762
 21
5.6451198968
  0
LINE
  5
239
100
AcDbEntity
  8
0
100
AcDbLine
 62
7
  6
CONTINUOUS
 10
7.6303672762
 20
5.4851198968
 11
7.6303672762
 21
5.5551198968
  0
LINE
  5
23A
100
AcDbEntity
  8
0
100
AcDbLine
 62
7
  6
CONTINUOUS
 10
4.5708720839
 20
14.1000477814
 11
4.5708720839
 21
11.1000477814
  0
LINE
  5
23B
100
AcDbEntity
  8
0
100
AcDbLine
 62
7
  6
CONTINUOUS
 10
7.5708720839
 20
11.1000477814
 11
4.5708720839
 21
11.1000477814
  0
LINE
  5
23C
100
AcDbEntity
  8
0
100
AcDbLine
 62
7
  6
CONTINUOUS
 10
7.5708720839
 20
14.1000477814
 11
7.5708720839
 21
11.1000477814
  0
LINE
  5
23D
100
AcDbEntity
  8
0
100
AcDbLine
 62
7
  6
CONTINUOUS
 10
4.5708720839
 20
14.1000477814
 11
7.5708720839
 21
14.1000477814
  0
LINE
  5
23E
100
AcDbEntity
  8
0
100
AcDbLine
 62
7
  6
CONTINUOUS
 10
14.0603552569
 20
5.3356247044
 11
14.0603552569
 21
5.5856247044
  0
LINE
  5
23F
100
AcDbEntity
  8
0
100
AcDbLine
 62
7
  6
CONTINUOUS
 10
17.0603552569
 20
5.3356247044
 11
14.0603552569
 21
5.3356247044
  0
LINE
  5
240
100
AcDbEntity
  8
0
100
AcDbLine
 62
7
  6
CONTINUOUS
 10
17.0603552569
 20
5.4256247044
 11
14.0603552569
 21
5.4256247044
  0
LINE
  5
241
100
AcDbEntity
  8
0
100
AcDbLine
 62
7
  6
CONTINUOUS
 10
17.0603552569
 20
5.4956247044
 11
14.0603552569
 21
5.4956247044
  0
LINE
  5
242
100
AcDbEntity
  8
0
100
AcDbLine
 62
7
  6
CONTINUOUS
 10
17.0603552569
 20
5.5856247044
 11
14.0603552569
 21
5.5856247044
  0
LINE
  5
243
100
AcDbEntity
  8
0
100
AcDbLine
 62
7
  6
CONTINUOUS
 10
17.0603552569
 20
5.3356247044
 11
17.0603552569
 21
5.5856247044
  0
LINE
  5
244
100
AcDbEntity
  8
0
100
AcDbLine
 62
7
  6
CONTINUOUS
 10
13.715745027
 20
11.3575709774
 11
13.7370979577
 21
11.3140582796
  0
LINE
  5
245
100
AcDbEntity
  8
0
100
AcDbLine
 62
7
  6
CONTINUOUS
 10
13.8373497168
 20
11.3756567839
 11
13.8368099482
 21
11.3734803586
  0
LINE
  5
246
100
AcDbEntity
  8
0
100
AcDbLine
 62
7
  6
CONTINUOUS
 10
14.4419439972
 20
13.7075517062
 11
13.715745027
 21
11.3575709774
  0
LINE
  5
247
100
AcDbEntity
  8
0
100
AcDbLine
 62
7
  6
CONTINUOUS
 10
14.566210745
 20
13.7430823605
 11
13.8412580313
 21
11.3971345194
  0
LINE
  5
248
100
AcDbEntity
  8
0
100
AcDbLine
 62
7
  6
CONTINUOUS
 10
13.9550179286
 20
11.2581133824
 11
14.0346160197
 21
11.2581133824
  0
LINE
  5
249
100
AcDbEntity
  8
0
100
AcDbLine
 62
7
  6
CONTINUOUS
 10
14.4155484256
 20
11.2581133824
 11
14.4951465167
 21
11.2581133824
  0
LINE
  5
24A
100
AcDbEntity
  8
0
100
AcDbLine
 62
7
  6
CONTINUOUS
 10
14.8760789226
 20
11.2581133824
 11
14.9556770137
 21
11.2581133824
  0
LINE
  5
24B
100
AcDbEntity
  8
0
100
AcDbLine
 62
7
  6
CONTINUOUS
 10
15.3366094196
 20
11.2581133824
 11
15.4162075107
 21
11.2581133824
  0
LINE
  5
24C
100
AcDbEntity
  8
0
100
AcDbLine
 62
7
  6
CONTINUOUS
 10
15.7971399166
 20
11.2581133824
 11
15.8767380077
 21
11.2581133824
  0
LINE
  5
24D
100
AcDbEntity
  8
0
100
AcDbLine
 62
7
  6
CONTINUOUS
 10
16.2576704136
 20
11.2581133824
 11
16.3372685047
 21
11.2581133824
  0
LINE
  5
24E
100
AcDbEntity
  8
0
100
AcDbLine
 62
7
  6
CONTINUOUS
 10
13.7370979577
 20
11.3140582796
 11
13.8265053484
 21
11.3140582796
  0
LINE
  5
24F
100
AcDbEntity
  8
0
100
AcDbLine
 62
7
  6
CONTINUOUS
 10
14.108221064
 20
11.3140582796
 11
14.2870358454
 21
11.3140582796
  0
LINE
  5
250
100
AcDbEntity
  8
0
100
AcDbLine
 62
7
  6
CONTINUOUS
 10
14.568751561
 20
11.3140582796
 11
14.7475663424
 21
11.3140582796
  0
LINE
  5
251
100
AcDbEntity
  8
0
100
AcDbLine
 62
7
  6
CONTINUOUS
 10
15.029282058
 20
11.3140582796
 11
15.2080968394
 21
11.3140582796
  0
LINE
  5
252
100
AcDbEntity
  8
0
100
AcDbLine
 62
7
  6
CONTINUOUS
 10
15.489812555
 20
11.3140582796
 11
15.6686273364
 21
11.3140582796
  0
LINE
  5
253
100
AcDbEntity
  8
0
100
AcDbLine
 62
7
  6
CONTINUOUS
 10
15.950343052
 20
11.3140582796
 11
16.1291578334
 21
11.3140582796
  0
LINE
  5
254
100
AcDbEntity
  8
0
100
AcDbLine
 62
7
  6
CONTINUOUS
 10
16.410873549
 20
11.3140582796
 11
16.5002809397
 21
11.3140582796
  0
LINE
  5
255
100
AcDbEntity
  8
0
100
AcDbLine
 62
7
  6
CONTINUOUS
 10
16.478928009
 20
11.3575709774
 11
16.3895206183
 21
11.3575709774
  0
LINE
  5
256
100
AcDbEntity
  8
0
100
AcDbLine
 62
7
  6
CONTINUOUS
 10
16.1078049027
 20
11.3575709774
 11
15.9289901213
 21
11.3575709774
  0
LINE
  5
257
100
AcDbEntity
  8
0
100
AcDbLine
 62
7
  6
CONTINUOUS
 10
15.6472744057
 20
11.3575709774
 11
15.4684596243
 21
11.3575709774
  0
LINE
  5
258
100
AcDbEntity
  8
0
100
AcDbLine
 62
7
  6
CONTINUOUS
 10
15.1867439087
 20
11.3575709774
 11
15.0079291273
 21
11.3575709774
  0
LINE
  5
259
100
AcDbEntity
  8
0
100
AcDbLine
 62
7
  6
CONTINUOUS
 10
14.7262134117
 20
11.3575709774
 11
14.5473986303
 21
11.3575709774
  0
LINE
  5
25A
100
AcDbEntity
  8
0
100
AcDbLine
 62
7
  6
CONTINUOUS
 10
14.2656829147
 20
11.3575709774
 11
14.0868681333
 21
11.3575709774
  0
LINE
  5
25B
100
AcDbEntity
  8
0
100
AcDbLine
 62
7
  6
CONTINUOUS
 10
13.8051524177
 20
11.3575709774
 11
13.715745027
 21
11.3575709774
  0
LINE
  5
25C
100
AcDbEntity
  8
0
100
AcDbLine
 62
7
  6
CONTINUOUS
 10
14.0760237649
 20
11.2959724731
 11
14.0765635335
 21
11.2981488983
  0
LINE
  5
25D
100
AcDbEntity
  8
0
100
AcDbLine
 62
7
  6
CONTINUOUS
 10
16.2610080381
 20
11.4135158745
 11
16.181409947
 21
11.4135158745
  0
LINE
  5
25E
100
AcDbEntity
  8
0
100
AcDbLine
 62
7
  6
CONTINUOUS
 10
15.8004775411
 20
11.4135158745
 11
15.72087945
 21
11.4135158745
  0
LINE
  5
25F
100
AcDbEntity
  8
0
100
AcDbLine
 62
7
  6
CONTINUOUS
 10
15.3399470441
 20
11.4135158745
 11
15.260348953
 21
11.4135158745
  0
LINE
  5
260
100
AcDbEntity
  8
0
100
AcDbLine
 62
7
  6
CONTINUOUS
 10
14.8794165471
 20
11.4135158745
 11
14.799818456
 21
11.4135158745
  0
LINE
  5
261
100
AcDbEntity
  8
0
100
AcDbLine
 62
7
  6
CONTINUOUS
 10
14.4188860501
 20
11.4135158745
 11
14.339287959
 21
11.4135158745
  0
LINE
  5
262
100
AcDbEntity
  8
0
100
AcDbLine
 62
7
  6
CONTINUOUS
 10
13.9583555531
 20
11.4135158745
 11
13.878757462
 21
11.4135158745
  0
LINE
  5
263
100
AcDbEntity
  8
0
100
AcDbLine
 62
7
  6
CONTINUOUS
 10
14.2978802138
 20
11.3756567839
 11
14.2973404452
 21
11.3734803586
  0
LINE
  5
264
100
AcDbEntity
  8
0
100
AcDbLine
 62
7
  6
CONTINUOUS
 10
14.0818094554
 20
11.3058645492
 11
14.0750269364
 21
11.2839163098
  0
LINE
  5
265
100
AcDbEntity
  8
0
100
AcDbLine
 62
7
  6
CONTINUOUS
 10
15.026741242
 20
13.7430823605
 11
14.3017885283
 21
11.3971345194
  0
LINE
  5
266
100
AcDbEntity
  8
0
100
AcDbLine
 62
7
  6
CONTINUOUS
 10
14.5365542619
 20
11.2959724731
 11
14.5370940305
 21
11.2981488983
  0
LINE
  5
267
100
AcDbEntity
  8
0
100
AcDbLine
 62
7
  6
CONTINUOUS
 10
14.7584107108
 20
11.3756567839
 11
14.7578709422
 21
11.3734803586
  0
LINE
  5
268
100
AcDbEntity
  8
0
100
AcDbLine
 62
7
  6
CONTINUOUS
 10
14.5423399524
 20
11.3058645492
 11
14.5355574334
 21
11.2839163098
  0
LINE
  5
269
100
AcDbEntity
  8
0
100
AcDbLine
 62
7
  6
CONTINUOUS
 10
15.487271739
 20
13.7430823605
 11
14.7623190253
 21
11.3971345194
  0
LINE
  5
26A
100
AcDbEntity
  8
0
100
AcDbLine
 62
7
  6
CONTINUOUS
 10
14.997084759
 20
11.2959724731
 11
14.9976245275
 21
11.2981488983
  0
LINE
  5
26B
100
AcDbEntity
  8
0
100
AcDbLine
 62
7
  6
CONTINUOUS
 10
15.0028704494
 20
11.3058645492
 11
14.9960879304
 21
11.2839163098
  0
LINE
  5
26C
100
AcDbEntity
  8
0
100
AcDbLine
 62
7
  6
CONTINUOUS
 10
15.2189412078
 20
11.3756567839
 11
15.2184014392
 21
11.3734803586
  0
LINE
  5
26D
100
AcDbEntity
  8
0
100
AcDbLine
 62
7
  6
CONTINUOUS
 10
15.947802236
 20
13.7430823605
 11
15.2228495223
 21
11.3971345194
  0
LINE
  5
26E
100
AcDbEntity
  8
0
100
AcDbLine
 62
7
  6
CONTINUOUS
 10
15.457615256
 20
11.2959724731
 11
15.4581550245
 21
11.2981488983
  0
LINE
  5
26F
100
AcDbEntity
  8
0
100
AcDbLine
 62
7
  6
CONTINUOUS
 10
15.4634009464
 20
11.3058645492
 11
15.4566184274
 21
11.2839163098
  0
LINE
  5
270
100
AcDbEntity
  8
0
100
AcDbLine
 62
7
  6
CONTINUOUS
 10
16.5002809397
 20
11.3140582796
 11
16.478928009
 21
11.3575709774
  0
LINE
  5
271
100
AcDbEntity
  8
0
100
AcDbLine
 62
7
  6
CONTINUOUS
 10
15.6794717048
 20
11.3756567839
 11
15.6789319363
 21
11.3734803586
  0
LINE
  5
272
100
AcDbEntity
  8
0
100
AcDbLine
 62
7
  6
CONTINUOUS
 10
16.408332733
 20
13.7430823605
 11
15.6833800193
 21
11.3971345194
  0
LINE
  5
273
100
AcDbEntity
  8
0
100
AcDbLine
 62
7
  6
CONTINUOUS
 10
15.918145753
 20
11.2959724731
 11
15.9186855215
 21
11.2981488983
  0
LINE
  5
274
100
AcDbEntity
  8
0
100
AcDbLine
 62
7
  6
CONTINUOUS
 10
15.9239314434
 20
11.3058645492
 11
15.9171489244
 21
11.2839163098
  0
LINE
  5
275
100
AcDbEntity
  8
0
100
AcDbLine
 62
7
  6
CONTINUOUS
 10
16.1400022018
 20
11.3756567839
 11
16.1394873243
 21
11.3734726115
  0
LINE
  5
276
100
AcDbEntity
  8
0
100
AcDbLine
 62
7
  6
CONTINUOUS
 10
16.86886323
 20
13.7430823605
 11
16.1439105163
 21
11.3971345194
  0
LINE
  5
277
100
AcDbEntity
  8
0
100
AcDbLine
 62
7
  6
CONTINUOUS
 10
16.37867625
 20
11.2959724731
 11
16.3791911275
 21
11.2981566454
  0
LINE
  5
278
100
AcDbEntity
  8
0
100
AcDbLine
 62
7
  6
CONTINUOUS
 10
16.3844350274
 20
11.3057774589
 11
16.3776794214
 21
11.2839163098
  0
LINE
  5
279
100
AcDbEntity
  8
0
100
AcDbLine
 62
7
  6
CONTINUOUS
 10
17.2051269793
 20
13.7075517062
 11
16.478928009
 21
11.3575709774
  0
LINE
  5
27A
100
AcDbEntity
  8
0
100
AcDbLine
 62
7
  6
CONTINUOUS
 10
17.2051269793
 20
13.7075517062
 11
17.1157195886
 21
13.7075517062
  0
LINE
  5
27B
100
AcDbEntity
  8
0
100
AcDbLine
 62
7
  6
CONTINUOUS
 10
14.5313513879
 20
13.7075517062
 11
14.4419439972
 21
13.7075517062
  0
LINE
  5
27C
100
AcDbEntity
  8
0
100
AcDbLine
 62
7
  6
CONTINUOUS
 10
14.8130671036
 20
13.7075517062
 11
14.9918818849
 21
13.7075517062
  0
LINE
  5
27D
100
AcDbEntity
  8
0
100
AcDbLine
 62
7
  6
CONTINUOUS
 10
15.2735976006
 20
13.7075517062
 11
15.4524123819
 21
13.7075517062
  0
LINE
  5
27E
100
AcDbEntity
  8
0
100
AcDbLine
 62
7
  6
CONTINUOUS
 10
15.7341280976
 20
13.7075517062
 11
15.9129428789
 21
13.7075517062
  0
LINE
  5
27F
100
AcDbEntity
  8
0
100
AcDbLine
 62
7
  6
CONTINUOUS
 10
16.1946585946
 20
13.7075517062
 11
16.3734733759
 21
13.7075517062
  0
LINE
  5
280
100
AcDbEntity
  8
0
100
AcDbLine
 62
7
  6
CONTINUOUS
 10
16.6551890916
 20
13.7075517062
 11
16.8340038729
 21
13.7075517062
  0
LINE
  5
281
100
AcDbEntity
  8
0
100
AcDbLine
 62
7
  6
CONTINUOUS
 10
16.9872070083
 20
13.7634966034
 11
16.9076089172
 21
13.7634966034
  0
LINE
  5
282
100
AcDbEntity
  8
0
100
AcDbLine
 62
7
  6
CONTINUOUS
 10
16.5266765113
 20
13.7634966034
 11
16.4470784202
 21
13.7634966034
  0
LINE
  5
283
100
AcDbEntity
  8
0
100
AcDbLine
 62
7
  6
CONTINUOUS
 10
16.0661460143
 20
13.7634966034
 11
15.9865479232
 21
13.7634966034
  0
LINE
  5
284
100
AcDbEntity
  8
0
100
AcDbLine
 62
7
  6
CONTINUOUS
 10
15.6056155173
 20
13.7634966034
 11
15.5260174262
 21
13.7634966034
  0
LINE
  5
285
100
AcDbEntity
  8
0
100
AcDbLine
 62
7
  6
CONTINUOUS
 10
15.1450850203
 20
13.7634966034
 11
15.0654869292
 21
13.7634966034
  0
LINE
  5
286
100
AcDbEntity
  8
0
100
AcDbLine
 62
7
  6
CONTINUOUS
 10
14.6845545233
 20
13.7634966034
 11
14.6049564322
 21
13.7634966034
  0
LINE
  5
287
100
AcDbEntity
  8
0
100
AcDbLine
 62
7
  6
CONTINUOUS
 10
17.2264799099
 20
13.6640390085
 11
16.5002809397
 21
11.3140582796
  0
LINE
  5
288
100
AcDbEntity
  8
0
100
AcDbLine
 62
7
  6
CONTINUOUS
 10
17.2264799099
 20
13.6640390085
 11
17.2051269793
 21
13.7075517062
  0
ARC
  5
289
100
AcDbEntity
  8
0
100
AcDbCircle
 62
7
  6
CONTINUOUS
 10
4.7426847325
 20
5.2230637398
 40
0.57834
100
AcDbArc
 50
21.6998722745
 51
23.7539541897
  0
ARC
  5
28A
100
AcDbEntity
  8
0
100
AcDbCircle
 62
7
  6
CONTINUOUS
 10
6.0180498198
 20
5.2230637398
 40
0.57834
100
AcDbArc
 50
156.2460458103
 51
158.3001277255
  0
ARC
  5
28B
100
AcDbEntity
  8
0
100
AcDbCircle
 62
7
  6
CONTINUOUS
 10
5.2426847325
 20
5.2230637398
 40
0.57834
100
AcDbArc
 50
21.6998722745
 51
23.7539541897
  0
ARC
  5
28C
100
AcDbEntity
  8
0
100
AcDbCircle
 62
7
  6
CONTINUOUS
 10
5.7426847325
 20
5.2230637398
 40
0.57834
100
AcDbArc
 50
21.6998722745
 51
23.7539541897
  0
ARC
  5
28D
100
AcDbEntity
  8
0
100
AcDbCircle
 62
7
  6
CONTINUOUS
 10
5.5180498198
 20
5.2230637398
 40
0.57834
100
AcDbArc
 50
156.2460458103
 51
158.3001277255
  0
ARC
  5
28E
100
AcDbEntity
  8
0
100
AcDbCircle
 62
7
  6
CONTINUOUS
 10
4.2426847325
 20
5.2230637398
 40
0.57834
100
AcDbArc
 50
21.6998722745
 51
23.7539541897
  0
ARC
  5
28F
100
AcDbEntity
  8
0
100
AcDbCircle
 62
7
  6
CONTINUOUS
 10
5.3589872762
 20
5.4683187178
 40
0.084969
100
AcDbArc
 50
201.6998722745
 51
213.3351729967
  0
ARC
  5
290
100
AcDbEntity
  8
0
100
AcDbCircle
 62
7
  6
CONTINUOUS
 10
5.4017472762
 20
5.4683187178
 40
0.084969
100
AcDbArc
 50
326.6648270033
 51
338.3001277255
  0
ARC
  5
291
100
AcDbEntity
  8
0
100
AcDbCircle
 62
7
  6
CONTINUOUS
 10
5.8589872762
 20
5.4683187178
 40
0.084969
100
AcDbArc
 50
201.6998722745
 51
213.3351729967
  0
ARC
  5
292
100
AcDbEntity
  8
0
100
AcDbCircle
 62
7
  6
CONTINUOUS
 10
5.9017472762
 20
5.4683187178
 40
0.084969
100
AcDbArc
 50
326.6648270033
 51
338.3001277255
  0
ARC
  5
293
100
AcDbEntity
  8
0
100
AcDbCircle
 62
7
  6
CONTINUOUS
 10
4.9017472762
 20
5.4683187178
 40
0.084969
100
AcDbArc
 50
326.6648270033
 51
338.3001277255
  0
ARC
  5
294
100
AcDbEntity
  8
0
100
AcDbCircle
 62
7
  6
CONTINUOUS
 10
4.8589872762
 20
5.4683187178
 40
0.084969
100
AcDbArc
 50
201.6998722745
 51
213.3351729967
  0
ARC
  5
295
100
AcDbEntity
  8
0
100
AcDbCircle
 62
7
  6
CONTINUOUS
 10
5.3371572762
 20
5.4539598968
 40
0.05884
100
AcDbArc
 50
213.3351729967
 51
270.0
  0
ARC
  5
296
100
AcDbEntity
  8
0
100
AcDbCircle
 62
7
  6
CONTINUOUS
 10
5.4235772762
 20
5.4539598968
 40
0.05884
100
AcDbArc
 50
270.0
 51
326.6648270033
  0
ARC
  5
297
100
AcDbEntity
  8
0
100
AcDbCircle
 62
7
  6
CONTINUOUS
 10
5.8371572762
 20
5.4539598968
 40
0.05884
100
AcDbArc
 50
213.3351729967
 51
270.0
  0
ARC
  5
298
100
AcDbEntity
  8
0
100
AcDbCircle
 62
7
  6
CONTINUOUS
 10
5.9235772762
 20
5.4539598968
 40
0.05884
100
AcDbArc
 50
270.0
 51
326.6648270033
  0
ARC
  5
299
100
AcDbEntity
  8
0
100
AcDbCircle
 62
7
  6
CONTINUOUS
 10
4.9235772762
 20
5.4539598968
 40
0.05884
100
AcDbArc
 50
270.0
 51
326.6648270033
  0
ARC
  5
29A
100
AcDbEntity
  8
0
100
AcDbCircle
 62
7
  6
CONTINUOUS
 10
4.8371572762
 20
5.4539598968
 40
0.05884
100
AcDbArc
 50
213.3351729967
 51
270.0
  0
ARC
  5
29B
100
AcDbEntity
  8
0
100
AcDbCircle
 62
7
  6
CONTINUOUS
 10
5.2274372762
 20
5.4363998968
 40
0.04872
100
AcDbArc
 50
23.7539541897
 51
90.0
  0
ARC
  5
29C
100
AcDbEntity
  8
0
100
AcDbCircle
 62
7
  6
CONTINUOUS
 10
5.5332972762
 20
5.4363998968
 40
0.04872
100
AcDbArc
 50
90.0
 51
156.2460458103
  0
ARC
  5
29D
100
AcDbEntity
  8
0
100
AcDbCircle
 62
7
  6
CONTINUOUS
 10
5.7274372762
 20
5.4363998968
 40
0.04872
100
AcDbArc
 50
23.7539541897
 51
90.0
  0
ARC
  5
29E
100
AcDbEntity
  8
0
100
AcDbCircle
 62
7
  6
CONTINUOUS
 10
6.0332972762
 20
5.4363998968
 40
0.04872
100
AcDbArc
 50
90.0
 51
156.2460458103
  0
ARC
  5
29F
100
AcDbEntity
  8
0
100
AcDbCircle
 62
7
  6
CONTINUOUS
 10
5.0332972762
 20
5.4363998968
 40
0.04872
100
AcDbArc
 50
90.0
 51
156.2460458103
  0
ARC
  5
2A0
100
AcDbEntity
  8
0
100
AcDbCircle
 62
7
  6
CONTINUOUS
 10
4.7274372762
 20
5.4363998968
 40
0.04872
100
AcDbArc
 50
23.7539541897
 51
90.0
  0
ARC
  5
2A1
100
AcDbEntity
  8
0
100
AcDbCircle
 62
7
  6
CONTINUOUS
 10
5.7426847325
 20
5.8171760537
 40
0.57834
100
AcDbArc
 50
336.2460458103
 51
338.3001277255
  0
ARC
  5
2A2
100
AcDbEntity
  8
0
100
AcDbCircle
 62
7
  6
CONTINUOUS
 10
5.2426847325
 20
5.8171760537
 40
0.57834
100
AcDbArc
 50
336.2460458103
 51
338.3001277255
  0
ARC
  5
2A3
100
AcDbEntity
  8
0
100
AcDbCircle
 62
7
  6
CONTINUOUS
 10
6.0180498198
 20
5.8171760537
 40
0.57834
100
AcDbArc
 50
201.6998722745
 51
203.7539541897
  0
ARC
  5
2A4
100
AcDbEntity
  8
0
100
AcDbCircle
 62
7
  6
CONTINUOUS
 10
4.7426847325
 20
5.8171760537
 40
0.57834
100
AcDbArc
 50
336.2460458103
 51
338.3001277255
  0
ARC
  5
2A5
100
AcDbEntity
  8
0
100
AcDbCircle
 62
7
  6
CONTINUOUS
 10
5.5180498198
 20
5.8171760537
 40
0.57834
100
AcDbArc
 50
201.6998722745
 51
203.7539541897
  0
ARC
  5
2A6
100
AcDbEntity
  8
0
100
AcDbCircle
 62
7
  6
CONTINUOUS
 10
4.2426847325
 20
5.8171760537
 40
0.57834
100
AcDbArc
 50
336.2460458103
 51
338.3001277255
  0
ARC
  5
2A7
100
AcDbEntity
  8
0
100
AcDbCircle
 62
7
  6
CONTINUOUS
 10
5.9017472762
 20
5.5719210757
 40
0.084969
100
AcDbArc
 50
21.6998722745
 51
33.3351729967
  0
ARC
  5
2A8
100
AcDbEntity
  8
0
100
AcDbCircle
 62
7
  6
CONTINUOUS
 10
5.8589872762
 20
5.5719210757
 40
0.084969
100
AcDbArc
 50
146.6648270033
 51
158.3001277255
  0
ARC
  5
2A9
100
AcDbEntity
  8
0
100
AcDbCircle
 62
7
  6
CONTINUOUS
 10
5.4017472762
 20
5.5719210757
 40
0.084969
100
AcDbArc
 50
21.6998722745
 51
33.3351729967
  0
ARC
  5
2AA
100
AcDbEntity
  8
0
100
AcDbCircle
 62
7
  6
CONTINUOUS
 10
5.3589872762
 20
5.5719210757
 40
0.084969
100
AcDbArc
 50
146.6648270033
 51
158.3001277255
  0
ARC
  5
2AB
100
AcDbEntity
  8
0
100
AcDbCircle
 62
7
  6
CONTINUOUS
 10
4.9017472762
 20
5.5719210757
 40
0.084969
100
AcDbArc
 50
21.6998722745
 51
33.3351729967
  0
ARC
  5
2AC
100
AcDbEntity
  8
0
100
AcDbCircle
 62
7
  6
CONTINUOUS
 10
4.8589872762
 20
5.5719210757
 40
0.084969
100
AcDbArc
 50
146.6648270033
 51
158.3001277255
  0
ARC
  5
2AD
100
AcDbEntity
  8
0
100
AcDbCircle
 62
7
  6
CONTINUOUS
 10
5.9235772762
 20
5.5862798968
 40
0.05884
100
AcDbArc
 50
33.3351729967
 51
90.0
  0
ARC
  5
2AE
100
AcDbEntity
  8
0
100
AcDbCircle
 62
7
  6
CONTINUOUS
 10
5.8371572762
 20
5.5862798968
 40
0.05884
100
AcDbArc
 50
90.0
 51
146.6648270033
  0
ARC
  5
2AF
100
AcDbEntity
  8
0
100
AcDbCircle
 62
7
  6
CONTINUOUS
 10
5.4235772762
 20
5.5862798968
 40
0.05884
100
AcDbArc
 50
33.3351729967
 51
90.0
  0
ARC
  5
2B0
100
AcDbEntity
  8
0
100
AcDbCircle
 62
7
  6
CONTINUOUS
 10
5.3371572762
 20
5.5862798968
 40
0.05884
100
AcDbArc
 50
90.0
 51
146.6648270033
  0
ARC
  5
2B1
100
AcDbEntity
  8
0
100
AcDbCircle
 62
7
  6
CONTINUOUS
 10
4.9235772762
 20
5.5862798968
 40
0.05884
100
AcDbArc
 50
33.3351729967
 51
90.0
  0
ARC
  5
2B2
100
AcDbEntity
  8
0
100
AcDbCircle
 62
7
  6
CONTINUOUS
 10
4.8371572762
 20
5.5862798968
 40
0.05884
100
AcDbArc
 50
90.0
 51
146.6648270033
  0
ARC
  5
2B3
100
AcDbEntity
  8
0
100
AcDbCircle
 62
7
  6
CONTINUOUS
 10
6.0332972762
 20
5.6038398968
 40
0.04872
100
AcDbArc
 50
203.7539541897
 51
270.0
  0
ARC
  5
2B4
100
AcDbEntity
  8
0
100
AcDbCircle
 62
7
  6
CONTINUOUS
 10
5.7274372762
 20
5.6038398968
 40
0.04872
100
AcDbArc
 50
270.0
 51
336.2460458103
  0
ARC
  5
2B5
100
AcDbEntity
  8
0
100
AcDbCircle
 62
7
  6
CONTINUOUS
 10
5.5332972762
 20
5.6038398968
 40
0.04872
100
AcDbArc
 50
203.7539541897
 51
270.0
  0
ARC
  5
2B6
100
AcDbEntity
  8
0
100
AcDbCircle
 62
7
  6
CONTINUOUS
 10
5.2274372762
 20
5.6038398968
 40
0.04872
100
AcDbArc
 50
270.0
 51
336.2460458103
  0
ARC
  5
2B7
100
AcDbEntity
  8
0
100
AcDbCircle
 62
7
  6
CONTINUOUS
 10
5.0332972762
 20
5.6038398968
 40
0.04872
100
AcDbArc
 50
203.7539541897
 51
270.0
  0
ARC
  5
2B8
100
AcDbEntity
  8
0
100
AcDbCircle
 62
7
  6
CONTINUOUS
 10
4.7274372762
 20
5.6038398968
 40
0.04872
100
AcDbArc
 50
270.0
 51
336.2460458103
  0
ARC
  5
2B9
100
AcDbEntity
  8
0
100
AcDbCircle
 62
7
  6
CONTINUOUS
 10
6.5180498198
 20
5.2230637398
 40
0.57834
100
AcDbArc
 50
156.2460458103
 51
158.3001277255
  0
ARC
  5
2BA
100
AcDbEntity
  8
0
100
AcDbCircle
 62
7
  6
CONTINUOUS
 10
7.0180498198
 20
5.2230637398
 40
0.57834
100
AcDbArc
 50
156.2460458103
 51
158.3001277255
  0
ARC
  5
2BB
100
AcDbEntity
  8
0
100
AcDbCircle
 62
7
  6
CONTINUOUS
 10
6.2426847325
 20
5.2230637398
 40
0.57834
100
AcDbArc
 50
21.6998722745
 51
23.7539541897
  0
ARC
  5
2BC
100
AcDbEntity
  8
0
100
AcDbCircle
 62
7
  6
CONTINUOUS
 10
7.5180498198
 20
5.2230637398
 40
0.57834
100
AcDbArc
 50
156.2460458103
 51
158.3001277255
  0
ARC
  5
2BD
100
AcDbEntity
  8
0
100
AcDbCircle
 62
7
  6
CONTINUOUS
 10
6.7426847325
 20
5.2230637398
 40
0.57834
100
AcDbArc
 50
21.6998722745
 51
23.7539541897
  0
ARC
  5
2BE
100
AcDbEntity
  8
0
100
AcDbCircle
 62
7
  6
CONTINUOUS
 10
8.0180498198
 20
5.2230637398
 40
0.57834
100
AcDbArc
 50
156.2460458103
 51
158.3001277255
  0
ARC
  5
2BF
100
AcDbEntity
  8
0
100
AcDbCircle
 62
7
  6
CONTINUOUS
 10
6.3589872762
 20
5.4683187178
 40
0.084969
100
AcDbArc
 50
201.6998722745
 51
213.3351729967
  0
ARC
  5
2C0
100
AcDbEntity
  8
0
100
AcDbCircle
 62
7
  6
CONTINUOUS
 10
6.4017472762
 20
5.4683187178
 40
0.084969
100
AcDbArc
 50
326.6648270033
 51
338.3001277255
  0
ARC
  5
2C1
100
AcDbEntity
  8
0
100
AcDbCircle
 62
7
  6
CONTINUOUS
 10
6.8589872762
 20
5.4683187178
 40
0.084969
100
AcDbArc
 50
201.6998722745
 51
213.3351729967
  0
ARC
  5
2C2
100
AcDbEntity
  8
0
100
AcDbCircle
 62
7
  6
CONTINUOUS
 10
6.9017472762
 20
5.4683187178
 40
0.084969
100
AcDbArc
 50
326.6648270033
 51
338.3001277255
  0
ARC
  5
2C3
100
AcDbEntity
  8
0
100
AcDbCircle
 62
7
  6
CONTINUOUS
 10
7.3589872762
 20
5.4683187178
 40
0.084969
100
AcDbArc
 50
201.6998722745
 51
213.3351729967
  0
ARC
  5
2C4
100
AcDbEntity
  8
0
100
AcDbCircle
 62
7
  6
CONTINUOUS
 10
7.4017472762
 20
5.4683187178
 40
0.084969
100
AcDbArc
 50
326.6648270033
 51
338.3001277255
  0
ARC
  5
2C5
100
AcDbEntity
  8
0
100
AcDbCircle
 62
7
  6
CONTINUOUS
 10
6.3371572762
 20
5.4539598968
 40
0.05884
100
AcDbArc
 50
213.3351729967
 51
270.0
  0
ARC
  5
2C6
100
AcDbEntity
  8
0
100
AcDbCircle
 62
7
  6
CONTINUOUS
 10
6.4235772762
 20
5.4539598968
 40
0.05884
100
AcDbArc
 50
270.0
 51
326.6648270033
  0
ARC
  5
2C7
100
AcDbEntity
  8
0
100
AcDbCircle
 62
7
  6
CONTINUOUS
 10
6.8371572762
 20
5.4539598968
 40
0.05884
100
AcDbArc
 50
213.3351729967
 51
270.0
  0
ARC
  5
2C8
100
AcDbEntity
  8
0
100
AcDbCircle
 62
7
  6
CONTINUOUS
 10
6.9235772762
 20
5.4539598968
 40
0.05884
100
AcDbArc
 50
270.0
 51
326.6648270033
  0
ARC
  5
2C9
100
AcDbEntity
  8
0
100
AcDbCircle
 62
7
  6
CONTINUOUS
 10
7.3371572762
 20
5.4539598968
 40
0.05884
100
AcDbArc
 50
213.3351729967
 51
270.0
  0
ARC
  5
2CA
100
AcDbEntity
  8
0
100
AcDbCircle
 62
7
  6
CONTINUOUS
 10
7.4235772762
 20
5.4539598968
 40
0.05884
100
AcDbArc
 50
270.0
 51
326.6648270033
  0
ARC
  5
2CB
100
AcDbEntity
  8
0
100
AcDbCircle
 62
7
  6
CONTINUOUS
 10
6.2274372762
 20
5.4363998968
 40
0.04872
100
AcDbArc
 50
23.7539541897
 51
90.0
  0
ARC
  5
2CC
100
AcDbEntity
  8
0
100
AcDbCircle
 62
7
  6
CONTINUOUS
 10
6.5332972762
 20
5.4363998968
 40
0.04872
100
AcDbArc
 50
90.0
 51
156.2460458103
  0
ARC
  5
2CD
100
AcDbEntity
  8
0
100
AcDbCircle
 62
7
  6
CONTINUOUS
 10
6.7274372762
 20
5.4363998968
 40
0.04872
100
AcDbArc
 50
23.7539541897
 51
90.0
  0
ARC
  5
2CE
100
AcDbEntity
  8
0
100
AcDbCircle
 62
7
  6
CONTINUOUS
 10
7.0332972762
 20
5.4363998968
 40
0.04872
100
AcDbArc
 50
90.0
 51
156.2460458103
  0
ARC
  5
2CF
100
AcDbEntity
  8
0
100
AcDbCircle
 62
7
  6
CONTINUOUS
 10
7.2274372762
 20
5.4363998968
 40
0.04872
100
AcDbArc
 50
23.7539541897
 51
90.0
  0
ARC
  5
2D0
100
AcDbEntity
  8
0
100
AcDbCircle
 62
7
  6
CONTINUOUS
 10
7.5332972762
 20
5.4363998968
 40
0.04872
100
AcDbArc
 50
90.0
 51
156.2460458103
  0
ARC
  5
2D1
100
AcDbEntity
  8
0
100
AcDbCircle
 62
7
  6
CONTINUOUS
 10
8.0180498198
 20
5.8171760537
 40
0.57834
100
AcDbArc
 50
201.6998722745
 51
203.7539541897
  0
ARC
  5
2D2
100
AcDbEntity
  8
0
100
AcDbCircle
 62
7
  6
CONTINUOUS
 10
6.7426847325
 20
5.8171760537
 40
0.57834
100
AcDbArc
 50
336.2460458103
 51
338.3001277255
  0
ARC
  5
2D3
100
AcDbEntity
  8
0
100
AcDbCircle
 62
7
  6
CONTINUOUS
 10
7.5180498198
 20
5.8171760537
 40
0.57834
100
AcDbArc
 50
201.6998722745
 51
203.7539541897
  0
ARC
  5
2D4
100
AcDbEntity
  8
0
100
AcDbCircle
 62
7
  6
CONTINUOUS
 10
6.2426847325
 20
5.8171760537
 40
0.57834
100
AcDbArc
 50
336.2460458103
 51
338.3001277255
  0
ARC
  5
2D5
100
AcDbEntity
  8
0
100
AcDbCircle
 62
7
  6
CONTINUOUS
 10
7.0180498198
 20
5.8171760537
 40
0.57834
100
AcDbArc
 50
201.6998722745
 51
203.7539541897
  0
ARC
  5
2D6
100
AcDbEntity
  8
0
100
AcDbCircle
 62
7
  6
CONTINUOUS
 10
6.5180498198
 20
5.8171760537
 40
0.57834
100
AcDbArc
 50
201.6998722745
 51
203.7539541897
  0
ARC
  5
2D7
100
AcDbEntity
  8
0
100
AcDbCircle
 62
7
  6
CONTINUOUS
 10
7.4017472762
 20
5.5719210757
 40
0.084969
100
AcDbArc
 50
21.6998722745
 51
33.3351729967
  0
ARC
  5
2D8
100
AcDbEntity
  8
0
100
AcDbCircle
 62
7
  6
CONTINUOUS
 10
7.3589872762
 20
5.5719210757
 40
0.084969
100
AcDbArc
 50
146.6648270033
 51
158.3001277255
  0
ARC
  5
2D9
100
AcDbEntity
  8
0
100
AcDbCircle
 62
7
  6
CONTINUOUS
 10
6.9017472762
 20
5.5719210757
 40
0.084969
100
AcDbArc
 50
21.6998722745
 51
33.3351729967
  0
ARC
  5
2DA
100
AcDbEntity
  8
0
100
AcDbCircle
 62
7
  6
CONTINUOUS
 10
6.8589872762
 20
5.5719210757
 40
0.084969
100
AcDbArc
 50
146.6648270033
 51
158.3001277255
  0
ARC
  5
2DB
100
AcDbEntity
  8
0
100
AcDbCircle
 62
7
  6
CONTINUOUS
 10
6.4017472762
 20
5.5719210757
 40
0.084969
100
AcDbArc
 50
21.6998722745
 51
33.3351729967
  0
ARC
  5
2DC
100
AcDbEntity
  8
0
100
AcDbCircle
 62
7
  6
CONTINUOUS
 10
6.3589872762
 20
5.5719210757
 40
0.084969
100
AcDbArc
 50
146.6648270033
 51
158.3001277255
  0
ARC
  5
2DD
100
AcDbEntity
  8
0
100
AcDbCircle
 62
7
  6
CONTINUOUS
 10
7.4235772762
 20
5.5862798968
 40
0.05884
100
AcDbArc
 50
33.3351729967
 51
90.0
  0
ARC
  5
2DE
100
AcDbEntity
  8
0
100
AcDbCircle
 62
7
  6
CONTINUOUS
 10
7.3371572762
 20
5.5862798968
 40
0.05884
100
AcDbArc
 50
90.0
 51
146.6648270033
  0
ARC
  5
2DF
100
AcDbEntity
  8
0
100
AcDbCircle
 62
7
  6
CONTINUOUS
 10
6.9235772762
 20
5.5862798968
 40
0.05884
100
AcDbArc
 50
33.3351729967
 51
90.0
  0
ARC
  5
2E0
100
AcDbEntity
  8
0
100
AcDbCircle
 62
7
  6
CONTINUOUS
 10
6.8371572762
 20
5.5862798968
 40
0.05884
100
AcDbArc
 50
90.0
 51
146.6648270033
  0
ARC
  5
2E1
100
AcDbEntity
  8
0
100
AcDbCircle
 62
7
  6
CONTINUOUS
 10
6.4235772762
 20
5.5862798968
 40
0.05884
100
AcDbArc
 50
33.3351729967
 51
90.0
  0
ARC
  5
2E2
100
AcDbEntity
  8
0
100
AcDbCircle
 62
7
  6
CONTINUOUS
 10
6.3371572762
 20
5.5862798968
 40
0.05884
100
AcDbArc
 50
90.0
 51
146.6648270033
  0
ARC
  5
2E3
100
AcDbEntity
  8
0
100
AcDbCircle
 62
7
  6
CONTINUOUS
 10
7.5332972762
 20
5.6038398968
 40
0.04872
100
AcDbArc
 50
203.7539541897
 51
270.0
  0
ARC
  5
2E4
100
AcDbEntity
  8
0
100
AcDbCircle
 62
7
  6
CONTINUOUS
 10
7.2274372762
 20
5.6038398968
 40
0.04872
100
AcDbArc
 50
270.0
 51
336.2460458103
  0
ARC
  5
2E5
100
AcDbEntity
  8
0
100
AcDbCircle
 62
7
  6
CONTINUOUS
 10
7.0332972762
 20
5.6038398968
 40
0.04872
100
AcDbArc
 50
203.7539541897
 51
270.0
  0
ARC
  5
2E6
100
AcDbEntity
  8
0
100
AcDbCircle
 62
7
  6
CONTINUOUS
 10
6.7274372762
 20
5.6038398968
 40
0.04872
100
AcDbArc
 50
270.0
 51
336.2460458103
  0
ARC
  5
2E7
100
AcDbEntity
  8
0
100
AcDbCircle
 62
7
  6
CONTINUOUS
 10
6.5332972762
 20
5.6038398968
 40
0.04872
100
AcDbArc
 50
203.7539541897
 51
270.0
  0
ARC
  5
2E8
100
AcDbEntity
  8
0
100
AcDbCircle
 62
7
  6
CONTINUOUS
 10
6.2274372762
 20
5.6038398968
 40
0.04872
100
AcDbArc
 50
270.0
 51
336.2460458103
  0
ARC
  5
2E9
100
AcDbEntity
  8
0
100
AcDbCircle
 62
7
  6
CONTINUOUS
 10
14.8374751692
 20
10.8152798078
 40
0.638704998
100
AcDbArc
 50
47.222283473
 51
48.8165500072
  0
ARC
  5
2EA
100
AcDbEntity
  8
0
100
AcDbCircle
 62
7
  6
CONTINUOUS
 10
14.3769446722
 20
10.8152798078
 40
0.638704998
100
AcDbArc
 50
47.222283473
 51
48.8165500072
  0
ARC
  5
2EB
100
AcDbEntity
  8
0
100
AcDbCircle
 62
7
  6
CONTINUOUS
 10
14.4574898035
 20
11.8563494492
 40
0.638704998
100
AcDbArc
 50
227.222283473
 51
228.8165500072
  0
ARC
  5
2EC
100
AcDbEntity
  8
0
100
AcDbCircle
 62
7
  6
CONTINUOUS
 10
15.3785507975
 20
11.8563494492
 40
0.638704998
100
AcDbArc
 50
227.222283473
 51
228.8165500072
  0
ARC
  5
2ED
100
AcDbEntity
  8
0
100
AcDbCircle
 62
7
  6
CONTINUOUS
 10
13.4558836782
 20
10.8152798078
 40
0.638704998
100
AcDbArc
 50
47.222283473
 51
48.8165500072
  0
ARC
  5
2EE
100
AcDbEntity
  8
0
100
AcDbCircle
 62
7
  6
CONTINUOUS
 10
15.2980056662
 20
10.8152798078
 40
0.638704998
100
AcDbArc
 50
47.222283473
 51
48.8165500072
  0
ARC
  5
2EF
100
AcDbEntity
  8
0
100
AcDbCircle
 62
7
  6
CONTINUOUS
 10
13.9164141752
 20
10.8152798078
 40
0.638704998
100
AcDbArc
 50
47.222283473
 51
48.8165500072
  0
ARC
  5
2F0
100
AcDbEntity
  8
0
100
AcDbCircle
 62
7
  6
CONTINUOUS
 10
14.9180203005
 20
11.8563494491
 40
0.638704998
100
AcDbArc
 50
227.222283473
 51
228.8165500072
  0
ARC
  5
2F1
100
AcDbEntity
  8
0
100
AcDbCircle
 62
7
  6
CONTINUOUS
 10
13.6442392596
 20
11.4067880017
 40
0.1956036845
100
AcDbArc
 50
350.8421728857
 51
354.3538923847
  0
ARC
  5
2F2
100
AcDbEntity
  8
0
100
AcDbCircle
 62
7
  6
CONTINUOUS
 10
14.1047697566
 20
11.4067880017
 40
0.1956036845
100
AcDbArc
 50
350.8421728857
 51
354.3538923847
  0
ARC
  5
2F3
100
AcDbEntity
  8
0
100
AcDbCircle
 62
7
  6
CONTINUOUS
 10
14.5653002536
 20
11.4067880017
 40
0.1956036845
100
AcDbArc
 50
350.8421728856
 51
354.3538923848
  0
ARC
  5
2F4
100
AcDbEntity
  8
0
100
AcDbCircle
 62
7
  6
CONTINUOUS
 10
15.0258307506
 20
11.4067880017
 40
0.1956036845
100
AcDbArc
 50
350.8421728857
 51
354.3538923847
  0
ARC
  5
2F5
100
AcDbEntity
  8
0
100
AcDbCircle
 62
7
  6
CONTINUOUS
 10
14.2691342222
 20
11.2648412553
 40
0.1956036845
100
AcDbArc
 50
170.8421728857
 51
174.3538923847
  0
ARC
  5
2F6
100
AcDbEntity
  8
0
100
AcDbCircle
 62
7
  6
CONTINUOUS
 10
15.1901952162
 20
11.2648412553
 40
0.1956036845
100
AcDbArc
 50
170.8421728857
 51
174.3538923847
  0
ARC
  5
2F7
100
AcDbEntity
  8
0
100
AcDbCircle
 62
7
  6
CONTINUOUS
 10
14.7296647192
 20
11.2648412553
 40
0.1956036845
100
AcDbArc
 50
170.8421728857
 51
174.3538923847
  0
ARC
  5
2F8
100
AcDbEntity
  8
0
100
AcDbCircle
 62
7
  6
CONTINUOUS
 10
13.8668661281
 20
11.3848093905
 40
0.0281054762
100
AcDbArc
 50
154.1673306625
 51
174.4168540287
  0
ARC
  5
2F9
100
AcDbEntity
  8
0
100
AcDbCircle
 62
7
  6
CONTINUOUS
 10
14.3273966251
 20
11.3848093905
 40
0.0281054762
100
AcDbArc
 50
154.1673306622
 51
174.4168540287
  0
ARC
  5
2FA
100
AcDbEntity
  8
0
100
AcDbCircle
 62
7
  6
CONTINUOUS
 10
14.7879271221
 20
11.3848093905
 40
0.0281054762
100
AcDbArc
 50
154.1673306624
 51
174.4168540287
  0
ARC
  5
2FB
100
AcDbEntity
  8
0
100
AcDbCircle
 62
7
  6
CONTINUOUS
 10
15.2484576191
 20
11.3848093905
 40
0.0281054762
100
AcDbArc
 50
154.1673306622
 51
174.4168540287
  0
ARC
  5
2FC
100
AcDbEntity
  8
0
100
AcDbCircle
 62
7
  6
CONTINUOUS
 10
14.0465073536
 20
11.2868198664
 40
0.0281054762
100
AcDbArc
 50
334.1673306622
 51
354.4168540287
  0
ARC
  5
2FD
100
AcDbEntity
  8
0
100
AcDbCircle
 62
7
  6
CONTINUOUS
 10
14.9675683476
 20
11.2868198664
 40
0.0281054762
100
AcDbArc
 50
334.1673306624
 51
354.4168540288
  0
ARC
  5
2FE
100
AcDbEntity
  8
0
100
AcDbCircle
 62
7
  6
CONTINUOUS
 10
14.5070378506
 20
11.2868198664
 40
0.0281054762
100
AcDbArc
 50
334.1673306623
 51
354.4168540289
  0
ARC
  5
2FF
100
AcDbEntity
  8
0
100
AcDbCircle
 62
7
  6
CONTINUOUS
 10
15.4280988446
 20
11.2868198664
 40
0.0281054762
100
AcDbArc
 50
334.1673306622
 51
354.4168540287
  0
ARC
  5
300
100
AcDbEntity
  8
0
100
AcDbCircle
 62
7
  6
CONTINUOUS
 10
15.1836887738
 20
14.206330178
 40
0.638704998
100
AcDbArc
 50
227.222283473
 51
228.8165500072
  0
ARC
  5
301
100
AcDbEntity
  8
0
100
AcDbCircle
 62
7
  6
CONTINUOUS
 10
14.5930608672
 20
13.7347734494
 40
0.0281063569
100
AcDbArc
 50
154.1673306624
 51
162.8050439065
  0
ARC
  5
302
100
AcDbEntity
  8
0
100
AcDbCircle
 62
7
  6
CONTINUOUS
 10
15.0535913642
 20
13.7347734494
 40
0.0281063569
100
AcDbArc
 50
154.1673306624
 51
162.8050439065
  0
ARC
  5
303
100
AcDbEntity
  8
0
100
AcDbCircle
 62
7
  6
CONTINUOUS
 10
15.7585361632
 20
10.8152798078
 40
0.638704998
100
AcDbArc
 50
47.222283473
 51
48.8165500072
  0
ARC
  5
304
100
AcDbEntity
  8
0
100
AcDbCircle
 62
7
  6
CONTINUOUS
 10
16.2996117915
 20
11.8563494492
 40
0.638704998
100
AcDbArc
 50
227.222283473
 51
228.8165500072
  0
ARC
  5
305
100
AcDbEntity
  8
0
100
AcDbCircle
 62
7
  6
CONTINUOUS
 10
16.7601422885
 20
11.8563494492
 40
0.638704998
100
AcDbArc
 50
227.222283473
 51
228.8165500072
  0
ARC
  5
306
100
AcDbEntity
  8
0
100
AcDbCircle
 62
7
  6
CONTINUOUS
 10
15.8390812945
 20
11.8563494492
 40
0.638704998
100
AcDbArc
 50
227.222283473
 51
228.8165500072
  0
ARC
  5
307
100
AcDbEntity
  8
0
100
AcDbCircle
 62
7
  6
CONTINUOUS
 10
15.4863612476
 20
11.4067880017
 40
0.1956036845
100
AcDbArc
 50
350.8421728857
 51
354.3538923847
  0
ARC
  5
308
100
AcDbEntity
  8
0
100
AcDbCircle
 62
7
  6
CONTINUOUS
 10
15.9468917446
 20
11.4067880017
 40
0.1956036845
100
AcDbArc
 50
350.8421728856
 51
354.3538923848
  0
ARC
  5
309
100
AcDbEntity
  8
0
100
AcDbCircle
 62
7
  6
CONTINUOUS
 10
16.5717867072
 20
11.2648412553
 40
0.1956036845
100
AcDbArc
 50
170.8421728857
 51
174.3538923848
  0
ARC
  5
30A
100
AcDbEntity
  8
0
100
AcDbCircle
 62
7
  6
CONTINUOUS
 10
16.1112562102
 20
11.2648412553
 40
0.1956036845
100
AcDbArc
 50
170.8421728857
 51
174.3538923847
  0
ARC
  5
30B
100
AcDbEntity
  8
0
100
AcDbCircle
 62
7
  6
CONTINUOUS
 10
15.6507257132
 20
11.2648412553
 40
0.1956036845
100
AcDbArc
 50
170.8421728857
 51
174.3538923847
  0
ARC
  5
30C
100
AcDbEntity
  8
0
100
AcDbCircle
 62
7
  6
CONTINUOUS
 10
15.7089881161
 20
11.3848093905
 40
0.0281054762
100
AcDbArc
 50
154.1673306622
 51
174.4168540287
  0
ARC
  5
30D
100
AcDbEntity
  8
0
100
AcDbCircle
 62
7
  6
CONTINUOUS
 10
16.1695186131
 20
11.3848093905
 40
0.0281054762
100
AcDbArc
 50
154.1673306622
 51
174.4168540288
  0
ARC
  5
30E
100
AcDbEntity
  8
0
100
AcDbCircle
 62
7
  6
CONTINUOUS
 10
16.3491598386
 20
11.2868198664
 40
0.0281054762
100
AcDbArc
 50
334.1673306622
 51
354.4168540287
  0
ARC
  5
30F
100
AcDbEntity
  8
0
100
AcDbCircle
 62
7
  6
CONTINUOUS
 10
15.8886293416
 20
11.2868198664
 40
0.0281054762
100
AcDbArc
 50
334.1673306625
 51
354.4168540287
  0
ARC
  5
310
100
AcDbEntity
  8
0
100
AcDbCircle
 62
7
  6
CONTINUOUS
 10
17.4863412588
 20
14.2063301781
 40
0.638704998
100
AcDbArc
 50
227.2222834731
 51
228.8165500072
  0
ARC
  5
311
100
AcDbEntity
  8
0
100
AcDbCircle
 62
7
  6
CONTINUOUS
 10
16.1047497678
 20
14.2063301781
 40
0.638704998
100
AcDbArc
 50
227.2222834731
 51
228.8165500072
  0
ARC
  5
312
100
AcDbEntity
  8
0
100
AcDbCircle
 62
7
  6
CONTINUOUS
 10
17.0258107618
 20
14.2063301781
 40
0.638704998
100
AcDbArc
 50
227.2222834731
 51
228.8165500072
  0
ARC
  5
313
100
AcDbEntity
  8
0
100
AcDbCircle
 62
7
  6
CONTINUOUS
 10
16.5652802648
 20
14.206330178
 40
0.638704998
100
AcDbArc
 50
227.222283473
 51
228.8165500072
  0
ARC
  5
314
100
AcDbEntity
  8
0
100
AcDbCircle
 62
7
  6
CONTINUOUS
 10
15.6442192707
 20
14.206330178
 40
0.6387049979
100
AcDbArc
 50
227.222283473
 51
228.8165500073
  0
ARC
  5
315
100
AcDbEntity
  8
0
100
AcDbCircle
 62
7
  6
CONTINUOUS
 10
16.8957133522
 20
13.7347734494
 40
0.0281063569
100
AcDbArc
 50
154.1673306625
 51
162.8050439063
  0
ARC
  5
316
100
AcDbEntity
  8
0
100
AcDbCircle
 62
7
  6
CONTINUOUS
 10
16.4351828552
 20
13.7347734494
 40
0.0281063569
100
AcDbArc
 50
154.1673306623
 51
162.8050439065
  0
ARC
  5
317
100
AcDbEntity
  8
0
100
AcDbCircle
 62
7
  6
CONTINUOUS
 10
15.9746523582
 20
13.7347734494
 40
0.0281063569
100
AcDbArc
 50
154.1673306625
 51
162.8050439063
  0
ARC
  5
318
100
AcDbEntity
  8
0
100
AcDbCircle
 62
7
  6
CONTINUOUS
 10
15.5141218612
 20
13.7347734494
 40
0.0281063569
100
AcDbArc
 50
154.1673306624
 51
162.8050439066
  0
SPLINE
  5
319
100
AcDbEntity
  8
0
100
AcDbSpline
 62
7
  6
CONTINUOUS
 70
0
 71
3
 72
13
 73
9
 74
0
 42
0.0000001
 43
0.0000001
 44
0.0000000001
 40
0.0
 40
0.0
 40
0.0
 40
0.0
 40
0.1220777926
 40
0.2488756815
 40
0.5079295526
 40
0.7628129667
 40
0.884590511
 40
1.0
 40
1.0
 40
1.0
 40
1.0
 10
14.8130671036
 20
13.7075517062
 30
0.0
 10
14.8108643115
 20
13.7075517062
 30
0.0
 10
14.8063713212
 20
13.7077791022
 30
0.0
 10
14.797285002
 20
13.709045506
 30
0.0
 10
14.7860732631
 20
13.7120881072
 30
0.0
 10
14.7755836953
 20
13.7168786159
 30
0.0
 10
14.7680723682
 20
13.7216328036
 30
0.0
 10
14.7646865556
 20
13.7242661792
 30
0.0
 10
14.763119355
 20
13.7256375127
 30
0.0
  0
SPLINE
  5
31A
100
AcDbEntity
  8
0
100
AcDbSpline
 62
7
  6
CONTINUOUS
 70
0
 71
3
 72
9
 73
5
 74
0
 42
0.0000001
 43
0.0000001
 44
0.0000000001
 40
0.0
 40
0.0
 40
0.0
 40
0.0
 40
0.2423988484
 40
1.0
 40
1.0
 40
1.0
 40
1.0
 10
14.749908512
 20
13.7375245051
 30
0.0
 10
14.7490010777
 20
13.7383644275
 30
0.0
 10
14.7451872035
 20
13.7417531585
 30
0.0
 10
14.7411103479
 20
13.7448422493
 30
0.0
 10
14.7379182505
 20
13.7470206364
 30
0.0
  0
SPLINE
  5
31B
100
AcDbEntity
  8
0
100
AcDbSpline
 62
7
  6
CONTINUOUS
 70
0
 71
3
 72
13
 73
9
 74
0
 42
0.0000001
 43
0.0000001
 44
0.0000000001
 40
0.0
 40
0.0
 40
0.0
 40
0.0
 40
0.1203837678
 40
0.2448858705
 40
0.5000359659
 40
0.7551674118
 40
0.8796468281
 40
1.0
 40
1.0
 40
1.0
 40
1.0
 10
14.7379182505
 20
13.7470206364
 30
0.0
 10
14.7360420718
 20
13.7483009994
 30
0.0
 10
14.73211207
 20
13.7507424857
 30
0.0
 10
14.723735083
 20
13.7550984185
 30
0.0
 10
14.7125251072
 20
13.7594384667
 30
0.0
 10
14.7008200128
 20
13.7621735078
 30
0.0
 10
14.6914467385
 20
13.7632978994
 30
0.0
 10
14.686825372
 20
13.7634966034
 30
0.0
 10
14.6845545233
 20
13.7634966034
 30
0.0
  0
SPLINE
  5
31C
100
AcDbEntity
  8
0
100
AcDbSpline
 62
7
  6
CONTINUOUS
 70
0
 71
3
 72
14
 73
10
 74
0
 42
0.0000001
 43
0.0000001
 44
0.0000000001
 40
0.0
 40
0.0
 40
0.0
 40
0.0
 40
0.1531472932
 40
0.2992080596
 40
0.5648862678
 40
0.6844913334
 40
0.79594362
 40
0.9005209355
 40
1.0
 40
1.0
 40
1.0
 40
1.0
 10
14.6049564322
 20
13.7634966034
 30
0.0
 10
14.6027772336
 20
13.7634966034
 30
0.0
 10
14.5985156109
 20
13.763320328
 30
0.0
 10
14.5905432528
 20
13.7622673126
 30
0.0
 10
14.5831900782
 20
13.7601791849
 30
0.0
 10
14.5769028957
 20
13.7569009325
 30
0.0
 10
14.5730422977
 20
13.7540510382
 30
0.0
 10
14.5699373571
 20
13.750774645
 30
0.0
 10
14.5683797365
 20
13.7482948288
 30
0.0
 10
14.5677631655
 20
13.7470206364
 30
0.0
  0
SPLINE
  5
31D
100
AcDbEntity
  8
0
100
AcDbSpline
 62
7
  6
CONTINUOUS
 70
0
 71
3
 72
12
 73
8
 74
0
 42
0.0000001
 43
0.0000001
 44
0.0000000001
 40
0.0
 40
0.0
 40
0.0
 40
0.0
 40
0.2130270978
 40
0.4507150921
 40
0.5795693194
 40
0.7145575062
 40
1.0
 40
1.0
 40
1.0
 40
1.0
 10
14.5579295956
 20
13.7156563502
 30
0.0
 10
14.5564392188
 20
13.7143026736
 30
0.0
 10
14.5528697247
 20
13.7118861382
 30
0.0
 10
14.5477486586
 20
13.7098522679
 30
0.0
 10
14.5431514177
 20
13.708679966
 30
0.0
 10
14.5380313411
 20
13.7077973
 30
0.0
 10
14.5340491748
 20
13.7075517062
 30
0.0
 10
14.5313513879
 20
13.7075517062
 30
0.0
  0
SPLINE
  5
31E
100
AcDbEntity
  8
0
100
AcDbSpline
 62
7
  6
CONTINUOUS
 70
0
 71
3
 72
9
 73
5
 74
0
 42
0.0000001
 43
0.0000001
 44
0.0000000001
 40
0.0
 40
0.0
 40
0.0
 40
0.0
 40
0.4886707973
 40
1.0
 40
1.0
 40
1.0
 40
1.0
 10
14.0765372453
 20
11.2981570398
 30
0.0
 10
14.0769602829
 20
11.2995168689
 30
0.0
 10
14.0782089243
 20
11.3021922372
 30
0.0
 10
14.080087042
 20
11.304461339
 30
0.0
 10
14.0811572859
 20
11.3054982138
 30
0.0
  0
SPLINE
  5
31F
100
AcDbEntity
  8
0
100
AcDbSpline
 62
7
  6
CONTINUOUS
 70
0
 71
3
 72
13
 73
9
 74
0
 42
0.0000001
 43
0.0000001
 44
0.0000000001
 40
0.0
 40
0.0
 40
0.0
 40
0.0
 40
0.2118611957
 40
0.3271677156
 40
0.4491980767
 40
0.5780723294
 40
0.7133464278
 40
1.0
 40
1.0
 40
1.0
 40
1.0
 10
14.0811572859
 20
11.3054982138
 30
0.0
 10
14.082629433
 20
11.3069244607
 30
0.0
 10
14.0852437973
 20
11.3087886242
 30
0.0
 10
14.0891544286
 20
11.3106912002
 30
0.0
 10
14.0924882509
 20
11.3119105331
 30
0.0
 10
14.0961053342
 20
11.3128647706
 30
0.0
 10
14.1013560436
 20
11.3137991396
 30
0.0
 10
14.105447726
 20
11.3140582796
 30
0.0
 10
14.108221064
 20
11.3140582796
 30
0.0
  0
SPLINE
  5
320
100
AcDbEntity
  8
0
100
AcDbSpline
 62
7
  6
CONTINUOUS
 70
0
 71
3
 72
12
 73
8
 74
0
 42
0.0000001
 43
0.0000001
 44
0.0000000001
 40
0.0
 40
0.0
 40
0.0
 40
0.0
 40
0.2130270978
 40
0.4507150921
 40
0.5795693194
 40
0.7145575062
 40
1.0
 40
1.0
 40
1.0
 40
1.0
 10
15.0184600926
 20
13.7156563502
 30
0.0
 10
15.0169697158
 20
13.7143026736
 30
0.0
 10
15.0134002217
 20
13.7118861382
 30
0.0
 10
15.0082791557
 20
13.7098522679
 30
0.0
 10
15.0036819147
 20
13.708679966
 30
0.0
 10
14.9985618381
 20
13.7077973
 30
0.0
 10
14.9945796718
 20
13.7075517062
 30
0.0
 10
14.9918818849
 20
13.7075517062
 30
0.0
  0
SPLINE
  5
321
100
AcDbEntity
  8
0
100
AcDbSpline
 62
7
  6
CONTINUOUS
 70
0
 71
3
 72
9
 73
5
 74
0
 42
0.0000001
 43
0.0000001
 44
0.0000000001
 40
0.0
 40
0.0
 40
0.0
 40
0.0
 40
0.4886707973
 40
1.0
 40
1.0
 40
1.0
 40
1.0
 10
14.5370677423
 20
11.2981570398
 30
0.0
 10
14.5374907799
 20
11.2995168689
 30
0.0
 10
14.5387394213
 20
11.3021922372
 30
0.0
 10
14.540617539
 20
11.304461339
 30
0.0
 10
14.5416877829
 20
11.3054982138
 30
0.0
  0
SPLINE
  5
322
100
AcDbEntity
  8
0
100
AcDbSpline
 62
7
  6
CONTINUOUS
 70
0
 71
3
 72
13
 73
9
 74
0
 42
0.0000001
 43
0.0000001
 44
0.0000000001
 40
0.0
 40
0.0
 40
0.0
 40
0.0
 40
0.2118611957
 40
0.3271677156
 40
0.4491980767
 40
0.5780723294
 40
0.7133464278
 40
1.0
 40
1.0
 40
1.0
 40
1.0
 10
14.5416877829
 20
11.3054982138
 30
0.0
 10
14.54315993
 20
11.3069244607
 30
0.0
 10
14.5457742943
 20
11.3087886242
 30
0.0
 10
14.5496849256
 20
11.3106912002
 30
0.0
 10
14.5530187479
 20
11.3119105331
 30
0.0
 10
14.5566358312
 20
11.3128647706
 30
0.0
 10
14.5618865406
 20
11.3137991396
 30
0.0
 10
14.565978223
 20
11.3140582796
 30
0.0
 10
14.568751561
 20
11.3140582796
 30
0.0
  0
SPLINE
  5
323
100
AcDbEntity
  8
0
100
AcDbSpline
 62
7
  6
CONTINUOUS
 70
0
 71
3
 72
12
 73
8
 74
0
 42
0.0000001
 43
0.0000001
 44
0.0000000001
 40
0.0
 40
0.0
 40
0.0
 40
0.0
 40
0.2130270978
 40
0.4507150921
 40
0.5795693194
 40
0.7145575062
 40
1.0
 40
1.0
 40
1.0
 40
1.0
 10
15.4789905896
 20
13.7156563502
 30
0.0
 10
15.4775002128
 20
13.7143026736
 30
0.0
 10
15.4739307187
 20
13.7118861382
 30
0.0
 10
15.4688096527
 20
13.7098522679
 30
0.0
 10
15.4642124117
 20
13.708679966
 30
0.0
 10
15.4590923351
 20
13.7077973
 30
0.0
 10
15.4551101688
 20
13.7075517062
 30
0.0
 10
15.4524123819
 20
13.7075517062
 30
0.0
  0
SPLINE
  5
324
100
AcDbEntity
  8
0
100
AcDbSpline
 62
7
  6
CONTINUOUS
 70
0
 71
3
 72
9
 73
5
 74
0
 42
0.0000001
 43
0.0000001
 44
0.0000000001
 40
0.0
 40
0.0
 40
0.0
 40
0.0
 40
0.4886707973
 40
1.0
 40
1.0
 40
1.0
 40
1.0
 10
14.9975982393
 20
11.2981570398
 30
0.0
 10
14.9980212769
 20
11.2995168689
 30
0.0
 10
14.9992699183
 20
11.3021922372
 30
0.0
 10
15.001148036
 20
11.304461339
 30
0.0
 10
15.0022182799
 20
11.3054982138
 30
0.0
  0
SPLINE
  5
325
100
AcDbEntity
  8
0
100
AcDbSpline
 62
7
  6
CONTINUOUS
 70
0
 71
3
 72
13
 73
9
 74
0
 42
0.0000001
 43
0.0000001
 44
0.0000000001
 40
0.0
 40
0.0
 40
0.0
 40
0.0
 40
0.2118611957
 40
0.3271677156
 40
0.4491980767
 40
0.5780723294
 40
0.7133464278
 40
1.0
 40
1.0
 40
1.0
 40
1.0
 10
15.0022182799
 20
11.3054982138
 30
0.0
 10
15.003690427
 20
11.3069244607
 30
0.0
 10
15.0063047913
 20
11.3087886242
 30
0.0
 10
15.0102154226
 20
11.3106912002
 30
0.0
 10
15.0135492449
 20
11.3119105331
 30
0.0
 10
15.0171663282
 20
11.3128647706
 30
0.0
 10
15.0224170376
 20
11.3137991396
 30
0.0
 10
15.02650872
 20
11.3140582796
 30
0.0
 10
15.029282058
 20
11.3140582796
 30
0.0
  0
SPLINE
  5
326
100
AcDbEntity
  8
0
100
AcDbSpline
 62
7
  6
CONTINUOUS
 70
0
 71
3
 72
12
 73
8
 74
0
 42
0.0000001
 43
0.0000001
 44
0.0000000001
 40
0.0
 40
0.0
 40
0.0
 40
0.0
 40
0.2130270978
 40
0.4507150921
 40
0.5795693194
 40
0.7145575062
 40
1.0
 40
1.0
 40
1.0
 40
1.0
 10
15.9395210866
 20
13.7156563502
 30
0.0
 10
15.9380307098
 20
13.7143026736
 30
0.0
 10
15.9344612157
 20
13.7118861382
 30
0.0
 10
15.9293401497
 20
13.7098522679
 30
0.0
 10
15.9247429087
 20
13.708679966
 30
0.0
 10
15.9196228321
 20
13.7077973
 30
0.0
 10
15.9156406658
 20
13.7075517062
 30
0.0
 10
15.9129428789
 20
13.7075517062
 30
0.0
  0
SPLINE
  5
327
100
AcDbEntity
  8
0
100
AcDbSpline
 62
7
  6
CONTINUOUS
 70
0
 71
3
 72
9
 73
5
 74
0
 42
0.0000001
 43
0.0000001
 44
0.0000000001
 40
0.0
 40
0.0
 40
0.0
 40
0.0
 40
0.4886707973
 40
1.0
 40
1.0
 40
1.0
 40
1.0
 10
15.4581287363
 20
11.2981570398
 30
0.0
 10
15.458551774
 20
11.2995168689
 30
0.0
 10
15.4598004153
 20
11.3021922372
 30
0.0
 10
15.461678533
 20
11.304461339
 30
0.0
 10
15.4627487769
 20
11.3054982138
 30
0.0
  0
SPLINE
  5
328
100
AcDbEntity
  8
0
100
AcDbSpline
 62
7
  6
CONTINUOUS
 70
0
 71
3
 72
13
 73
9
 74
0
 42
0.0000001
 43
0.0000001
 44
0.0000000001
 40
0.0
 40
0.0
 40
0.0
 40
0.0
 40
0.2118611957
 40
0.3271677156
 40
0.4491980767
 40
0.5780723294
 40
0.7133464278
 40
1.0
 40
1.0
 40
1.0
 40
1.0
 10
15.4627487769
 20
11.3054982138
 30
0.0
 10
15.464220924
 20
11.3069244607
 30
0.0
 10
15.4668352883
 20
11.3087886242
 30
0.0
 10
15.4707459196
 20
11.3106912002
 30
0.0
 10
15.4740797419
 20
11.3119105331
 30
0.0
 10
15.4776968252
 20
11.3128647706
 30
0.0
 10
15.4829475346
 20
11.3137991396
 30
0.0
 10
15.487039217
 20
11.3140582796
 30
0.0
 10
15.489812555
 20
11.3140582796
 30
0.0
  0
SPLINE
  5
329
100
AcDbEntity
  8
0
100
AcDbSpline
 62
7
  6
CONTINUOUS
 70
0
 71
3
 72
12
 73
8
 74
0
 42
0.0000001
 43
0.0000001
 44
0.0000000001
 40
0.0
 40
0.0
 40
0.0
 40
0.0
 40
0.2130270978
 40
0.4507150921
 40
0.5795693194
 40
0.7145575062
 40
1.0
 40
1.0
 40
1.0
 40
1.0
 10
16.4000515836
 20
13.7156563502
 30
0.0
 10
16.3985612068
 20
13.7143026736
 30
0.0
 10
16.3949917127
 20
13.7118861382
 30
0.0
 10
16.3898706467
 20
13.7098522679
 30
0.0
 10
16.3852734057
 20
13.708679966
 30
0.0
 10
16.3801533291
 20
13.7077973
 30
0.0
 10
16.3761711628
 20
13.7075517062
 30
0.0
 10
16.3734733759
 20
13.7075517062
 30
0.0
  0
SPLINE
  5
32A
100
AcDbEntity
  8
0
100
AcDbSpline
 62
7
  6
CONTINUOUS
 70
0
 71
3
 72
9
 73
5
 74
0
 42
0.0000001
 43
0.0000001
 44
0.0000000001
 40
0.0
 40
0.0
 40
0.0
 40
0.0
 40
0.4886707973
 40
1.0
 40
1.0
 40
1.0
 40
1.0
 10
15.9186592333
 20
11.2981570398
 30
0.0
 10
15.919082271
 20
11.2995168689
 30
0.0
 10
15.9203309123
 20
11.3021922372
 30
0.0
 10
15.92220903
 20
11.304461339
 30
0.0
 10
15.9232792739
 20
11.3054982138
 30
0.0
  0
SPLINE
  5
32B
100
AcDbEntity
  8
0
100
AcDbSpline
 62
7
  6
CONTINUOUS
 70
0
 71
3
 72
13
 73
9
 74
0
 42
0.0000001
 43
0.0000001
 44
0.0000000001
 40
0.0
 40
0.0
 40
0.0
 40
0.0
 40
0.2118611957
 40
0.3271677156
 40
0.4491980767
 40
0.5780723294
 40
0.7133464278
 40
1.0
 40
1.0
 40
1.0
 40
1.0
 10
15.9232792739
 20
11.3054982138
 30
0.0
 10
15.924751421
 20
11.3069244607
 30
0.0
 10
15.9273657853
 20
11.3087886242
 30
0.0
 10
15.9312764167
 20
11.3106912002
 30
0.0
 10
15.9346102389
 20
11.3119105331
 30
0.0
 10
15.9382273222
 20
11.3128647706
 30
0.0
 10
15.9434780316
 20
11.3137991396
 30
0.0
 10
15.947569714
 20
11.3140582796
 30
0.0
 10
15.950343052
 20
11.3140582796
 30
0.0
  0
SPLINE
  5
32C
100
AcDbEntity
  8
0
100
AcDbSpline
 62
7
  6
CONTINUOUS
 70
0
 71
3
 72
12
 73
8
 74
0
 42
0.0000001
 43
0.0000001
 44
0.0000000001
 40
0.0
 40
0.0
 40
0.0
 40
0.0
 40
0.2129063219
 40
0.4504080461
 40
0.578957232
 40
0.713795517
 40
1.0
 40
1.0
 40
1.0
 40
1.0
 10
16.8606519446
 20
13.7157208848
 30
0.0
 10
16.8591623218
 20
13.7143580911
 30
0.0
 10
16.8555910402
 20
13.7119230119
 30
0.0
 10
16.8504625623
 20
13.7098734732
 30
0.0
 10
16.8458589579
 20
13.7086866025
 30
0.0
 10
16.8407195834
 20
13.7077948452
 30
0.0
 10
16.8367179033
 20
13.7075517062
 30
0.0
 10
16.8340038729
 20
13.7075517062
 30
0.0
  0
SPLINE
  5
32D
100
AcDbEntity
  8
0
100
AcDbSpline
 62
7
  6
CONTINUOUS
 70
0
 71
3
 72
9
 73
5
 74
0
 42
0.0000001
 43
0.0000001
 44
0.0000000001
 40
0.0
 40
0.0
 40
0.0
 40
0.0
 40
0.2483813714
 40
1.0
 40
1.0
 40
1.0
 40
1.0
 10
16.3791877056
 20
11.2981577032
 30
0.0
 10
16.3792913575
 20
11.2984927637
 30
0.0
 10
16.3797527064
 20
11.2998278159
 30
0.0
 10
16.3803911149
 20
11.3011009035
 30
0.0
 10
16.3809540234
 20
11.3020006475
 30
0.0
  0
SPLINE
  5
32E
100
AcDbEntity
  8
0
100
AcDbSpline
 62
7
  6
CONTINUOUS
 70
0
 71
3
 72
15
 73
11
 74
0
 42
0.0000001
 43
0.0000001
 44
0.0000000001
 40
0.0
 40
0.0
 40
0.0
 40
0.0
 40
0.1002094141
 40
0.2057752028
 40
0.3182902825
 40
0.4386528898
 40
0.5672541698
 40
0.7040721381
 40
0.8486831991
 40
1.0
 40
1.0
 40
1.0
 40
1.0
 10
16.3809540234
 20
11.3020006475
 30
0.0
 10
16.381548551
 20
11.302950931
 30
0.0
 10
16.3829663389
 20
11.3047843678
 30
0.0
 10
16.3856189228
 20
11.307182562
 30
0.0
 10
16.3888018782
 20
11.3092576785
 30
0.0
 10
16.3924680097
 20
11.3109889829
 30
0.0
 10
16.3965712124
 20
11.3123542616
 30
0.0
 10
16.4010583528
 20
11.3133399055
 30
0.0
 10
16.4058689233
 20
11.3139312274
 30
0.0
 10
16.4091809263
 20
11.3140582796
 30
0.0
 10
16.410873549
 20
11.3140582796
 30
0.0
  0
SPLINE
  5
32F
100
AcDbEntity
  8
0
100
AcDbSpline
 62
7
  6
CONTINUOUS
 70
0
 71
3
 72
15
 73
11
 74
0
 42
0.0000001
 43
0.0000001
 44
0.0000000001
 40
0.0
 40
0.0
 40
0.0
 40
0.0
 40
0.1222817011
 40
0.2489157101
 40
0.3780263748
 40
0.5079164659
 40
0.6367627405
 40
0.7627815246
 40
0.8844047757
 40
1.0
 40
1.0
 40
1.0
 40
1.0
 10
17.1157195886
 20
13.7075517062
 30
0.0
 10
17.1135120583
 20
13.7075517062
 30
0.0
 10
17.109016249
 20
13.707775526
 30
0.0
 10
17.1022494153
 20
13.7087198549
 30
0.0
 10
17.095452676
 20
13.7102645151
 30
0.0
 10
17.0887687814
 20
13.7123763775
 30
0.0
 10
17.0823329012
 20
13.7150101656
 30
0.0
 10
17.0762766586
 20
13.718114647
 30
0.0
 10
17.0707276145
 20
13.7216253589
 30
0.0
 10
17.0673423161
 20
13.7242633131
 30
0.0
 10
17.06577184
 20
13.7256375127
 30
0.0
  0
SPLINE
  5
330
100
AcDbEntity
  8
0
100
AcDbSpline
 62
7
  6
CONTINUOUS
 70
0
 71
3
 72
9
 73
5
 74
0
 42
0.0000001
 43
0.0000001
 44
0.0000000001
 40
0.0
 40
0.0
 40
0.0
 40
0.0
 40
0.2423988484
 40
1.0
 40
1.0
 40
1.0
 40
1.0
 10
17.052560997
 20
13.7375245051
 30
0.0
 10
17.0516535627
 20
13.7383644275
 30
0.0
 10
17.0478396885
 20
13.7417531585
 30
0.0
 10
17.043762833
 20
13.7448422493
 30
0.0
 10
17.0405707355
 20
13.7470206364
 30
0.0
  0
SPLINE
  5
331
100
AcDbEntity
  8
0
100
AcDbSpline
 62
7
  6
CONTINUOUS
 70
0
 71
3
 72
13
 73
9
 74
0
 42
0.0000001
 43
0.0000001
 44
0.0000000001
 40
0.0
 40
0.0
 40
0.0
 40
0.0
 40
0.1205724429
 40
0.2449984083
 40
0.5000359535
 40
0.7550549225
 40
0.8794582258
 40
1.0
 40
1.0
 40
1.0
 40
1.0
 10
17.0405707355
 20
13.7470206364
 30
0.0
 10
17.038691596
 20
13.74830302
 30
0.0
 10
17.0347610635
 20
13.7507477513
 30
0.0
 10
17.026383129
 20
13.7551025258
 30
0.0
 10
17.015176514
 20
13.7594349771
 30
0.0
 10
17.0034784777
 20
13.7621743979
 30
0.0
 10
16.9941050733
 20
13.7633002814
 30
0.0
 10
16.9894814402
 20
13.7634966034
 30
0.0
 10
16.9872070083
 20
13.7634966034
 30
0.0
  0
SPLINE
  5
332
100
AcDbEntity
  8
0
100
AcDbSpline
 62
7
  6
CONTINUOUS
 70
0
 71
3
 72
15
 73
11
 74
0
 42
0.0000001
 43
0.0000001
 44
0.0000000001
 40
0.0
 40
0.0
 40
0.0
 40
0.0
 40
0.1533512302
 40
0.2992405476
 40
0.4366039312
 40
0.5650532778
 40
0.6846259244
 40
0.7959435865
 40
0.9004117086
 40
1.0
 40
1.0
 40
1.0
 40
1.0
 10
16.9076089172
 20
13.7634966034
 30
0.0
 10
16.9054257688
 20
13.7634966034
 30
0.0
 10
16.9011630028
 20
13.7633228104
 30
0.0
 10
16.8949919172
 20
13.7625073364
 30
0.0
 10
16.8892780293
 20
13.7611513521
 30
0.0
 10
16.8841081865
 20
13.7592735053
 30
0.0
 10
16.8795572765
 20
13.7568997049
 30
0.0
 10
16.8756947691
 20
13.754055984
 30
0.0
 10
16.8725882033
 20
13.7507798702
 30
0.0
 10
16.8710331949
 20
13.7482968405
 30
0.0
 10
16.8704156505
 20
13.7470206364
 30
0.0
  0
SPLINE
  5
333
100
AcDbEntity
  8
0
100
AcDbSpline
 62
7
  6
CONTINUOUS
 70
0
 71
3
 72
13
 73
9
 74
0
 42
0.0000001
 43
0.0000001
 44
0.0000000001
 40
0.0
 40
0.0
 40
0.0
 40
0.0
 40
0.1220777926
 40
0.2488756815
 40
0.5079295526
 40
0.7628129667
 40
0.884590511
 40
1.0
 40
1.0
 40
1.0
 40
1.0
 10
16.6551890916
 20
13.7075517062
 30
0.0
 10
16.6529862995
 20
13.7075517062
 30
0.0
 10
16.6484933092
 20
13.7077791022
 30
0.0
 10
16.63940699
 20
13.709045506
 30
0.0
 10
16.6281952511
 20
13.7120881072
 30
0.0
 10
16.6177056833
 20
13.7168786159
 30
0.0
 10
16.6101943562
 20
13.7216328036
 30
0.0
 10
16.6068085436
 20
13.7242661792
 30
0.0
 10
16.605241343
 20
13.7256375127
 30
0.0
  0
SPLINE
  5
334
100
AcDbEntity
  8
0
100
AcDbSpline
 62
7
  6
CONTINUOUS
 70
0
 71
3
 72
9
 73
5
 74
0
 42
0.0000001
 43
0.0000001
 44
0.0000000001
 40
0.0
 40
0.0
 40
0.0
 40
0.0
 40
0.2423988484
 40
1.0
 40
1.0
 40
1.0
 40
1.0
 10
16.5920305
 20
13.7375245051
 30
0.0
 10
16.5911230657
 20
13.7383644275
 30
0.0
 10
16.5873091915
 20
13.7417531585
 30
0.0
 10
16.5832323359
 20
13.7448422493
 30
0.0
 10
16.5800402385
 20
13.7470206364
 30
0.0
  0
SPLINE
  5
335
100
AcDbEntity
  8
0
100
AcDbSpline
 62
7
  6
CONTINUOUS
 70
0
 71
3
 72
13
 73
9
 74
0
 42
0.0000001
 43
0.0000001
 44
0.0000000001
 40
0.0
 40
0.0
 40
0.0
 40
0.0
 40
0.1203837678
 40
0.2448858705
 40
0.5000359659
 40
0.7551674118
 40
0.8796468281
 40
1.0
 40
1.0
 40
1.0
 40
1.0
 10
16.5800402385
 20
13.7470206364
 30
0.0
 10
16.5781640598
 20
13.7483009994
 30
0.0
 10
16.574234058
 20
13.7507424857
 30
0.0
 10
16.565857071
 20
13.7550984185
 30
0.0
 10
16.5546470952
 20
13.7594384667
 30
0.0
 10
16.5429420008
 20
13.7621735078
 30
0.0
 10
16.5335687265
 20
13.7632978994
 30
0.0
 10
16.52894736
 20
13.7634966034
 30
0.0
 10
16.5266765113
 20
13.7634966034
 30
0.0
  0
SPLINE
  5
336
100
AcDbEntity
  8
0
100
AcDbSpline
 62
7
  6
CONTINUOUS
 70
0
 71
3
 72
14
 73
10
 74
0
 42
0.0000001
 43
0.0000001
 44
0.0000000001
 40
0.0
 40
0.0
 40
0.0
 40
0.0
 40
0.1531472932
 40
0.2992080596
 40
0.5648862678
 40
0.6844913334
 40
0.79594362
 40
0.9005209355
 40
1.0
 40
1.0
 40
1.0
 40
1.0
 10
16.4470784202
 20
13.7634966034
 30
0.0
 10
16.4448992216
 20
13.7634966034
 30
0.0
 10
16.4406375989
 20
13.763320328
 30
0.0
 10
16.4326652408
 20
13.7622673126
 30
0.0
 10
16.4253120662
 20
13.7601791849
 30
0.0
 10
16.4190248837
 20
13.7569009325
 30
0.0
 10
16.4151642858
 20
13.7540510382
 30
0.0
 10
16.4120593451
 20
13.750774645
 30
0.0
 10
16.4105017245
 20
13.7482948288
 30
0.0
 10
16.4098851535
 20
13.7470206364
 30
0.0
  0
SPLINE
  5
337
100
AcDbEntity
  8
0
100
AcDbSpline
 62
7
  6
CONTINUOUS
 70
0
 71
3
 72
13
 73
9
 74
0
 42
0.0000001
 43
0.0000001
 44
0.0000000001
 40
0.0
 40
0.0
 40
0.0
 40
0.0
 40
0.1220777926
 40
0.2488756815
 40
0.5079295526
 40
0.7628129667
 40
0.884590511
 40
1.0
 40
1.0
 40
1.0
 40
1.0
 10
16.1946585946
 20
13.7075517062
 30
0.0
 10
16.1924558025
 20
13.7075517062
 30
0.0
 10
16.1879628122
 20
13.7077791022
 30
0.0
 10
16.178876493
 20
13.709045506
 30
0.0
 10
16.1676647541
 20
13.7120881072
 30
0.0
 10
16.1571751863
 20
13.7168786159
 30
0.0
 10
16.1496638592
 20
13.7216328036
 30
0.0
 10
16.1462780466
 20
13.7242661792
 30
0.0
 10
16.144710846
 20
13.7256375127
 30
0.0
  0
SPLINE
  5
338
100
AcDbEntity
  8
0
100
AcDbSpline
 62
7
  6
CONTINUOUS
 70
0
 71
3
 72
9
 73
5
 74
0
 42
0.0000001
 43
0.0000001
 44
0.0000000001
 40
0.0
 40
0.0
 40
0.0
 40
0.0
 40
0.2423988484
 40
1.0
 40
1.0
 40
1.0
 40
1.0
 10
16.131500003
 20
13.7375245051
 30
0.0
 10
16.1305925687
 20
13.7383644275
 30
0.0
 10
16.1267786945
 20
13.7417531585
 30
0.0
 10
16.1227018389
 20
13.7448422493
 30
0.0
 10
16.1195097415
 20
13.7470206364
 30
0.0
  0
SPLINE
  5
339
100
AcDbEntity
  8
0
100
AcDbSpline
 62
7
  6
CONTINUOUS
 70
0
 71
3
 72
13
 73
9
 74
0
 42
0.0000001
 43
0.0000001
 44
0.0000000001
 40
0.0
 40
0.0
 40
0.0
 40
0.0
 40
0.1203837678
 40
0.2448858705
 40
0.5000359659
 40
0.7551674118
 40
0.8796468281
 40
1.0
 40
1.0
 40
1.0
 40
1.0
 10
16.1195097415
 20
13.7470206364
 30
0.0
 10
16.1176335628
 20
13.7483009994
 30
0.0
 10
16.113703561
 20
13.7507424857
 30
0.0
 10
16.105326574
 20
13.7550984185
 30
0.0
 10
16.0941165982
 20
13.7594384667
 30
0.0
 10
16.0824115038
 20
13.7621735078
 30
0.0
 10
16.0730382295
 20
13.7632978994
 30
0.0
 10
16.068416863
 20
13.7634966034
 30
0.0
 10
16.0661460143
 20
13.7634966034
 30
0.0
  0
SPLINE
  5
33A
100
AcDbEntity
  8
0
100
AcDbSpline
 62
7
  6
CONTINUOUS
 70
0
 71
3
 72
14
 73
10
 74
0
 42
0.0000001
 43
0.0000001
 44
0.0000000001
 40
0.0
 40
0.0
 40
0.0
 40
0.0
 40
0.1531472932
 40
0.2992080596
 40
0.5648862678
 40
0.6844913334
 40
0.79594362
 40
0.9005209355
 40
1.0
 40
1.0
 40
1.0
 40
1.0
 10
15.9865479232
 20
13.7634966034
 30
0.0
 10
15.9843687246
 20
13.7634966034
 30
0.0
 10
15.9801071019
 20
13.763320328
 30
0.0
 10
15.9721347438
 20
13.7622673126
 30
0.0
 10
15.9647815692
 20
13.7601791849
 30
0.0
 10
15.9584943867
 20
13.7569009325
 30
0.0
 10
15.9546337888
 20
13.7540510382
 30
0.0
 10
15.9515288481
 20
13.750774645
 30
0.0
 10
15.9499712275
 20
13.7482948288
 30
0.0
 10
15.9493546565
 20
13.7470206364
 30
0.0
  0
SPLINE
  5
33B
100
AcDbEntity
  8
0
100
AcDbSpline
 62
7
  6
CONTINUOUS
 70
0
 71
3
 72
13
 73
9
 74
0
 42
0.0000001
 43
0.0000001
 44
0.0000000001
 40
0.0
 40
0.0
 40
0.0
 40
0.0
 40
0.1220777926
 40
0.2488756815
 40
0.5079295526
 40
0.7628129667
 40
0.884590511
 40
1.0
 40
1.0
 40
1.0
 40
1.0
 10
15.7341280976
 20
13.7075517062
 30
0.0
 10
15.7319253055
 20
13.7075517062
 30
0.0
 10
15.7274323152
 20
13.7077791022
 30
0.0
 10
15.718345996
 20
13.709045506
 30
0.0
 10
15.7071342571
 20
13.7120881072
 30
0.0
 10
15.6966446893
 20
13.7168786159
 30
0.0
 10
15.6891333622
 20
13.7216328036
 30
0.0
 10
15.6857475496
 20
13.7242661792
 30
0.0
 10
15.684180349
 20
13.7256375127
 30
0.0
  0
SPLINE
  5
33C
100
AcDbEntity
  8
0
100
AcDbSpline
 62
7
  6
CONTINUOUS
 70
0
 71
3
 72
9
 73
5
 74
0
 42
0.0000001
 43
0.0000001
 44
0.0000000001
 40
0.0
 40
0.0
 40
0.0
 40
0.0
 40
0.2423988484
 40
1.0
 40
1.0
 40
1.0
 40
1.0
 10
15.670969506
 20
13.7375245051
 30
0.0
 10
15.6700620717
 20
13.7383644275
 30
0.0
 10
15.6662481975
 20
13.7417531585
 30
0.0
 10
15.6621713419
 20
13.7448422493
 30
0.0
 10
15.6589792445
 20
13.7470206364
 30
0.0
  0
SPLINE
  5
33D
100
AcDbEntity
  8
0
100
AcDbSpline
 62
7
  6
CONTINUOUS
 70
0
 71
3
 72
13
 73
9
 74
0
 42
0.0000001
 43
0.0000001
 44
0.0000000001
 40
0.0
 40
0.0
 40
0.0
 40
0.0
 40
0.1203837678
 40
0.2448858705
 40
0.5000359659
 40
0.7551674118
 40
0.8796468281
 40
1.0
 40
1.0
 40
1.0
 40
1.0
 10
15.6589792445
 20
13.7470206364
 30
0.0
 10
15.6571030658
 20
13.7483009994
 30
0.0
 10
15.653173064
 20
13.7507424857
 30
0.0
 10
15.644796077
 20
13.7550984185
 30
0.0
 10
15.6335861012
 20
13.7594384667
 30
0.0
 10
15.6218810068
 20
13.7621735078
 30
0.0
 10
15.6125077325
 20
13.7632978994
 30
0.0
 10
15.607886366
 20
13.7634966034
 30
0.0
 10
15.6056155173
 20
13.7634966034
 30
0.0
  0
SPLINE
  5
33E
100
AcDbEntity
  8
0
100
AcDbSpline
 62
7
  6
CONTINUOUS
 70
0
 71
3
 72
14
 73
10
 74
0
 42
0.0000001
 43
0.0000001
 44
0.0000000001
 40
0.0
 40
0.0
 40
0.0
 40
0.0
 40
0.1531472932
 40
0.2992080596
 40
0.5648862678
 40
0.6844913334
 40
0.79594362
 40
0.9005209355
 40
1.0
 40
1.0
 40
1.0
 40
1.0
 10
15.5260174262
 20
13.7634966034
 30
0.0
 10
15.5238382276
 20
13.7634966034
 30
0.0
 10
15.5195766049
 20
13.763320328
 30
0.0
 10
15.5116042468
 20
13.7622673126
 30
0.0
 10
15.5042510722
 20
13.7601791849
 30
0.0
 10
15.4979638897
 20
13.7569009325
 30
0.0
 10
15.4941032918
 20
13.7540510382
 30
0.0
 10
15.4909983511
 20
13.750774645
 30
0.0
 10
15.4894407305
 20
13.7482948288
 30
0.0
 10
15.4888241595
 20
13.7470206364
 30
0.0
  0
SPLINE
  5
33F
100
AcDbEntity
  8
0
100
AcDbSpline
 62
7
  6
CONTINUOUS
 70
0
 71
3
 72
13
 73
9
 74
0
 42
0.0000001
 43
0.0000001
 44
0.0000000001
 40
0.0
 40
0.0
 40
0.0
 40
0.0
 40
0.1220777926
 40
0.2488756815
 40
0.5079295526
 40
0.7628129667
 40
0.884590511
 40
1.0
 40
1.0
 40
1.0
 40
1.0
 10
15.2735976006
 20
13.7075517062
 30
0.0
 10
15.2713948085
 20
13.7075517062
 30
0.0
 10
15.2669018182
 20
13.7077791022
 30
0.0
 10
15.257815499
 20
13.709045506
 30
0.0
 10
15.2466037601
 20
13.7120881072
 30
0.0
 10
15.2361141923
 20
13.7168786159
 30
0.0
 10
15.2286028652
 20
13.7216328036
 30
0.0
 10
15.2252170526
 20
13.7242661792
 30
0.0
 10
15.223649852
 20
13.7256375127
 30
0.0
  0
SPLINE
  5
340
100
AcDbEntity
  8
0
100
AcDbSpline
 62
7
  6
CONTINUOUS
 70
0
 71
3
 72
9
 73
5
 74
0
 42
0.0000001
 43
0.0000001
 44
0.0000000001
 40
0.0
 40
0.0
 40
0.0
 40
0.0
 40
0.2423988484
 40
1.0
 40
1.0
 40
1.0
 40
1.0
 10
15.210439009
 20
13.7375245051
 30
0.0
 10
15.2095315747
 20
13.7383644275
 30
0.0
 10
15.2057177005
 20
13.7417531585
 30
0.0
 10
15.2016408449
 20
13.7448422493
 30
0.0
 10
15.1984487475
 20
13.7470206364
 30
0.0
  0
SPLINE
  5
341
100
AcDbEntity
  8
0
100
AcDbSpline
 62
7
  6
CONTINUOUS
 70
0
 71
3
 72
13
 73
9
 74
0
 42
0.0000001
 43
0.0000001
 44
0.0000000001
 40
0.0
 40
0.0
 40
0.0
 40
0.0
 40
0.1203837678
 40
0.2448858705
 40
0.5000359659
 40
0.7551674118
 40
0.8796468281
 40
1.0
 40
1.0
 40
1.0
 40
1.0
 10
15.1984487475
 20
13.7470206364
 30
0.0
 10
15.1965725688
 20
13.7483009994
 30
0.0
 10
15.192642567
 20
13.7507424857
 30
0.0
 10
15.18426558
 20
13.7550984185
 30
0.0
 10
15.1730556042
 20
13.7594384667
 30
0.0
 10
15.1613505098
 20
13.7621735078
 30
0.0
 10
15.1519772355
 20
13.7632978994
 30
0.0
 10
15.147355869
 20
13.7634966034
 30
0.0
 10
15.1450850203
 20
13.7634966034
 30
0.0
  0
SPLINE
  5
342
100
AcDbEntity
  8
0
100
AcDbSpline
 62
7
  6
CONTINUOUS
 70
0
 71
3
 72
14
 73
10
 74
0
 42
0.0000001
 43
0.0000001
 44
0.0000000001
 40
0.0
 40
0.0
 40
0.0
 40
0.0
 40
0.1531472932
 40
0.2992080596
 40
0.5648862678
 40
0.6844913334
 40
0.79594362
 40
0.9005209355
 40
1.0
 40
1.0
 40
1.0
 40
1.0
 10
15.0654869292
 20
13.7634966034
 30
0.0
 10
15.0633077306
 20
13.7634966034
 30
0.0
 10
15.0590461079
 20
13.763320328
 30
0.0
 10
15.0510737498
 20
13.7622673126
 30
0.0
 10
15.0437205752
 20
13.7601791849
 30
0.0
 10
15.0374333927
 20
13.7569009325
 30
0.0
 10
15.0335727947
 20
13.7540510382
 30
0.0
 10
15.0304678541
 20
13.750774645
 30
0.0
 10
15.0289102335
 20
13.7482948288
 30
0.0
 10
15.0282936625
 20
13.7470206364
 30
0.0
  0
SPLINE
  5
343
100
AcDbEntity
  8
0
100
AcDbSpline
 62
7
  6
CONTINUOUS
 70
0
 71
3
 72
14
 73
10
 74
0
 42
0.0000001
 43
0.0000001
 44
0.0000000001
 40
0.0
 40
0.0
 40
0.0
 40
0.0
 40
0.1531472932
 40
0.2992080596
 40
0.5648862678
 40
0.6844913334
 40
0.79594362
 40
0.9005209355
 40
1.0
 40
1.0
 40
1.0
 40
1.0
 10
14.0346160197
 20
11.2581133824
 30
0.0
 10
14.0367952184
 20
11.2581133824
 30
0.0
 10
14.041056841
 20
11.2582896579
 30
0.0
 10
14.0490291991
 20
11.2593426732
 30
0.0
 10
14.0563823737
 20
11.2614308009
 30
0.0
 10
14.0626695562
 20
11.2647090533
 30
0.0
 10
14.0665301542
 20
11.2675589476
 30
0.0
 10
14.0696350948
 20
11.2708353409
 30
0.0
 10
14.0711927154
 20
11.273315157
 30
0.0
 10
14.0718092864
 20
11.2745893494
 30
0.0
  0
SPLINE
  5
344
100
AcDbEntity
  8
0
100
AcDbSpline
 62
7
  6
CONTINUOUS
 70
0
 71
3
 72
13
 73
9
 74
0
 42
0.0000001
 43
0.0000001
 44
0.0000000001
 40
0.0
 40
0.0
 40
0.0
 40
0.0
 40
0.1203837678
 40
0.2448858705
 40
0.5000359659
 40
0.7551674118
 40
0.8796468281
 40
1.0
 40
1.0
 40
1.0
 40
1.0
 10
13.9016542015
 20
11.2745893494
 30
0.0
 10
13.9035303802
 20
11.2733089864
 30
0.0
 10
13.907460382
 20
11.2708675001
 30
0.0
 10
13.9158373689
 20
11.2665115674
 30
0.0
 10
13.9270473448
 20
11.2621715192
 30
0.0
 10
13.9387524392
 20
11.259436478
 30
0.0
 10
13.9481257135
 20
11.2583120864
 30
0.0
 10
13.9527470799
 20
11.2581133824
 30
0.0
 10
13.9550179286
 20
11.2581133824
 30
0.0
  0
SPLINE
  5
345
100
AcDbEntity
  8
0
100
AcDbSpline
 62
7
  6
CONTINUOUS
 70
0
 71
3
 72
9
 73
5
 74
0
 42
0.0000001
 43
0.0000001
 44
0.0000000001
 40
0.0
 40
0.0
 40
0.0
 40
0.0
 40
0.2423988484
 40
1.0
 40
1.0
 40
1.0
 40
1.0
 10
13.88966394
 20
11.2840854807
 30
0.0
 10
13.8905713742
 20
11.2832455583
 30
0.0
 10
13.8943852485
 20
11.2798568273
 30
0.0
 10
13.898462104
 20
11.2767677365
 30
0.0
 10
13.9016542015
 20
11.2745893494
 30
0.0
  0
SPLINE
  5
346
100
AcDbEntity
  8
0
100
AcDbSpline
 62
7
  6
CONTINUOUS
 70
0
 71
3
 72
13
 73
9
 74
0
 42
0.0000001
 43
0.0000001
 44
0.0000000001
 40
0.0
 40
0.0
 40
0.0
 40
0.0
 40
0.1220777926
 40
0.2488756815
 40
0.5079295526
 40
0.7628129667
 40
0.884590511
 40
1.0
 40
1.0
 40
1.0
 40
1.0
 10
13.8265053484
 20
11.3140582796
 30
0.0
 10
13.8287081404
 20
11.3140582796
 30
0.0
 10
13.8332011308
 20
11.3138308836
 30
0.0
 10
13.8422874499
 20
11.3125644798
 30
0.0
 10
13.8534991888
 20
11.3095218786
 30
0.0
 10
13.8639887566
 20
11.30473137
 30
0.0
 10
13.8715000837
 20
11.2999771822
 30
0.0
 10
13.8748858964
 20
11.2973438066
 30
0.0
 10
13.8764530969
 20
11.2959724731
 30
0.0
  0
SPLINE
  5
347
100
AcDbEntity
  8
0
100
AcDbSpline
 62
7
  6
CONTINUOUS
 70
0
 71
3
 72
15
 73
11
 74
0
 42
0.0000001
 43
0.0000001
 44
0.0000000001
 40
0.0
 40
0.0
 40
0.0
 40
0.0
 40
0.1533512302
 40
0.2992405476
 40
0.4366039312
 40
0.5650532778
 40
0.6846259244
 40
0.7959435865
 40
0.9004117086
 40
1.0
 40
1.0
 40
1.0
 40
1.0
 10
16.3372685047
 20
11.2581133824
 30
0.0
 10
16.3394516532
 20
11.2581133824
 30
0.0
 10
16.3437144191
 20
11.2582871754
 30
0.0
 10
16.3498855048
 20
11.2591026494
 30
0.0
 10
16.3555993927
 20
11.2604586337
 30
0.0
 10
16.3607692355
 20
11.2623364805
 30
0.0
 10
16.3653201454
 20
11.2647102809
 30
0.0
 10
16.3691826528
 20
11.2675540018
 30
0.0
 10
16.3722892186
 20
11.2708301156
 30
0.0
 10
16.373844227
 20
11.2733131453
 30
0.0
 10
16.3744617714
 20
11.2745893494
 30
0.0
  0
SPLINE
  5
348
100
AcDbEntity
  8
0
100
AcDbSpline
 62
7
  6
CONTINUOUS
 70
0
 71
3
 72
13
 73
9
 74
0
 42
0.0000001
 43
0.0000001
 44
0.0000000001
 40
0.0
 40
0.0
 40
0.0
 40
0.0
 40
0.1205724429
 40
0.2449984083
 40
0.5000359535
 40
0.7550549225
 40
0.8794582258
 40
1.0
 40
1.0
 40
1.0
 40
1.0
 10
16.2043066865
 20
11.2745893494
 30
0.0
 10
16.206185826
 20
11.2733069658
 30
0.0
 10
16.2101163584
 20
11.2708622345
 30
0.0
 10
16.218494293
 20
11.2665074601
 30
0.0
 10
16.229700908
 20
11.2621750087
 30
0.0
 10
16.2413989442
 20
11.2594355879
 30
0.0
 10
16.2507723486
 20
11.2583097044
 30
0.0
 10
16.2553959818
 20
11.2581133824
 30
0.0
 10
16.2576704136
 20
11.2581133824
 30
0.0
  0
SPLINE
  5
349
100
AcDbEntity
  8
0
100
AcDbSpline
 62
7
  6
CONTINUOUS
 70
0
 71
3
 72
9
 73
5
 74
0
 42
0.0000001
 43
0.0000001
 44
0.0000000001
 40
0.0
 40
0.0
 40
0.0
 40
0.0
 40
0.2423988484
 40
1.0
 40
1.0
 40
1.0
 40
1.0
 10
16.192316425
 20
11.2840854807
 30
0.0
 10
16.1932238592
 20
11.2832455583
 30
0.0
 10
16.1970377335
 20
11.2798568273
 30
0.0
 10
16.201114589
 20
11.2767677365
 30
0.0
 10
16.2043066865
 20
11.2745893494
 30
0.0
  0
SPLINE
  5
34A
100
AcDbEntity
  8
0
100
AcDbSpline
 62
7
  6
CONTINUOUS
 70
0
 71
3
 72
15
 73
11
 74
0
 42
0.0000001
 43
0.0000001
 44
0.0000000001
 40
0.0
 40
0.0
 40
0.0
 40
0.0
 40
0.1222817011
 40
0.2489157101
 40
0.3780263748
 40
0.5079164659
 40
0.6367627405
 40
0.7627815246
 40
0.8844047757
 40
1.0
 40
1.0
 40
1.0
 40
1.0
 10
16.1291578334
 20
11.3140582796
 30
0.0
 10
16.1313653637
 20
11.3140582796
 30
0.0
 10
16.135861173
 20
11.3138344598
 30
0.0
 10
16.1426280066
 20
11.3128901309
 30
0.0
 10
16.149424746
 20
11.3113454707
 30
0.0
 10
16.1561086406
 20
11.3092336084
 30
0.0
 10
16.1625445207
 20
11.3065998202
 30
0.0
 10
16.1686007634
 20
11.3034953388
 30
0.0
 10
16.1741498075
 20
11.299984627
 30
0.0
 10
16.1775351059
 20
11.2973466727
 30
0.0
 10
16.1791055819
 20
11.2959724731
 30
0.0
  0
SPLINE
  5
34B
100
AcDbEntity
  8
0
100
AcDbSpline
 62
7
  6
CONTINUOUS
 70
0
 71
3
 72
14
 73
10
 74
0
 42
0.0000001
 43
0.0000001
 44
0.0000000001
 40
0.0
 40
0.0
 40
0.0
 40
0.0
 40
0.1531472932
 40
0.2992080596
 40
0.5648862678
 40
0.6844913334
 40
0.79594362
 40
0.9005209355
 40
1.0
 40
1.0
 40
1.0
 40
1.0
 10
15.8767380077
 20
11.2581133824
 30
0.0
 10
15.8789172064
 20
11.2581133824
 30
0.0
 10
15.883178829
 20
11.2582896579
 30
0.0
 10
15.8911511871
 20
11.2593426732
 30
0.0
 10
15.8985043617
 20
11.2614308009
 30
0.0
 10
15.9047915442
 20
11.2647090533
 30
0.0
 10
15.9086521422
 20
11.2675589476
 30
0.0
 10
15.9117570828
 20
11.2708353409
 30
0.0
 10
15.9133147034
 20
11.273315157
 30
0.0
 10
15.9139312744
 20
11.2745893494
 30
0.0
  0
SPLINE
  5
34C
100
AcDbEntity
  8
0
100
AcDbSpline
 62
7
  6
CONTINUOUS
 70
0
 71
3
 72
13
 73
9
 74
0
 42
0.0000001
 43
0.0000001
 44
0.0000000001
 40
0.0
 40
0.0
 40
0.0
 40
0.0
 40
0.1203837678
 40
0.2448858705
 40
0.5000359659
 40
0.7551674118
 40
0.8796468281
 40
1.0
 40
1.0
 40
1.0
 40
1.0
 10
15.7437761895
 20
11.2745893494
 30
0.0
 10
15.7456523682
 20
11.2733089864
 30
0.0
 10
15.74958237
 20
11.2708675001
 30
0.0
 10
15.757959357
 20
11.2665115674
 30
0.0
 10
15.7691693328
 20
11.2621715192
 30
0.0
 10
15.7808744272
 20
11.259436478
 30
0.0
 10
15.7902477015
 20
11.2583120864
 30
0.0
 10
15.7948690679
 20
11.2581133824
 30
0.0
 10
15.7971399166
 20
11.2581133824
 30
0.0
  0
SPLINE
  5
34D
100
AcDbEntity
  8
0
100
AcDbSpline
 62
7
  6
CONTINUOUS
 70
0
 71
3
 72
9
 73
5
 74
0
 42
0.0000001
 43
0.0000001
 44
0.0000000001
 40
0.0
 40
0.0
 40
0.0
 40
0.0
 40
0.2423988484
 40
1.0
 40
1.0
 40
1.0
 40
1.0
 10
15.731785928
 20
11.2840854807
 30
0.0
 10
15.7326933622
 20
11.2832455583
 30
0.0
 10
15.7365072365
 20
11.2798568273
 30
0.0
 10
15.740584092
 20
11.2767677365
 30
0.0
 10
15.7437761895
 20
11.2745893494
 30
0.0
  0
SPLINE
  5
34E
100
AcDbEntity
  8
0
100
AcDbSpline
 62
7
  6
CONTINUOUS
 70
0
 71
3
 72
13
 73
9
 74
0
 42
0.0000001
 43
0.0000001
 44
0.0000000001
 40
0.0
 40
0.0
 40
0.0
 40
0.0
 40
0.1220777926
 40
0.2488756815
 40
0.5079295526
 40
0.7628129667
 40
0.884590511
 40
1.0
 40
1.0
 40
1.0
 40
1.0
 10
15.6686273364
 20
11.3140582796
 30
0.0
 10
15.6708301284
 20
11.3140582796
 30
0.0
 10
15.6753231188
 20
11.3138308836
 30
0.0
 10
15.684409438
 20
11.3125644798
 30
0.0
 10
15.6956211768
 20
11.3095218786
 30
0.0
 10
15.7061107447
 20
11.30473137
 30
0.0
 10
15.7136220717
 20
11.2999771822
 30
0.0
 10
15.7170078844
 20
11.2973438066
 30
0.0
 10
15.7185750849
 20
11.2959724731
 30
0.0
  0
SPLINE
  5
34F
100
AcDbEntity
  8
0
100
AcDbSpline
 62
7
  6
CONTINUOUS
 70
0
 71
3
 72
14
 73
10
 74
0
 42
0.0000001
 43
0.0000001
 44
0.0000000001
 40
0.0
 40
0.0
 40
0.0
 40
0.0
 40
0.1531472932
 40
0.2992080596
 40
0.5648862678
 40
0.6844913334
 40
0.79594362
 40
0.9005209355
 40
1.0
 40
1.0
 40
1.0
 40
1.0
 10
15.4162075107
 20
11.2581133824
 30
0.0
 10
15.4183867094
 20
11.2581133824
 30
0.0
 10
15.422648332
 20
11.2582896579
 30
0.0
 10
15.4306206901
 20
11.2593426732
 30
0.0
 10
15.4379738647
 20
11.2614308009
 30
0.0
 10
15.4442610472
 20
11.2647090533
 30
0.0
 10
15.4481216452
 20
11.2675589476
 30
0.0
 10
15.4512265858
 20
11.2708353409
 30
0.0
 10
15.4527842064
 20
11.273315157
 30
0.0
 10
15.4534007774
 20
11.2745893494
 30
0.0
  0
SPLINE
  5
350
100
AcDbEntity
  8
0
100
AcDbSpline
 62
7
  6
CONTINUOUS
 70
0
 71
3
 72
13
 73
9
 74
0
 42
0.0000001
 43
0.0000001
 44
0.0000000001
 40
0.0
 40
0.0
 40
0.0
 40
0.0
 40
0.1203837678
 40
0.2448858705
 40
0.5000359659
 40
0.7551674118
 40
0.8796468281
 40
1.0
 40
1.0
 40
1.0
 40
1.0
 10
15.2832456925
 20
11.2745893494
 30
0.0
 10
15.2851218712
 20
11.2733089864
 30
0.0
 10
15.289051873
 20
11.2708675001
 30
0.0
 10
15.29742886
 20
11.2665115674
 30
0.0
 10
15.3086388358
 20
11.2621715192
 30
0.0
 10
15.3203439302
 20
11.259436478
 30
0.0
 10
15.3297172045
 20
11.2583120864
 30
0.0
 10
15.3343385709
 20
11.2581133824
 30
0.0
 10
15.3366094196
 20
11.2581133824
 30
0.0
  0
SPLINE
  5
351
100
AcDbEntity
  8
0
100
AcDbSpline
 62
7
  6
CONTINUOUS
 70
0
 71
3
 72
9
 73
5
 74
0
 42
0.0000001
 43
0.0000001
 44
0.0000000001
 40
0.0
 40
0.0
 40
0.0
 40
0.0
 40
0.2423988484
 40
1.0
 40
1.0
 40
1.0
 40
1.0
 10
15.271255431
 20
11.2840854807
 30
0.0
 10
15.2721628652
 20
11.2832455583
 30
0.0
 10
15.2759767395
 20
11.2798568273
 30
0.0
 10
15.280053595
 20
11.2767677365
 30
0.0
 10
15.2832456925
 20
11.2745893494
 30
0.0
  0
SPLINE
  5
352
100
AcDbEntity
  8
0
100
AcDbSpline
 62
7
  6
CONTINUOUS
 70
0
 71
3
 72
13
 73
9
 74
0
 42
0.0000001
 43
0.0000001
 44
0.0000000001
 40
0.0
 40
0.0
 40
0.0
 40
0.0
 40
0.1220777926
 40
0.2488756815
 40
0.5079295526
 40
0.7628129667
 40
0.884590511
 40
1.0
 40
1.0
 40
1.0
 40
1.0
 10
15.2080968394
 20
11.3140582796
 30
0.0
 10
15.2102996314
 20
11.3140582796
 30
0.0
 10
15.2147926218
 20
11.3138308836
 30
0.0
 10
15.223878941
 20
11.3125644798
 30
0.0
 10
15.2350906798
 20
11.3095218786
 30
0.0
 10
15.2455802477
 20
11.30473137
 30
0.0
 10
15.2530915747
 20
11.2999771822
 30
0.0
 10
15.2564773874
 20
11.2973438066
 30
0.0
 10
15.2580445879
 20
11.2959724731
 30
0.0
  0
SPLINE
  5
353
100
AcDbEntity
  8
0
100
AcDbSpline
 62
7
  6
CONTINUOUS
 70
0
 71
3
 72
14
 73
10
 74
0
 42
0.0000001
 43
0.0000001
 44
0.0000000001
 40
0.0
 40
0.0
 40
0.0
 40
0.0
 40
0.1531472932
 40
0.2992080596
 40
0.5648862678
 40
0.6844913334
 40
0.79594362
 40
0.9005209355
 40
1.0
 40
1.0
 40
1.0
 40
1.0
 10
14.9556770137
 20
11.2581133824
 30
0.0
 10
14.9578562124
 20
11.2581133824
 30
0.0
 10
14.962117835
 20
11.2582896579
 30
0.0
 10
14.9700901931
 20
11.2593426732
 30
0.0
 10
14.9774433677
 20
11.2614308009
 30
0.0
 10
14.9837305502
 20
11.2647090533
 30
0.0
 10
14.9875911482
 20
11.2675589476
 30
0.0
 10
14.9906960888
 20
11.2708353409
 30
0.0
 10
14.9922537094
 20
11.273315157
 30
0.0
 10
14.9928702804
 20
11.2745893494
 30
0.0
  0
SPLINE
  5
354
100
AcDbEntity
  8
0
100
AcDbSpline
 62
7
  6
CONTINUOUS
 70
0
 71
3
 72
13
 73
9
 74
0
 42
0.0000001
 43
0.0000001
 44
0.0000000001
 40
0.0
 40
0.0
 40
0.0
 40
0.0
 40
0.1203837678
 40
0.2448858705
 40
0.5000359659
 40
0.7551674118
 40
0.8796468281
 40
1.0
 40
1.0
 40
1.0
 40
1.0
 10
14.8227151955
 20
11.2745893494
 30
0.0
 10
14.8245913742
 20
11.2733089864
 30
0.0
 10
14.828521376
 20
11.2708675001
 30
0.0
 10
14.8368983629
 20
11.2665115674
 30
0.0
 10
14.8481083388
 20
11.2621715192
 30
0.0
 10
14.8598134332
 20
11.259436478
 30
0.0
 10
14.8691867075
 20
11.2583120864
 30
0.0
 10
14.8738080739
 20
11.2581133824
 30
0.0
 10
14.8760789226
 20
11.2581133824
 30
0.0
  0
SPLINE
  5
355
100
AcDbEntity
  8
0
100
AcDbSpline
 62
7
  6
CONTINUOUS
 70
0
 71
3
 72
9
 73
5
 74
0
 42
0.0000001
 43
0.0000001
 44
0.0000000001
 40
0.0
 40
0.0
 40
0.0
 40
0.0
 40
0.2423988484
 40
1.0
 40
1.0
 40
1.0
 40
1.0
 10
14.810724934
 20
11.2840854807
 30
0.0
 10
14.8116323682
 20
11.2832455583
 30
0.0
 10
14.8154462425
 20
11.2798568273
 30
0.0
 10
14.819523098
 20
11.2767677365
 30
0.0
 10
14.8227151955
 20
11.2745893494
 30
0.0
  0
SPLINE
  5
356
100
AcDbEntity
  8
0
100
AcDbSpline
 62
7
  6
CONTINUOUS
 70
0
 71
3
 72
13
 73
9
 74
0
 42
0.0000001
 43
0.0000001
 44
0.0000000001
 40
0.0
 40
0.0
 40
0.0
 40
0.0
 40
0.1220777926
 40
0.2488756815
 40
0.5079295526
 40
0.7628129667
 40
0.884590511
 40
1.0
 40
1.0
 40
1.0
 40
1.0
 10
14.7475663424
 20
11.3140582796
 30
0.0
 10
14.7497691344
 20
11.3140582796
 30
0.0
 10
14.7542621248
 20
11.3138308836
 30
0.0
 10
14.763348444
 20
11.3125644798
 30
0.0
 10
14.7745601828
 20
11.3095218786
 30
0.0
 10
14.7850497506
 20
11.30473137
 30
0.0
 10
14.7925610777
 20
11.2999771822
 30
0.0
 10
14.7959468904
 20
11.2973438066
 30
0.0
 10
14.7975140909
 20
11.2959724731
 30
0.0
  0
SPLINE
  5
357
100
AcDbEntity
  8
0
100
AcDbSpline
 62
7
  6
CONTINUOUS
 70
0
 71
3
 72
14
 73
10
 74
0
 42
0.0000001
 43
0.0000001
 44
0.0000000001
 40
0.0
 40
0.0
 40
0.0
 40
0.0
 40
0.1531472932
 40
0.2992080596
 40
0.5648862678
 40
0.6844913334
 40
0.79594362
 40
0.9005209355
 40
1.0
 40
1.0
 40
1.0
 40
1.0
 10
14.4951465167
 20
11.2581133824
 30
0.0
 10
14.4973257154
 20
11.2581133824
 30
0.0
 10
14.501587338
 20
11.2582896579
 30
0.0
 10
14.5095596961
 20
11.2593426732
 30
0.0
 10
14.5169128707
 20
11.2614308009
 30
0.0
 10
14.5232000532
 20
11.2647090533
 30
0.0
 10
14.5270606512
 20
11.2675589476
 30
0.0
 10
14.5301655918
 20
11.2708353409
 30
0.0
 10
14.5317232124
 20
11.273315157
 30
0.0
 10
14.5323397834
 20
11.2745893494
 30
0.0
  0
SPLINE
  5
358
100
AcDbEntity
  8
0
100
AcDbSpline
 62
7
  6
CONTINUOUS
 70
0
 71
3
 72
13
 73
9
 74
0
 42
0.0000001
 43
0.0000001
 44
0.0000000001
 40
0.0
 40
0.0
 40
0.0
 40
0.0
 40
0.1203837678
 40
0.2448858705
 40
0.5000359659
 40
0.7551674118
 40
0.8796468281
 40
1.0
 40
1.0
 40
1.0
 40
1.0
 10
14.3621846985
 20
11.2745893494
 30
0.0
 10
14.3640608772
 20
11.2733089864
 30
0.0
 10
14.367990879
 20
11.2708675001
 30
0.0
 10
14.3763678659
 20
11.2665115674
 30
0.0
 10
14.3875778418
 20
11.2621715192
 30
0.0
 10
14.3992829362
 20
11.259436478
 30
0.0
 10
14.4086562105
 20
11.2583120864
 30
0.0
 10
14.4132775769
 20
11.2581133824
 30
0.0
 10
14.4155484256
 20
11.2581133824
 30
0.0
  0
SPLINE
  5
359
100
AcDbEntity
  8
0
100
AcDbSpline
 62
7
  6
CONTINUOUS
 70
0
 71
3
 72
9
 73
5
 74
0
 42
0.0000001
 43
0.0000001
 44
0.0000000001
 40
0.0
 40
0.0
 40
0.0
 40
0.0
 40
0.2423988484
 40
1.0
 40
1.0
 40
1.0
 40
1.0
 10
14.350194437
 20
11.2840854807
 30
0.0
 10
14.3511018712
 20
11.2832455583
 30
0.0
 10
14.3549157455
 20
11.2798568273
 30
0.0
 10
14.358992601
 20
11.2767677365
 30
0.0
 10
14.3621846985
 20
11.2745893494
 30
0.0
  0
SPLINE
  5
35A
100
AcDbEntity
  8
0
100
AcDbSpline
 62
7
  6
CONTINUOUS
 70
0
 71
3
 72
13
 73
9
 74
0
 42
0.0000001
 43
0.0000001
 44
0.0000000001
 40
0.0
 40
0.0
 40
0.0
 40
0.0
 40
0.1220777926
 40
0.2488756815
 40
0.5079295526
 40
0.7628129667
 40
0.884590511
 40
1.0
 40
1.0
 40
1.0
 40
1.0
 10
14.2870358454
 20
11.3140582796
 30
0.0
 10
14.2892386374
 20
11.3140582796
 30
0.0
 10
14.2937316278
 20
11.3138308836
 30
0.0
 10
14.302817947
 20
11.3125644798
 30
0.0
 10
14.3140296858
 20
11.3095218786
 30
0.0
 10
14.3245192536
 20
11.30473137
 30
0.0
 10
14.3320305807
 20
11.2999771822
 30
0.0
 10
14.3354163934
 20
11.2973438066
 30
0.0
 10
14.3369835939
 20
11.2959724731
 30
0.0
  0
SPLINE
  5
35B
100
AcDbEntity
  8
0
100
AcDbSpline
 62
7
  6
CONTINUOUS
 70
0
 71
3
 72
14
 73
10
 74
0
 42
0.0000001
 43
0.0000001
 44
0.0000000001
 40
0.0
 40
0.0
 40
0.0
 40
0.0
 40
0.1531472932
 40
0.2992080596
 40
0.5648862678
 40
0.6844913334
 40
0.79594362
 40
0.9005209355
 40
1.0
 40
1.0
 40
1.0
 40
1.0
 10
15.72087945
 20
11.4135158745
 30
0.0
 10
15.7187002514
 20
11.4135158745
 30
0.0
 10
15.7144386287
 20
11.4133395991
 30
0.0
 10
15.7064662706
 20
11.4122865837
 30
0.0
 10
15.699113096
 20
11.410198456
 30
0.0
 10
15.6928259135
 20
11.4069202037
 30
0.0
 10
15.6889653155
 20
11.4040703093
 30
0.0
 10
15.6858603749
 20
11.4007939161
 30
0.0
 10
15.6843027543
 20
11.3983141
 30
0.0
 10
15.6836861833
 20
11.3970399075
 30
0.0
  0
SPLINE
  5
35C
100
AcDbEntity
  8
0
100
AcDbSpline
 62
7
  6
CONTINUOUS
 70
0
 71
3
 72
13
 73
9
 74
0
 42
0.0000001
 43
0.0000001
 44
0.0000000001
 40
0.0
 40
0.0
 40
0.0
 40
0.0
 40
0.1203837678
 40
0.2448858705
 40
0.5000359659
 40
0.7551674118
 40
0.8796468281
 40
1.0
 40
1.0
 40
1.0
 40
1.0
 10
15.8538412683
 20
11.3970399075
 30
0.0
 10
15.8519650895
 20
11.3983202706
 30
0.0
 10
15.8480350877
 20
11.4007617568
 30
0.0
 10
15.8396581008
 20
11.4051176896
 30
0.0
 10
15.828448125
 20
11.4094577378
 30
0.0
 10
15.8167430306
 20
11.4121927789
 30
0.0
 10
15.8073697563
 20
11.4133171705
 30
0.0
 10
15.8027483898
 20
11.4135158745
 30
0.0
 10
15.8004775411
 20
11.4135158745
 30
0.0
  0
SPLINE
  5
35D
100
AcDbEntity
  8
0
100
AcDbSpline
 62
7
  6
CONTINUOUS
 70
0
 71
3
 72
9
 73
5
 74
0
 42
0.0000001
 43
0.0000001
 44
0.0000000001
 40
0.0
 40
0.0
 40
0.0
 40
0.0
 40
0.2423988484
 40
1.0
 40
1.0
 40
1.0
 40
1.0
 10
15.8658315297
 20
11.3875437763
 30
0.0
 10
15.8649240955
 20
11.3883836986
 30
0.0
 10
15.8611102213
 20
11.3917724297
 30
0.0
 10
15.8570333657
 20
11.3948615205
 30
0.0
 10
15.8538412683
 20
11.3970399075
 30
0.0
  0
SPLINE
  5
35E
100
AcDbEntity
  8
0
100
AcDbSpline
 62
7
  6
CONTINUOUS
 70
0
 71
3
 72
13
 73
9
 74
0
 42
0.0000001
 43
0.0000001
 44
0.0000000001
 40
0.0
 40
0.0
 40
0.0
 40
0.0
 40
0.1220777926
 40
0.2488756815
 40
0.5079295526
 40
0.7628129667
 40
0.884590511
 40
1.0
 40
1.0
 40
1.0
 40
1.0
 10
15.9289901213
 20
11.3575709774
 30
0.0
 10
15.9267873293
 20
11.3575709774
 30
0.0
 10
15.9222943389
 20
11.3577983733
 30
0.0
 10
15.9132080198
 20
11.3590647771
 30
0.0
 10
15.9019962809
 20
11.3621073784
 30
0.0
 10
15.8915067131
 20
11.366897887
 30
0.0
 10
15.883995386
 20
11.3716520748
 30
0.0
 10
15.8806095733
 20
11.3742854503
 30
0.0
 10
15.8790423728
 20
11.3756567839
 30
0.0
  0
SPLINE
  5
35F
100
AcDbEntity
  8
0
100
AcDbSpline
 62
7
  6
CONTINUOUS
 70
0
 71
3
 72
13
 73
9
 74
0
 42
0.0000001
 43
0.0000001
 44
0.0000000001
 40
0.0
 40
0.0
 40
0.0
 40
0.0
 40
0.2884455631
 40
0.4237372584
 40
0.5523542382
 40
0.6741370141
 40
0.7891353733
 40
1.0
 40
1.0
 40
1.0
 40
1.0
 10
16.181409947
 20
11.4135158745
 30
0.0
 10
16.1779684091
 20
11.4135158745
 30
0.0
 10
16.172899436
 20
11.4131938814
 30
0.0
 10
16.1664119013
 20
11.4120011519
 30
0.0
 10
16.1619676092
 20
11.4107843237
 30
0.0
 10
16.1578831327
 20
11.4092348842
 30
0.0
 10
16.1531132685
 20
11.4068228215
 30
0.0
 10
16.1499526998
 20
11.4044554925
 30
0.0
 10
16.1481975794
 20
11.4026529173
 30
0.0
  0
SPLINE
  5
360
100
AcDbEntity
  8
0
100
AcDbSpline
 62
7
  6
CONTINUOUS
 70
0
 71
3
 72
9
 73
5
 74
0
 42
0.0000001
 43
0.0000001
 44
0.0000000001
 40
0.0
 40
0.0
 40
0.0
 40
0.0
 40
0.5087910089
 40
1.0
 40
1.0
 40
1.0
 40
1.0
 10
16.1481975794
 20
11.4026529173
 30
0.0
 10
16.1473807786
 20
11.4018140318
 30
0.0
 10
16.1458932202
 20
11.4000448453
 30
0.0
 10
16.1447090513
 20
11.3980574309
 30
0.0
 10
16.1442166803
 20
11.3970399075
 30
0.0
  0
SPLINE
  5
361
100
AcDbEntity
  8
0
100
AcDbSpline
 62
7
  6
CONTINUOUS
 70
0
 71
3
 72
13
 73
9
 74
0
 42
0.0000001
 43
0.0000001
 44
0.0000000001
 40
0.0
 40
0.0
 40
0.0
 40
0.0
 40
0.1205724429
 40
0.2449984083
 40
0.5000359535
 40
0.7550549225
 40
0.8794582258
 40
1.0
 40
1.0
 40
1.0
 40
1.0
 10
16.3143717653
 20
11.3970399075
 30
0.0
 10
16.3124926258
 20
11.3983222911
 30
0.0
 10
16.3085620933
 20
11.4007670225
 30
0.0
 10
16.3001841587
 20
11.4051217969
 30
0.0
 10
16.2889775437
 20
11.4094542482
 30
0.0
 10
16.2772795075
 20
11.4121936691
 30
0.0
 10
16.2679061031
 20
11.4133195525
 30
0.0
 10
16.26328247
 20
11.4135158745
 30
0.0
 10
16.2610080381
 20
11.4135158745
 30
0.0
  0
SPLINE
  5
362
100
AcDbEntity
  8
0
100
AcDbSpline
 62
7
  6
CONTINUOUS
 70
0
 71
3
 72
9
 73
5
 74
0
 42
0.0000001
 43
0.0000001
 44
0.0000000001
 40
0.0
 40
0.0
 40
0.0
 40
0.0
 40
0.2423988484
 40
1.0
 40
1.0
 40
1.0
 40
1.0
 10
16.3263620268
 20
11.3875437763
 30
0.0
 10
16.3254545925
 20
11.3883836986
 30
0.0
 10
16.3216407183
 20
11.3917724297
 30
0.0
 10
16.3175638627
 20
11.3948615205
 30
0.0
 10
16.3143717653
 20
11.3970399075
 30
0.0
  0
SPLINE
  5
363
100
AcDbEntity
  8
0
100
AcDbSpline
 62
7
  6
CONTINUOUS
 70
0
 71
3
 72
15
 73
11
 74
0
 42
0.0000001
 43
0.0000001
 44
0.0000000001
 40
0.0
 40
0.0
 40
0.0
 40
0.0
 40
0.1222817011
 40
0.2489157101
 40
0.3780263748
 40
0.5079164659
 40
0.6367627405
 40
0.7627815246
 40
0.8844047757
 40
1.0
 40
1.0
 40
1.0
 40
1.0
 10
16.3895206183
 20
11.3575709774
 30
0.0
 10
16.3873130881
 20
11.3575709774
 30
0.0
 10
16.3828172788
 20
11.3577947971
 30
0.0
 10
16.3760504451
 20
11.358739126
 30
0.0
 10
16.3692537058
 20
11.3602837862
 30
0.0
 10
16.3625698111
 20
11.3623956486
 30
0.0
 10
16.356133931
 20
11.3650294367
 30
0.0
 10
16.3500776883
 20
11.3681339181
 30
0.0
 10
16.3445286442
 20
11.37164463
 30
0.0
 10
16.3411433458
 20
11.3742825842
 30
0.0
 10
16.3395728698
 20
11.3756567839
 30
0.0
  0
SPLINE
  5
364
100
AcDbEntity
  8
0
100
AcDbSpline
 62
7
  6
CONTINUOUS
 70
0
 71
3
 72
14
 73
10
 74
0
 42
0.0000001
 43
0.0000001
 44
0.0000000001
 40
0.0
 40
0.0
 40
0.0
 40
0.0
 40
0.0997129423
 40
0.20313066
 40
0.3129436641
 40
0.4312487046
 40
0.6969674484
 40
0.8445822317
 40
1.0
 40
1.0
 40
1.0
 40
1.0
 10
14.7578972304
 20
11.3734722171
 30
0.0
 10
14.7575244331
 20
11.3722738824
 30
0.0
 10
14.7564695615
 20
11.3699154301
 30
0.0
 10
14.7540792787
 20
11.3667479435
 30
0.0
 10
14.7509126948
 20
11.3639893743
 30
0.0
 10
14.7455512417
 20
11.3607937886
 30
0.0
 10
14.7390754507
 20
11.3587679311
 30
0.0
 10
14.7319880116
 20
11.357743369
 30
0.0
 10
14.7281694943
 20
11.3575709774
 30
0.0
 10
14.7262134117
 20
11.3575709774
 30
0.0
  0
SPLINE
  5
365
100
AcDbEntity
  8
0
100
AcDbSpline
 62
7
  6
CONTINUOUS
 70
0
 71
3
 72
14
 73
10
 74
0
 42
0.0000001
 43
0.0000001
 44
0.0000000001
 40
0.0
 40
0.0
 40
0.0
 40
0.0
 40
0.0997129423
 40
0.20313066
 40
0.3129436641
 40
0.4312487046
 40
0.6969674484
 40
0.8445822317
 40
1.0
 40
1.0
 40
1.0
 40
1.0
 10
14.2973667334
 20
11.3734722171
 30
0.0
 10
14.2969939361
 20
11.3722738824
 30
0.0
 10
14.2959390645
 20
11.3699154301
 30
0.0
 10
14.2935487817
 20
11.3667479435
 30
0.0
 10
14.2903821978
 20
11.3639893743
 30
0.0
 10
14.2850207446
 20
11.3607937886
 30
0.0
 10
14.2785449537
 20
11.3587679311
 30
0.0
 10
14.2714575146
 20
11.357743369
 30
0.0
 10
14.2676389973
 20
11.3575709774
 30
0.0
 10
14.2656829147
 20
11.3575709774
 30
0.0
  0
SPLINE
  5
366
100
AcDbEntity
  8
0
100
AcDbSpline
 62
7
  6
CONTINUOUS
 70
0
 71
3
 72
15
 73
11
 74
0
 42
0.0000001
 43
0.0000001
 44
0.0000000001
 40
0.0
 40
0.0
 40
0.0
 40
0.0
 40
0.0997187171
 40
0.2029508029
 40
0.3126581165
 40
0.4309581962
 40
0.5589001823
 40
0.6967751757
 40
0.8442372834
 40
1.0
 40
1.0
 40
1.0
 40
1.0
 10
16.1394907461
 20
11.3734715537
 30
0.0
 10
16.1391195981
 20
11.3722717977
 30
0.0
 10
16.1380698103
 20
11.3699110889
 30
0.0
 10
16.1356726904
 20
11.3667494471
 30
0.0
 10
16.1325061547
 20
11.3639938951
 30
0.0
 10
16.1286388359
 20
11.3616875363
 30
0.0
 10
16.1241432681
 20
11.3598588332
 30
0.0
 10
16.1190961962
 20
11.3585359211
 30
0.0
 10
16.113588258
 20
11.3577403518
 30
0.0
 10
16.1097665704
 20
11.3575709774
 30
0.0
 10
16.1078049027
 20
11.3575709774
 30
0.0
  0
SPLINE
  5
367
100
AcDbEntity
  8
0
100
AcDbSpline
 62
7
  6
CONTINUOUS
 70
0
 71
3
 72
14
 73
10
 74
0
 42
0.0000001
 43
0.0000001
 44
0.0000000001
 40
0.0
 40
0.0
 40
0.0
 40
0.0
 40
0.0997129423
 40
0.20313066
 40
0.3129436641
 40
0.4312487046
 40
0.6969674484
 40
0.8445822317
 40
1.0
 40
1.0
 40
1.0
 40
1.0
 10
15.6789582244
 20
11.3734722171
 30
0.0
 10
15.6785854271
 20
11.3722738824
 30
0.0
 10
15.6775305555
 20
11.3699154301
 30
0.0
 10
15.6751402727
 20
11.3667479435
 30
0.0
 10
15.6719736888
 20
11.3639893743
 30
0.0
 10
15.6666122357
 20
11.3607937886
 30
0.0
 10
15.6601364447
 20
11.3587679311
 30
0.0
 10
15.6530490056
 20
11.357743369
 30
0.0
 10
15.6492304883
 20
11.3575709774
 30
0.0
 10
15.6472744057
 20
11.3575709774
 30
0.0
  0
SPLINE
  5
368
100
AcDbEntity
  8
0
100
AcDbSpline
 62
7
  6
CONTINUOUS
 70
0
 71
3
 72
14
 73
10
 74
0
 42
0.0000001
 43
0.0000001
 44
0.0000000001
 40
0.0
 40
0.0
 40
0.0
 40
0.0
 40
0.1531472932
 40
0.2992080596
 40
0.5648862678
 40
0.6844913334
 40
0.79594362
 40
0.9005209355
 40
1.0
 40
1.0
 40
1.0
 40
1.0
 10
13.878757462
 20
11.4135158745
 30
0.0
 10
13.8765782634
 20
11.4135158745
 30
0.0
 10
13.8723166407
 20
11.4133395991
 30
0.0
 10
13.8643442826
 20
11.4122865837
 30
0.0
 10
13.856991108
 20
11.410198456
 30
0.0
 10
13.8507039255
 20
11.4069202037
 30
0.0
 10
13.8468433275
 20
11.4040703093
 30
0.0
 10
13.8437383869
 20
11.4007939161
 30
0.0
 10
13.8421807663
 20
11.3983141
 30
0.0
 10
13.8415641953
 20
11.3970399075
 30
0.0
  0
SPLINE
  5
369
100
AcDbEntity
  8
0
100
AcDbSpline
 62
7
  6
CONTINUOUS
 70
0
 71
3
 72
13
 73
9
 74
0
 42
0.0000001
 43
0.0000001
 44
0.0000000001
 40
0.0
 40
0.0
 40
0.0
 40
0.0
 40
0.1203837678
 40
0.2448858705
 40
0.5000359659
 40
0.7551674118
 40
0.8796468281
 40
1.0
 40
1.0
 40
1.0
 40
1.0
 10
14.0117192803
 20
11.3970399075
 30
0.0
 10
14.0098431015
 20
11.3983202706
 30
0.0
 10
14.0059130997
 20
11.4007617568
 30
0.0
 10
13.9975361128
 20
11.4051176896
 30
0.0
 10
13.986326137
 20
11.4094577378
 30
0.0
 10
13.9746210426
 20
11.4121927789
 30
0.0
 10
13.9652477683
 20
11.4133171705
 30
0.0
 10
13.9606264018
 20
11.4135158745
 30
0.0
 10
13.9583555531
 20
11.4135158745
 30
0.0
  0
SPLINE
  5
36A
100
AcDbEntity
  8
0
100
AcDbSpline
 62
7
  6
CONTINUOUS
 70
0
 71
3
 72
9
 73
5
 74
0
 42
0.0000001
 43
0.0000001
 44
0.0000000001
 40
0.0
 40
0.0
 40
0.0
 40
0.0
 40
0.2423988484
 40
1.0
 40
1.0
 40
1.0
 40
1.0
 10
14.0237095417
 20
11.3875437763
 30
0.0
 10
14.0228021075
 20
11.3883836986
 30
0.0
 10
14.0189882333
 20
11.3917724297
 30
0.0
 10
14.0149113777
 20
11.3948615205
 30
0.0
 10
14.0117192803
 20
11.3970399075
 30
0.0
  0
SPLINE
  5
36B
100
AcDbEntity
  8
0
100
AcDbSpline
 62
7
  6
CONTINUOUS
 70
0
 71
3
 72
13
 73
9
 74
0
 42
0.0000001
 43
0.0000001
 44
0.0000000001
 40
0.0
 40
0.0
 40
0.0
 40
0.0
 40
0.1220777926
 40
0.2488756815
 40
0.5079295526
 40
0.7628129667
 40
0.884590511
 40
1.0
 40
1.0
 40
1.0
 40
1.0
 10
14.0868681333
 20
11.3575709774
 30
0.0
 10
14.0846653413
 20
11.3575709774
 30
0.0
 10
14.0801723509
 20
11.3577983733
 30
0.0
 10
14.0710860318
 20
11.3590647771
 30
0.0
 10
14.0598742929
 20
11.3621073784
 30
0.0
 10
14.0493847251
 20
11.366897887
 30
0.0
 10
14.041873398
 20
11.3716520748
 30
0.0
 10
14.0384875853
 20
11.3742854503
 30
0.0
 10
14.0369203848
 20
11.3756567839
 30
0.0
  0
SPLINE
  5
36C
100
AcDbEntity
  8
0
100
AcDbSpline
 62
7
  6
CONTINUOUS
 70
0
 71
3
 72
14
 73
10
 74
0
 42
0.0000001
 43
0.0000001
 44
0.0000000001
 40
0.0
 40
0.0
 40
0.0
 40
0.0
 40
0.0997129423
 40
0.20313066
 40
0.3129436641
 40
0.4312487046
 40
0.6969674484
 40
0.8445822317
 40
1.0
 40
1.0
 40
1.0
 40
1.0
 10
13.8368362364
 20
11.3734722171
 30
0.0
 10
13.8364634391
 20
11.3722738824
 30
0.0
 10
13.8354085675
 20
11.3699154301
 30
0.0
 10
13.8330182847
 20
11.3667479435
 30
0.0
 10
13.8298517008
 20
11.3639893743
 30
0.0
 10
13.8244902476
 20
11.3607937886
 30
0.0
 10
13.8180144567
 20
11.3587679311
 30
0.0
 10
13.8109270176
 20
11.357743369
 30
0.0
 10
13.8071085003
 20
11.3575709774
 30
0.0
 10
13.8051524177
 20
11.3575709774
 30
0.0
  0
SPLINE
  5
36D
100
AcDbEntity
  8
0
100
AcDbSpline
 62
7
  6
CONTINUOUS
 70
0
 71
3
 72
14
 73
10
 74
0
 42
0.0000001
 43
0.0000001
 44
0.0000000001
 40
0.0
 40
0.0
 40
0.0
 40
0.0
 40
0.1531472932
 40
0.2992080596
 40
0.5648862678
 40
0.6844913334
 40
0.79594362
 40
0.9005209355
 40
1.0
 40
1.0
 40
1.0
 40
1.0
 10
14.339287959
 20
11.4135158745
 30
0.0
 10
14.3371087604
 20
11.4135158745
 30
0.0
 10
14.3328471377
 20
11.4133395991
 30
0.0
 10
14.3248747796
 20
11.4122865837
 30
0.0
 10
14.317521605
 20
11.410198456
 30
0.0
 10
14.3112344225
 20
11.4069202037
 30
0.0
 10
14.3073738245
 20
11.4040703093
 30
0.0
 10
14.3042688839
 20
11.4007939161
 30
0.0
 10
14.3027112633
 20
11.3983141
 30
0.0
 10
14.3020946923
 20
11.3970399075
 30
0.0
  0
SPLINE
  5
36E
100
AcDbEntity
  8
0
100
AcDbSpline
 62
7
  6
CONTINUOUS
 70
0
 71
3
 72
13
 73
9
 74
0
 42
0.0000001
 43
0.0000001
 44
0.0000000001
 40
0.0
 40
0.0
 40
0.0
 40
0.0
 40
0.1203837678
 40
0.2448858705
 40
0.5000359659
 40
0.7551674118
 40
0.8796468281
 40
1.0
 40
1.0
 40
1.0
 40
1.0
 10
14.4722497773
 20
11.3970399075
 30
0.0
 10
14.4703735985
 20
11.3983202706
 30
0.0
 10
14.4664435967
 20
11.4007617568
 30
0.0
 10
14.4580666098
 20
11.4051176896
 30
0.0
 10
14.446856634
 20
11.4094577378
 30
0.0
 10
14.4351515396
 20
11.4121927789
 30
0.0
 10
14.4257782653
 20
11.4133171705
 30
0.0
 10
14.4211568988
 20
11.4135158745
 30
0.0
 10
14.4188860501
 20
11.4135158745
 30
0.0
  0
SPLINE
  5
36F
100
AcDbEntity
  8
0
100
AcDbSpline
 62
7
  6
CONTINUOUS
 70
0
 71
3
 72
9
 73
5
 74
0
 42
0.0000001
 43
0.0000001
 44
0.0000000001
 40
0.0
 40
0.0
 40
0.0
 40
0.0
 40
0.2423988484
 40
1.0
 40
1.0
 40
1.0
 40
1.0
 10
14.4842400387
 20
11.3875437763
 30
0.0
 10
14.4833326045
 20
11.3883836986
 30
0.0
 10
14.4795187303
 20
11.3917724297
 30
0.0
 10
14.4754418747
 20
11.3948615205
 30
0.0
 10
14.4722497773
 20
11.3970399075
 30
0.0
  0
SPLINE
  5
370
100
AcDbEntity
  8
0
100
AcDbSpline
 62
7
  6
CONTINUOUS
 70
0
 71
3
 72
13
 73
9
 74
0
 42
0.0000001
 43
0.0000001
 44
0.0000000001
 40
0.0
 40
0.0
 40
0.0
 40
0.0
 40
0.1220777926
 40
0.2488756815
 40
0.5079295526
 40
0.7628129667
 40
0.884590511
 40
1.0
 40
1.0
 40
1.0
 40
1.0
 10
14.5473986303
 20
11.3575709774
 30
0.0
 10
14.5451958383
 20
11.3575709774
 30
0.0
 10
14.5407028479
 20
11.3577983733
 30
0.0
 10
14.5316165288
 20
11.3590647771
 30
0.0
 10
14.5204047899
 20
11.3621073784
 30
0.0
 10
14.5099152221
 20
11.366897887
 30
0.0
 10
14.502403895
 20
11.3716520748
 30
0.0
 10
14.4990180823
 20
11.3742854503
 30
0.0
 10
14.4974508818
 20
11.3756567839
 30
0.0
  0
SPLINE
  5
371
100
AcDbEntity
  8
0
100
AcDbSpline
 62
7
  6
CONTINUOUS
 70
0
 71
3
 72
14
 73
10
 74
0
 42
0.0000001
 43
0.0000001
 44
0.0000000001
 40
0.0
 40
0.0
 40
0.0
 40
0.0
 40
0.1531472932
 40
0.2992080596
 40
0.5648862678
 40
0.6844913334
 40
0.79594362
 40
0.9005209355
 40
1.0
 40
1.0
 40
1.0
 40
1.0
 10
14.799818456
 20
11.4135158745
 30
0.0
 10
14.7976392574
 20
11.4135158745
 30
0.0
 10
14.7933776347
 20
11.4133395991
 30
0.0
 10
14.7854052766
 20
11.4122865837
 30
0.0
 10
14.778052102
 20
11.410198456
 30
0.0
 10
14.7717649195
 20
11.4069202037
 30
0.0
 10
14.7679043215
 20
11.4040703093
 30
0.0
 10
14.7647993809
 20
11.4007939161
 30
0.0
 10
14.7632417603
 20
11.3983141
 30
0.0
 10
14.7626251893
 20
11.3970399075
 30
0.0
  0
SPLINE
  5
372
100
AcDbEntity
  8
0
100
AcDbSpline
 62
7
  6
CONTINUOUS
 70
0
 71
3
 72
13
 73
9
 74
0
 42
0.0000001
 43
0.0000001
 44
0.0000000001
 40
0.0
 40
0.0
 40
0.0
 40
0.0
 40
0.1203837678
 40
0.2448858705
 40
0.5000359659
 40
0.7551674118
 40
0.8796468281
 40
1.0
 40
1.0
 40
1.0
 40
1.0
 10
14.9327802743
 20
11.3970399075
 30
0.0
 10
14.9309040955
 20
11.3983202706
 30
0.0
 10
14.9269740937
 20
11.4007617568
 30
0.0
 10
14.9185971068
 20
11.4051176896
 30
0.0
 10
14.907387131
 20
11.4094577378
 30
0.0
 10
14.8956820366
 20
11.4121927789
 30
0.0
 10
14.8863087623
 20
11.4133171705
 30
0.0
 10
14.8816873958
 20
11.4135158745
 30
0.0
 10
14.8794165471
 20
11.4135158745
 30
0.0
  0
SPLINE
  5
373
100
AcDbEntity
  8
0
100
AcDbSpline
 62
7
  6
CONTINUOUS
 70
0
 71
3
 72
9
 73
5
 74
0
 42
0.0000001
 43
0.0000001
 44
0.0000000001
 40
0.0
 40
0.0
 40
0.0
 40
0.0
 40
0.2423988484
 40
1.0
 40
1.0
 40
1.0
 40
1.0
 10
14.9447705357
 20
11.3875437763
 30
0.0
 10
14.9438631015
 20
11.3883836986
 30
0.0
 10
14.9400492273
 20
11.3917724297
 30
0.0
 10
14.9359723717
 20
11.3948615205
 30
0.0
 10
14.9327802743
 20
11.3970399075
 30
0.0
  0
SPLINE
  5
374
100
AcDbEntity
  8
0
100
AcDbSpline
 62
7
  6
CONTINUOUS
 70
0
 71
3
 72
13
 73
9
 74
0
 42
0.0000001
 43
0.0000001
 44
0.0000000001
 40
0.0
 40
0.0
 40
0.0
 40
0.0
 40
0.1220777926
 40
0.2488756815
 40
0.5079295526
 40
0.7628129667
 40
0.884590511
 40
1.0
 40
1.0
 40
1.0
 40
1.0
 10
15.0079291273
 20
11.3575709774
 30
0.0
 10
15.0057263353
 20
11.3575709774
 30
0.0
 10
15.0012333449
 20
11.3577983733
 30
0.0
 10
14.9921470258
 20
11.3590647771
 30
0.0
 10
14.9809352869
 20
11.3621073784
 30
0.0
 10
14.9704457191
 20
11.366897887
 30
0.0
 10
14.962934392
 20
11.3716520748
 30
0.0
 10
14.9595485793
 20
11.3742854503
 30
0.0
 10
14.9579813788
 20
11.3756567839
 30
0.0
  0
SPLINE
  5
375
100
AcDbEntity
  8
0
100
AcDbSpline
 62
7
  6
CONTINUOUS
 70
0
 71
3
 72
14
 73
10
 74
0
 42
0.0000001
 43
0.0000001
 44
0.0000000001
 40
0.0
 40
0.0
 40
0.0
 40
0.0
 40
0.0997129423
 40
0.20313066
 40
0.3129436641
 40
0.4312487046
 40
0.6969674484
 40
0.8445822317
 40
1.0
 40
1.0
 40
1.0
 40
1.0
 10
15.2184277274
 20
11.3734722171
 30
0.0
 10
15.2180549301
 20
11.3722738824
 30
0.0
 10
15.2170000585
 20
11.3699154301
 30
0.0
 10
15.2146097757
 20
11.3667479435
 30
0.0
 10
15.2114431918
 20
11.3639893743
 30
0.0
 10
15.2060817387
 20
11.3607937886
 30
0.0
 10
15.1996059477
 20
11.3587679311
 30
0.0
 10
15.1925185086
 20
11.357743369
 30
0.0
 10
15.1886999913
 20
11.3575709774
 30
0.0
 10
15.1867439087
 20
11.3575709774
 30
0.0
  0
SPLINE
  5
376
100
AcDbEntity
  8
0
100
AcDbSpline
 62
7
  6
CONTINUOUS
 70
0
 71
3
 72
14
 73
10
 74
0
 42
0.0000001
 43
0.0000001
 44
0.0000000001
 40
0.0
 40
0.0
 40
0.0
 40
0.0
 40
0.1531472932
 40
0.2992080596
 40
0.5648862678
 40
0.6844913334
 40
0.79594362
 40
0.9005209355
 40
1.0
 40
1.0
 40
1.0
 40
1.0
 10
15.260348953
 20
11.4135158745
 30
0.0
 10
15.2581697544
 20
11.4135158745
 30
0.0
 10
15.2539081317
 20
11.4133395991
 30
0.0
 10
15.2459357736
 20
11.4122865837
 30
0.0
 10
15.238582599
 20
11.410198456
 30
0.0
 10
15.2322954165
 20
11.4069202037
 30
0.0
 10
15.2284348185
 20
11.4040703093
 30
0.0
 10
15.2253298779
 20
11.4007939161
 30
0.0
 10
15.2237722573
 20
11.3983141
 30
0.0
 10
15.2231556863
 20
11.3970399075
 30
0.0
  0
SPLINE
  5
377
100
AcDbEntity
  8
0
100
AcDbSpline
 62
7
  6
CONTINUOUS
 70
0
 71
3
 72
13
 73
9
 74
0
 42
0.0000001
 43
0.0000001
 44
0.0000000001
 40
0.0
 40
0.0
 40
0.0
 40
0.0
 40
0.1203837678
 40
0.2448858705
 40
0.5000359659
 40
0.7551674118
 40
0.8796468281
 40
1.0
 40
1.0
 40
1.0
 40
1.0
 10
15.3933107713
 20
11.3970399075
 30
0.0
 10
15.3914345925
 20
11.3983202706
 30
0.0
 10
15.3875045907
 20
11.4007617568
 30
0.0
 10
15.3791276038
 20
11.4051176896
 30
0.0
 10
15.367917628
 20
11.4094577378
 30
0.0
 10
15.3562125336
 20
11.4121927789
 30
0.0
 10
15.3468392593
 20
11.4133171705
 30
0.0
 10
15.3422178928
 20
11.4135158745
 30
0.0
 10
15.3399470441
 20
11.4135158745
 30
0.0
  0
SPLINE
  5
378
100
AcDbEntity
  8
0
100
AcDbSpline
 62
7
  6
CONTINUOUS
 70
0
 71
3
 72
9
 73
5
 74
0
 42
0.0000001
 43
0.0000001
 44
0.0000000001
 40
0.0
 40
0.0
 40
0.0
 40
0.0
 40
0.2423988484
 40
1.0
 40
1.0
 40
1.0
 40
1.0
 10
15.4053010327
 20
11.3875437763
 30
0.0
 10
15.4043935985
 20
11.3883836986
 30
0.0
 10
15.4005797243
 20
11.3917724297
 30
0.0
 10
15.3965028687
 20
11.3948615205
 30
0.0
 10
15.3933107713
 20
11.3970399075
 30
0.0
  0
SPLINE
  5
379
100
AcDbEntity
  8
0
100
AcDbSpline
 62
7
  6
CONTINUOUS
 70
0
 71
3
 72
13
 73
9
 74
0
 42
0.0000001
 43
0.0000001
 44
0.0000000001
 40
0.0
 40
0.0
 40
0.0
 40
0.0
 40
0.1220777926
 40
0.2488756815
 40
0.5079295526
 40
0.7628129667
 40
0.884590511
 40
1.0
 40
1.0
 40
1.0
 40
1.0
 10
15.4684596243
 20
11.3575709774
 30
0.0
 10
15.4662568323
 20
11.3575709774
 30
0.0
 10
15.4617638419
 20
11.3577983733
 30
0.0
 10
15.4526775228
 20
11.3590647771
 30
0.0
 10
15.4414657839
 20
11.3621073784
 30
0.0
 10
15.4309762161
 20
11.366897887
 30
0.0
 10
15.423464889
 20
11.3716520748
 30
0.0
 10
15.4200790763
 20
11.3742854503
 30
0.0
 10
15.4185118758
 20
11.3756567839
 30
0.0
  0
ENDSEC
  0
SECTION
  2
OBJECTS
  0
DICTIONARY
  5
C
100
AcDbDictionary
280
0
281
1
  3
ACAD_GROUP
350
D
  3
ACAD_MLINESTYLE
350
17
  3
ACAD_LAYOUT
350
1A
  3
ACAD_PLOTSETTINGS
350
19
  3
ACAD_PLOTSTYLENAME
350
E
  0
DICTIONARY
  5
D
102
{ACAD_REACTORS
330
C
102
}
100
AcDbDictionary
280
0
281
1
  0
ACDBDICTIONARYWDFLT
  5
E
102
{ACAD_REACTORS
330
C
102
}
100
AcDbDictionary
281
1
  3
Normal
350
F
100
AcDbDictionaryWithDefault
340
F
  0
DICTIONARY
  5
17
102
{ACAD_REACTORS
330
C
102
}
100
AcDbDictionary
280
0
281
1
  3
Standard
350
18
  0
DICTIONARY
  5
19
102
{ACAD_REACTORS
330
C
102
}
100
AcDbDictionary
281
1
  0
DICTIONARY
  5
1A
102
{ACAD_REACTORS
330
C
102
}
100
AcDbDictionary
281
1
  3
Model
350
37A
  3
Layout1
350
37B
  0
ACDBPLACEHOLDER
  5
F
102
{ACAD_REACTORS
330
E
102
}
  0
MLINESTYLE
  5
18
102
{ACAD_REACTORS
330
17
102
}
100
AcDbMlineStyle
  2
STANDARD
 70
0
  3

 62
256
 51
90.0
 52
90.0
 71
2
 49
0.5
 62
256
  6
BYLAYER
 49
-0.5
 62
256
  6
BYLAYER
  0
LAYOUT
  5
37A
102
{ACAD_REACTORS
330
1A
102
}
100
AcDbPlotSettings
  1

  2
none_device
  4
ANSI_C_(22.00_x_17.00_Inches)
  6

 40
0.0
 41
0.0
 42
0.0
 43
0.0
 44
558.8
 45
431.8
 46
0.0
 47
0.0
 48
0.0
 49
0.0
140
0.0
141
0.0
142
1.0
143
1.0
 70
1024
 72
0
 73
0
 74
0
  7

 75
0
147
1.0
148
0.0
149
0.0
100
AcDbLayout
  1
Model
 70
0
 71
0
 10
0.0
 20
0.0
 11
22.0
 21
17.0
 12
0.0
 22
0.0
 32
0.0
 14
0.0
 24
0.0
 34
0.0
 15
0.0
 25
0.0
 35
0.0
146
0.0
 13
0.0
 23
0.0
 33
0.0
 16
1.0
 26
0.0
 36
0.0
 17
0.0
 27
1.0
 37
0.0
 76
0
330
216
345
0
346
0
  0
LAYOUT
  5
37B
102
{ACAD_REACTORS
330
1A
102
}
100
AcDbPlotSettings
  1

  2
none_device
  4
ANSI_C_(22.00_x_17.00_Inches)
  6

 40
0.0
 41
0.0
 42
0.0
 43
0.0
 44
558.8
 45
431.8
 46
0.0
 47
0.0
 48
0.0
 49
0.0
140
0.0
141
0.0
142
1.0
143
1.0
 70
0
 72
0
 73
0
 74
0
  7

 75
0
147
1.0
148
0.0
149
0.0
100
AcDbLayout
  1
Layout1
 70
0
 71
1
 10
0.0
 20
0.0
 11
22.0
 21
17.0
 12
0.0
 22
0.0
 32
0.0
 14
0.0
 24
0.0
 34
0.0
 15
0.0
 25
0.0
 35
0.0
146
0.0
 13
0.0
 23
0.0
 33
0.0
 16
1.0
 26
0.0
 36
0.0
 17
0.0
 27
1.0
 37
0.0
 76
0
330
217
345
0
346
0
  0
ENDSEC
  0
EOF