999
DXF file: _cgs_temp_output.dxf
999
Pro/ENGINEER 2015110 by Parametric Technology Corporation
  0
SECTION
  2
HEADER
  9
$ACADVER
  1
AC1021
  9
$DWGCODEPAGE
  3
ANSI_1252
  9
$EXTMAX
 10
22.0
 20
17.0
 30
0.0
  9
$EXTMIN
 10
0.0
 20
0.0
 30
0.0
  9
$LIMMIN
 10
0.0
 20
0.0
  9
$LIMMAX
 10
22.0
 20
17.0
  9
$VIEWCTR
 10
11.0
 20
8.5
  9
$VIEWSIZE
 40
17.0
  9
$CLAYER
  8
0
  9
$LTSCALE
 40
1.21
  9
$CELTYPE
  6
BYLAYER
  9
$DIMSCALE
 40
1.0
  9
$DIMASZ
 40
0.1875
  9
$DIMEXO
 40
0.0625
  9
$DIMDLI
 40
0.836
  9
$DIMEXE
 40
0.125
  9
$DIMCEN
 40
0.198
  9
$DIMLFAC
 40
1.0
  9
$DIMBLK
  1
_CLOSED
  9
$DIMALT
 70
0
  9
$DIMALTF
 40
25.4
  9
$DIMTXT
 40
0.15625
  9
$DIMTOL
 70
0
  9
$DIMLIM
 70
0
  9
$DIMTFAC
 40
1.0
  9
$DIMGAP
 40
0.09
  9
$DIMDSEP
 70
46
  9
$AUNITS
 70
0
  9
$PDMODE
 70
3
  9
$PDSIZE
 40
0.3125
  9
$HANDSEED
  5
381
  9
$TILEMODE
 70
1
  9
$MEASUREMENT
 70
0
  9
$INSUNITS
 70
1
  0
ENDSEC
  0
SECTION
  2
CLASSES
  0
CLASS
  1
ACDBDICTIONARYWDFLT
  2
AcDbDictionaryWithDefault
  3
AutoCAD 2000
 90
0
 91
1
280
0
281
0
  0
CLASS
  1
ACDBPLACEHOLDER
  2
AcDbPlaceHolder
  3
AutoCAD 2000
 90
0
 91
1
280
0
281
0
  0
CLASS
  1
LAYOUT
  2
AcDbLayout
  3
AutoCAD 2000
 90
0
 91
0
280
0
281
0
  0
ENDSEC
  0
SECTION
  2
TABLES
  0
TABLE
  2
VPORT
  5
8
100
AcDbSymbolTable
 70
2
  0
VPORT
  5
1F4
100
AcDbSymbolTableRecord
100
AcDbViewportTableRecord
  2
*ACTIVE
 70
0
 10
0.0
 20
0.0
 11
1.0
 21
1.0
 12
11.0
 22
8.5
 13
0.0
 23
0.0
 14
1.0
 24
1.0
 15
0.0
 25
0.0
 16
0.0
 26
0.0
 36
1.0
 17
0.0
 27
0.0
 37
0.0
 40
17.0
 41
1.2941176471
 42
50.0
 43
0.0
 44
0.0
 50
0.0
 51
0.0
 71
0
 72
100
 73
1
 74
1
 75
0
 76
0
 77
0
 78
0
  0
ENDTAB
  0
TABLE
  2
LTYPE
  5
5
100
AcDbSymbolTable
 70
6
  0
LTYPE
  5
14
100
AcDbSymbolTableRecord
100
AcDbLinetypeTableRecord
  2
BYBLOCK
 70
0
  3

 72
65
 73
0
 40
0.0
  0
LTYPE
  5
15
100
AcDbSymbolTableRecord
100
AcDbLinetypeTableRecord
  2
BYLAYER
 70
0
  3

 72
65
 73
0
 40
0.0
  0
LTYPE
  5
16
100
AcDbSymbolTableRecord
100
AcDbLinetypeTableRecord
  2
CONTINUOUS
 70
64
  3
Solid line
 72
65
 73
0
 40
0.0
  0
LTYPE
  5
1F5
100
AcDbSymbolTableRecord
100
AcDbLinetypeTableRecord
  2
CENTER
 70
64
  3
____ _ ____ _ ____ _ ____ _ ____ _ ____ _ ____
 72
65
 73
4
 40
0.6
 49
0.375
 74
0
 49
-0.075
 74
0
 49
0.075
 74
0
 49
-0.075
 74
0
  0
LTYPE
  5
1F6
100
AcDbSymbolTableRecord
100
AcDbLinetypeTableRecord
  2
HIDDEN
 70
64
  3
- - - - - - - - - - - - - - - - - - - -
 72
65
 73
2
 40
0.2
 49
0.1
 74
0
 49
-0.1
 74
0
  0
LTYPE
  5
1F7
100
AcDbSymbolTableRecord
100
AcDbLinetypeTableRecord
  2
PHANTOM
 70
64
  3
_____ _ _ _____ _ _ _____ _ _ _____
 72
65
 73
6
 40
0.8
 49
0.45
 74
0
 49
-0.05
 74
0
 49
0.1
 74
0
 49
-0.05
 74
0
 49
0.1
 74
0
 49
-0.05
 74
0
  0
LTYPE
  5
1F8
100
AcDbSymbolTableRecord
100
AcDbLinetypeTableRecord
  2
DOT
 70
64
  3
. . . . . . . . . . . . . . . . . . . .
 72
65
 73
2
 40
0.2
 49
0.1
 74
0
 49
-0.1
 74
0
  0
LTYPE
  5
1F9
100
AcDbSymbolTableRecord
100
AcDbLinetypeTableRecord
  2
DASHED
 70
64
  3
- - - - - - - - - - - - - - - - - - - -
 72
65
 73
2
 40
0.2
 49
0.1
 74
0
 49
-0.1
 74
0
  0
ENDTAB
  0
TABLE
  2
LAYER
  5
2
100
AcDbSymbolTable
 70
36
  0
LAYER
  5
10
100
AcDbSymbolTableRecord
100
AcDbLayerTableRecord
  2
0
 70
0
 62
7
  6
CONTINUOUS
370
-3
390
F
  0
LAYER
  5
1FA
100
AcDbSymbolTableRecord
100
AcDbLayerTableRecord
  2
DEFAULT_1
 70
0
 62
7
  6
CENTER
370
-3
390
F
  0
LAYER
  5
1FB
100
AcDbSymbolTableRecord
100
AcDbLayerTableRecord
  2
DEFAULT_2
 70
0
 62
8
  6
HIDDEN
370
-3
390
F
  0
LAYER
  5
1FC
100
AcDbSymbolTableRecord
100
AcDbLayerTableRecord
  2
DEFAULT_3
 70
0
 62
7
  6
PHANTOM
370
-3
390
F
  0
LAYER
  5
1FD
100
AcDbSymbolTableRecord
100
AcDbLayerTableRecord
  2
01_ALL_DTM_PLN
 70
0
 62
7
  6
CONTINUOUS
370
-3
390
F
  0
LAYER
  5
1FE
100
AcDbSymbolTableRecord
100
AcDbLayerTableRecord
  2
01__ASM_ALL_DTM_PLN
 70
0
 62
7
  6
CONTINUOUS
370
-3
390
F
  0
LAYER
  5
1FF
100
AcDbSymbolTableRecord
100
AcDbLayerTableRecord
  2
01__ASM_DEF_DTM_PLN
 70
0
 62
7
  6
CONTINUOUS
370
-3
390
F
  0
LAYER
  5
200
100
AcDbSymbolTableRecord
100
AcDbLayerTableRecord
  2
01___PRT_ALL_DTM_PLN
 70
0
 62
7
  6
CONTINUOUS
370
-3
390
F
  0
LAYER
  5
201
100
AcDbSymbolTableRecord
100
AcDbLayerTableRecord
  2
01___PRT_DEF_DTM_PLN
 70
0
 62
7
  6
CONTINUOUS
370
-3
390
F
  0
LAYER
  5
202
100
AcDbSymbolTableRecord
100
AcDbLayerTableRecord
  2
02_ALL_AXES
 70
0
 62
7
  6
CONTINUOUS
370
-3
390
F
  0
LAYER
  5
203
100
AcDbSymbolTableRecord
100
AcDbLayerTableRecord
  2
02__ASM_ALL_AXES
 70
0
 62
7
  6
CONTINUOUS
370
-3
390
F
  0
LAYER
  5
204
100
AcDbSymbolTableRecord
100
AcDbLayerTableRecord
  2
02___PRT_ALL_AXES
 70
0
 62
7
  6
CONTINUOUS
370
-3
390
F
  0
LAYER
  5
205
100
AcDbSymbolTableRecord
100
AcDbLayerTableRecord
  2
03_ALL_CURVES
 70
0
 62
7
  6
CONTINUOUS
370
-3
390
F
  0
LAYER
  5
206
100
AcDbSymbolTableRecord
100
AcDbLayerTableRecord
  2
03__ASM_ALL_CURVES
 70
0
 62
7
  6
CONTINUOUS
370
-3
390
F
  0
LAYER
  5
207
100
AcDbSymbolTableRecord
100
AcDbLayerTableRecord
  2
03___PRT_ALL_CURVES
 70
0
 62
7
  6
CONTINUOUS
370
-3
390
F
  0
LAYER
  5
208
100
AcDbSymbolTableRecord
100
AcDbLayerTableRecord
  2
04_ALL_DTM_PNT
 70
0
 62
7
  6
CONTINUOUS
370
-3
390
F
  0
LAYER
  5
209
100
AcDbSymbolTableRecord
100
AcDbLayerTableRecord
  2
04__ASM_ALL_DTM_PNT
 70
0
 62
7
  6
CONTINUOUS
370
-3
390
F
  0
LAYER
  5
20A
100
AcDbSymbolTableRecord
100
AcDbLayerTableRecord
  2
04___PRT_ALL_DTM_PNT
 70
0
 62
7
  6
CONTINUOUS
370
-3
390
F
  0
LAYER
  5
20B
100
AcDbSymbolTableRecord
100
AcDbLayerTableRecord
  2
05_ALL_DTM_CSYS
 70
0
 62
7
  6
CONTINUOUS
370
-3
390
F
  0
LAYER
  5
20C
100
AcDbSymbolTableRecord
100
AcDbLayerTableRecord
  2
05__ASM_ALL_DTM_CSYS
 70
0
 62
7
  6
CONTINUOUS
370
-3
390
F
  0
LAYER
  5
20D
100
AcDbSymbolTableRecord
100
AcDbLayerTableRecord
  2
05__ASM_DEF_DTM_CSYS
 70
0
 62
7
  6
CONTINUOUS
370
-3
390
F
  0
LAYER
  5
20E
100
AcDbSymbolTableRecord
100
AcDbLayerTableRecord
  2
05___PRT_ALL_DTM_CSYS
 70
0
 62
7
  6
CONTINUOUS
370
-3
390
F
  0
LAYER
  5
20F
100
AcDbSymbolTableRecord
100
AcDbLayerTableRecord
  2
05___PRT_DEF_DTM_CSYS
 70
0
 62
7
  6
CONTINUOUS
370
-3
390
F
  0
LAYER
  5
210
100
AcDbSymbolTableRecord
100
AcDbLayerTableRecord
  2
06_ALL_SURFS
 70
0
 62
7
  6
CONTINUOUS
370
-3
390
F
  0
LAYER
  5
211
100
AcDbSymbolTableRecord
100
AcDbLayerTableRecord
  2
06__ASM_ALL_SURFS
 70
0
 62
7
  6
CONTINUOUS
370
-3
390
F
  0
LAYER
  5
212
100
AcDbSymbolTableRecord
100
AcDbLayerTableRecord
  2
06___PRT_ALL_SURFS
 70
0
 62
7
  6
CONTINUOUS
370
-3
390
F
  0
LAYER
  5
213
100
AcDbSymbolTableRecord
100
AcDbLayerTableRecord
  2
07__ASM_ALL_SKELETONS
 70
0
 62
7
  6
CONTINUOUS
370
-3
390
F
  0
ENDTAB
  0
TABLE
  2
STYLE
  5
3
100
AcDbSymbolTable
 70
1
  0
STYLE
  5
11
100
AcDbSymbolTableRecord
100
AcDbTextStyleTableRecord
  2
STANDARD
 70
0
 40
0.0
 41
0.8
 50
0.0
 71
0
 42
0.2
  3
txt
  4

  0
STYLE
  5
214
100
AcDbSymbolTableRecord
100
AcDbTextStyleTableRecord
  2
TEXTSTYLE_1
 70
0
 40
0.0
 41
0.8
 50
0.0
 71
0
 42
0.2
  3
gdt
  4

  0
ENDTAB
  0
TABLE
  2
VIEW
  5
6
100
AcDbSymbolTable
 70
0
  0
ENDTAB
  0
TABLE
  2
UCS
  5
7
100
AcDbSymbolTable
 70
0
  0
ENDTAB
  0
TABLE
  2
APPID
  5
9
100
AcDbSymbolTable
 70
1
  0
APPID
  5
215
100
AcDbSymbolTableRecord
100
AcDbRegAppTableRecord
  2
ACAD
 70
0
  0
ENDTAB
  0
TABLE
  2
BLOCK_RECORD
  5
1
100
AcDbSymbolTable
 70
0
  0
BLOCK_RECORD
  5
216
100
AcDbSymbolTableRecord
100
AcDbBlockTableRecord
  2
*Model_Space
  0
BLOCK_RECORD
  5
217
100
AcDbSymbolTableRecord
100
AcDbBlockTableRecord
  2
*Paper_Space
  0
ENDTAB
  0
TABLE
  2
DIMSTYLE
  5
A
100
AcDbSymbolTable
 70
1
100
AcDbDimStyleTable
 71
0
  0
DIMSTYLE
105
218
100
AcDbSymbolTableRecord
100
AcDbDimStyleTableRecord
  2
STANDARD
 70
0
  3

  4

 40
1.0
 41
0.1875
 42
0.0625
 43
0.38
 44
0.125
 45
0.0
 46
0.0
 47
0.0001
 48
0.0001
140
0.15625
141
0.09
142
0.0
143
25.4
144
1.0
145
0.0
146
1.0
147
0.09
 71
0.0
 72
0.0
 73
1
 74
1
 75
0
 76
0
 77
0
 78
4
170
0
171
2
172
0
173
0
174
0
175
0
176
0
177
0
178
0
270
2
271
4
272
4
273
2
274
2
275
0
280
0
281
0
282
0
283
1
284
4
285
0
286
0
287
3
288
0
340
11
278
46
  0
ENDTAB
  0
ENDSEC
  0
SECTION
  2
BLOCKS
  0
BLOCK
  5
20
100
AcDbEntity
  8
0
100
AcDbBlockBegin
  2
*Model_Space
 70
0
 10
0.0
 20
0.0
 30
0.0
  3
*Model_Space
  1

  0
ENDBLK
  5
21
100
AcDbEntity
  8
0
100
AcDbBlockEnd
  0
BLOCK
  5
1C
100
AcDbEntity
  8
0
100
AcDbBlockBegin
  2
*Paper_Space
 70
0
 10
0.0
 20
0.0
 30
0.0
  3
*Paper_Space
  1

  0
ENDBLK
  5
1D
100
AcDbEntity
  8
0
100
AcDbBlockEnd
  0
ENDSEC
  0
SECTION
  2
ENTITIES
  0
MTEXT
  5
219
100
AcDbEntity
  8
0
100
AcDbMText
 62
7
  6
CONTINUOUS
  7
STANDARD
 71
1
 72
1
 10
15.9560215477
 20
0.9479130325
 30
0.0
 11
1.0
 21
0.0
 31
0.0
 44
0.9
  1
SCALE: 1:3.000
 40
0.3
 41
3.36
  0
LINE
  5
21A
100
AcDbEntity
  8
0
100
AcDbLine
 62
7
  6
CONTINUOUS
 10
0.0
 20
0.0
 11
0.0
 21
17.0
  0
LINE
  5
21B
100
AcDbEntity
  8
0
100
AcDbLine
 62
7
  6
CONTINUOUS
 10
0.0
 20
0.0
 11
22.0
 21
0.0
  0
LINE
  5
21C
100
AcDbEntity
  8
0
100
AcDbLine
 62
7
  6
CONTINUOUS
 10
0.0
 20
17.0
 11
22.0
 21
17.0
  0
LINE
  5
21D
100
AcDbEntity
  8
0
100
AcDbLine
 62
7
  6
CONTINUOUS
 10
22.0
 20
0.0
 11
22.0
 21
17.0
  0
LINE
  5
21E
100
AcDbEntity
  8
0
100
AcDbLine
 62
7
  6
CONTINUOUS
 10
4.3303672762
 20
5.5801198968
 11
4.3303672762
 21
5.4601198968
  0
LINE
  5
21F
100
AcDbEntity
  8
0
100
AcDbLine
 62
7
  6
CONTINUOUS
 10
4.6013122762
 20
5.3101198968
 11
4.6594222762
 21
5.3101198968
  0
LINE
  5
220
100
AcDbEntity
  8
0
100
AcDbLine
 62
7
  6
CONTINUOUS
 10
5.2013122762
 20
5.3101198968
 11
5.2594222762
 21
5.3101198968
  0
LINE
  5
221
100
AcDbEntity
  8
0
100
AcDbLine
 62
7
  6
CONTINUOUS
 10
5.8013122762
 20
5.3101198968
 11
5.8594222762
 21
5.3101198968
  0
LINE
  5
222
100
AcDbEntity
  8
0
100
AcDbLine
 62
7
  6
CONTINUOUS
 10
6.4013122762
 20
5.3101198968
 11
6.4594222762
 21
5.3101198968
  0
LINE
  5
223
100
AcDbEntity
  8
0
100
AcDbLine
 62
7
  6
CONTINUOUS
 10
7.0013122762
 20
5.3101198968
 11
7.0594222762
 21
5.3101198968
  0
LINE
  5
224
100
AcDbEntity
  8
0
100
AcDbLine
 62
7
  6
CONTINUOUS
 10
7.6013122762
 20
5.3101198968
 11
7.6594222762
 21
5.3101198968
  0
LINE
  5
225
100
AcDbEntity
  8
0
100
AcDbLine
 62
7
  6
CONTINUOUS
 10
4.3303672762
 20
5.4601198968
 11
4.4353672762
 21
5.4601198968
  0
LINE
  5
226
100
AcDbEntity
  8
0
100
AcDbLine
 62
7
  6
CONTINUOUS
 10
4.8253672762
 20
5.4601198968
 11
5.0353672762
 21
5.4601198968
  0
LINE
  5
227
100
AcDbEntity
  8
0
100
AcDbLine
 62
7
  6
CONTINUOUS
 10
5.4253672762
 20
5.4601198968
 11
5.6353672762
 21
5.4601198968
  0
LINE
  5
228
100
AcDbEntity
  8
0
100
AcDbLine
 62
7
  6
CONTINUOUS
 10
6.0253672762
 20
5.4601198968
 11
6.2353672762
 21
5.4601198968
  0
LINE
  5
229
100
AcDbEntity
  8
0
100
AcDbLine
 62
7
  6
CONTINUOUS
 10
6.6253672762
 20
5.4601198968
 11
6.8353672762
 21
5.4601198968
  0
LINE
  5
22A
100
AcDbEntity
  8
0
100
AcDbLine
 62
7
  6
CONTINUOUS
 10
7.2253672762
 20
5.4601198968
 11
7.4353672762
 21
5.4601198968
  0
LINE
  5
22B
100
AcDbEntity
  8
0
100
AcDbLine
 62
7
  6
CONTINUOUS
 10
7.8253672762
 20
5.4601198968
 11
7.9303672762
 21
5.4601198968
  0
LINE
  5
22C
100
AcDbEntity
  8
0
100
AcDbLine
 62
7
  6
CONTINUOUS
 10
7.9303672762
 20
5.5801198968
 11
7.8253672762
 21
5.5801198968
  0
LINE
  5
22D
100
AcDbEntity
  8
0
100
AcDbLine
 62
7
  6
CONTINUOUS
 10
7.4353672762
 20
5.5801198968
 11
7.2253672762
 21
5.5801198968
  0
LINE
  5
22E
100
AcDbEntity
  8
0
100
AcDbLine
 62
7
  6
CONTINUOUS
 10
6.8353672762
 20
5.5801198968
 11
6.6253672762
 21
5.5801198968
  0
LINE
  5
22F
100
AcDbEntity
  8
0
100
AcDbLine
 62
7
  6
CONTINUOUS
 10
6.2353672762
 20
5.5801198968
 11
6.0253672762
 21
5.5801198968
  0
LINE
  5
230
100
AcDbEntity
  8
0
100
AcDbLine
 62
7
  6
CONTINUOUS
 10
5.6353672762
 20
5.5801198968
 11
5.4253672762
 21
5.5801198968
  0
LINE
  5
231
100
AcDbEntity
  8
0
100
AcDbLine
 62
7
  6
CONTINUOUS
 10
5.0353672762
 20
5.5801198968
 11
4.8253672762
 21
5.5801198968
  0
LINE
  5
232
100
AcDbEntity
  8
0
100
AcDbLine
 62
7
  6
CONTINUOUS
 10
4.4353672762
 20
5.5801198968
 11
4.3303672762
 21
5.5801198968
  0
LINE
  5
233
100
AcDbEntity
  8
0
100
AcDbLine
 62
7
  6
CONTINUOUS
 10
7.6594222762
 20
5.7301198968
 11
7.6013122762
 21
5.7301198968
  0
LINE
  5
234
100
AcDbEntity
  8
0
100
AcDbLine
 62
7
  6
CONTINUOUS
 10
7.0594222762
 20
5.7301198968
 11
7.0013122762
 21
5.7301198968
  0
LINE
  5
235
100
AcDbEntity
  8
0
100
AcDbLine
 62
7
  6
CONTINUOUS
 10
6.4594222762
 20
5.7301198968
 11
6.4013122762
 21
5.7301198968
  0
LINE
  5
236
100
AcDbEntity
  8
0
100
AcDbLine
 62
7
  6
CONTINUOUS
 10
5.8594222762
 20
5.7301198968
 11
5.8013122762
 21
5.7301198968
  0
LINE
  5
237
100
AcDbEntity
  8
0
100
AcDbLine
 62
7
  6
CONTINUOUS
 10
5.2594222762
 20
5.7301198968
 11
5.2013122762
 21
5.7301198968
  0
LINE
  5
238
100
AcDbEntity
  8
0
100
AcDbLine
 62
7
  6
CONTINUOUS
 10
4.6594222762
 20
5.7301198968
 11
4.6013122762
 21
5.7301198968
  0
LINE
  5
239
100
AcDbEntity
  8
0
100
AcDbLine
 62
7
  6
CONTINUOUS
 10
7.9303672762
 20
5.4601198968
 11
7.9303672762
 21
5.5801198968
  0
LINE
  5
23A
100
AcDbEntity
  8
0
100
AcDbLine
 62
7
  6
CONTINUOUS
 10
4.2708720839
 20
13.1625477814
 11
4.2708720839
 21
12.0375477814
  0
LINE
  5
23B
100
AcDbEntity
  8
0
100
AcDbLine
 62
7
  6
CONTINUOUS
 10
7.8708720839
 20
12.0375477814
 11
4.2708720839
 21
12.0375477814
  0
LINE
  5
23C
100
AcDbEntity
  8
0
100
AcDbLine
 62
7
  6
CONTINUOUS
 10
4.2708720839
 20
13.1625477814
 11
7.8708720839
 21
13.1625477814
  0
LINE
  5
23D
100
AcDbEntity
  8
0
100
AcDbLine
 62
7
  6
CONTINUOUS
 10
7.8708720839
 20
13.1625477814
 11
7.8708720839
 21
12.0375477814
  0
LINE
  5
23E
100
AcDbEntity
  8
0
100
AcDbLine
 62
7
  6
CONTINUOUS
 10
14.9978552569
 20
5.2506247044
 11
14.9978552569
 21
5.6706247044
  0
LINE
  5
23F
100
AcDbEntity
  8
0
100
AcDbLine
 62
7
  6
CONTINUOUS
 10
16.1228552569
 20
5.2506247044
 11
14.9978552569
 21
5.2506247044
  0
LINE
  5
240
100
AcDbEntity
  8
0
100
AcDbLine
 62
7
  6
CONTINUOUS
 10
16.1228552569
 20
5.4006247044
 11
14.9978552569
 21
5.4006247044
  0
LINE
  5
241
100
AcDbEntity
  8
0
100
AcDbLine
 62
7
  6
CONTINUOUS
 10
16.1228552569
 20
5.5206247044
 11
14.9978552569
 21
5.5206247044
  0
LINE
  5
242
100
AcDbEntity
  8
0
100
AcDbLine
 62
7
  6
CONTINUOUS
 10
16.1228552569
 20
5.6706247044
 11
14.9978552569
 21
5.6706247044
  0
LINE
  5
243
100
AcDbEntity
  8
0
100
AcDbLine
 62
7
  6
CONTINUOUS
 10
16.1228552569
 20
5.2506247044
 11
16.1228552569
 21
5.6706247044
  0
LINE
  5
244
100
AcDbEntity
  8
0
100
AcDbLine
 62
7
  6
CONTINUOUS
 10
13.6587378604
 20
12.1074802043
 11
13.6953428844
 21
12.0328870081
  0
LINE
  5
245
100
AcDbEntity
  8
0
100
AcDbLine
 62
7
  6
CONTINUOUS
 10
13.8108246814
 20
12.1740176524
 11
13.810159262
 21
12.1714575077
  0
LINE
  5
246
100
AcDbEntity
  8
0
100
AcDbLine
 62
7
  6
CONTINUOUS
 10
13.9310624742
 20
12.9887229777
 11
13.6587378604
 21
12.1074802043
  0
LINE
  5
247
100
AcDbEntity
  8
0
100
AcDbLine
 62
7
  6
CONTINUOUS
 10
14.0831492339
 20
13.0552604447
 11
13.81082462
 21
12.1740176714
  0
LINE
  5
248
100
AcDbEntity
  8
0
100
AcDbLine
 62
7
  6
CONTINUOUS
 10
14.0958926597
 20
11.9663495601
 11
14.0965580791
 21
11.9689097048
  0
LINE
  5
249
100
AcDbEntity
  8
0
100
AcDbLine
 62
7
  6
CONTINUOUS
 10
14.1108787298
 20
12.0148442831
 11
14.096672906
 21
11.9688742206
  0
LINE
  5
24A
100
AcDbEntity
  8
0
100
AcDbLine
 62
7
  6
CONTINUOUS
 10
14.3634612778
 20
12.1740176524
 11
14.3627958584
 21
12.1714575077
  0
LINE
  5
24B
100
AcDbEntity
  8
0
100
AcDbLine
 62
7
  6
CONTINUOUS
 10
14.6357858303
 20
13.0552604447
 11
14.3634612164
 21
12.1740176714
  0
LINE
  5
24C
100
AcDbEntity
  8
0
100
AcDbLine
 62
7
  6
CONTINUOUS
 10
14.6485292561
 20
11.9663495601
 11
14.6491946755
 21
11.9689097048
  0
LINE
  5
24D
100
AcDbEntity
  8
0
100
AcDbLine
 62
7
  6
CONTINUOUS
 10
14.6635153262
 20
12.0148442831
 11
14.6493095024
 21
11.9688742206
  0
LINE
  5
24E
100
AcDbEntity
  8
0
100
AcDbLine
 62
7
  6
CONTINUOUS
 10
13.9906560354
 20
11.9396455129
 11
14.0441788897
 21
11.9396455129
  0
LINE
  5
24F
100
AcDbEntity
  8
0
100
AcDbLine
 62
7
  6
CONTINUOUS
 10
14.5432926318
 20
11.9396455129
 11
14.5968154861
 21
11.9396455129
  0
LINE
  5
250
100
AcDbEntity
  8
0
100
AcDbLine
 62
7
  6
CONTINUOUS
 10
15.0959292282
 20
11.9396455129
 11
15.1494520825
 21
11.9396455129
  0
LINE
  5
251
100
AcDbEntity
  8
0
100
AcDbLine
 62
7
  6
CONTINUOUS
 10
15.6485658246
 20
11.9396455129
 11
15.7020886789
 21
11.9396455129
  0
LINE
  5
252
100
AcDbEntity
  8
0
100
AcDbLine
 62
7
  6
CONTINUOUS
 10
16.201202421
 20
11.9396455129
 11
16.2547252753
 21
11.9396455129
  0
LINE
  5
253
100
AcDbEntity
  8
0
100
AcDbLine
 62
7
  6
CONTINUOUS
 10
16.7538390174
 20
11.9396455129
 11
16.8073618717
 21
11.9396455129
  0
LINE
  5
254
100
AcDbEntity
  8
0
100
AcDbLine
 62
7
  6
CONTINUOUS
 10
14.9160978742
 20
12.1740176524
 11
14.9154324548
 21
12.1714575077
  0
LINE
  5
255
100
AcDbEntity
  8
0
100
AcDbLine
 62
7
  6
CONTINUOUS
 10
15.1884224267
 20
13.0552604447
 11
14.9160978129
 21
12.1740176714
  0
LINE
  5
256
100
AcDbEntity
  8
0
100
AcDbLine
 62
7
  6
CONTINUOUS
 10
13.6953428844
 20
12.0328870081
 11
13.7920542887
 21
12.0328870081
  0
LINE
  5
257
100
AcDbEntity
  8
0
100
AcDbLine
 62
7
  6
CONTINUOUS
 10
14.1512680764
 20
12.0328870081
 11
14.3446908851
 21
12.0328870081
  0
LINE
  5
258
100
AcDbEntity
  8
0
100
AcDbLine
 62
7
  6
CONTINUOUS
 10
14.7039046728
 20
12.0328870081
 11
14.8973274815
 21
12.0328870081
  0
LINE
  5
259
100
AcDbEntity
  8
0
100
AcDbLine
 62
7
  6
CONTINUOUS
 10
15.2565412692
 20
12.0328870081
 11
15.4499640779
 21
12.0328870081
  0
LINE
  5
25A
100
AcDbEntity
  8
0
100
AcDbLine
 62
7
  6
CONTINUOUS
 10
15.8091778656
 20
12.0328870081
 11
16.0026006743
 21
12.0328870081
  0
LINE
  5
25B
100
AcDbEntity
  8
0
100
AcDbLine
 62
7
  6
CONTINUOUS
 10
16.361814462
 20
12.0328870081
 11
16.5552372707
 21
12.0328870081
  0
LINE
  5
25C
100
AcDbEntity
  8
0
100
AcDbLine
 62
7
  6
CONTINUOUS
 10
16.9144510584
 20
12.0328870081
 11
17.0111624628
 21
12.0328870081
  0
LINE
  5
25D
100
AcDbEntity
  8
0
100
AcDbLine
 62
7
  6
CONTINUOUS
 10
16.9745574388
 20
12.1074802043
 11
16.8778460344
 21
12.1074802043
  0
LINE
  5
25E
100
AcDbEntity
  8
0
100
AcDbLine
 62
7
  6
CONTINUOUS
 10
16.5186322467
 20
12.1074802043
 11
16.325209438
 21
12.1074802043
  0
LINE
  5
25F
100
AcDbEntity
  8
0
100
AcDbLine
 62
7
  6
CONTINUOUS
 10
15.9659956503
 20
12.1074802043
 11
15.7725728416
 21
12.1074802043
  0
LINE
  5
260
100
AcDbEntity
  8
0
100
AcDbLine
 62
7
  6
CONTINUOUS
 10
15.4133590539
 20
12.1074802043
 11
15.2199362452
 21
12.1074802043
  0
LINE
  5
261
100
AcDbEntity
  8
0
100
AcDbLine
 62
7
  6
CONTINUOUS
 10
14.8607224575
 20
12.1074802043
 11
14.6672996488
 21
12.1074802043
  0
LINE
  5
262
100
AcDbEntity
  8
0
100
AcDbLine
 62
7
  6
CONTINUOUS
 10
14.3080858611
 20
12.1074802043
 11
14.1146630524
 21
12.1074802043
  0
LINE
  5
263
100
AcDbEntity
  8
0
100
AcDbLine
 62
7
  6
CONTINUOUS
 10
13.7554492647
 20
12.1074802043
 11
13.6587378604
 21
12.1074802043
  0
LINE
  5
264
100
AcDbEntity
  8
0
100
AcDbLine
 62
7
  6
CONTINUOUS
 10
16.6792442878
 20
12.2007216996
 11
16.6257214334
 21
12.2007216996
  0
LINE
  5
265
100
AcDbEntity
  8
0
100
AcDbLine
 62
7
  6
CONTINUOUS
 10
16.1266076913
 20
12.2007216996
 11
16.073084837
 21
12.2007216996
  0
LINE
  5
266
100
AcDbEntity
  8
0
100
AcDbLine
 62
7
  6
CONTINUOUS
 10
15.5739710949
 20
12.2007216996
 11
15.5204482406
 21
12.2007216996
  0
LINE
  5
267
100
AcDbEntity
  8
0
100
AcDbLine
 62
7
  6
CONTINUOUS
 10
15.0213344985
 20
12.2007216996
 11
14.9678116442
 21
12.2007216996
  0
LINE
  5
268
100
AcDbEntity
  8
0
100
AcDbLine
 62
7
  6
CONTINUOUS
 10
14.4686979021
 20
12.2007216996
 11
14.4151750478
 21
12.2007216996
  0
LINE
  5
269
100
AcDbEntity
  8
0
100
AcDbLine
 62
7
  6
CONTINUOUS
 10
13.9160613057
 20
12.2007216996
 11
13.8625384514
 21
12.2007216996
  0
LINE
  5
26A
100
AcDbEntity
  8
0
100
AcDbLine
 62
7
  6
CONTINUOUS
 10
15.2011658525
 20
11.9663495601
 11
15.2018312719
 21
11.9689097048
  0
LINE
  5
26B
100
AcDbEntity
  8
0
100
AcDbLine
 62
7
  6
CONTINUOUS
 10
15.2163459353
 20
12.0154721084
 11
15.2019460988
 21
11.9688742206
  0
LINE
  5
26C
100
AcDbEntity
  8
0
100
AcDbLine
 62
7
  6
CONTINUOUS
 10
15.4687344706
 20
12.1740176524
 11
15.4680690512
 21
12.1714575077
  0
LINE
  5
26D
100
AcDbEntity
  8
0
100
AcDbLine
 62
7
  6
CONTINUOUS
 10
15.7410590231
 20
13.0552604447
 11
15.4687344093
 21
12.1740176714
  0
LINE
  5
26E
100
AcDbEntity
  8
0
100
AcDbLine
 62
7
  6
CONTINUOUS
 10
15.7538024489
 20
11.9663495601
 11
15.7544678683
 21
11.9689097048
  0
LINE
  5
26F
100
AcDbEntity
  8
0
100
AcDbLine
 62
7
  6
CONTINUOUS
 10
15.7689825317
 20
12.0154721084
 11
15.7545826952
 21
11.9688742206
  0
LINE
  5
270
100
AcDbEntity
  8
0
100
AcDbLine
 62
7
  6
CONTINUOUS
 10
17.2468820526
 20
12.9887229777
 11
17.1501706482
 21
12.9887229777
  0
LINE
  5
271
100
AcDbEntity
  8
0
100
AcDbLine
 62
7
  6
CONTINUOUS
 10
14.0277738786
 20
12.9887229777
 11
13.9310624742
 21
12.9887229777
  0
LINE
  5
272
100
AcDbEntity
  8
0
100
AcDbLine
 62
7
  6
CONTINUOUS
 10
14.3869876662
 20
12.9887229777
 11
14.580410475
 21
12.9887229777
  0
LINE
  5
273
100
AcDbEntity
  8
0
100
AcDbLine
 62
7
  6
CONTINUOUS
 10
14.9396242626
 20
12.9887229777
 11
15.1330470714
 21
12.9887229777
  0
LINE
  5
274
100
AcDbEntity
  8
0
100
AcDbLine
 62
7
  6
CONTINUOUS
 10
15.492260859
 20
12.9887229777
 11
15.6856836678
 21
12.9887229777
  0
LINE
  5
275
100
AcDbEntity
  8
0
100
AcDbLine
 62
7
  6
CONTINUOUS
 10
16.0448974554
 20
12.9887229777
 11
16.2383202642
 21
12.9887229777
  0
LINE
  5
276
100
AcDbEntity
  8
0
100
AcDbLine
 62
7
  6
CONTINUOUS
 10
16.5975340518
 20
12.9887229777
 11
16.7909568606
 21
12.9887229777
  0
LINE
  5
277
100
AcDbEntity
  8
0
100
AcDbLine
 62
7
  6
CONTINUOUS
 10
16.021371067
 20
12.1740176524
 11
16.0207056476
 21
12.1714575077
  0
LINE
  5
278
100
AcDbEntity
  8
0
100
AcDbLine
 62
7
  6
CONTINUOUS
 10
16.2936956195
 20
13.0552604447
 11
16.0213710057
 21
12.1740176714
  0
LINE
  5
279
100
AcDbEntity
  8
0
100
AcDbLine
 62
7
  6
CONTINUOUS
 10
16.9515689016
 20
13.0819644729
 11
16.8980460472
 21
13.0819644729
  0
LINE
  5
27A
100
AcDbEntity
  8
0
100
AcDbLine
 62
7
  6
CONTINUOUS
 10
16.3989323052
 20
13.0819644729
 11
16.3454094508
 21
13.0819644729
  0
LINE
  5
27B
100
AcDbEntity
  8
0
100
AcDbLine
 62
7
  6
CONTINUOUS
 10
15.8462957088
 20
13.0819644729
 11
15.7927728544
 21
13.0819644729
  0
LINE
  5
27C
100
AcDbEntity
  8
0
100
AcDbLine
 62
7
  6
CONTINUOUS
 10
15.2936591124
 20
13.0819644729
 11
15.240136258
 21
13.0819644729
  0
LINE
  5
27D
100
AcDbEntity
  8
0
100
AcDbLine
 62
7
  6
CONTINUOUS
 10
14.741022516
 20
13.0819644729
 11
14.6874996616
 21
13.0819644729
  0
LINE
  5
27E
100
AcDbEntity
  8
0
100
AcDbLine
 62
7
  6
CONTINUOUS
 10
14.1883859196
 20
13.0819644729
 11
14.1348630652
 21
13.0819644729
  0
LINE
  5
27F
100
AcDbEntity
  8
0
100
AcDbLine
 62
7
  6
CONTINUOUS
 10
16.3064390453
 20
11.9663495601
 11
16.3071044647
 21
11.9689097048
  0
LINE
  5
280
100
AcDbEntity
  8
0
100
AcDbLine
 62
7
  6
CONTINUOUS
 10
16.3216191281
 20
12.0154721084
 11
16.3072192916
 21
11.9688742206
  0
LINE
  5
281
100
AcDbEntity
  8
0
100
AcDbLine
 62
7
  6
CONTINUOUS
 10
16.5740076634
 20
12.1740176524
 11
16.573342244
 21
12.1714575077
  0
LINE
  5
282
100
AcDbEntity
  8
0
100
AcDbLine
 62
7
  6
CONTINUOUS
 10
16.8463322159
 20
13.0552604447
 11
16.5740076021
 21
12.1740176714
  0
LINE
  5
283
100
AcDbEntity
  8
0
100
AcDbLine
 62
7
  6
CONTINUOUS
 10
17.0111624628
 20
12.0328870081
 11
16.9745574388
 21
12.1074802043
  0
LINE
  5
284
100
AcDbEntity
  8
0
100
AcDbLine
 62
7
  6
CONTINUOUS
 10
16.8590756417
 20
11.9663495601
 11
16.8597410611
 21
11.9689097048
  0
LINE
  5
285
100
AcDbEntity
  8
0
100
AcDbLine
 62
7
  6
CONTINUOUS
 10
16.8744304279
 20
12.0160374489
 11
16.859855888
 21
11.9688742206
  0
LINE
  5
286
100
AcDbEntity
  8
0
100
AcDbLine
 62
7
  6
CONTINUOUS
 10
17.2468820526
 20
12.9887229777
 11
16.9745574388
 21
12.1074802043
  0
LINE
  5
287
100
AcDbEntity
  8
0
100
AcDbLine
 62
7
  6
CONTINUOUS
 10
17.2834870766
 20
12.9141297815
 11
17.0111624628
 21
12.0328870081
  0
LINE
  5
288
100
AcDbEntity
  8
0
100
AcDbLine
 62
7
  6
CONTINUOUS
 10
17.2834870766
 20
12.9141297815
 11
17.2468820526
 21
12.9887229777
  0
ARC
  5
289
100
AcDbEntity
  8
0
100
AcDbCircle
 62
7
  6
CONTINUOUS
 10
4.2804394271
 20
4.9548095462
 40
0.939
100
AcDbArc
 50
25.3742213651
 51
30.2471365633
  0
ARC
  5
28A
100
AcDbEntity
  8
0
100
AcDbCircle
 62
7
  6
CONTINUOUS
 10
4.8804394271
 20
4.9548095462
 40
0.939
100
AcDbArc
 50
25.3742213651
 51
30.2471365633
  0
ARC
  5
28B
100
AcDbEntity
  8
0
100
AcDbCircle
 62
7
  6
CONTINUOUS
 10
5.4804394271
 20
4.9548095462
 40
0.939
100
AcDbArc
 50
25.3742213651
 51
30.2471365633
  0
ARC
  5
28C
100
AcDbEntity
  8
0
100
AcDbCircle
 62
7
  6
CONTINUOUS
 10
6.0804394271
 20
4.9548095462
 40
0.939
100
AcDbArc
 50
25.3742213651
 51
30.2471365633
  0
ARC
  5
28D
100
AcDbEntity
  8
0
100
AcDbCircle
 62
7
  6
CONTINUOUS
 10
5.5802951252
 20
4.9548095462
 40
0.939
100
AcDbArc
 50
149.7528634367
 51
154.6257786349
  0
ARC
  5
28E
100
AcDbEntity
  8
0
100
AcDbCircle
 62
7
  6
CONTINUOUS
 10
3.6804394271
 20
4.9548095462
 40
0.939
100
AcDbArc
 50
25.3742213651
 51
30.2471365633
  0
ARC
  5
28F
100
AcDbEntity
  8
0
100
AcDbCircle
 62
7
  6
CONTINUOUS
 10
5.2089772762
 20
5.3951998791
 40
0.08868
100
AcDbArc
 50
205.3742213651
 51
219.6839631594
  0
ARC
  5
290
100
AcDbEntity
  8
0
100
AcDbCircle
 62
7
  6
CONTINUOUS
 10
5.2517572762
 20
5.3951998791
 40
0.08868
100
AcDbArc
 50
320.3160368406
 51
334.6257786349
  0
ARC
  5
291
100
AcDbEntity
  8
0
100
AcDbCircle
 62
7
  6
CONTINUOUS
 10
5.8089772762
 20
5.3951998791
 40
0.08868
100
AcDbArc
 50
205.3742213651
 51
219.6839631594
  0
ARC
  5
292
100
AcDbEntity
  8
0
100
AcDbCircle
 62
7
  6
CONTINUOUS
 10
5.8517572762
 20
5.3951998791
 40
0.08868
100
AcDbArc
 50
320.3160368406
 51
334.6257786349
  0
ARC
  5
293
100
AcDbEntity
  8
0
100
AcDbCircle
 62
7
  6
CONTINUOUS
 10
4.6517572762
 20
5.3951998791
 40
0.08868
100
AcDbArc
 50
320.3160368406
 51
334.6257786349
  0
ARC
  5
294
100
AcDbEntity
  8
0
100
AcDbCircle
 62
7
  6
CONTINUOUS
 10
4.6089772762
 20
5.3951998791
 40
0.08868
100
AcDbArc
 50
205.3742213651
 51
219.6839631594
  0
ARC
  5
295
100
AcDbEntity
  8
0
100
AcDbCircle
 62
7
  6
CONTINUOUS
 10
5.2013122762
 20
5.3888398968
 40
0.07872
100
AcDbArc
 50
219.6839631594
 51
270.0
  0
ARC
  5
296
100
AcDbEntity
  8
0
100
AcDbCircle
 62
7
  6
CONTINUOUS
 10
5.2594222762
 20
5.3888398968
 40
0.07872
100
AcDbArc
 50
270.0
 51
320.3160368406
  0
ARC
  5
297
100
AcDbEntity
  8
0
100
AcDbCircle
 62
7
  6
CONTINUOUS
 10
5.8013122762
 20
5.3888398968
 40
0.07872
100
AcDbArc
 50
219.6839631594
 51
270.0
  0
ARC
  5
298
100
AcDbEntity
  8
0
100
AcDbCircle
 62
7
  6
CONTINUOUS
 10
5.8594222762
 20
5.3888398968
 40
0.07872
100
AcDbArc
 50
270.0
 51
320.3160368406
  0
ARC
  5
299
100
AcDbEntity
  8
0
100
AcDbCircle
 62
7
  6
CONTINUOUS
 10
4.6594222762
 20
5.3888398968
 40
0.07872
100
AcDbArc
 50
270.0
 51
320.3160368406
  0
ARC
  5
29A
100
AcDbEntity
  8
0
100
AcDbCircle
 62
7
  6
CONTINUOUS
 10
4.6013122762
 20
5.3888398968
 40
0.07872
100
AcDbArc
 50
219.6839631594
 51
270.0
  0
ARC
  5
29B
100
AcDbEntity
  8
0
100
AcDbCircle
 62
7
  6
CONTINUOUS
 10
5.0353672762
 20
5.3950198968
 40
0.0651
100
AcDbArc
 50
30.2471365633
 51
90.0
  0
ARC
  5
29C
100
AcDbEntity
  8
0
100
AcDbCircle
 62
7
  6
CONTINUOUS
 10
5.4253672762
 20
5.3950198968
 40
0.0651
100
AcDbArc
 50
90.0
 51
149.7528634367
  0
ARC
  5
29D
100
AcDbEntity
  8
0
100
AcDbCircle
 62
7
  6
CONTINUOUS
 10
5.6353672762
 20
5.3950198968
 40
0.0651
100
AcDbArc
 50
30.2471365633
 51
90.0
  0
ARC
  5
29E
100
AcDbEntity
  8
0
100
AcDbCircle
 62
7
  6
CONTINUOUS
 10
6.0253672762
 20
5.3950198968
 40
0.0651
100
AcDbArc
 50
90.0
 51
149.7528634367
  0
ARC
  5
29F
100
AcDbEntity
  8
0
100
AcDbCircle
 62
7
  6
CONTINUOUS
 10
4.8253672762
 20
5.3950198968
 40
0.0651
100
AcDbArc
 50
90.0
 51
149.7528634367
  0
ARC
  5
2A0
100
AcDbEntity
  8
0
100
AcDbCircle
 62
7
  6
CONTINUOUS
 10
4.4353672762
 20
5.3950198968
 40
0.0651
100
AcDbArc
 50
30.2471365633
 51
90.0
  0
ARC
  5
2A1
100
AcDbEntity
  8
0
100
AcDbCircle
 62
7
  6
CONTINUOUS
 10
6.0804394271
 20
6.0854302473
 40
0.939
100
AcDbArc
 50
329.7528634367
 51
334.6257786349
  0
ARC
  5
2A2
100
AcDbEntity
  8
0
100
AcDbCircle
 62
7
  6
CONTINUOUS
 10
5.4804394271
 20
6.0854302473
 40
0.939
100
AcDbArc
 50
329.7528634367
 51
334.6257786349
  0
ARC
  5
2A3
100
AcDbEntity
  8
0
100
AcDbCircle
 62
7
  6
CONTINUOUS
 10
4.8804394271
 20
6.0854302473
 40
0.939
100
AcDbArc
 50
329.7528634367
 51
334.6257786349
  0
ARC
  5
2A4
100
AcDbEntity
  8
0
100
AcDbCircle
 62
7
  6
CONTINUOUS
 10
4.2804394271
 20
6.0854302473
 40
0.939
100
AcDbArc
 50
329.7528634367
 51
334.6257786349
  0
ARC
  5
2A5
100
AcDbEntity
  8
0
100
AcDbCircle
 62
7
  6
CONTINUOUS
 10
5.5802951252
 20
6.0854302473
 40
0.939
100
AcDbArc
 50
205.3742213651
 51
210.2471365633
  0
ARC
  5
2A6
100
AcDbEntity
  8
0
100
AcDbCircle
 62
7
  6
CONTINUOUS
 10
3.6804394271
 20
6.0854302473
 40
0.939
100
AcDbArc
 50
329.7528634367
 51
334.6257786349
  0
ARC
  5
2A7
100
AcDbEntity
  8
0
100
AcDbCircle
 62
7
  6
CONTINUOUS
 10
5.8517572762
 20
5.6450399144
 40
0.08868
100
AcDbArc
 50
25.3742213651
 51
39.6839631594
  0
ARC
  5
2A8
100
AcDbEntity
  8
0
100
AcDbCircle
 62
7
  6
CONTINUOUS
 10
5.8089772762
 20
5.6450399144
 40
0.08868
100
AcDbArc
 50
140.3160368406
 51
154.6257786349
  0
ARC
  5
2A9
100
AcDbEntity
  8
0
100
AcDbCircle
 62
7
  6
CONTINUOUS
 10
5.2517572762
 20
5.6450399144
 40
0.08868
100
AcDbArc
 50
25.3742213651
 51
39.6839631594
  0
ARC
  5
2AA
100
AcDbEntity
  8
0
100
AcDbCircle
 62
7
  6
CONTINUOUS
 10
5.2089772762
 20
5.6450399144
 40
0.08868
100
AcDbArc
 50
140.3160368406
 51
154.6257786349
  0
ARC
  5
2AB
100
AcDbEntity
  8
0
100
AcDbCircle
 62
7
  6
CONTINUOUS
 10
4.6517572762
 20
5.6450399144
 40
0.08868
100
AcDbArc
 50
25.3742213651
 51
39.6839631594
  0
ARC
  5
2AC
100
AcDbEntity
  8
0
100
AcDbCircle
 62
7
  6
CONTINUOUS
 10
4.6089772762
 20
5.6450399144
 40
0.08868
100
AcDbArc
 50
140.3160368406
 51
154.6257786349
  0
ARC
  5
2AD
100
AcDbEntity
  8
0
100
AcDbCircle
 62
7
  6
CONTINUOUS
 10
5.8594222762
 20
5.6513998968
 40
0.07872
100
AcDbArc
 50
39.6839631594
 51
90.0
  0
ARC
  5
2AE
100
AcDbEntity
  8
0
100
AcDbCircle
 62
7
  6
CONTINUOUS
 10
5.8013122762
 20
5.6513998968
 40
0.07872
100
AcDbArc
 50
90.0
 51
140.3160368406
  0
ARC
  5
2AF
100
AcDbEntity
  8
0
100
AcDbCircle
 62
7
  6
CONTINUOUS
 10
5.2594222762
 20
5.6513998968
 40
0.07872
100
AcDbArc
 50
39.6839631594
 51
90.0
  0
ARC
  5
2B0
100
AcDbEntity
  8
0
100
AcDbCircle
 62
7
  6
CONTINUOUS
 10
5.2013122762
 20
5.6513998968
 40
0.07872
100
AcDbArc
 50
90.0
 51
140.3160368406
  0
ARC
  5
2B1
100
AcDbEntity
  8
0
100
AcDbCircle
 62
7
  6
CONTINUOUS
 10
4.6594222762
 20
5.6513998968
 40
0.07872
100
AcDbArc
 50
39.6839631594
 51
90.0
  0
ARC
  5
2B2
100
AcDbEntity
  8
0
100
AcDbCircle
 62
7
  6
CONTINUOUS
 10
4.6013122762
 20
5.6513998968
 40
0.07872
100
AcDbArc
 50
90.0
 51
140.3160368406
  0
ARC
  5
2B3
100
AcDbEntity
  8
0
100
AcDbCircle
 62
7
  6
CONTINUOUS
 10
6.0253672762
 20
5.6452198968
 40
0.0651
100
AcDbArc
 50
210.2471365633
 51
270.0
  0
ARC
  5
2B4
100
AcDbEntity
  8
0
100
AcDbCircle
 62
7
  6
CONTINUOUS
 10
5.6353672762
 20
5.6452198968
 40
0.0651
100
AcDbArc
 50
270.0
 51
329.7528634367
  0
ARC
  5
2B5
100
AcDbEntity
  8
0
100
AcDbCircle
 62
7
  6
CONTINUOUS
 10
5.4253672762
 20
5.6452198968
 40
0.0651
100
AcDbArc
 50
210.2471365633
 51
270.0
  0
ARC
  5
2B6
100
AcDbEntity
  8
0
100
AcDbCircle
 62
7
  6
CONTINUOUS
 10
5.0353672762
 20
5.6452198968
 40
0.0651
100
AcDbArc
 50
270.0
 51
329.7528634367
  0
ARC
  5
2B7
100
AcDbEntity
  8
0
100
AcDbCircle
 62
7
  6
CONTINUOUS
 10
4.8253672762
 20
5.6452198968
 40
0.0651
100
AcDbArc
 50
210.2471365633
 51
270.0
  0
ARC
  5
2B8
100
AcDbEntity
  8
0
100
AcDbCircle
 62
7
  6
CONTINUOUS
 10
4.4353672762
 20
5.6452198968
 40
0.0651
100
AcDbArc
 50
270.0
 51
329.7528634367
  0
ARC
  5
2B9
100
AcDbEntity
  8
0
100
AcDbCircle
 62
7
  6
CONTINUOUS
 10
6.1802951252
 20
4.9548095462
 40
0.939
100
AcDbArc
 50
149.7528634367
 51
154.6257786349
  0
ARC
  5
2BA
100
AcDbEntity
  8
0
100
AcDbCircle
 62
7
  6
CONTINUOUS
 10
6.7802951252
 20
4.9548095462
 40
0.939
100
AcDbArc
 50
149.7528634367
 51
154.6257786349
  0
ARC
  5
2BB
100
AcDbEntity
  8
0
100
AcDbCircle
 62
7
  6
CONTINUOUS
 10
7.3802951252
 20
4.9548095462
 40
0.939
100
AcDbArc
 50
149.7528634367
 51
154.6257786349
  0
ARC
  5
2BC
100
AcDbEntity
  8
0
100
AcDbCircle
 62
7
  6
CONTINUOUS
 10
7.9802951252
 20
4.9548095462
 40
0.939
100
AcDbArc
 50
149.7528634367
 51
154.6257786349
  0
ARC
  5
2BD
100
AcDbEntity
  8
0
100
AcDbCircle
 62
7
  6
CONTINUOUS
 10
6.6804394271
 20
4.9548095462
 40
0.939
100
AcDbArc
 50
25.3742213651
 51
30.2471365633
  0
ARC
  5
2BE
100
AcDbEntity
  8
0
100
AcDbCircle
 62
7
  6
CONTINUOUS
 10
8.5802951252
 20
4.9548095462
 40
0.939
100
AcDbArc
 50
149.7528634367
 51
154.6257786349
  0
ARC
  5
2BF
100
AcDbEntity
  8
0
100
AcDbCircle
 62
7
  6
CONTINUOUS
 10
6.4089772762
 20
5.3951998791
 40
0.08868
100
AcDbArc
 50
205.3742213651
 51
219.6839631594
  0
ARC
  5
2C0
100
AcDbEntity
  8
0
100
AcDbCircle
 62
7
  6
CONTINUOUS
 10
6.4517572762
 20
5.3951998791
 40
0.08868
100
AcDbArc
 50
320.3160368406
 51
334.6257786349
  0
ARC
  5
2C1
100
AcDbEntity
  8
0
100
AcDbCircle
 62
7
  6
CONTINUOUS
 10
7.0089772762
 20
5.3951998791
 40
0.08868
100
AcDbArc
 50
205.3742213651
 51
219.6839631594
  0
ARC
  5
2C2
100
AcDbEntity
  8
0
100
AcDbCircle
 62
7
  6
CONTINUOUS
 10
7.0517572762
 20
5.3951998791
 40
0.08868
100
AcDbArc
 50
320.3160368406
 51
334.6257786349
  0
ARC
  5
2C3
100
AcDbEntity
  8
0
100
AcDbCircle
 62
7
  6
CONTINUOUS
 10
7.6089772762
 20
5.3951998791
 40
0.08868
100
AcDbArc
 50
205.3742213651
 51
219.6839631594
  0
ARC
  5
2C4
100
AcDbEntity
  8
0
100
AcDbCircle
 62
7
  6
CONTINUOUS
 10
7.6517572762
 20
5.3951998791
 40
0.08868
100
AcDbArc
 50
320.3160368406
 51
334.6257786349
  0
ARC
  5
2C5
100
AcDbEntity
  8
0
100
AcDbCircle
 62
7
  6
CONTINUOUS
 10
6.4013122762
 20
5.3888398968
 40
0.07872
100
AcDbArc
 50
219.6839631594
 51
270.0
  0
ARC
  5
2C6
100
AcDbEntity
  8
0
100
AcDbCircle
 62
7
  6
CONTINUOUS
 10
6.4594222762
 20
5.3888398968
 40
0.07872
100
AcDbArc
 50
270.0
 51
320.3160368406
  0
ARC
  5
2C7
100
AcDbEntity
  8
0
100
AcDbCircle
 62
7
  6
CONTINUOUS
 10
7.0013122762
 20
5.3888398968
 40
0.07872
100
AcDbArc
 50
219.6839631594
 51
270.0
  0
ARC
  5
2C8
100
AcDbEntity
  8
0
100
AcDbCircle
 62
7
  6
CONTINUOUS
 10
7.0594222762
 20
5.3888398968
 40
0.07872
100
AcDbArc
 50
270.0
 51
320.3160368406
  0
ARC
  5
2C9
100
AcDbEntity
  8
0
100
AcDbCircle
 62
7
  6
CONTINUOUS
 10
7.6013122762
 20
5.3888398968
 40
0.07872
100
AcDbArc
 50
219.6839631594
 51
270.0
  0
ARC
  5
2CA
100
AcDbEntity
  8
0
100
AcDbCircle
 62
7
  6
CONTINUOUS
 10
7.6594222762
 20
5.3888398968
 40
0.07872
100
AcDbArc
 50
270.0
 51
320.3160368406
  0
ARC
  5
2CB
100
AcDbEntity
  8
0
100
AcDbCircle
 62
7
  6
CONTINUOUS
 10
6.2353672762
 20
5.3950198968
 40
0.0651
100
AcDbArc
 50
30.2471365633
 51
90.0
  0
ARC
  5
2CC
100
AcDbEntity
  8
0
100
AcDbCircle
 62
7
  6
CONTINUOUS
 10
6.6253672762
 20
5.3950198968
 40
0.0651
100
AcDbArc
 50
90.0
 51
149.7528634367
  0
ARC
  5
2CD
100
AcDbEntity
  8
0
100
AcDbCircle
 62
7
  6
CONTINUOUS
 10
6.8353672762
 20
5.3950198968
 40
0.0651
100
AcDbArc
 50
30.2471365633
 51
90.0
  0
ARC
  5
2CE
100
AcDbEntity
  8
0
100
AcDbCircle
 62
7
  6
CONTINUOUS
 10
7.2253672762
 20
5.3950198968
 40
0.0651
100
AcDbArc
 50
90.0
 51
149.7528634367
  0
ARC
  5
2CF
100
AcDbEntity
  8
0
100
AcDbCircle
 62
7
  6
CONTINUOUS
 10
7.4353672762
 20
5.3950198968
 40
0.0651
100
AcDbArc
 50
30.2471365633
 51
90.0
  0
ARC
  5
2D0
100
AcDbEntity
  8
0
100
AcDbCircle
 62
7
  6
CONTINUOUS
 10
7.8253672762
 20
5.3950198968
 40
0.0651
100
AcDbArc
 50
90.0
 51
149.7528634367
  0
ARC
  5
2D1
100
AcDbEntity
  8
0
100
AcDbCircle
 62
7
  6
CONTINUOUS
 10
8.5802951252
 20
6.0854302473
 40
0.939
100
AcDbArc
 50
205.3742213651
 51
210.2471365633
  0
ARC
  5
2D2
100
AcDbEntity
  8
0
100
AcDbCircle
 62
7
  6
CONTINUOUS
 10
6.6804394271
 20
6.0854302473
 40
0.939
100
AcDbArc
 50
329.7528634367
 51
334.6257786349
  0
ARC
  5
2D3
100
AcDbEntity
  8
0
100
AcDbCircle
 62
7
  6
CONTINUOUS
 10
7.9802951252
 20
6.0854302473
 40
0.939
100
AcDbArc
 50
205.3742213651
 51
210.2471365633
  0
ARC
  5
2D4
100
AcDbEntity
  8
0
100
AcDbCircle
 62
7
  6
CONTINUOUS
 10
7.3802951252
 20
6.0854302473
 40
0.939
100
AcDbArc
 50
205.3742213651
 51
210.2471365633
  0
ARC
  5
2D5
100
AcDbEntity
  8
0
100
AcDbCircle
 62
7
  6
CONTINUOUS
 10
6.7802951252
 20
6.0854302473
 40
0.939
100
AcDbArc
 50
205.3742213651
 51
210.2471365633
  0
ARC
  5
2D6
100
AcDbEntity
  8
0
100
AcDbCircle
 62
7
  6
CONTINUOUS
 10
6.1802951252
 20
6.0854302473
 40
0.939
100
AcDbArc
 50
205.3742213651
 51
210.2471365633
  0
ARC
  5
2D7
100
AcDbEntity
  8
0
100
AcDbCircle
 62
7
  6
CONTINUOUS
 10
7.6517572762
 20
5.6450399144
 40
0.08868
100
AcDbArc
 50
25.3742213651
 51
39.6839631594
  0
ARC
  5
2D8
100
AcDbEntity
  8
0
100
AcDbCircle
 62
7
  6
CONTINUOUS
 10
7.6089772762
 20
5.6450399144
 40
0.08868
100
AcDbArc
 50
140.3160368406
 51
154.6257786349
  0
ARC
  5
2D9
100
AcDbEntity
  8
0
100
AcDbCircle
 62
7
  6
CONTINUOUS
 10
7.0517572762
 20
5.6450399144
 40
0.08868
100
AcDbArc
 50
25.3742213651
 51
39.6839631594
  0
ARC
  5
2DA
100
AcDbEntity
  8
0
100
AcDbCircle
 62
7
  6
CONTINUOUS
 10
7.0089772762
 20
5.6450399144
 40
0.08868
100
AcDbArc
 50
140.3160368406
 51
154.6257786349
  0
ARC
  5
2DB
100
AcDbEntity
  8
0
100
AcDbCircle
 62
7
  6
CONTINUOUS
 10
6.4517572762
 20
5.6450399144
 40
0.08868
100
AcDbArc
 50
25.3742213651
 51
39.6839631594
  0
ARC
  5
2DC
100
AcDbEntity
  8
0
100
AcDbCircle
 62
7
  6
CONTINUOUS
 10
6.4089772762
 20
5.6450399144
 40
0.08868
100
AcDbArc
 50
140.3160368406
 51
154.6257786349
  0
ARC
  5
2DD
100
AcDbEntity
  8
0
100
AcDbCircle
 62
7
  6
CONTINUOUS
 10
7.6594222762
 20
5.6513998968
 40
0.07872
100
AcDbArc
 50
39.6839631594
 51
90.0
  0
ARC
  5
2DE
100
AcDbEntity
  8
0
100
AcDbCircle
 62
7
  6
CONTINUOUS
 10
7.6013122762
 20
5.6513998968
 40
0.07872
100
AcDbArc
 50
90.0
 51
140.3160368406
  0
ARC
  5
2DF
100
AcDbEntity
  8
0
100
AcDbCircle
 62
7
  6
CONTINUOUS
 10
7.0594222762
 20
5.6513998968
 40
0.07872
100
AcDbArc
 50
39.6839631594
 51
90.0
  0
ARC
  5
2E0
100
AcDbEntity
  8
0
100
AcDbCircle
 62
7
  6
CONTINUOUS
 10
7.0013122762
 20
5.6513998968
 40
0.07872
100
AcDbArc
 50
90.0
 51
140.3160368406
  0
ARC
  5
2E1
100
AcDbEntity
  8
0
100
AcDbCircle
 62
7
  6
CONTINUOUS
 10
6.4594222762
 20
5.6513998968
 40
0.07872
100
AcDbArc
 50
39.6839631594
 51
90.0
  0
ARC
  5
2E2
100
AcDbEntity
  8
0
100
AcDbCircle
 62
7
  6
CONTINUOUS
 10
6.4013122762
 20
5.6513998968
 40
0.07872
100
AcDbArc
 50
90.0
 51
140.3160368406
  0
ARC
  5
2E3
100
AcDbEntity
  8
0
100
AcDbCircle
 62
7
  6
CONTINUOUS
 10
7.8253672762
 20
5.6452198968
 40
0.0651
100
AcDbArc
 50
210.2471365633
 51
270.0
  0
ARC
  5
2E4
100
AcDbEntity
  8
0
100
AcDbCircle
 62
7
  6
CONTINUOUS
 10
7.4353672762
 20
5.6452198968
 40
0.0651
100
AcDbArc
 50
270.0
 51
329.7528634367
  0
ARC
  5
2E5
100
AcDbEntity
  8
0
100
AcDbCircle
 62
7
  6
CONTINUOUS
 10
7.2253672762
 20
5.6452198968
 40
0.0651
100
AcDbArc
 50
210.2471365633
 51
270.0
  0
ARC
  5
2E6
100
AcDbEntity
  8
0
100
AcDbCircle
 62
7
  6
CONTINUOUS
 10
6.8353672762
 20
5.6452198968
 40
0.0651
100
AcDbArc
 50
270.0
 51
329.7528634367
  0
ARC
  5
2E7
100
AcDbEntity
  8
0
100
AcDbCircle
 62
7
  6
CONTINUOUS
 10
6.6253672762
 20
5.6452198968
 40
0.0651
100
AcDbArc
 50
210.2471365633
 51
270.0
  0
ARC
  5
2E8
100
AcDbEntity
  8
0
100
AcDbCircle
 62
7
  6
CONTINUOUS
 10
6.2353672762
 20
5.6452198968
 40
0.0651
100
AcDbArc
 50
270.0
 51
329.7528634367
  0
ARC
  5
2E9
100
AcDbEntity
  8
0
100
AcDbCircle
 62
7
  6
CONTINUOUS
 10
13.1624025824
 20
11.0757740016
 40
1.16444345
100
AcDbArc
 50
50.0858315707
 51
53.5815355972
  0
ARC
  5
2EA
100
AcDbEntity
  8
0
100
AcDbCircle
 62
7
  6
CONTINUOUS
 10
15.372948968
 20
11.0757740016
 40
1.16444345
100
AcDbArc
 50
50.0858315707
 51
53.5815355972
  0
ARC
  5
2EB
100
AcDbEntity
  8
0
100
AcDbCircle
 62
7
  6
CONTINUOUS
 10
14.8203123716
 20
11.0757740016
 40
1.16444345
100
AcDbArc
 50
50.0858315707
 51
53.5815355972
  0
ARC
  5
2EC
100
AcDbEntity
  8
0
100
AcDbCircle
 62
7
  6
CONTINUOUS
 10
14.2676757752
 20
11.0757740016
 40
1.16444345
100
AcDbArc
 50
50.0858315707
 51
53.5815355972
  0
ARC
  5
2ED
100
AcDbEntity
  8
0
100
AcDbCircle
 62
7
  6
CONTINUOUS
 10
13.7150391788
 20
11.0757740016
 40
1.16444345
100
AcDbArc
 50
50.0858315707
 51
53.5815355972
  0
ARC
  5
2EE
100
AcDbEntity
  8
0
100
AcDbCircle
 62
7
  6
CONTINUOUS
 10
13.5080713695
 20
12.2354969686
 40
0.3088011453
100
AcDbArc
 50
342.8324118444
 51
348.0310894326
  0
ARC
  5
2EF
100
AcDbEntity
  8
0
100
AcDbCircle
 62
7
  6
CONTINUOUS
 10
14.0607079659
 20
12.2354969686
 40
0.3088011453
100
AcDbArc
 50
342.8324118444
 51
348.0310894326
  0
ARC
  5
2F0
100
AcDbEntity
  8
0
100
AcDbCircle
 62
7
  6
CONTINUOUS
 10
14.6133445623
 20
12.2354969686
 40
0.3088011453
100
AcDbArc
 50
342.8324118444
 51
348.0310894326
  0
ARC
  5
2F1
100
AcDbEntity
  8
0
100
AcDbCircle
 62
7
  6
CONTINUOUS
 10
15.1659811587
 20
12.2354969686
 40
0.3088011453
100
AcDbArc
 50
342.8324118444
 51
348.0310894326
  0
ARC
  5
2F2
100
AcDbEntity
  8
0
100
AcDbCircle
 62
7
  6
CONTINUOUS
 10
14.3986459716
 20
11.9048702439
 40
0.3088011453
100
AcDbArc
 50
162.8324118444
 51
168.0310894326
  0
ARC
  5
2F3
100
AcDbEntity
  8
0
100
AcDbCircle
 62
7
  6
CONTINUOUS
 10
14.951282568
 20
11.9048702439
 40
0.3088011453
100
AcDbArc
 50
162.8324118444
 51
168.0310894326
  0
ARC
  5
2F4
100
AcDbEntity
  8
0
100
AcDbCircle
 62
7
  6
CONTINUOUS
 10
14.397910362
 20
11.9050687155
 40
0.3080397293
100
AcDbArc
 50
159.5281803986
 51
162.8272969329
  0
ARC
  5
2F5
100
AcDbEntity
  8
0
100
AcDbCircle
 62
7
  6
CONTINUOUS
 10
14.9505469584
 20
11.9050687155
 40
0.3080397293
100
AcDbArc
 50
159.5281803986
 51
162.8272969328
  0
ARC
  5
2F6
100
AcDbEntity
  8
0
100
AcDbCircle
 62
7
  6
CONTINUOUS
 10
13.5088069791
 20
12.235298497
 40
0.3080397293
100
AcDbArc
 50
339.5281803986
 51
342.8272969329
  0
ARC
  5
2F7
100
AcDbEntity
  8
0
100
AcDbCircle
 62
7
  6
CONTINUOUS
 10
14.6140801719
 20
12.235298497
 40
0.3080397293
100
AcDbArc
 50
339.5281803986
 51
342.8272969328
  0
ARC
  5
2F8
100
AcDbEntity
  8
0
100
AcDbCircle
 62
7
  6
CONTINUOUS
 10
15.1667167683
 20
12.235298497
 40
0.3080397293
100
AcDbArc
 50
339.5281803986
 51
342.8272969329
  0
ARC
  5
2F9
100
AcDbEntity
  8
0
100
AcDbCircle
 62
7
  6
CONTINUOUS
 10
14.0614435755
 20
12.235298497
 40
0.3080397293
100
AcDbArc
 50
339.5281803986
 51
342.8272969328
  0
ARC
  5
2FA
100
AcDbEntity
  8
0
100
AcDbCircle
 62
7
  6
CONTINUOUS
 10
15.0166393726
 20
13.9458359842
 40
1.16444345
100
AcDbArc
 50
230.0858315707
 51
233.5815355972
  0
ARC
  5
2FB
100
AcDbEntity
  8
0
100
AcDbCircle
 62
7
  6
CONTINUOUS
 10
14.7443147587
 20
13.0645932109
 40
1.16444345
100
AcDbArc
 50
230.0858315707
 51
233.5815355972
  0
ARC
  5
2FC
100
AcDbEntity
  8
0
100
AcDbCircle
 62
7
  6
CONTINUOUS
 10
15.2969513551
 20
13.0645932109
 40
1.16444345
100
AcDbArc
 50
230.0858315707
 51
233.5815355972
  0
ARC
  5
2FD
100
AcDbEntity
  8
0
100
AcDbCircle
 62
7
  6
CONTINUOUS
 10
15.9255855644
 20
11.0757740016
 40
1.16444345
100
AcDbArc
 50
50.0858315707
 51
53.5815355972
  0
ARC
  5
2FE
100
AcDbEntity
  8
0
100
AcDbCircle
 62
7
  6
CONTINUOUS
 10
15.7186177551
 20
12.2354969686
 40
0.3088011453
100
AcDbArc
 50
342.8324118444
 51
348.0310894326
  0
ARC
  5
2FF
100
AcDbEntity
  8
0
100
AcDbCircle
 62
7
  6
CONTINUOUS
 10
16.2712543515
 20
12.2354969686
 40
0.3088011453
100
AcDbArc
 50
342.8324118444
 51
348.0310894326
  0
ARC
  5
300
100
AcDbEntity
  8
0
100
AcDbCircle
 62
7
  6
CONTINUOUS
 10
17.1618289536
 20
11.9048702439
 40
0.3088011453
100
AcDbArc
 50
162.8324118444
 51
168.0310894326
  0
ARC
  5
301
100
AcDbEntity
  8
0
100
AcDbCircle
 62
7
  6
CONTINUOUS
 10
16.6091923572
 20
11.9048702439
 40
0.3088011453
100
AcDbArc
 50
162.8324118444
 51
168.0310894326
  0
ARC
  5
302
100
AcDbEntity
  8
0
100
AcDbCircle
 62
7
  6
CONTINUOUS
 10
16.0565557608
 20
11.9048702439
 40
0.3088011453
100
AcDbArc
 50
162.8324118444
 51
168.0310894326
  0
ARC
  5
303
100
AcDbEntity
  8
0
100
AcDbCircle
 62
7
  6
CONTINUOUS
 10
15.5039191644
 20
11.9048702439
 40
0.3088011453
100
AcDbArc
 50
162.8324118444
 51
168.0310894326
  0
ARC
  5
304
100
AcDbEntity
  8
0
100
AcDbCircle
 62
7
  6
CONTINUOUS
 10
15.5031835548
 20
11.9050687155
 40
0.3080397293
100
AcDbArc
 50
159.5281803986
 51
162.8272969329
  0
ARC
  5
305
100
AcDbEntity
  8
0
100
AcDbCircle
 62
7
  6
CONTINUOUS
 10
16.0558201512
 20
11.9050687155
 40
0.3080397293
100
AcDbArc
 50
159.5281803986
 51
162.8272969329
  0
ARC
  5
306
100
AcDbEntity
  8
0
100
AcDbCircle
 62
7
  6
CONTINUOUS
 10
16.6084567476
 20
11.9050687155
 40
0.3080397293
100
AcDbArc
 50
159.5281803986
 51
162.8272969328
  0
ARC
  5
307
100
AcDbEntity
  8
0
100
AcDbCircle
 62
7
  6
CONTINUOUS
 10
17.1610933441
 20
11.9050687155
 40
0.3080397293
100
AcDbArc
 50
159.5281803986
 51
162.8272969328
  0
ARC
  5
308
100
AcDbEntity
  8
0
100
AcDbCircle
 62
7
  6
CONTINUOUS
 10
16.2719899611
 20
12.235298497
 40
0.3080397293
100
AcDbArc
 50
339.5281803986
 51
342.8272969329
  0
ARC
  5
309
100
AcDbEntity
  8
0
100
AcDbCircle
 62
7
  6
CONTINUOUS
 10
15.7193533647
 20
12.235298497
 40
0.3080397293
100
AcDbArc
 50
339.5281803986
 51
342.8272969329
  0
ARC
  5
30A
100
AcDbEntity
  8
0
100
AcDbCircle
 62
7
  6
CONTINUOUS
 10
17.7798223546
 20
13.9458359842
 40
1.16444345
100
AcDbArc
 50
230.0858315707
 51
233.5815355972
  0
ARC
  5
30B
100
AcDbEntity
  8
0
100
AcDbCircle
 62
7
  6
CONTINUOUS
 10
17.2271857582
 20
13.9458359842
 40
1.16444345
100
AcDbArc
 50
230.0858315707
 51
233.5815355973
  0
ARC
  5
30C
100
AcDbEntity
  8
0
100
AcDbCircle
 62
7
  6
CONTINUOUS
 10
16.6745491618
 20
13.9458359842
 40
1.16444345
100
AcDbArc
 50
230.0858315707
 51
233.5815355972
  0
ARC
  5
30D
100
AcDbEntity
  8
0
100
AcDbCircle
 62
7
  6
CONTINUOUS
 10
16.1219125654
 20
13.9458359842
 40
1.16444345
100
AcDbArc
 50
230.0858315707
 51
233.5815355972
  0
ARC
  5
30E
100
AcDbEntity
  8
0
100
AcDbCircle
 62
7
  6
CONTINUOUS
 10
15.569275969
 20
13.9458359842
 40
1.16444345
100
AcDbArc
 50
230.0858315707
 51
233.5815355972
  0
ARC
  5
30F
100
AcDbEntity
  8
0
100
AcDbCircle
 62
7
  6
CONTINUOUS
 10
16.9548611443
 20
13.0645932109
 40
1.16444345
100
AcDbArc
 50
230.0858315707
 51
233.5815355972
  0
ARC
  5
310
100
AcDbEntity
  8
0
100
AcDbCircle
 62
7
  6
CONTINUOUS
 10
17.5074977407
 20
13.0645932109
 40
1.16444345
100
AcDbArc
 50
230.0858315707
 51
233.5815355972
  0
ARC
  5
311
100
AcDbEntity
  8
0
100
AcDbCircle
 62
7
  6
CONTINUOUS
 10
15.8495879515
 20
13.0645932109
 40
1.16444345
100
AcDbArc
 50
230.0858315707
 51
233.5815355972
  0
ARC
  5
312
100
AcDbEntity
  8
0
100
AcDbCircle
 62
7
  6
CONTINUOUS
 10
16.4022245479
 20
13.0645932109
 40
1.16444345
100
AcDbArc
 50
230.0858315707
 51
233.5815355972
  0
SPLINE
  5
313
100
AcDbEntity
  8
0
100
AcDbSpline
 62
7
  6
CONTINUOUS
 70
0
 71
3
 72
15
 73
11
 74
0
 42
0.0000001
 43
0.0000001
 44
0.0000000001
 40
0.0
 40
0.0
 40
0.0
 40
0.0
 40
0.1207882708
 40
0.2458938983
 40
0.3735845518
 40
0.5022874108
 40
0.6306912745
 40
0.7574917037
 40
0.8811520809
 40
1.0
 40
1.0
 40
1.0
 40
1.0
 10
14.3869876662
 20
12.9887229777
 30
0.0
 10
14.3843364614
 20
12.9887229777
 30
0.0
 10
14.378937198
 20
12.9889682783
 30
0.0
 10
14.3707942329
 20
12.9899962939
 30
0.0
 10
14.3625832045
 20
12.9916799317
 30
0.0
 10
14.3544535168
 20
12.9939983087
 30
0.0
 10
14.3465360681
 20
12.9969054668
 30
0.0
 10
14.3389632606
 20
13.000361652
 30
0.0
 10
14.3318670239
 20
13.0042961686
 30
0.0
 10
14.3274334062
 20
13.0072562114
 30
0.0
 10
14.3253346293
 20
13.0088054084
 30
0.0
  0
SPLINE
  5
314
100
AcDbEntity
  8
0
100
AcDbSpline
 62
7
  6
CONTINUOUS
 70
0
 71
3
 72
9
 73
5
 74
0
 42
0.0000001
 43
0.0000001
 44
0.0000000001
 40
0.0
 40
0.0
 40
0.0
 40
0.0
 40
0.489397013
 40
1.0
 40
1.0
 40
1.0
 40
1.0
 10
14.269486668
 20
13.052700281
 30
0.0
 10
14.2669514205
 20
13.054824509
 30
0.0
 10
14.2615620048
 20
13.0589194827
 30
0.0
 10
14.2558476816
 20
13.0625433795
 30
0.0
 10
14.2528643069
 20
13.0642777101
 30
0.0
  0
SPLINE
  5
315
100
AcDbEntity
  8
0
100
AcDbSpline
 62
7
  6
CONTINUOUS
 70
0
 71
3
 72
15
 73
11
 74
0
 42
0.0000001
 43
0.0000001
 44
0.0000000001
 40
0.0
 40
0.0
 40
0.0
 40
0.0
 40
0.1230579925
 40
0.2489161634
 40
0.3763010777
 40
0.5040772163
 40
0.631327426
 40
0.7571429756
 40
0.8804335243
 40
1.0
 40
1.0
 40
1.0
 40
1.0
 10
14.2528643069
 20
13.0642777101
 30
0.0
 10
14.250467549
 20
13.0656710216
 30
0.0
 10
14.2455181665
 20
13.0683181263
 30
0.0
 10
14.2377927651
 20
13.0718222831
 30
0.0
 10
14.2297607235
 20
13.0748667497
 30
0.0
 10
14.2215226725
 20
13.0774070525
 30
0.0
 10
14.2131760473
 20
13.0794183367
 30
0.0
 10
14.2048167122
 20
13.0808723778
 30
0.0
 10
14.1965524197
 20
13.0817564304
 30
0.0
 10
14.1910795819
 20
13.0819644729
 30
0.0
 10
14.1883859196
 20
13.0819644729
 30
0.0
  0
SPLINE
  5
316
100
AcDbEntity
  8
0
100
AcDbSpline
 62
7
  6
CONTINUOUS
 70
0
 71
3
 72
15
 73
11
 74
0
 42
0.0000001
 43
0.0000001
 44
0.0000000001
 40
0.0
 40
0.0
 40
0.0
 40
0.0
 40
0.1496726062
 40
0.293263256
 40
0.4296920058
 40
0.5583368511
 40
0.6792076153
 40
0.792636199
 40
0.8992500449
 40
1.0
 40
1.0
 40
1.0
 40
1.0
 10
14.1348630652
 20
13.0819644729
 30
0.0
 10
14.1322660363
 20
13.0819644729
 30
0.0
 10
14.1271750697
 20
13.0817776645
 30
0.0
 10
14.1197612959
 20
13.0809138785
 30
0.0
 10
14.1128065431
 20
13.0794792063
 30
0.0
 10
14.1064016728
 20
13.0774829844
 30
0.0
 10
14.1006190614
 20
13.074952336
 30
0.0
 10
14.0955274638
 20
13.0719054843
 30
0.0
 10
14.0911909474
 20
13.0683845363
 30
0.0
 10
14.0887822057
 20
13.0656838013
 30
0.0
 10
14.087743483
 20
13.0642777101
 30
0.0
  0
SPLINE
  5
317
100
AcDbEntity
  8
0
100
AcDbSpline
 62
7
  6
CONTINUOUS
 70
0
 71
3
 72
11
 73
7
 74
0
 42
0.0000001
 43
0.0000001
 44
0.0000000001
 40
0.0
 40
0.0
 40
0.0
 40
0.0
 40
0.2541815629
 40
0.5048257322
 40
0.7530174166
 40
1.0
 40
1.0
 40
1.0
 40
1.0
 10
14.087743483
 20
13.0642777101
 30
0.0
 10
14.0872317198
 20
13.0635849498
 30
0.0
 10
14.0862694873
 20
13.0621679752
 30
0.0
 10
14.0850139015
 20
13.0599433666
 30
0.0
 10
14.0839613603
 20
13.0576425288
 30
0.0
 10
14.0833963456
 20
13.0560600255
 30
0.0
 10
14.0831492605
 20
13.0552604365
 30
0.0
  0
SPLINE
  5
318
100
AcDbEntity
  8
0
100
AcDbSpline
 62
7
  6
CONTINUOUS
 70
0
 71
3
 72
17
 73
13
 74
0
 42
0.0000001
 43
0.0000001
 44
0.0000000001
 40
0.0
 40
0.0
 40
0.0
 40
0.0
 40
0.0493820885
 40
0.0997723545
 40
0.2044923793
 40
0.2593670668
 40
0.3161283216
 40
0.4357757946
 40
0.5642436878
 40
0.7017127164
 40
0.8474028098
 40
1.0
 40
1.0
 40
1.0
 40
1.0
 10
14.0687253915
 20
13.006556174
 30
0.0
 10
14.0683748326
 20
13.005869826
 30
0.0
 10
14.0675926417
 20
13.0045195137
 30
0.0
 10
14.065721092
 20
13.0019294093
 30
0.0
 10
14.063419737
 20
12.9995653435
 30
0.0
 10
14.0607714567
 20
12.997466383
 30
0.0
 10
14.0577659424
 20
12.9954606025
 30
0.0
 10
14.05351547
 20
12.9932838059
 30
0.0
 10
14.0478351955
 20
12.9912544665
 30
0.0
 10
14.0415663123
 20
12.9897949563
 30
0.0
 10
14.0348135323
 20
12.9889135289
 30
0.0
 10
14.0301554166
 20
12.9887229777
 30
0.0
 10
14.0277738786
 20
12.9887229777
 30
0.0
  0
SPLINE
  5
319
100
AcDbEntity
  8
0
100
AcDbSpline
 62
7
  6
CONTINUOUS
 70
0
 71
3
 72
15
 73
11
 74
0
 42
0.0000001
 43
0.0000001
 44
0.0000000001
 40
0.0
 40
0.0
 40
0.0
 40
0.0
 40
0.1209987908
 40
0.2460198816
 40
0.373566798
 40
0.5022865503
 40
0.6307079922
 40
0.7573691156
 40
0.8809466681
 40
1.0
 40
1.0
 40
1.0
 40
1.0
 10
17.1501706482
 20
12.9887229777
 30
0.0
 10
17.1475147963
 20
12.9887229777
 30
0.0
 10
17.1421125946
 20
12.988965141
 30
0.0
 10
17.1339698316
 20
12.9899941021
 30
0.0
 10
17.1257644315
 20
12.9916821364
 30
0.0
 10
17.1176369851
 20
12.9939996965
 30
0.0
 10
17.1097217441
 20
12.9969062396
 30
0.0
 10
17.102150746
 20
13.0003555905
 30
0.0
 10
17.0950540655
 20
13.0042891985
 30
0.0
 10
17.0906200366
 20
13.0072535184
 30
0.0
 10
17.0885176113
 20
13.0088054084
 30
0.0
  0
SPLINE
  5
31A
100
AcDbEntity
  8
0
100
AcDbSpline
 62
7
  6
CONTINUOUS
 70
0
 71
3
 72
9
 73
5
 74
0
 42
0.0000001
 43
0.0000001
 44
0.0000000001
 40
0.0
 40
0.0
 40
0.0
 40
0.0
 40
0.489397013
 40
1.0
 40
1.0
 40
1.0
 40
1.0
 10
17.03266965
 20
13.052700281
 30
0.0
 10
17.0301344025
 20
13.054824509
 30
0.0
 10
17.0247449868
 20
13.0589194827
 30
0.0
 10
17.0190306637
 20
13.0625433795
 30
0.0
 10
17.0160472889
 20
13.0642777101
 30
0.0
  0
SPLINE
  5
31B
100
AcDbEntity
  8
0
100
AcDbSpline
 62
7
  6
CONTINUOUS
 70
0
 71
3
 72
15
 73
11
 74
0
 42
0.0000001
 43
0.0000001
 44
0.0000000001
 40
0.0
 40
0.0
 40
0.0
 40
0.0
 40
0.1231676017
 40
0.2489998357
 40
0.3763097275
 40
0.5040763789
 40
0.6313175052
 40
0.7570635497
 40
0.8803288082
 40
1.0
 40
1.0
 40
1.0
 40
1.0
 10
17.0160472889
 20
13.0642777101
 30
0.0
 10
17.0136483869
 20
13.0656722681
 30
0.0
 10
17.0086979819
 20
13.0683214438
 30
0.0
 10
17.0009724635
 20
13.0718261684
 30
0.0
 10
16.9929413378
 20
13.0748660366
 30
0.0
 10
16.9847055701
 20
13.0774065919
 30
0.0
 10
16.9763606585
 20
13.0794165056
 30
0.0
 10
16.9680043161
 20
13.0808741023
 30
0.0
 10
16.959739604
 20
13.081757758
 30
0.0
 10
16.9542649335
 20
13.0819644729
 30
0.0
 10
16.9515689016
 20
13.0819644729
 30
0.0
  0
SPLINE
  5
31C
100
AcDbEntity
  8
0
100
AcDbSpline
 62
7
  6
CONTINUOUS
 70
0
 71
3
 72
15
 73
11
 74
0
 42
0.0000001
 43
0.0000001
 44
0.0000000001
 40
0.0
 40
0.0
 40
0.0
 40
0.0
 40
0.1498222331
 40
0.293380978
 40
0.4296903145
 40
0.558321794
 40
0.6791852174
 40
0.7925741355
 40
0.8991656157
 40
1.0
 40
1.0
 40
1.0
 40
1.0
 10
16.8980460472
 20
13.0819644729
 30
0.0
 10
16.8954463893
 20
13.0819644729
 30
0.0
 10
16.8903533222
 20
13.0817789083
 30
0.0
 10
16.8829391929
 20
13.0809159691
 30
0.0
 10
16.875988215
 20
13.0794770669
 30
0.0
 10
16.8695852828
 20
13.077482564
 30
0.0
 10
16.8638042543
 20
13.0749510844
 30
0.0
 10
16.8587107416
 20
13.0719097866
 30
0.0
 10
16.8543738321
 20
13.0683879968
 30
0.0
 10
16.8519660712
 20
13.0656849974
 30
0.0
 10
16.850926465
 20
13.0642777101
 30
0.0
  0
SPLINE
  5
31D
100
AcDbEntity
  8
0
100
AcDbSpline
 62
7
  6
CONTINUOUS
 70
0
 71
3
 72
11
 73
7
 74
0
 42
0.0000001
 43
0.0000001
 44
0.0000000001
 40
0.0
 40
0.0
 40
0.0
 40
0.0
 40
0.2541815629
 40
0.5048257322
 40
0.7530174166
 40
1.0
 40
1.0
 40
1.0
 40
1.0
 10
16.850926465
 20
13.0642777101
 30
0.0
 10
16.8504147018
 20
13.0635849498
 30
0.0
 10
16.8494524693
 20
13.0621679752
 30
0.0
 10
16.8481968835
 20
13.0599433666
 30
0.0
 10
16.8471443423
 20
13.0576425288
 30
0.0
 10
16.8465793276
 20
13.0560600255
 30
0.0
 10
16.8463322425
 20
13.0552604365
 30
0.0
  0
SPLINE
  5
31E
100
AcDbEntity
  8
0
100
AcDbSpline
 62
7
  6
CONTINUOUS
 70
0
 71
3
 72
17
 73
13
 74
0
 42
0.0000001
 43
0.0000001
 44
0.0000000001
 40
0.0
 40
0.0
 40
0.0
 40
0.0
 40
0.0495336899
 40
0.1001177991
 40
0.2053285007
 40
0.3174563067
 40
0.3765171346
 40
0.4376496804
 40
0.5661941603
 40
0.7031406719
 40
0.848091598
 40
1.0
 40
1.0
 40
1.0
 40
1.0
 10
16.8313031365
 20
13.005444087
 30
0.0
 10
16.8309241968
 20
13.0047942888
 30
0.0
 10
16.8300919464
 20
13.0035184057
 30
0.0
 10
16.8281436083
 20
13.0010789172
 30
0.0
 10
16.8251698172
 20
12.9982690163
 30
0.0
 10
16.8216781776
 20
12.9959100573
 30
0.0
 10
16.8185625234
 20
12.9942503678
 30
0.0
 10
16.8151164041
 20
12.9926974836
 30
0.0
 10
16.8104108651
 20
12.9910903575
 30
0.0
 10
16.8043195003
 20
12.9897213638
 30
0.0
 10
16.797774366
 20
12.9888989511
 30
0.0
 10
16.7932637416
 20
12.9887229777
 30
0.0
 10
16.7909568606
 20
12.9887229777
 30
0.0
  0
SPLINE
  5
31F
100
AcDbEntity
  8
0
100
AcDbSpline
 62
7
  6
CONTINUOUS
 70
0
 71
3
 72
15
 73
11
 74
0
 42
0.0000001
 43
0.0000001
 44
0.0000000001
 40
0.0
 40
0.0
 40
0.0
 40
0.0
 40
0.1209370676
 40
0.2460060696
 40
0.3735982886
 40
0.5022867351
 40
0.6306764698
 40
0.7573827859
 40
0.8810070568
 40
1.0
 40
1.0
 40
1.0
 40
1.0
 10
16.5975340518
 20
12.9887229777
 30
0.0
 10
16.5948795594
 20
12.9887229777
 30
0.0
 10
16.589477746
 20
12.9889661165
 30
0.0
 10
16.5813341026
 20
12.9899935152
 30
0.0
 10
16.5731275913
 20
12.9916828627
 30
0.0
 10
16.56500014
 20
12.9939989403
 30
0.0
 10
16.557085773
 20
12.9969066856
 30
0.0
 10
16.5495131318
 20
13.0003556084
 30
0.0
 10
16.5424166732
 20
13.0042910134
 30
0.0
 10
16.53798237
 20
13.0072543084
 30
0.0
 10
16.5358810149
 20
13.0088054084
 30
0.0
  0
SPLINE
  5
320
100
AcDbEntity
  8
0
100
AcDbSpline
 62
7
  6
CONTINUOUS
 70
0
 71
3
 72
9
 73
5
 74
0
 42
0.0000001
 43
0.0000001
 44
0.0000000001
 40
0.0
 40
0.0
 40
0.0
 40
0.0
 40
0.489397013
 40
1.0
 40
1.0
 40
1.0
 40
1.0
 10
16.4800330536
 20
13.052700281
 30
0.0
 10
16.4774978061
 20
13.054824509
 30
0.0
 10
16.4721083904
 20
13.0589194827
 30
0.0
 10
16.4663940673
 20
13.0625433795
 30
0.0
 10
16.4634106925
 20
13.0642777101
 30
0.0
  0
SPLINE
  5
321
100
AcDbEntity
  8
0
100
AcDbSpline
 62
7
  6
CONTINUOUS
 70
0
 71
3
 72
15
 73
11
 74
0
 42
0.0000001
 43
0.0000001
 44
0.0000000001
 40
0.0
 40
0.0
 40
0.0
 40
0.0
 40
0.1231676017
 40
0.2489998357
 40
0.3763097275
 40
0.5040763789
 40
0.6313175052
 40
0.7570635497
 40
0.8803288082
 40
1.0
 40
1.0
 40
1.0
 40
1.0
 10
16.4634106925
 20
13.0642777101
 30
0.0
 10
16.4610117905
 20
13.0656722681
 30
0.0
 10
16.4560613855
 20
13.0683214438
 30
0.0
 10
16.4483358671
 20
13.0718261684
 30
0.0
 10
16.4403047414
 20
13.0748660366
 30
0.0
 10
16.4320689737
 20
13.0774065919
 30
0.0
 10
16.4237240621
 20
13.0794165056
 30
0.0
 10
16.4153677197
 20
13.0808741023
 30
0.0
 10
16.4071030076
 20
13.081757758
 30
0.0
 10
16.4016283371
 20
13.0819644729
 30
0.0
 10
16.3989323052
 20
13.0819644729
 30
0.0
  0
SPLINE
  5
322
100
AcDbEntity
  8
0
100
AcDbSpline
 62
7
  6
CONTINUOUS
 70
0
 71
3
 72
15
 73
11
 74
0
 42
0.0000001
 43
0.0000001
 44
0.0000000001
 40
0.0
 40
0.0
 40
0.0
 40
0.0
 40
0.1498222331
 40
0.293380978
 40
0.4296903145
 40
0.558321794
 40
0.6791852174
 40
0.7925741355
 40
0.8991656157
 40
1.0
 40
1.0
 40
1.0
 40
1.0
 10
16.3454094508
 20
13.0819644729
 30
0.0
 10
16.3428097929
 20
13.0819644729
 30
0.0
 10
16.3377167258
 20
13.0817789083
 30
0.0
 10
16.3303025965
 20
13.0809159691
 30
0.0
 10
16.3233516186
 20
13.0794770669
 30
0.0
 10
16.3169486864
 20
13.077482564
 30
0.0
 10
16.3111676579
 20
13.0749510844
 30
0.0
 10
16.3060741452
 20
13.0719097866
 30
0.0
 10
16.3017372357
 20
13.0683879968
 30
0.0
 10
16.2993294748
 20
13.0656849974
 30
0.0
 10
16.2982898686
 20
13.0642777101
 30
0.0
  0
SPLINE
  5
323
100
AcDbEntity
  8
0
100
AcDbSpline
 62
7
  6
CONTINUOUS
 70
0
 71
3
 72
11
 73
7
 74
0
 42
0.0000001
 43
0.0000001
 44
0.0000000001
 40
0.0
 40
0.0
 40
0.0
 40
0.0
 40
0.2541815629
 40
0.5048257322
 40
0.7530174166
 40
1.0
 40
1.0
 40
1.0
 40
1.0
 10
16.2982898686
 20
13.0642777101
 30
0.0
 10
16.2977781054
 20
13.0635849498
 30
0.0
 10
16.2968158729
 20
13.0621679752
 30
0.0
 10
16.2955602871
 20
13.0599433666
 30
0.0
 10
16.2945077459
 20
13.0576425288
 30
0.0
 10
16.2939427312
 20
13.0560600255
 30
0.0
 10
16.2936956461
 20
13.0552604365
 30
0.0
  0
SPLINE
  5
324
100
AcDbEntity
  8
0
100
AcDbSpline
 62
7
  6
CONTINUOUS
 70
0
 71
3
 72
17
 73
13
 74
0
 42
0.0000001
 43
0.0000001
 44
0.0000000001
 40
0.0
 40
0.0
 40
0.0
 40
0.0
 40
0.0494704051
 40
0.0999657373
 40
0.1517443065
 40
0.2050404745
 40
0.3168779713
 40
0.4367524102
 40
0.565241754
 40
0.7023840079
 40
0.8477050092
 40
1.0
 40
1.0
 40
1.0
 40
1.0
 10
16.2789613874
 20
13.0059666832
 30
0.0
 10
16.2785954979
 20
13.0052992465
 30
0.0
 10
16.2777864224
 20
13.0039875956
 30
0.0
 10
16.2763697262
 20
13.0021275582
 30
0.0
 10
16.2747443805
 20
13.000365625
 30
0.0
 10
16.2722675306
 20
12.9981231477
 30
0.0
 10
16.2686521276
 20
12.9956062468
 30
0.0
 10
16.2636772468
 20
12.9931274094
 30
0.0
 10
16.2580638288
 20
12.9911688269
 30
0.0
 10
16.2518895511
 20
12.9897540409
 30
0.0
 10
16.2452451919
 20
12.9889054763
 30
0.0
 10
16.2406634646
 20
12.9887229777
 30
0.0
 10
16.2383202642
 20
12.9887229777
 30
0.0
  0
SPLINE
  5
325
100
AcDbEntity
  8
0
100
AcDbSpline
 62
7
  6
CONTINUOUS
 70
0
 71
3
 72
15
 73
11
 74
0
 42
0.0000001
 43
0.0000001
 44
0.0000000001
 40
0.0
 40
0.0
 40
0.0
 40
0.0
 40
0.1209370676
 40
0.2460060696
 40
0.3735982886
 40
0.5022867351
 40
0.6306764698
 40
0.7573827859
 40
0.8810070568
 40
1.0
 40
1.0
 40
1.0
 40
1.0
 10
16.0448974554
 20
12.9887229777
 30
0.0
 10
16.042242963
 20
12.9887229777
 30
0.0
 10
16.0368411496
 20
12.9889661165
 30
0.0
 10
16.0286975062
 20
12.9899935152
 30
0.0
 10
16.0204909949
 20
12.9916828627
 30
0.0
 10
16.0123635436
 20
12.9939989403
 30
0.0
 10
16.0044491766
 20
12.9969066856
 30
0.0
 10
15.9968765354
 20
13.0003556084
 30
0.0
 10
15.9897800768
 20
13.0042910134
 30
0.0
 10
15.9853457736
 20
13.0072543084
 30
0.0
 10
15.9832444185
 20
13.0088054084
 30
0.0
  0
SPLINE
  5
326
100
AcDbEntity
  8
0
100
AcDbSpline
 62
7
  6
CONTINUOUS
 70
0
 71
3
 72
9
 73
5
 74
0
 42
0.0000001
 43
0.0000001
 44
0.0000000001
 40
0.0
 40
0.0
 40
0.0
 40
0.0
 40
0.489397013
 40
1.0
 40
1.0
 40
1.0
 40
1.0
 10
15.9273964572
 20
13.052700281
 30
0.0
 10
15.9248612097
 20
13.054824509
 30
0.0
 10
15.919471794
 20
13.0589194827
 30
0.0
 10
15.9137574709
 20
13.0625433795
 30
0.0
 10
15.9107740961
 20
13.0642777101
 30
0.0
  0
SPLINE
  5
327
100
AcDbEntity
  8
0
100
AcDbSpline
 62
7
  6
CONTINUOUS
 70
0
 71
3
 72
15
 73
11
 74
0
 42
0.0000001
 43
0.0000001
 44
0.0000000001
 40
0.0
 40
0.0
 40
0.0
 40
0.0
 40
0.1230579925
 40
0.2489161634
 40
0.3763010777
 40
0.5040772163
 40
0.631327426
 40
0.7571429756
 40
0.8804335243
 40
1.0
 40
1.0
 40
1.0
 40
1.0
 10
15.9107740961
 20
13.0642777101
 30
0.0
 10
15.9083773382
 20
13.0656710216
 30
0.0
 10
15.9034279557
 20
13.0683181263
 30
0.0
 10
15.8957025543
 20
13.0718222831
 30
0.0
 10
15.8876705127
 20
13.0748667497
 30
0.0
 10
15.8794324617
 20
13.0774070525
 30
0.0
 10
15.8710858365
 20
13.0794183367
 30
0.0
 10
15.8627265014
 20
13.0808723778
 30
0.0
 10
15.8544622089
 20
13.0817564304
 30
0.0
 10
15.8489893711
 20
13.0819644729
 30
0.0
 10
15.8462957088
 20
13.0819644729
 30
0.0
  0
SPLINE
  5
328
100
AcDbEntity
  8
0
100
AcDbSpline
 62
7
  6
CONTINUOUS
 70
0
 71
3
 72
15
 73
11
 74
0
 42
0.0000001
 43
0.0000001
 44
0.0000000001
 40
0.0
 40
0.0
 40
0.0
 40
0.0
 40
0.1496726062
 40
0.293263256
 40
0.4296920058
 40
0.5583368511
 40
0.6792076153
 40
0.792636199
 40
0.8992500449
 40
1.0
 40
1.0
 40
1.0
 40
1.0
 10
15.7927728544
 20
13.0819644729
 30
0.0
 10
15.7901758255
 20
13.0819644729
 30
0.0
 10
15.7850848589
 20
13.0817776645
 30
0.0
 10
15.7776710851
 20
13.0809138785
 30
0.0
 10
15.7707163323
 20
13.0794792063
 30
0.0
 10
15.764311462
 20
13.0774829844
 30
0.0
 10
15.7585288506
 20
13.074952336
 30
0.0
 10
15.753437253
 20
13.0719054843
 30
0.0
 10
15.7491007366
 20
13.0683845363
 30
0.0
 10
15.7466919949
 20
13.0656838013
 30
0.0
 10
15.7456532722
 20
13.0642777101
 30
0.0
  0
SPLINE
  5
329
100
AcDbEntity
  8
0
100
AcDbSpline
 62
7
  6
CONTINUOUS
 70
0
 71
3
 72
11
 73
7
 74
0
 42
0.0000001
 43
0.0000001
 44
0.0000000001
 40
0.0
 40
0.0
 40
0.0
 40
0.0
 40
0.2541815629
 40
0.5048257322
 40
0.7530174166
 40
1.0
 40
1.0
 40
1.0
 40
1.0
 10
15.7456532722
 20
13.0642777101
 30
0.0
 10
15.745141509
 20
13.0635849498
 30
0.0
 10
15.7441792765
 20
13.0621679752
 30
0.0
 10
15.7429236907
 20
13.0599433666
 30
0.0
 10
15.7418711495
 20
13.0576425288
 30
0.0
 10
15.7413061348
 20
13.0560600255
 30
0.0
 10
15.7410590497
 20
13.0552604365
 30
0.0
  0
SPLINE
  5
32A
100
AcDbEntity
  8
0
100
AcDbSpline
 62
7
  6
CONTINUOUS
 70
0
 71
3
 72
17
 73
13
 74
0
 42
0.0000001
 43
0.0000001
 44
0.0000000001
 40
0.0
 40
0.0
 40
0.0
 40
0.0
 40
0.0494704051
 40
0.0999657373
 40
0.1517443065
 40
0.2050404745
 40
0.3168779713
 40
0.4367524102
 40
0.565241754
 40
0.7023840079
 40
0.8477050092
 40
1.0
 40
1.0
 40
1.0
 40
1.0
 10
15.726324791
 20
13.0059666832
 30
0.0
 10
15.7259589015
 20
13.0052992465
 30
0.0
 10
15.725149826
 20
13.0039875956
 30
0.0
 10
15.7237331298
 20
13.0021275582
 30
0.0
 10
15.7221077841
 20
13.000365625
 30
0.0
 10
15.7196309342
 20
12.9981231477
 30
0.0
 10
15.7160155312
 20
12.9956062468
 30
0.0
 10
15.7110406504
 20
12.9931274094
 30
0.0
 10
15.7054272324
 20
12.9911688269
 30
0.0
 10
15.6992529547
 20
12.9897540409
 30
0.0
 10
15.6926085955
 20
12.9889054763
 30
0.0
 10
15.6880268682
 20
12.9887229777
 30
0.0
 10
15.6856836678
 20
12.9887229777
 30
0.0
  0
SPLINE
  5
32B
100
AcDbEntity
  8
0
100
AcDbSpline
 62
7
  6
CONTINUOUS
 70
0
 71
3
 72
15
 73
11
 74
0
 42
0.0000001
 43
0.0000001
 44
0.0000000001
 40
0.0
 40
0.0
 40
0.0
 40
0.0
 40
0.1209370676
 40
0.2460060696
 40
0.3735982886
 40
0.5022867351
 40
0.6306764698
 40
0.7573827859
 40
0.8810070568
 40
1.0
 40
1.0
 40
1.0
 40
1.0
 10
15.492260859
 20
12.9887229777
 30
0.0
 10
15.4896063666
 20
12.9887229777
 30
0.0
 10
15.4842045532
 20
12.9889661165
 30
0.0
 10
15.4760609098
 20
12.9899935152
 30
0.0
 10
15.4678543985
 20
12.9916828627
 30
0.0
 10
15.4597269472
 20
12.9939989403
 30
0.0
 10
15.4518125802
 20
12.9969066856
 30
0.0
 10
15.444239939
 20
13.0003556084
 30
0.0
 10
15.4371434804
 20
13.0042910134
 30
0.0
 10
15.4327091772
 20
13.0072543084
 30
0.0
 10
15.4306078221
 20
13.0088054084
 30
0.0
  0
SPLINE
  5
32C
100
AcDbEntity
  8
0
100
AcDbSpline
 62
7
  6
CONTINUOUS
 70
0
 71
3
 72
9
 73
5
 74
0
 42
0.0000001
 43
0.0000001
 44
0.0000000001
 40
0.0
 40
0.0
 40
0.0
 40
0.0
 40
0.489397013
 40
1.0
 40
1.0
 40
1.0
 40
1.0
 10
15.3747598608
 20
13.052700281
 30
0.0
 10
15.3722246133
 20
13.054824509
 30
0.0
 10
15.3668351976
 20
13.0589194827
 30
0.0
 10
15.3611208744
 20
13.0625433795
 30
0.0
 10
15.3581374997
 20
13.0642777101
 30
0.0
  0
SPLINE
  5
32D
100
AcDbEntity
  8
0
100
AcDbSpline
 62
7
  6
CONTINUOUS
 70
0
 71
3
 72
15
 73
11
 74
0
 42
0.0000001
 43
0.0000001
 44
0.0000000001
 40
0.0
 40
0.0
 40
0.0
 40
0.0
 40
0.1230579925
 40
0.2489161634
 40
0.3763010777
 40
0.5040772163
 40
0.631327426
 40
0.7571429756
 40
0.8804335243
 40
1.0
 40
1.0
 40
1.0
 40
1.0
 10
15.3581374997
 20
13.0642777101
 30
0.0
 10
15.3557407418
 20
13.0656710216
 30
0.0
 10
15.3507913593
 20
13.0683181263
 30
0.0
 10
15.3430659579
 20
13.0718222831
 30
0.0
 10
15.3350339163
 20
13.0748667497
 30
0.0
 10
15.3267958653
 20
13.0774070525
 30
0.0
 10
15.3184492401
 20
13.0794183367
 30
0.0
 10
15.310089905
 20
13.0808723778
 30
0.0
 10
15.3018256125
 20
13.0817564304
 30
0.0
 10
15.2963527747
 20
13.0819644729
 30
0.0
 10
15.2936591124
 20
13.0819644729
 30
0.0
  0
SPLINE
  5
32E
100
AcDbEntity
  8
0
100
AcDbSpline
 62
7
  6
CONTINUOUS
 70
0
 71
3
 72
15
 73
11
 74
0
 42
0.0000001
 43
0.0000001
 44
0.0000000001
 40
0.0
 40
0.0
 40
0.0
 40
0.0
 40
0.1496726062
 40
0.293263256
 40
0.4296920058
 40
0.5583368511
 40
0.6792076153
 40
0.792636199
 40
0.8992500449
 40
1.0
 40
1.0
 40
1.0
 40
1.0
 10
15.240136258
 20
13.0819644729
 30
0.0
 10
15.2375392291
 20
13.0819644729
 30
0.0
 10
15.2324482625
 20
13.0817776645
 30
0.0
 10
15.2250344887
 20
13.0809138785
 30
0.0
 10
15.2180797359
 20
13.0794792063
 30
0.0
 10
15.2116748656
 20
13.0774829844
 30
0.0
 10
15.2058922542
 20
13.074952336
 30
0.0
 10
15.2008006566
 20
13.0719054843
 30
0.0
 10
15.1964641402
 20
13.0683845363
 30
0.0
 10
15.1940553985
 20
13.0656838013
 30
0.0
 10
15.1930166758
 20
13.0642777101
 30
0.0
  0
SPLINE
  5
32F
100
AcDbEntity
  8
0
100
AcDbSpline
 62
7
  6
CONTINUOUS
 70
0
 71
3
 72
11
 73
7
 74
0
 42
0.0000001
 43
0.0000001
 44
0.0000000001
 40
0.0
 40
0.0
 40
0.0
 40
0.0
 40
0.2541815629
 40
0.5048257322
 40
0.7530174166
 40
1.0
 40
1.0
 40
1.0
 40
1.0
 10
15.1930166758
 20
13.0642777101
 30
0.0
 10
15.1925049126
 20
13.0635849498
 30
0.0
 10
15.1915426801
 20
13.0621679752
 30
0.0
 10
15.1902870943
 20
13.0599433666
 30
0.0
 10
15.1892345531
 20
13.0576425288
 30
0.0
 10
15.1886695384
 20
13.0560600255
 30
0.0
 10
15.1884224533
 20
13.0552604365
 30
0.0
  0
SPLINE
  5
330
100
AcDbEntity
  8
0
100
AcDbSpline
 62
7
  6
CONTINUOUS
 70
0
 71
3
 72
17
 73
13
 74
0
 42
0.0000001
 43
0.0000001
 44
0.0000000001
 40
0.0
 40
0.0
 40
0.0
 40
0.0
 40
0.0494704051
 40
0.0999657373
 40
0.1517443065
 40
0.2050404745
 40
0.3168779713
 40
0.4367524102
 40
0.565241754
 40
0.7023840079
 40
0.8477050092
 40
1.0
 40
1.0
 40
1.0
 40
1.0
 10
15.1736881946
 20
13.0059666832
 30
0.0
 10
15.1733223051
 20
13.0052992465
 30
0.0
 10
15.1725132296
 20
13.0039875956
 30
0.0
 10
15.1710965334
 20
13.0021275582
 30
0.0
 10
15.1694711877
 20
13.000365625
 30
0.0
 10
15.1669943378
 20
12.9981231477
 30
0.0
 10
15.1633789348
 20
12.9956062468
 30
0.0
 10
15.158404054
 20
12.9931274094
 30
0.0
 10
15.152790636
 20
12.9911688269
 30
0.0
 10
15.1466163583
 20
12.9897540409
 30
0.0
 10
15.1399719991
 20
12.9889054763
 30
0.0
 10
15.1353902718
 20
12.9887229777
 30
0.0
 10
15.1330470714
 20
12.9887229777
 30
0.0
  0
SPLINE
  5
331
100
AcDbEntity
  8
0
100
AcDbSpline
 62
7
  6
CONTINUOUS
 70
0
 71
3
 72
15
 73
11
 74
0
 42
0.0000001
 43
0.0000001
 44
0.0000000001
 40
0.0
 40
0.0
 40
0.0
 40
0.0
 40
0.1207882708
 40
0.2458938983
 40
0.3735845518
 40
0.5022874108
 40
0.6306912745
 40
0.7574917037
 40
0.8811520809
 40
1.0
 40
1.0
 40
1.0
 40
1.0
 10
14.9396242626
 20
12.9887229777
 30
0.0
 10
14.9369730578
 20
12.9887229777
 30
0.0
 10
14.9315737944
 20
12.9889682783
 30
0.0
 10
14.9234308293
 20
12.9899962939
 30
0.0
 10
14.9152198009
 20
12.9916799317
 30
0.0
 10
14.9070901132
 20
12.9939983087
 30
0.0
 10
14.8991726645
 20
12.9969054668
 30
0.0
 10
14.891599857
 20
13.000361652
 30
0.0
 10
14.8845036203
 20
13.0042961686
 30
0.0
 10
14.8800700026
 20
13.0072562114
 30
0.0
 10
14.8779712257
 20
13.0088054084
 30
0.0
  0
SPLINE
  5
332
100
AcDbEntity
  8
0
100
AcDbSpline
 62
7
  6
CONTINUOUS
 70
0
 71
3
 72
9
 73
5
 74
0
 42
0.0000001
 43
0.0000001
 44
0.0000000001
 40
0.0
 40
0.0
 40
0.0
 40
0.0
 40
0.489397013
 40
1.0
 40
1.0
 40
1.0
 40
1.0
 10
14.8221232644
 20
13.052700281
 30
0.0
 10
14.8195880169
 20
13.054824509
 30
0.0
 10
14.8141986012
 20
13.0589194827
 30
0.0
 10
14.808484278
 20
13.0625433795
 30
0.0
 10
14.8055009033
 20
13.0642777101
 30
0.0
  0
SPLINE
  5
333
100
AcDbEntity
  8
0
100
AcDbSpline
 62
7
  6
CONTINUOUS
 70
0
 71
3
 72
15
 73
11
 74
0
 42
0.0000001
 43
0.0000001
 44
0.0000000001
 40
0.0
 40
0.0
 40
0.0
 40
0.0
 40
0.1230579925
 40
0.2489161634
 40
0.3763010777
 40
0.5040772163
 40
0.631327426
 40
0.7571429756
 40
0.8804335243
 40
1.0
 40
1.0
 40
1.0
 40
1.0
 10
14.8055009033
 20
13.0642777101
 30
0.0
 10
14.8031041454
 20
13.0656710216
 30
0.0
 10
14.7981547629
 20
13.0683181263
 30
0.0
 10
14.7904293615
 20
13.0718222831
 30
0.0
 10
14.7823973199
 20
13.0748667497
 30
0.0
 10
14.7741592689
 20
13.0774070525
 30
0.0
 10
14.7658126437
 20
13.0794183367
 30
0.0
 10
14.7574533086
 20
13.0808723778
 30
0.0
 10
14.7491890161
 20
13.0817564304
 30
0.0
 10
14.7437161783
 20
13.0819644729
 30
0.0
 10
14.741022516
 20
13.0819644729
 30
0.0
  0
SPLINE
  5
334
100
AcDbEntity
  8
0
100
AcDbSpline
 62
7
  6
CONTINUOUS
 70
0
 71
3
 72
15
 73
11
 74
0
 42
0.0000001
 43
0.0000001
 44
0.0000000001
 40
0.0
 40
0.0
 40
0.0
 40
0.0
 40
0.1496726062
 40
0.293263256
 40
0.4296920058
 40
0.5583368511
 40
0.6792076153
 40
0.792636199
 40
0.8992500449
 40
1.0
 40
1.0
 40
1.0
 40
1.0
 10
14.6874996616
 20
13.0819644729
 30
0.0
 10
14.6849026327
 20
13.0819644729
 30
0.0
 10
14.6798116661
 20
13.0817776645
 30
0.0
 10
14.6723978923
 20
13.0809138785
 30
0.0
 10
14.6654431395
 20
13.0794792063
 30
0.0
 10
14.6590382692
 20
13.0774829844
 30
0.0
 10
14.6532556578
 20
13.074952336
 30
0.0
 10
14.6481640602
 20
13.0719054843
 30
0.0
 10
14.6438275438
 20
13.0683845363
 30
0.0
 10
14.6414188021
 20
13.0656838013
 30
0.0
 10
14.6403800794
 20
13.0642777101
 30
0.0
  0
SPLINE
  5
335
100
AcDbEntity
  8
0
100
AcDbSpline
 62
7
  6
CONTINUOUS
 70
0
 71
3
 72
11
 73
7
 74
0
 42
0.0000001
 43
0.0000001
 44
0.0000000001
 40
0.0
 40
0.0
 40
0.0
 40
0.0
 40
0.2541815629
 40
0.5048257322
 40
0.7530174166
 40
1.0
 40
1.0
 40
1.0
 40
1.0
 10
14.6403800794
 20
13.0642777101
 30
0.0
 10
14.6398683162
 20
13.0635849498
 30
0.0
 10
14.6389060837
 20
13.0621679752
 30
0.0
 10
14.6376504979
 20
13.0599433666
 30
0.0
 10
14.6365979567
 20
13.0576425288
 30
0.0
 10
14.636032942
 20
13.0560600255
 30
0.0
 10
14.6357858569
 20
13.0552604365
 30
0.0
  0
SPLINE
  5
336
100
AcDbEntity
  8
0
100
AcDbSpline
 62
7
  6
CONTINUOUS
 70
0
 71
3
 72
17
 73
13
 74
0
 42
0.0000001
 43
0.0000001
 44
0.0000000001
 40
0.0
 40
0.0
 40
0.0
 40
0.0
 40
0.0493820885
 40
0.0997723545
 40
0.2044923793
 40
0.2593670668
 40
0.3161283216
 40
0.4357757946
 40
0.5642436878
 40
0.7017127164
 40
0.8474028098
 40
1.0
 40
1.0
 40
1.0
 40
1.0
 10
14.6213619879
 20
13.006556174
 30
0.0
 10
14.621011429
 20
13.005869826
 30
0.0
 10
14.6202292381
 20
13.0045195137
 30
0.0
 10
14.6183576884
 20
13.0019294093
 30
0.0
 10
14.6160563334
 20
12.9995653435
 30
0.0
 10
14.6134080531
 20
12.997466383
 30
0.0
 10
14.6104025388
 20
12.9954606025
 30
0.0
 10
14.6061520664
 20
12.9932838059
 30
0.0
 10
14.6004717919
 20
12.9912544665
 30
0.0
 10
14.5942029087
 20
12.9897949563
 30
0.0
 10
14.5874501287
 20
12.9889135289
 30
0.0
 10
14.582792013
 20
12.9887229777
 30
0.0
 10
14.580410475
 20
12.9887229777
 30
0.0
  0
SPLINE
  5
337
100
AcDbEntity
  8
0
100
AcDbSpline
 62
7
  6
CONTINUOUS
 70
0
 71
3
 72
20
 73
16
 74
0
 42
0.0000001
 43
0.0000001
 44
0.0000000001
 40
0.0
 40
0.0
 40
0.0
 40
0.0
 40
0.0493294303
 40
0.0994232845
 40
0.1506251053
 40
0.2032367613
 40
0.2575209501
 40
0.3137059133
 40
0.3719886135
 40
0.4325192832
 40
0.560631643
 40
0.6985049639
 40
0.7709498895
 40
0.8454870502
 40
1.0
 40
1.0
 40
1.0
 40
1.0
 10
14.1093250906
 20
12.0128045775
 30
0.0
 10
14.1096085091
 20
12.0135638138
 30
0.0
 10
14.1102693469
 20
12.0150621285
 30
0.0
 10
14.1115172217
 20
12.01720444
 30
0.0
 10
14.1130192635
 20
12.0192442473
 30
0.0
 10
14.1147674092
 20
12.0211709362
 30
0.0
 10
14.1167538229
 20
12.0229746809
 30
0.0
 10
14.1189711419
 20
12.0246448371
 30
0.0
 10
14.1214090377
 20
12.0261748205
 30
0.0
 10
14.1250064701
 20
12.0280571015
 30
0.0
 10
14.1300211752
 20
12.0300120448
 30
0.0
 10
14.1354253279
 20
12.0313715237
 30
0.0
 10
14.1400417879
 20
12.0321489021
 30
0.0
 10
14.1449631642
 20
12.0327230719
 30
0.0
 10
14.1487296528
 20
12.0328870081
 30
0.0
 10
14.1512680764
 20
12.0328870081
 30
0.0
  0
SPLINE
  5
338
100
AcDbEntity
  8
0
100
AcDbSpline
 62
7
  6
CONTINUOUS
 70
0
 71
3
 72
11
 73
7
 74
0
 42
0.0000001
 43
0.0000001
 44
0.0000000001
 40
0.0
 40
0.0
 40
0.0
 40
0.0
 40
0.2541815629
 40
0.5048257322
 40
0.7530174166
 40
1.0
 40
1.0
 40
1.0
 40
1.0
 10
14.0912984719
 20
11.9573322757
 30
0.0
 10
14.0918102351
 20
11.958025036
 30
0.0
 10
14.0927724677
 20
11.9594420106
 30
0.0
 10
14.0940280534
 20
11.9616666192
 30
0.0
 10
14.0950805947
 20
11.9639674571
 30
0.0
 10
14.0956456094
 20
11.9655499603
 30
0.0
 10
14.0958926944
 20
11.9663495493
 30
0.0
  0
SPLINE
  5
339
100
AcDbEntity
  8
0
100
AcDbSpline
 62
7
  6
CONTINUOUS
 70
0
 71
3
 72
15
 73
11
 74
0
 42
0.0000001
 43
0.0000001
 44
0.0000000001
 40
0.0
 40
0.0
 40
0.0
 40
0.0
 40
0.1496726062
 40
0.293263256
 40
0.4296920058
 40
0.5583368511
 40
0.6792076153
 40
0.792636199
 40
0.8992500449
 40
1.0
 40
1.0
 40
1.0
 40
1.0
 10
14.0441788897
 20
11.9396455129
 30
0.0
 10
14.0467759186
 20
11.9396455129
 30
0.0
 10
14.0518668853
 20
11.9398323213
 30
0.0
 10
14.0592806591
 20
11.9406961073
 30
0.0
 10
14.0662354119
 20
11.9421307795
 30
0.0
 10
14.0726402822
 20
11.9441270015
 30
0.0
 10
14.0784228935
 20
11.9466576498
 30
0.0
 10
14.0835144912
 20
11.9497045015
 30
0.0
 10
14.0878510075
 20
11.9532254495
 30
0.0
 10
14.0902597493
 20
11.9559261845
 30
0.0
 10
14.0912984719
 20
11.9573322757
 30
0.0
  0
SPLINE
  5
33A
100
AcDbEntity
  8
0
100
AcDbSpline
 62
7
  6
CONTINUOUS
 70
0
 71
3
 72
15
 73
11
 74
0
 42
0.0000001
 43
0.0000001
 44
0.0000000001
 40
0.0
 40
0.0
 40
0.0
 40
0.0
 40
0.1230579925
 40
0.2489161634
 40
0.3763010777
 40
0.5040772163
 40
0.631327426
 40
0.7571429756
 40
0.8804335243
 40
1.0
 40
1.0
 40
1.0
 40
1.0
 10
13.9261776481
 20
11.9573322757
 30
0.0
 10
13.9285744059
 20
11.9559389642
 30
0.0
 10
13.9335237884
 20
11.9532918595
 30
0.0
 10
13.9412491899
 20
11.9497877027
 30
0.0
 10
13.9492812314
 20
11.9467432361
 30
0.0
 10
13.9575192824
 20
11.9442029333
 30
0.0
 10
13.9658659076
 20
11.9421916491
 30
0.0
 10
13.9742252427
 20
11.9407376081
 30
0.0
 10
13.9824895353
 20
11.9398535554
 30
0.0
 10
13.987962373
 20
11.9396455129
 30
0.0
 10
13.9906560354
 20
11.9396455129
 30
0.0
  0
SPLINE
  5
33B
100
AcDbEntity
  8
0
100
AcDbSpline
 62
7
  6
CONTINUOUS
 70
0
 71
3
 72
9
 73
5
 74
0
 42
0.0000001
 43
0.0000001
 44
0.0000000001
 40
0.0
 40
0.0
 40
0.0
 40
0.0
 40
0.489397013
 40
1.0
 40
1.0
 40
1.0
 40
1.0
 10
13.9095552869
 20
11.9689097048
 30
0.0
 10
13.9120905344
 20
11.9667854768
 30
0.0
 10
13.9174799502
 20
11.9626905031
 30
0.0
 10
13.9231942733
 20
11.9590666063
 30
0.0
 10
13.9261776481
 20
11.9573322757
 30
0.0
  0
SPLINE
  5
33C
100
AcDbEntity
  8
0
100
AcDbSpline
 62
7
  6
CONTINUOUS
 70
0
 71
3
 72
15
 73
11
 74
0
 42
0.0000001
 43
0.0000001
 44
0.0000000001
 40
0.0
 40
0.0
 40
0.0
 40
0.0
 40
0.1207882708
 40
0.2458938983
 40
0.3735845518
 40
0.5022874108
 40
0.6306912745
 40
0.7574917037
 40
0.8811520809
 40
1.0
 40
1.0
 40
1.0
 40
1.0
 10
13.7920542887
 20
12.0328870081
 30
0.0
 10
13.7947054935
 20
12.0328870081
 30
0.0
 10
13.800104757
 20
12.0326417076
 30
0.0
 10
13.8082477221
 20
12.0316136919
 30
0.0
 10
13.8164587504
 20
12.0299300541
 30
0.0
 10
13.8245884381
 20
12.0276116771
 30
0.0
 10
13.8325058869
 20
12.024704519
 30
0.0
 10
13.8400786944
 20
12.0212483338
 30
0.0
 10
13.847174931
 20
12.0173138172
 30
0.0
 10
13.8516085487
 20
12.0143537744
 30
0.0
 10
13.8537073257
 20
12.0128045775
 30
0.0
  0
SPLINE
  5
33D
100
AcDbEntity
  8
0
100
AcDbSpline
 62
7
  6
CONTINUOUS
 70
0
 71
3
 72
18
 73
14
 74
0
 42
0.0000001
 43
0.0000001
 44
0.0000000001
 40
0.0
 40
0.0
 40
0.0
 40
0.0
 40
0.0494613074
 40
0.0996160109
 40
0.1508156521
 40
0.2033832867
 40
0.3136667926
 40
0.4324345139
 40
0.5605729086
 40
0.6282603665
 40
0.6983058011
 40
0.8451495039
 40
1.0
 40
1.0
 40
1.0
 40
1.0
 10
16.8725080726
 20
12.0128045775
 30
0.0
 10
16.8727922042
 20
12.0135657242
 30
0.0
 10
16.8734531635
 20
12.0150671109
 30
0.0
 10
16.8747002453
 20
12.0172130477
 30
0.0
 10
16.8762014182
 20
12.0192535556
 30
0.0
 10
16.8785700858
 20
12.0218591567
 30
0.0
 10
16.8821753236
 20
12.0248031254
 30
0.0
 10
16.8872989752
 20
12.0277073467
 30
0.0
 10
16.8921287062
 20
12.0295909941
 30
0.0
 10
16.8963276586
 20
12.0307982626
 30
0.0
 10
16.9008899724
 20
12.0318272964
 30
0.0
 10
16.9069487138
 20
12.0326740585
 30
0.0
 10
16.9119074883
 20
12.0328870081
 30
0.0
 10
16.9144510584
 20
12.0328870081
 30
0.0
  0
SPLINE
  5
33E
100
AcDbEntity
  8
0
100
AcDbSpline
 62
7
  6
CONTINUOUS
 70
0
 71
3
 72
11
 73
7
 74
0
 42
0.0000001
 43
0.0000001
 44
0.0000000001
 40
0.0
 40
0.0
 40
0.0
 40
0.0
 40
0.2541815629
 40
0.5048257322
 40
0.7530174166
 40
1.0
 40
1.0
 40
1.0
 40
1.0
 10
16.8544814539
 20
11.9573322757
 30
0.0
 10
16.8549932171
 20
11.958025036
 30
0.0
 10
16.8559554497
 20
11.9594420106
 30
0.0
 10
16.8572110354
 20
11.9616666192
 30
0.0
 10
16.8582635767
 20
11.9639674571
 30
0.0
 10
16.8588285914
 20
11.9655499603
 30
0.0
 10
16.8590756764
 20
11.9663495493
 30
0.0
  0
SPLINE
  5
33F
100
AcDbEntity
  8
0
100
AcDbSpline
 62
7
  6
CONTINUOUS
 70
0
 71
3
 72
15
 73
11
 74
0
 42
0.0000001
 43
0.0000001
 44
0.0000000001
 40
0.0
 40
0.0
 40
0.0
 40
0.0
 40
0.1498222331
 40
0.293380978
 40
0.4296903145
 40
0.558321794
 40
0.6791852174
 40
0.7925741355
 40
0.8991656157
 40
1.0
 40
1.0
 40
1.0
 40
1.0
 10
16.8073618717
 20
11.9396455129
 30
0.0
 10
16.8099615296
 20
11.9396455129
 30
0.0
 10
16.8150545968
 20
11.9398310775
 30
0.0
 10
16.8224687261
 20
11.9406940167
 30
0.0
 10
16.829419704
 20
11.9421329189
 30
0.0
 10
16.8358226361
 20
11.9441274218
 30
0.0
 10
16.8416036646
 20
11.9466589014
 30
0.0
 10
16.8466971773
 20
11.9497001992
 30
0.0
 10
16.8510340869
 20
11.953221989
 30
0.0
 10
16.8534418477
 20
11.9559249885
 30
0.0
 10
16.8544814539
 20
11.9573322757
 30
0.0
  0
SPLINE
  5
340
100
AcDbEntity
  8
0
100
AcDbSpline
 62
7
  6
CONTINUOUS
 70
0
 71
3
 72
15
 73
11
 74
0
 42
0.0000001
 43
0.0000001
 44
0.0000000001
 40
0.0
 40
0.0
 40
0.0
 40
0.0
 40
0.1231676017
 40
0.2489998357
 40
0.3763097275
 40
0.5040763789
 40
0.6313175052
 40
0.7570635497
 40
0.8803288082
 40
1.0
 40
1.0
 40
1.0
 40
1.0
 10
16.6893606301
 20
11.9573322757
 30
0.0
 10
16.6917595321
 20
11.9559377177
 30
0.0
 10
16.696709937
 20
11.9532885421
 30
0.0
 10
16.7044354555
 20
11.9497838174
 30
0.0
 10
16.7124665811
 20
11.9467439492
 30
0.0
 10
16.7207023489
 20
11.9442033939
 30
0.0
 10
16.7290472605
 20
11.9421934802
 30
0.0
 10
16.7374036029
 20
11.9407358835
 30
0.0
 10
16.7456683149
 20
11.9398522278
 30
0.0
 10
16.7511429854
 20
11.9396455129
 30
0.0
 10
16.7538390174
 20
11.9396455129
 30
0.0
  0
SPLINE
  5
341
100
AcDbEntity
  8
0
100
AcDbSpline
 62
7
  6
CONTINUOUS
 70
0
 71
3
 72
9
 73
5
 74
0
 42
0.0000001
 43
0.0000001
 44
0.0000000001
 40
0.0
 40
0.0
 40
0.0
 40
0.0
 40
0.489397013
 40
1.0
 40
1.0
 40
1.0
 40
1.0
 10
16.6727382689
 20
11.9689097048
 30
0.0
 10
16.6752735164
 20
11.9667854768
 30
0.0
 10
16.6806629322
 20
11.9626905031
 30
0.0
 10
16.6863772553
 20
11.9590666063
 30
0.0
 10
16.6893606301
 20
11.9573322757
 30
0.0
  0
SPLINE
  5
342
100
AcDbEntity
  8
0
100
AcDbSpline
 62
7
  6
CONTINUOUS
 70
0
 71
3
 72
15
 73
11
 74
0
 42
0.0000001
 43
0.0000001
 44
0.0000000001
 40
0.0
 40
0.0
 40
0.0
 40
0.0
 40
0.1209987908
 40
0.2460198816
 40
0.373566798
 40
0.5022865503
 40
0.6307079922
 40
0.7573691156
 40
0.8809466681
 40
1.0
 40
1.0
 40
1.0
 40
1.0
 10
16.5552372707
 20
12.0328870081
 30
0.0
 10
16.5578931227
 20
12.0328870081
 30
0.0
 10
16.5632953244
 20
12.0326448448
 30
0.0
 10
16.5714380873
 20
12.0316158837
 30
0.0
 10
16.5796434875
 20
12.0299278494
 30
0.0
 10
16.5877709338
 20
12.0276102893
 30
0.0
 10
16.5956861749
 20
12.0247037462
 30
0.0
 10
16.6032571729
 20
12.0212543953
 30
0.0
 10
16.6103538534
 20
12.0173207873
 30
0.0
 10
16.6147878824
 20
12.0143564674
 30
0.0
 10
16.6168903077
 20
12.0128045775
 30
0.0
  0
SPLINE
  5
343
100
AcDbEntity
  8
0
100
AcDbSpline
 62
7
  6
CONTINUOUS
 70
0
 71
3
 72
17
 73
13
 74
0
 42
0.0000001
 43
0.0000001
 44
0.0000000001
 40
0.0
 40
0.0
 40
0.0
 40
0.0
 40
0.0494263137
 40
0.0995709056
 40
0.1507836274
 40
0.2033806419
 40
0.3137125086
 40
0.43245207
 40
0.5605754536
 40
0.6983035917
 40
0.8452269996
 40
1.0
 40
1.0
 40
1.0
 40
1.0
 10
16.3198714762
 20
12.0128045775
 30
0.0
 10
16.3201553881
 20
12.0135651356
 30
0.0
 10
16.3208162622
 20
12.0150656426
 30
0.0
 10
16.3220634017
 20
12.0172107442
 30
0.0
 10
16.3235647144
 20
12.0192515302
 30
0.0
 10
16.3259327327
 20
12.0218594917
 30
0.0
 10
16.3295395377
 20
12.0248023713
 30
0.0
 10
16.3346620144
 20
12.0277084951
 30
0.0
 10
16.3405657125
 20
12.0300085109
 30
0.0
 10
16.3471534183
 20
12.0316738317
 30
0.0
 10
16.3543135837
 20
12.0326730057
 30
0.0
 10
16.3592723322
 20
12.0328870081
 30
0.0
 10
16.361814462
 20
12.0328870081
 30
0.0
  0
SPLINE
  5
344
100
AcDbEntity
  8
0
100
AcDbSpline
 62
7
  6
CONTINUOUS
 70
0
 71
3
 72
11
 73
7
 74
0
 42
0.0000001
 43
0.0000001
 44
0.0000000001
 40
0.0
 40
0.0
 40
0.0
 40
0.0
 40
0.2541815629
 40
0.5048257322
 40
0.7530174166
 40
1.0
 40
1.0
 40
1.0
 40
1.0
 10
16.3018448575
 20
11.9573322757
 30
0.0
 10
16.3023566207
 20
11.958025036
 30
0.0
 10
16.3033188533
 20
11.9594420106
 30
0.0
 10
16.304574439
 20
11.9616666192
 30
0.0
 10
16.3056269803
 20
11.9639674571
 30
0.0
 10
16.306191995
 20
11.9655499603
 30
0.0
 10
16.30643908
 20
11.9663495493
 30
0.0
  0
SPLINE
  5
345
100
AcDbEntity
  8
0
100
AcDbSpline
 62
7
  6
CONTINUOUS
 70
0
 71
3
 72
15
 73
11
 74
0
 42
0.0000001
 43
0.0000001
 44
0.0000000001
 40
0.0
 40
0.0
 40
0.0
 40
0.0
 40
0.1498222331
 40
0.293380978
 40
0.4296903145
 40
0.558321794
 40
0.6791852174
 40
0.7925741355
 40
0.8991656157
 40
1.0
 40
1.0
 40
1.0
 40
1.0
 10
16.2547252753
 20
11.9396455129
 30
0.0
 10
16.2573249332
 20
11.9396455129
 30
0.0
 10
16.2624180003
 20
11.9398310775
 30
0.0
 10
16.2698321297
 20
11.9406940167
 30
0.0
 10
16.2767831076
 20
11.9421329189
 30
0.0
 10
16.2831860397
 20
11.9441274218
 30
0.0
 10
16.2889670682
 20
11.9466589014
 30
0.0
 10
16.2940605809
 20
11.9497001992
 30
0.0
 10
16.2983974905
 20
11.953221989
 30
0.0
 10
16.3008052513
 20
11.9559249885
 30
0.0
 10
16.3018448575
 20
11.9573322757
 30
0.0
  0
SPLINE
  5
346
100
AcDbEntity
  8
0
100
AcDbSpline
 62
7
  6
CONTINUOUS
 70
0
 71
3
 72
15
 73
11
 74
0
 42
0.0000001
 43
0.0000001
 44
0.0000000001
 40
0.0
 40
0.0
 40
0.0
 40
0.0
 40
0.1231676017
 40
0.2489998357
 40
0.3763097275
 40
0.5040763789
 40
0.6313175052
 40
0.7570635497
 40
0.8803288082
 40
1.0
 40
1.0
 40
1.0
 40
1.0
 10
16.1367240337
 20
11.9573322757
 30
0.0
 10
16.1391229357
 20
11.9559377177
 30
0.0
 10
16.1440733406
 20
11.9532885421
 30
0.0
 10
16.1517988591
 20
11.9497838174
 30
0.0
 10
16.1598299847
 20
11.9467439492
 30
0.0
 10
16.1680657525
 20
11.9442033939
 30
0.0
 10
16.1764106641
 20
11.9421934802
 30
0.0
 10
16.1847670065
 20
11.9407358835
 30
0.0
 10
16.1930317185
 20
11.9398522278
 30
0.0
 10
16.198506389
 20
11.9396455129
 30
0.0
 10
16.201202421
 20
11.9396455129
 30
0.0
  0
SPLINE
  5
347
100
AcDbEntity
  8
0
100
AcDbSpline
 62
7
  6
CONTINUOUS
 70
0
 71
3
 72
9
 73
5
 74
0
 42
0.0000001
 43
0.0000001
 44
0.0000000001
 40
0.0
 40
0.0
 40
0.0
 40
0.0
 40
0.489397013
 40
1.0
 40
1.0
 40
1.0
 40
1.0
 10
16.1201016725
 20
11.9689097048
 30
0.0
 10
16.12263692
 20
11.9667854768
 30
0.0
 10
16.1280263358
 20
11.9626905031
 30
0.0
 10
16.1337406589
 20
11.9590666063
 30
0.0
 10
16.1367240337
 20
11.9573322757
 30
0.0
  0
SPLINE
  5
348
100
AcDbEntity
  8
0
100
AcDbSpline
 62
7
  6
CONTINUOUS
 70
0
 71
3
 72
15
 73
11
 74
0
 42
0.0000001
 43
0.0000001
 44
0.0000000001
 40
0.0
 40
0.0
 40
0.0
 40
0.0
 40
0.1209370676
 40
0.2460060696
 40
0.3735982886
 40
0.5022867351
 40
0.6306764698
 40
0.7573827859
 40
0.8810070568
 40
1.0
 40
1.0
 40
1.0
 40
1.0
 10
16.0026006743
 20
12.0328870081
 30
0.0
 10
16.0052551667
 20
12.0328870081
 30
0.0
 10
16.0106569801
 20
12.0326438693
 30
0.0
 10
16.0188006236
 20
12.0316164707
 30
0.0
 10
16.0270071349
 20
12.0299271231
 30
0.0
 10
16.0351345862
 20
12.0276110455
 30
0.0
 10
16.0430489532
 20
12.0247033002
 30
0.0
 10
16.0506215943
 20
12.0212543774
 30
0.0
 10
16.057718053
 20
12.0173189724
 30
0.0
 10
16.0621523562
 20
12.0143556774
 30
0.0
 10
16.0642537113
 20
12.0128045775
 30
0.0
  0
SPLINE
  5
349
100
AcDbEntity
  8
0
100
AcDbSpline
 62
7
  6
CONTINUOUS
 70
0
 71
3
 72
17
 73
13
 74
0
 42
0.0000001
 43
0.0000001
 44
0.0000000001
 40
0.0
 40
0.0
 40
0.0
 40
0.0
 40
0.0494263137
 40
0.0995709056
 40
0.1507836274
 40
0.2033806419
 40
0.3137125086
 40
0.43245207
 40
0.5605754536
 40
0.6983035917
 40
0.8452269996
 40
1.0
 40
1.0
 40
1.0
 40
1.0
 10
15.7672348798
 20
12.0128045775
 30
0.0
 10
15.7675187917
 20
12.0135651356
 30
0.0
 10
15.7681796658
 20
12.0150656426
 30
0.0
 10
15.7694268053
 20
12.0172107442
 30
0.0
 10
15.770928118
 20
12.0192515302
 30
0.0
 10
15.7732961363
 20
12.0218594917
 30
0.0
 10
15.7769029413
 20
12.0248023713
 30
0.0
 10
15.782025418
 20
12.0277084951
 30
0.0
 10
15.7879291161
 20
12.0300085109
 30
0.0
 10
15.7945168219
 20
12.0316738317
 30
0.0
 10
15.8016769873
 20
12.0326730057
 30
0.0
 10
15.8066357358
 20
12.0328870081
 30
0.0
 10
15.8091778656
 20
12.0328870081
 30
0.0
  0
SPLINE
  5
34A
100
AcDbEntity
  8
0
100
AcDbSpline
 62
7
  6
CONTINUOUS
 70
0
 71
3
 72
11
 73
7
 74
0
 42
0.0000001
 43
0.0000001
 44
0.0000000001
 40
0.0
 40
0.0
 40
0.0
 40
0.0
 40
0.2541815629
 40
0.5048257322
 40
0.7530174166
 40
1.0
 40
1.0
 40
1.0
 40
1.0
 10
15.7492082611
 20
11.9573322757
 30
0.0
 10
15.7497200243
 20
11.958025036
 30
0.0
 10
15.7506822569
 20
11.9594420106
 30
0.0
 10
15.7519378426
 20
11.9616666192
 30
0.0
 10
15.7529903839
 20
11.9639674571
 30
0.0
 10
15.7535553986
 20
11.9655499603
 30
0.0
 10
15.7538024836
 20
11.9663495493
 30
0.0
  0
SPLINE
  5
34B
100
AcDbEntity
  8
0
100
AcDbSpline
 62
7
  6
CONTINUOUS
 70
0
 71
3
 72
15
 73
11
 74
0
 42
0.0000001
 43
0.0000001
 44
0.0000000001
 40
0.0
 40
0.0
 40
0.0
 40
0.0
 40
0.1496726062
 40
0.293263256
 40
0.4296920058
 40
0.5583368511
 40
0.6792076153
 40
0.792636199
 40
0.8992500449
 40
1.0
 40
1.0
 40
1.0
 40
1.0
 10
15.7020886789
 20
11.9396455129
 30
0.0
 10
15.7046857078
 20
11.9396455129
 30
0.0
 10
15.7097766745
 20
11.9398323213
 30
0.0
 10
15.7171904483
 20
11.9406961073
 30
0.0
 10
15.7241452011
 20
11.9421307795
 30
0.0
 10
15.7305500714
 20
11.9441270015
 30
0.0
 10
15.7363326827
 20
11.9466576498
 30
0.0
 10
15.7414242804
 20
11.9497045015
 30
0.0
 10
15.7457607967
 20
11.9532254495
 30
0.0
 10
15.7481695385
 20
11.9559261845
 30
0.0
 10
15.7492082611
 20
11.9573322757
 30
0.0
  0
SPLINE
  5
34C
100
AcDbEntity
  8
0
100
AcDbSpline
 62
7
  6
CONTINUOUS
 70
0
 71
3
 72
15
 73
11
 74
0
 42
0.0000001
 43
0.0000001
 44
0.0000000001
 40
0.0
 40
0.0
 40
0.0
 40
0.0
 40
0.1230579925
 40
0.2489161634
 40
0.3763010777
 40
0.5040772163
 40
0.631327426
 40
0.7571429756
 40
0.8804335243
 40
1.0
 40
1.0
 40
1.0
 40
1.0
 10
15.5840874373
 20
11.9573322757
 30
0.0
 10
15.5864841951
 20
11.9559389642
 30
0.0
 10
15.5914335776
 20
11.9532918595
 30
0.0
 10
15.5991589791
 20
11.9497877027
 30
0.0
 10
15.6071910206
 20
11.9467432361
 30
0.0
 10
15.6154290716
 20
11.9442029333
 30
0.0
 10
15.6237756968
 20
11.9421916491
 30
0.0
 10
15.6321350319
 20
11.9407376081
 30
0.0
 10
15.6403993245
 20
11.9398535554
 30
0.0
 10
15.6458721622
 20
11.9396455129
 30
0.0
 10
15.6485658246
 20
11.9396455129
 30
0.0
  0
SPLINE
  5
34D
100
AcDbEntity
  8
0
100
AcDbSpline
 62
7
  6
CONTINUOUS
 70
0
 71
3
 72
9
 73
5
 74
0
 42
0.0000001
 43
0.0000001
 44
0.0000000001
 40
0.0
 40
0.0
 40
0.0
 40
0.0
 40
0.489397013
 40
1.0
 40
1.0
 40
1.0
 40
1.0
 10
15.5674650761
 20
11.9689097048
 30
0.0
 10
15.5700003236
 20
11.9667854768
 30
0.0
 10
15.5753897394
 20
11.9626905031
 30
0.0
 10
15.5811040625
 20
11.9590666063
 30
0.0
 10
15.5840874373
 20
11.9573322757
 30
0.0
  0
SPLINE
  5
34E
100
AcDbEntity
  8
0
100
AcDbSpline
 62
7
  6
CONTINUOUS
 70
0
 71
3
 72
15
 73
11
 74
0
 42
0.0000001
 43
0.0000001
 44
0.0000000001
 40
0.0
 40
0.0
 40
0.0
 40
0.0
 40
0.1209370676
 40
0.2460060696
 40
0.3735982886
 40
0.5022867351
 40
0.6306764698
 40
0.7573827859
 40
0.8810070568
 40
1.0
 40
1.0
 40
1.0
 40
1.0
 10
15.4499640779
 20
12.0328870081
 30
0.0
 10
15.4526185703
 20
12.0328870081
 30
0.0
 10
15.4580203837
 20
12.0326438693
 30
0.0
 10
15.4661640272
 20
12.0316164707
 30
0.0
 10
15.4743705385
 20
12.0299271231
 30
0.0
 10
15.4824979898
 20
12.0276110455
 30
0.0
 10
15.4904123568
 20
12.0247033002
 30
0.0
 10
15.4979849979
 20
12.0212543774
 30
0.0
 10
15.5050814566
 20
12.0173189724
 30
0.0
 10
15.5095157598
 20
12.0143556774
 30
0.0
 10
15.5116171149
 20
12.0128045775
 30
0.0
  0
SPLINE
  5
34F
100
AcDbEntity
  8
0
100
AcDbSpline
 62
7
  6
CONTINUOUS
 70
0
 71
3
 72
17
 73
13
 74
0
 42
0.0000001
 43
0.0000001
 44
0.0000000001
 40
0.0
 40
0.0
 40
0.0
 40
0.0
 40
0.0494263137
 40
0.0995709056
 40
0.1507836274
 40
0.2033806419
 40
0.3137125086
 40
0.43245207
 40
0.5605754536
 40
0.6983035917
 40
0.8452269996
 40
1.0
 40
1.0
 40
1.0
 40
1.0
 10
15.2145982834
 20
12.0128045775
 30
0.0
 10
15.2148821953
 20
12.0135651356
 30
0.0
 10
15.2155430694
 20
12.0150656426
 30
0.0
 10
15.2167902089
 20
12.0172107442
 30
0.0
 10
15.2182915216
 20
12.0192515302
 30
0.0
 10
15.2206595399
 20
12.0218594917
 30
0.0
 10
15.2242663449
 20
12.0248023713
 30
0.0
 10
15.2293888216
 20
12.0277084951
 30
0.0
 10
15.2352925197
 20
12.0300085109
 30
0.0
 10
15.2418802255
 20
12.0316738317
 30
0.0
 10
15.2490403909
 20
12.0326730057
 30
0.0
 10
15.2539991394
 20
12.0328870081
 30
0.0
 10
15.2565412692
 20
12.0328870081
 30
0.0
  0
SPLINE
  5
350
100
AcDbEntity
  8
0
100
AcDbSpline
 62
7
  6
CONTINUOUS
 70
0
 71
3
 72
11
 73
7
 74
0
 42
0.0000001
 43
0.0000001
 44
0.0000000001
 40
0.0
 40
0.0
 40
0.0
 40
0.0
 40
0.2541815629
 40
0.5048257322
 40
0.7530174166
 40
1.0
 40
1.0
 40
1.0
 40
1.0
 10
15.1965716647
 20
11.9573322757
 30
0.0
 10
15.1970834279
 20
11.958025036
 30
0.0
 10
15.1980456605
 20
11.9594420106
 30
0.0
 10
15.1993012462
 20
11.9616666192
 30
0.0
 10
15.2003537875
 20
11.9639674571
 30
0.0
 10
15.2009188022
 20
11.9655499603
 30
0.0
 10
15.2011658872
 20
11.9663495493
 30
0.0
  0
SPLINE
  5
351
100
AcDbEntity
  8
0
100
AcDbSpline
 62
7
  6
CONTINUOUS
 70
0
 71
3
 72
15
 73
11
 74
0
 42
0.0000001
 43
0.0000001
 44
0.0000000001
 40
0.0
 40
0.0
 40
0.0
 40
0.0
 40
0.1496726062
 40
0.293263256
 40
0.4296920058
 40
0.5583368511
 40
0.6792076153
 40
0.792636199
 40
0.8992500449
 40
1.0
 40
1.0
 40
1.0
 40
1.0
 10
15.1494520825
 20
11.9396455129
 30
0.0
 10
15.1520491114
 20
11.9396455129
 30
0.0
 10
15.1571400781
 20
11.9398323213
 30
0.0
 10
15.1645538519
 20
11.9406961073
 30
0.0
 10
15.1715086047
 20
11.9421307795
 30
0.0
 10
15.177913475
 20
11.9441270015
 30
0.0
 10
15.1836960863
 20
11.9466576498
 30
0.0
 10
15.188787684
 20
11.9497045015
 30
0.0
 10
15.1931242003
 20
11.9532254495
 30
0.0
 10
15.1955329421
 20
11.9559261845
 30
0.0
 10
15.1965716647
 20
11.9573322757
 30
0.0
  0
SPLINE
  5
352
100
AcDbEntity
  8
0
100
AcDbSpline
 62
7
  6
CONTINUOUS
 70
0
 71
3
 72
15
 73
11
 74
0
 42
0.0000001
 43
0.0000001
 44
0.0000000001
 40
0.0
 40
0.0
 40
0.0
 40
0.0
 40
0.1230579925
 40
0.2489161634
 40
0.3763010777
 40
0.5040772163
 40
0.631327426
 40
0.7571429756
 40
0.8804335243
 40
1.0
 40
1.0
 40
1.0
 40
1.0
 10
15.0314508409
 20
11.9573322757
 30
0.0
 10
15.0338475987
 20
11.9559389642
 30
0.0
 10
15.0387969812
 20
11.9532918595
 30
0.0
 10
15.0465223827
 20
11.9497877027
 30
0.0
 10
15.0545544242
 20
11.9467432361
 30
0.0
 10
15.0627924752
 20
11.9442029333
 30
0.0
 10
15.0711391004
 20
11.9421916491
 30
0.0
 10
15.0794984355
 20
11.9407376081
 30
0.0
 10
15.0877627281
 20
11.9398535554
 30
0.0
 10
15.0932355658
 20
11.9396455129
 30
0.0
 10
15.0959292282
 20
11.9396455129
 30
0.0
  0
SPLINE
  5
353
100
AcDbEntity
  8
0
100
AcDbSpline
 62
7
  6
CONTINUOUS
 70
0
 71
3
 72
9
 73
5
 74
0
 42
0.0000001
 43
0.0000001
 44
0.0000000001
 40
0.0
 40
0.0
 40
0.0
 40
0.0
 40
0.489397013
 40
1.0
 40
1.0
 40
1.0
 40
1.0
 10
15.0148284797
 20
11.9689097048
 30
0.0
 10
15.0173637272
 20
11.9667854768
 30
0.0
 10
15.022753143
 20
11.9626905031
 30
0.0
 10
15.0284674661
 20
11.9590666063
 30
0.0
 10
15.0314508409
 20
11.9573322757
 30
0.0
  0
SPLINE
  5
354
100
AcDbEntity
  8
0
100
AcDbSpline
 62
7
  6
CONTINUOUS
 70
0
 71
3
 72
15
 73
11
 74
0
 42
0.0000001
 43
0.0000001
 44
0.0000000001
 40
0.0
 40
0.0
 40
0.0
 40
0.0
 40
0.1209370676
 40
0.2460060696
 40
0.3735982886
 40
0.5022867351
 40
0.6306764698
 40
0.7573827859
 40
0.8810070568
 40
1.0
 40
1.0
 40
1.0
 40
1.0
 10
14.8973274815
 20
12.0328870081
 30
0.0
 10
14.8999819739
 20
12.0328870081
 30
0.0
 10
14.9053837873
 20
12.0326438693
 30
0.0
 10
14.9135274308
 20
12.0316164707
 30
0.0
 10
14.9217339421
 20
12.0299271231
 30
0.0
 10
14.9298613934
 20
12.0276110455
 30
0.0
 10
14.9377757604
 20
12.0247033002
 30
0.0
 10
14.9453484015
 20
12.0212543774
 30
0.0
 10
14.9524448602
 20
12.0173189724
 30
0.0
 10
14.9568791634
 20
12.0143556774
 30
0.0
 10
14.9589805185
 20
12.0128045775
 30
0.0
  0
SPLINE
  5
355
100
AcDbEntity
  8
0
100
AcDbSpline
 62
7
  6
CONTINUOUS
 70
0
 71
3
 72
20
 73
16
 74
0
 42
0.0000001
 43
0.0000001
 44
0.0000000001
 40
0.0
 40
0.0
 40
0.0
 40
0.0
 40
0.0493294303
 40
0.0994232845
 40
0.1506251053
 40
0.2032367613
 40
0.2575209501
 40
0.3137059133
 40
0.3719886135
 40
0.4325192832
 40
0.560631643
 40
0.6985049639
 40
0.7709498895
 40
0.8454870502
 40
1.0
 40
1.0
 40
1.0
 40
1.0
 10
14.661961687
 20
12.0128045775
 30
0.0
 10
14.6622451055
 20
12.0135638138
 30
0.0
 10
14.6629059433
 20
12.0150621285
 30
0.0
 10
14.6641538181
 20
12.01720444
 30
0.0
 10
14.6656558599
 20
12.0192442473
 30
0.0
 10
14.6674040056
 20
12.0211709362
 30
0.0
 10
14.6693904193
 20
12.0229746809
 30
0.0
 10
14.6716077383
 20
12.0246448371
 30
0.0
 10
14.6740456341
 20
12.0261748205
 30
0.0
 10
14.6776430665
 20
12.0280571015
 30
0.0
 10
14.6826577716
 20
12.0300120448
 30
0.0
 10
14.6880619243
 20
12.0313715237
 30
0.0
 10
14.6926783843
 20
12.0321489021
 30
0.0
 10
14.6975997606
 20
12.0327230719
 30
0.0
 10
14.7013662492
 20
12.0328870081
 30
0.0
 10
14.7039046728
 20
12.0328870081
 30
0.0
  0
SPLINE
  5
356
100
AcDbEntity
  8
0
100
AcDbSpline
 62
7
  6
CONTINUOUS
 70
0
 71
3
 72
11
 73
7
 74
0
 42
0.0000001
 43
0.0000001
 44
0.0000000001
 40
0.0
 40
0.0
 40
0.0
 40
0.0
 40
0.2541815629
 40
0.5048257322
 40
0.7530174166
 40
1.0
 40
1.0
 40
1.0
 40
1.0
 10
14.6439350683
 20
11.9573322757
 30
0.0
 10
14.6444468315
 20
11.958025036
 30
0.0
 10
14.6454090641
 20
11.9594420106
 30
0.0
 10
14.6466646498
 20
11.9616666192
 30
0.0
 10
14.6477171911
 20
11.9639674571
 30
0.0
 10
14.6482822058
 20
11.9655499603
 30
0.0
 10
14.6485292908
 20
11.9663495493
 30
0.0
  0
SPLINE
  5
357
100
AcDbEntity
  8
0
100
AcDbSpline
 62
7
  6
CONTINUOUS
 70
0
 71
3
 72
15
 73
11
 74
0
 42
0.0000001
 43
0.0000001
 44
0.0000000001
 40
0.0
 40
0.0
 40
0.0
 40
0.0
 40
0.1496726062
 40
0.293263256
 40
0.4296920058
 40
0.5583368511
 40
0.6792076153
 40
0.792636199
 40
0.8992500449
 40
1.0
 40
1.0
 40
1.0
 40
1.0
 10
14.5968154861
 20
11.9396455129
 30
0.0
 10
14.599412515
 20
11.9396455129
 30
0.0
 10
14.6045034817
 20
11.9398323213
 30
0.0
 10
14.6119172555
 20
11.9406961073
 30
0.0
 10
14.6188720083
 20
11.9421307795
 30
0.0
 10
14.6252768786
 20
11.9441270015
 30
0.0
 10
14.6310594899
 20
11.9466576498
 30
0.0
 10
14.6361510876
 20
11.9497045015
 30
0.0
 10
14.6404876039
 20
11.9532254495
 30
0.0
 10
14.6428963457
 20
11.9559261845
 30
0.0
 10
14.6439350683
 20
11.9573322757
 30
0.0
  0
SPLINE
  5
358
100
AcDbEntity
  8
0
100
AcDbSpline
 62
7
  6
CONTINUOUS
 70
0
 71
3
 72
15
 73
11
 74
0
 42
0.0000001
 43
0.0000001
 44
0.0000000001
 40
0.0
 40
0.0
 40
0.0
 40
0.0
 40
0.1230579925
 40
0.2489161634
 40
0.3763010777
 40
0.5040772163
 40
0.631327426
 40
0.7571429756
 40
0.8804335243
 40
1.0
 40
1.0
 40
1.0
 40
1.0
 10
14.4788142445
 20
11.9573322757
 30
0.0
 10
14.4812110023
 20
11.9559389642
 30
0.0
 10
14.4861603848
 20
11.9532918595
 30
0.0
 10
14.4938857863
 20
11.9497877027
 30
0.0
 10
14.5019178278
 20
11.9467432361
 30
0.0
 10
14.5101558788
 20
11.9442029333
 30
0.0
 10
14.518502504
 20
11.9421916491
 30
0.0
 10
14.5268618391
 20
11.9407376081
 30
0.0
 10
14.5351261317
 20
11.9398535554
 30
0.0
 10
14.5405989694
 20
11.9396455129
 30
0.0
 10
14.5432926318
 20
11.9396455129
 30
0.0
  0
SPLINE
  5
359
100
AcDbEntity
  8
0
100
AcDbSpline
 62
7
  6
CONTINUOUS
 70
0
 71
3
 72
9
 73
5
 74
0
 42
0.0000001
 43
0.0000001
 44
0.0000000001
 40
0.0
 40
0.0
 40
0.0
 40
0.0
 40
0.489397013
 40
1.0
 40
1.0
 40
1.0
 40
1.0
 10
14.4621918833
 20
11.9689097048
 30
0.0
 10
14.4647271308
 20
11.9667854768
 30
0.0
 10
14.4701165466
 20
11.9626905031
 30
0.0
 10
14.4758308697
 20
11.9590666063
 30
0.0
 10
14.4788142445
 20
11.9573322757
 30
0.0
  0
SPLINE
  5
35A
100
AcDbEntity
  8
0
100
AcDbSpline
 62
7
  6
CONTINUOUS
 70
0
 71
3
 72
15
 73
11
 74
0
 42
0.0000001
 43
0.0000001
 44
0.0000000001
 40
0.0
 40
0.0
 40
0.0
 40
0.0
 40
0.1207882708
 40
0.2458938983
 40
0.3735845518
 40
0.5022874108
 40
0.6306912745
 40
0.7574917037
 40
0.8811520809
 40
1.0
 40
1.0
 40
1.0
 40
1.0
 10
14.3446908851
 20
12.0328870081
 30
0.0
 10
14.34734209
 20
12.0328870081
 30
0.0
 10
14.3527413534
 20
12.0326417076
 30
0.0
 10
14.3608843185
 20
12.0316136919
 30
0.0
 10
14.3690953468
 20
12.0299300541
 30
0.0
 10
14.3772250345
 20
12.0276116771
 30
0.0
 10
14.3851424833
 20
12.024704519
 30
0.0
 10
14.3927152908
 20
12.0212483338
 30
0.0
 10
14.3998115274
 20
12.0173138172
 30
0.0
 10
14.4042451451
 20
12.0143537744
 30
0.0
 10
14.4063439221
 20
12.0128045775
 30
0.0
  0
SPLINE
  5
35B
100
AcDbEntity
  8
0
100
AcDbSpline
 62
7
  6
CONTINUOUS
 70
0
 71
3
 72
17
 73
13
 74
0
 42
0.0000001
 43
0.0000001
 44
0.0000000001
 40
0.0
 40
0.0
 40
0.0
 40
0.0
 40
0.0494263137
 40
0.0995709056
 40
0.1507836274
 40
0.2033806419
 40
0.3137125086
 40
0.43245207
 40
0.5605754536
 40
0.6983035917
 40
0.8452269996
 40
1.0
 40
1.0
 40
1.0
 40
1.0
 10
16.0079386361
 20
12.127562635
 30
0.0
 10
16.0076547242
 20
12.1268020768
 30
0.0
 10
16.0069938502
 20
12.1253015698
 30
0.0
 10
16.0057467106
 20
12.1231564683
 30
0.0
 10
16.0042453979
 20
12.1211156823
 30
0.0
 10
16.0018773796
 20
12.1185077208
 30
0.0
 10
15.9982705746
 20
12.1155648412
 30
0.0
 10
15.9931480979
 20
12.1126587174
 30
0.0
 10
15.9872443998
 20
12.1103587016
 30
0.0
 10
15.980656694
 20
12.1086933808
 30
0.0
 10
15.9734965287
 20
12.1076942068
 30
0.0
 10
15.9685377801
 20
12.1074802043
 30
0.0
 10
15.9659956503
 20
12.1074802043
 30
0.0
  0
SPLINE
  5
35C
100
AcDbEntity
  8
0
100
AcDbSpline
 62
7
  6
CONTINUOUS
 70
0
 71
3
 72
11
 73
7
 74
0
 42
0.0000001
 43
0.0000001
 44
0.0000000001
 40
0.0
 40
0.0
 40
0.0
 40
0.0
 40
0.2541815629
 40
0.5048257322
 40
0.7530174166
 40
1.0
 40
1.0
 40
1.0
 40
1.0
 10
16.0259652548
 20
12.1830349368
 30
0.0
 10
16.0254534916
 20
12.1823421765
 30
0.0
 10
16.024491259
 20
12.1809252019
 30
0.0
 10
16.0232356733
 20
12.1787005933
 30
0.0
 10
16.022183132
 20
12.1763997554
 30
0.0
 10
16.0216181174
 20
12.1748172522
 30
0.0
 10
16.0213710323
 20
12.1740176631
 30
0.0
  0
SPLINE
  5
35D
100
AcDbEntity
  8
0
100
AcDbSpline
 62
7
  6
CONTINUOUS
 70
0
 71
3
 72
15
 73
11
 74
0
 42
0.0000001
 43
0.0000001
 44
0.0000000001
 40
0.0
 40
0.0
 40
0.0
 40
0.0
 40
0.1498222331
 40
0.293380978
 40
0.4296903145
 40
0.558321794
 40
0.6791852174
 40
0.7925741355
 40
0.8991656157
 40
1.0
 40
1.0
 40
1.0
 40
1.0
 10
16.073084837
 20
12.2007216996
 30
0.0
 10
16.0704851791
 20
12.2007216996
 30
0.0
 10
16.065392112
 20
12.200536135
 30
0.0
 10
16.0579779827
 20
12.1996731958
 30
0.0
 10
16.0510270047
 20
12.1982342935
 30
0.0
 10
16.0446240726
 20
12.1962397906
 30
0.0
 10
16.0388430441
 20
12.1937083111
 30
0.0
 10
16.0337495314
 20
12.1906670132
 30
0.0
 10
16.0294126218
 20
12.1871452235
 30
0.0
 10
16.027004861
 20
12.184442224
 30
0.0
 10
16.0259652548
 20
12.1830349368
 30
0.0
  0
SPLINE
  5
35E
100
AcDbEntity
  8
0
100
AcDbSpline
 62
7
  6
CONTINUOUS
 70
0
 71
3
 72
15
 73
11
 74
0
 42
0.0000001
 43
0.0000001
 44
0.0000000001
 40
0.0
 40
0.0
 40
0.0
 40
0.0
 40
0.1231676017
 40
0.2489998357
 40
0.3763097275
 40
0.5040763789
 40
0.6313175052
 40
0.7570635497
 40
0.8803288082
 40
1.0
 40
1.0
 40
1.0
 40
1.0
 10
16.1910860786
 20
12.1830349368
 30
0.0
 10
16.1886871766
 20
12.1844294947
 30
0.0
 10
16.1837367717
 20
12.1870786704
 30
0.0
 10
16.1760112532
 20
12.1905833951
 30
0.0
 10
16.1679801276
 20
12.1936232632
 30
0.0
 10
16.1597443598
 20
12.1961638186
 30
0.0
 10
16.1513994483
 20
12.1981737323
 30
0.0
 10
16.1430431059
 20
12.199631329
 30
0.0
 10
16.1347783938
 20
12.2005149847
 30
0.0
 10
16.1293037233
 20
12.2007216996
 30
0.0
 10
16.1266076913
 20
12.2007216996
 30
0.0
  0
SPLINE
  5
35F
100
AcDbEntity
  8
0
100
AcDbSpline
 62
7
  6
CONTINUOUS
 70
0
 71
3
 72
9
 73
5
 74
0
 42
0.0000001
 43
0.0000001
 44
0.0000000001
 40
0.0
 40
0.0
 40
0.0
 40
0.0
 40
0.489397013
 40
1.0
 40
1.0
 40
1.0
 40
1.0
 10
16.2077084398
 20
12.1714575077
 30
0.0
 10
16.2051731923
 20
12.1735817357
 30
0.0
 10
16.1997837765
 20
12.1776767093
 30
0.0
 10
16.1940694534
 20
12.1813006062
 30
0.0
 10
16.1910860786
 20
12.1830349368
 30
0.0
  0
SPLINE
  5
360
100
AcDbEntity
  8
0
100
AcDbSpline
 62
7
  6
CONTINUOUS
 70
0
 71
3
 72
15
 73
11
 74
0
 42
0.0000001
 43
0.0000001
 44
0.0000000001
 40
0.0
 40
0.0
 40
0.0
 40
0.0
 40
0.1209370676
 40
0.2460060696
 40
0.3735982886
 40
0.5022867351
 40
0.6306764698
 40
0.7573827859
 40
0.8810070568
 40
1.0
 40
1.0
 40
1.0
 40
1.0
 10
16.325209438
 20
12.1074802043
 30
0.0
 10
16.3225549456
 20
12.1074802043
 30
0.0
 10
16.3171531322
 20
12.1077233432
 30
0.0
 10
16.3090094887
 20
12.1087507418
 30
0.0
 10
16.3008029775
 20
12.1104400894
 30
0.0
 10
16.2926755262
 20
12.112756167
 30
0.0
 10
16.2847611592
 20
12.1156639122
 30
0.0
 10
16.277188518
 20
12.1191128351
 30
0.0
 10
16.2700920593
 20
12.1230482401
 30
0.0
 10
16.2656577561
 20
12.1260115351
 30
0.0
 10
16.263556401
 20
12.127562635
 30
0.0
  0
SPLINE
  5
361
100
AcDbEntity
  8
0
100
AcDbSpline
 62
7
  6
CONTINUOUS
 70
0
 71
3
 72
18
 73
14
 74
0
 42
0.0000001
 43
0.0000001
 44
0.0000000001
 40
0.0
 40
0.0
 40
0.0
 40
0.0
 40
0.0494613074
 40
0.0996160109
 40
0.1508156521
 40
0.2033832867
 40
0.3136667926
 40
0.4324345139
 40
0.5605729086
 40
0.6282603665
 40
0.6983058011
 40
0.8451495039
 40
1.0
 40
1.0
 40
1.0
 40
1.0
 10
16.5605752325
 20
12.127562635
 30
0.0
 10
16.5602911009
 20
12.1268014883
 30
0.0
 10
16.5596301416
 20
12.1253001016
 30
0.0
 10
16.5583830598
 20
12.1231541648
 30
0.0
 10
16.5568818869
 20
12.1211136569
 30
0.0
 10
16.5545132194
 20
12.1185080558
 30
0.0
 10
16.5509079815
 20
12.1155640871
 30
0.0
 10
16.54578433
 20
12.1126598658
 30
0.0
 10
16.5409545989
 20
12.1107762184
 30
0.0
 10
16.5367556465
 20
12.1095689498
 30
0.0
 10
16.5321933327
 20
12.1085399161
 30
0.0
 10
16.5261345913
 20
12.107693154
 30
0.0
 10
16.5211758168
 20
12.1074802043
 30
0.0
 10
16.5186322467
 20
12.1074802043
 30
0.0
  0
SPLINE
  5
362
100
AcDbEntity
  8
0
100
AcDbSpline
 62
7
  6
CONTINUOUS
 70
0
 71
3
 72
11
 73
7
 74
0
 42
0.0000001
 43
0.0000001
 44
0.0000000001
 40
0.0
 40
0.0
 40
0.0
 40
0.0
 40
0.2541815629
 40
0.5048257322
 40
0.7530174166
 40
1.0
 40
1.0
 40
1.0
 40
1.0
 10
16.5786018512
 20
12.1830349368
 30
0.0
 10
16.578090088
 20
12.1823421765
 30
0.0
 10
16.5771278554
 20
12.1809252019
 30
0.0
 10
16.5758722697
 20
12.1787005933
 30
0.0
 10
16.5748197284
 20
12.1763997554
 30
0.0
 10
16.5742547138
 20
12.1748172522
 30
0.0
 10
16.5740076287
 20
12.1740176631
 30
0.0
  0
SPLINE
  5
363
100
AcDbEntity
  8
0
100
AcDbSpline
 62
7
  6
CONTINUOUS
 70
0
 71
3
 72
15
 73
11
 74
0
 42
0.0000001
 43
0.0000001
 44
0.0000000001
 40
0.0
 40
0.0
 40
0.0
 40
0.0
 40
0.1498222331
 40
0.293380978
 40
0.4296903145
 40
0.558321794
 40
0.6791852174
 40
0.7925741355
 40
0.8991656157
 40
1.0
 40
1.0
 40
1.0
 40
1.0
 10
16.6257214334
 20
12.2007216996
 30
0.0
 10
16.6231217755
 20
12.2007216996
 30
0.0
 10
16.6180287084
 20
12.200536135
 30
0.0
 10
16.6106145791
 20
12.1996731958
 30
0.0
 10
16.6036636011
 20
12.1982342935
 30
0.0
 10
16.597260669
 20
12.1962397906
 30
0.0
 10
16.5914796405
 20
12.1937083111
 30
0.0
 10
16.5863861278
 20
12.1906670132
 30
0.0
 10
16.5820492182
 20
12.1871452235
 30
0.0
 10
16.5796414574
 20
12.184442224
 30
0.0
 10
16.5786018512
 20
12.1830349368
 30
0.0
  0
SPLINE
  5
364
100
AcDbEntity
  8
0
100
AcDbSpline
 62
7
  6
CONTINUOUS
 70
0
 71
3
 72
15
 73
11
 74
0
 42
0.0000001
 43
0.0000001
 44
0.0000000001
 40
0.0
 40
0.0
 40
0.0
 40
0.0
 40
0.1231676017
 40
0.2489998357
 40
0.3763097275
 40
0.5040763789
 40
0.6313175052
 40
0.7570635497
 40
0.8803288082
 40
1.0
 40
1.0
 40
1.0
 40
1.0
 10
16.743722675
 20
12.1830349368
 30
0.0
 10
16.7413237731
 20
12.1844294947
 30
0.0
 10
16.7363733681
 20
12.1870786704
 30
0.0
 10
16.7286478496
 20
12.1905833951
 30
0.0
 10
16.720616724
 20
12.1936232632
 30
0.0
 10
16.7123809562
 20
12.1961638186
 30
0.0
 10
16.7040360447
 20
12.1981737323
 30
0.0
 10
16.6956797023
 20
12.199631329
 30
0.0
 10
16.6874149902
 20
12.2005149847
 30
0.0
 10
16.6819403197
 20
12.2007216996
 30
0.0
 10
16.6792442878
 20
12.2007216996
 30
0.0
  0
SPLINE
  5
365
100
AcDbEntity
  8
0
100
AcDbSpline
 62
7
  6
CONTINUOUS
 70
0
 71
3
 72
9
 73
5
 74
0
 42
0.0000001
 43
0.0000001
 44
0.0000000001
 40
0.0
 40
0.0
 40
0.0
 40
0.0
 40
0.489397013
 40
1.0
 40
1.0
 40
1.0
 40
1.0
 10
16.7603450362
 20
12.1714575077
 30
0.0
 10
16.7578097887
 20
12.1735817357
 30
0.0
 10
16.7524203729
 20
12.1776767093
 30
0.0
 10
16.7467060498
 20
12.1813006062
 30
0.0
 10
16.743722675
 20
12.1830349368
 30
0.0
  0
SPLINE
  5
366
100
AcDbEntity
  8
0
100
AcDbSpline
 62
7
  6
CONTINUOUS
 70
0
 71
3
 72
15
 73
11
 74
0
 42
0.0000001
 43
0.0000001
 44
0.0000000001
 40
0.0
 40
0.0
 40
0.0
 40
0.0
 40
0.1209987908
 40
0.2460198816
 40
0.373566798
 40
0.5022865503
 40
0.6307079922
 40
0.7573691156
 40
0.8809466681
 40
1.0
 40
1.0
 40
1.0
 40
1.0
 10
16.8778460344
 20
12.1074802043
 30
0.0
 10
16.8751901824
 20
12.1074802043
 30
0.0
 10
16.8697879808
 20
12.1077223677
 30
0.0
 10
16.8616452178
 20
12.1087513288
 30
0.0
 10
16.8534398176
 20
12.1104393631
 30
0.0
 10
16.8453123713
 20
12.1127569231
 30
0.0
 10
16.8373971302
 20
12.1156634663
 30
0.0
 10
16.8298261322
 20
12.1191128172
 30
0.0
 10
16.8227294517
 20
12.1230464252
 30
0.0
 10
16.8182954227
 20
12.1260107451
 30
0.0
 10
16.8161929974
 20
12.127562635
 30
0.0
  0
SPLINE
  5
367
100
AcDbEntity
  8
0
100
AcDbSpline
 62
7
  6
CONTINUOUS
 70
0
 71
3
 72
20
 73
16
 74
0
 42
0.0000001
 43
0.0000001
 44
0.0000000001
 40
0.0
 40
0.0
 40
0.0
 40
0.0
 40
0.0493294303
 40
0.0994232845
 40
0.1506251053
 40
0.2032367613
 40
0.2575209501
 40
0.3137059133
 40
0.3719886135
 40
0.4325192832
 40
0.560631643
 40
0.6985049639
 40
0.7709498895
 40
0.8454870502
 40
1.0
 40
1.0
 40
1.0
 40
1.0
 10
13.7973922505
 20
12.127562635
 30
0.0
 10
13.797108832
 20
12.1268033986
 30
0.0
 10
13.7964479942
 20
12.125305084
 30
0.0
 10
13.7952001194
 20
12.1231627725
 30
0.0
 10
13.7936980776
 20
12.1211229652
 30
0.0
 10
13.791949932
 20
12.1191962763
 30
0.0
 10
13.7899635182
 20
12.1173925316
 30
0.0
 10
13.7877461992
 20
12.1157223754
 30
0.0
 10
13.7853083034
 20
12.114192392
 30
0.0
 10
13.781710871
 20
12.112310111
 30
0.0
 10
13.776696166
 20
12.1103551676
 30
0.0
 10
13.7712920133
 20
12.1089956888
 30
0.0
 10
13.7666755533
 20
12.1082183104
 30
0.0
 10
13.7617541769
 20
12.1076441406
 30
0.0
 10
13.7579876883
 20
12.1074802043
 30
0.0
 10
13.7554492647
 20
12.1074802043
 30
0.0
  0
SPLINE
  5
368
100
AcDbEntity
  8
0
100
AcDbSpline
 62
7
  6
CONTINUOUS
 70
0
 71
3
 72
11
 73
7
 74
0
 42
0.0000001
 43
0.0000001
 44
0.0000000001
 40
0.0
 40
0.0
 40
0.0
 40
0.0
 40
0.2541815629
 40
0.5048257322
 40
0.7530174166
 40
1.0
 40
1.0
 40
1.0
 40
1.0
 10
13.8154188692
 20
12.1830349368
 30
0.0
 10
13.814907106
 20
12.1823421765
 30
0.0
 10
13.8139448734
 20
12.1809252019
 30
0.0
 10
13.8126892877
 20
12.1787005933
 30
0.0
 10
13.8116367464
 20
12.1763997554
 30
0.0
 10
13.8110717317
 20
12.1748172522
 30
0.0
 10
13.8108246467
 20
12.1740176631
 30
0.0
  0
SPLINE
  5
369
100
AcDbEntity
  8
0
100
AcDbSpline
 62
7
  6
CONTINUOUS
 70
0
 71
3
 72
15
 73
11
 74
0
 42
0.0000001
 43
0.0000001
 44
0.0000000001
 40
0.0
 40
0.0
 40
0.0
 40
0.0
 40
0.1496726062
 40
0.293263256
 40
0.4296920058
 40
0.5583368511
 40
0.6792076153
 40
0.792636199
 40
0.8992500449
 40
1.0
 40
1.0
 40
1.0
 40
1.0
 10
13.8625384514
 20
12.2007216996
 30
0.0
 10
13.8599414225
 20
12.2007216996
 30
0.0
 10
13.8548504559
 20
12.2005348912
 30
0.0
 10
13.847436682
 20
12.1996711052
 30
0.0
 10
13.8404819292
 20
12.198236433
 30
0.0
 10
13.8340770589
 20
12.196240211
 30
0.0
 10
13.8282944476
 20
12.1937095627
 30
0.0
 10
13.8232028499
 20
12.190662711
 30
0.0
 10
13.8188663336
 20
12.187141763
 30
0.0
 10
13.8164575918
 20
12.184441028
 30
0.0
 10
13.8154188692
 20
12.1830349368
 30
0.0
  0
SPLINE
  5
36A
100
AcDbEntity
  8
0
100
AcDbSpline
 62
7
  6
CONTINUOUS
 70
0
 71
3
 72
15
 73
11
 74
0
 42
0.0000001
 43
0.0000001
 44
0.0000000001
 40
0.0
 40
0.0
 40
0.0
 40
0.0
 40
0.1230579925
 40
0.2489161634
 40
0.3763010777
 40
0.5040772163
 40
0.631327426
 40
0.7571429756
 40
0.8804335243
 40
1.0
 40
1.0
 40
1.0
 40
1.0
 10
13.980539693
 20
12.1830349368
 30
0.0
 10
13.9781429352
 20
12.1844282483
 30
0.0
 10
13.9731935527
 20
12.187075353
 30
0.0
 10
13.9654681512
 20
12.1905795097
 30
0.0
 10
13.9574361097
 20
12.1936239764
 30
0.0
 10
13.9491980587
 20
12.1961642791
 30
0.0
 10
13.9408514335
 20
12.1981755634
 30
0.0
 10
13.9324920984
 20
12.1996296044
 30
0.0
 10
13.9242278058
 20
12.2005136571
 30
0.0
 10
13.9187549681
 20
12.2007216996
 30
0.0
 10
13.9160613057
 20
12.2007216996
 30
0.0
  0
SPLINE
  5
36B
100
AcDbEntity
  8
0
100
AcDbSpline
 62
7
  6
CONTINUOUS
 70
0
 71
3
 72
9
 73
5
 74
0
 42
0.0000001
 43
0.0000001
 44
0.0000000001
 40
0.0
 40
0.0
 40
0.0
 40
0.0
 40
0.489397013
 40
1.0
 40
1.0
 40
1.0
 40
1.0
 10
13.9971620542
 20
12.1714575077
 30
0.0
 10
13.9946268067
 20
12.1735817357
 30
0.0
 10
13.9892373909
 20
12.1776767093
 30
0.0
 10
13.9835230678
 20
12.1813006062
 30
0.0
 10
13.980539693
 20
12.1830349368
 30
0.0
  0
SPLINE
  5
36C
100
AcDbEntity
  8
0
100
AcDbSpline
 62
7
  6
CONTINUOUS
 70
0
 71
3
 72
15
 73
11
 74
0
 42
0.0000001
 43
0.0000001
 44
0.0000000001
 40
0.0
 40
0.0
 40
0.0
 40
0.0
 40
0.1207882708
 40
0.2458938983
 40
0.3735845518
 40
0.5022874108
 40
0.6306912745
 40
0.7574917037
 40
0.8811520809
 40
1.0
 40
1.0
 40
1.0
 40
1.0
 10
14.1146630524
 20
12.1074802043
 30
0.0
 10
14.1120118476
 20
12.1074802043
 30
0.0
 10
14.1066125842
 20
12.1077255049
 30
0.0
 10
14.098469619
 20
12.1087535206
 30
0.0
 10
14.0902585907
 20
12.1104371584
 30
0.0
 10
14.082128903
 20
12.1127555353
 30
0.0
 10
14.0742114542
 20
12.1156626935
 30
0.0
 10
14.0666386467
 20
12.1191188787
 30
0.0
 10
14.0595424101
 20
12.1230533953
 30
0.0
 10
14.0551087924
 20
12.1260134381
 30
0.0
 10
14.0530100154
 20
12.127562635
 30
0.0
  0
SPLINE
  5
36D
100
AcDbEntity
  8
0
100
AcDbSpline
 62
7
  6
CONTINUOUS
 70
0
 71
3
 72
20
 73
16
 74
0
 42
0.0000001
 43
0.0000001
 44
0.0000000001
 40
0.0
 40
0.0
 40
0.0
 40
0.0
 40
0.0493294303
 40
0.0994232845
 40
0.1506251053
 40
0.2032367613
 40
0.2575209501
 40
0.3137059133
 40
0.3719886135
 40
0.4325192832
 40
0.560631643
 40
0.6985049639
 40
0.7709498895
 40
0.8454870502
 40
1.0
 40
1.0
 40
1.0
 40
1.0
 10
14.3500288469
 20
12.127562635
 30
0.0
 10
14.3497454284
 20
12.1268033986
 30
0.0
 10
14.3490845906
 20
12.125305084
 30
0.0
 10
14.3478367158
 20
12.1231627725
 30
0.0
 10
14.346334674
 20
12.1211229652
 30
0.0
 10
14.3445865284
 20
12.1191962763
 30
0.0
 10
14.3426001146
 20
12.1173925316
 30
0.0
 10
14.3403827956
 20
12.1157223754
 30
0.0
 10
14.3379448999
 20
12.114192392
 30
0.0
 10
14.3343474674
 20
12.112310111
 30
0.0
 10
14.3293327624
 20
12.1103551676
 30
0.0
 10
14.3239286097
 20
12.1089956888
 30
0.0
 10
14.3193121497
 20
12.1082183104
 30
0.0
 10
14.3143907733
 20
12.1076441406
 30
0.0
 10
14.3106242847
 20
12.1074802043
 30
0.0
 10
14.3080858611
 20
12.1074802043
 30
0.0
  0
SPLINE
  5
36E
100
AcDbEntity
  8
0
100
AcDbSpline
 62
7
  6
CONTINUOUS
 70
0
 71
3
 72
11
 73
7
 74
0
 42
0.0000001
 43
0.0000001
 44
0.0000000001
 40
0.0
 40
0.0
 40
0.0
 40
0.0
 40
0.2541815629
 40
0.5048257322
 40
0.7530174166
 40
1.0
 40
1.0
 40
1.0
 40
1.0
 10
14.3680554656
 20
12.1830349368
 30
0.0
 10
14.3675437024
 20
12.1823421765
 30
0.0
 10
14.3665814698
 20
12.1809252019
 30
0.0
 10
14.3653258841
 20
12.1787005933
 30
0.0
 10
14.3642733428
 20
12.1763997554
 30
0.0
 10
14.3637083281
 20
12.1748172522
 30
0.0
 10
14.3634612431
 20
12.1740176631
 30
0.0
  0
SPLINE
  5
36F
100
AcDbEntity
  8
0
100
AcDbSpline
 62
7
  6
CONTINUOUS
 70
0
 71
3
 72
15
 73
11
 74
0
 42
0.0000001
 43
0.0000001
 44
0.0000000001
 40
0.0
 40
0.0
 40
0.0
 40
0.0
 40
0.1496726062
 40
0.293263256
 40
0.4296920058
 40
0.5583368511
 40
0.6792076153
 40
0.792636199
 40
0.8992500449
 40
1.0
 40
1.0
 40
1.0
 40
1.0
 10
14.4151750478
 20
12.2007216996
 30
0.0
 10
14.4125780189
 20
12.2007216996
 30
0.0
 10
14.4074870523
 20
12.2005348912
 30
0.0
 10
14.4000732784
 20
12.1996711052
 30
0.0
 10
14.3931185256
 20
12.198236433
 30
0.0
 10
14.3867136553
 20
12.196240211
 30
0.0
 10
14.380931044
 20
12.1937095627
 30
0.0
 10
14.3758394463
 20
12.190662711
 30
0.0
 10
14.37150293
 20
12.187141763
 30
0.0
 10
14.3690941882
 20
12.184441028
 30
0.0
 10
14.3680554656
 20
12.1830349368
 30
0.0
  0
SPLINE
  5
370
100
AcDbEntity
  8
0
100
AcDbSpline
 62
7
  6
CONTINUOUS
 70
0
 71
3
 72
15
 73
11
 74
0
 42
0.0000001
 43
0.0000001
 44
0.0000000001
 40
0.0
 40
0.0
 40
0.0
 40
0.0
 40
0.1230579925
 40
0.2489161634
 40
0.3763010777
 40
0.5040772163
 40
0.631327426
 40
0.7571429756
 40
0.8804335243
 40
1.0
 40
1.0
 40
1.0
 40
1.0
 10
14.5331762894
 20
12.1830349368
 30
0.0
 10
14.5307795316
 20
12.1844282483
 30
0.0
 10
14.5258301491
 20
12.187075353
 30
0.0
 10
14.5181047476
 20
12.1905795097
 30
0.0
 10
14.5100727061
 20
12.1936239764
 30
0.0
 10
14.5018346551
 20
12.1961642791
 30
0.0
 10
14.4934880299
 20
12.1981755634
 30
0.0
 10
14.4851286948
 20
12.1996296044
 30
0.0
 10
14.4768644022
 20
12.2005136571
 30
0.0
 10
14.4713915645
 20
12.2007216996
 30
0.0
 10
14.4686979021
 20
12.2007216996
 30
0.0
  0
SPLINE
  5
371
100
AcDbEntity
  8
0
100
AcDbSpline
 62
7
  6
CONTINUOUS
 70
0
 71
3
 72
9
 73
5
 74
0
 42
0.0000001
 43
0.0000001
 44
0.0000000001
 40
0.0
 40
0.0
 40
0.0
 40
0.0
 40
0.489397013
 40
1.0
 40
1.0
 40
1.0
 40
1.0
 10
14.5497986506
 20
12.1714575077
 30
0.0
 10
14.5472634031
 20
12.1735817357
 30
0.0
 10
14.5418739873
 20
12.1776767093
 30
0.0
 10
14.5361596642
 20
12.1813006062
 30
0.0
 10
14.5331762894
 20
12.1830349368
 30
0.0
  0
SPLINE
  5
372
100
AcDbEntity
  8
0
100
AcDbSpline
 62
7
  6
CONTINUOUS
 70
0
 71
3
 72
15
 73
11
 74
0
 42
0.0000001
 43
0.0000001
 44
0.0000000001
 40
0.0
 40
0.0
 40
0.0
 40
0.0
 40
0.1207882708
 40
0.2458938983
 40
0.3735845518
 40
0.5022874108
 40
0.6306912745
 40
0.7574917037
 40
0.8811520809
 40
1.0
 40
1.0
 40
1.0
 40
1.0
 10
14.6672996488
 20
12.1074802043
 30
0.0
 10
14.664648444
 20
12.1074802043
 30
0.0
 10
14.6592491806
 20
12.1077255049
 30
0.0
 10
14.6511062154
 20
12.1087535206
 30
0.0
 10
14.6428951871
 20
12.1104371584
 30
0.0
 10
14.6347654994
 20
12.1127555353
 30
0.0
 10
14.6268480506
 20
12.1156626935
 30
0.0
 10
14.6192752431
 20
12.1191188787
 30
0.0
 10
14.6121790065
 20
12.1230533953
 30
0.0
 10
14.6077453888
 20
12.1260134381
 30
0.0
 10
14.6056466118
 20
12.127562635
 30
0.0
  0
SPLINE
  5
373
100
AcDbEntity
  8
0
100
AcDbSpline
 62
7
  6
CONTINUOUS
 70
0
 71
3
 72
17
 73
13
 74
0
 42
0.0000001
 43
0.0000001
 44
0.0000000001
 40
0.0
 40
0.0
 40
0.0
 40
0.0
 40
0.0494263137
 40
0.0995709056
 40
0.1507836274
 40
0.2033806419
 40
0.3137125086
 40
0.43245207
 40
0.5605754536
 40
0.6983035917
 40
0.8452269996
 40
1.0
 40
1.0
 40
1.0
 40
1.0
 10
14.9026654433
 20
12.127562635
 30
0.0
 10
14.9023815314
 20
12.1268020768
 30
0.0
 10
14.9017206573
 20
12.1253015698
 30
0.0
 10
14.9004735178
 20
12.1231564683
 30
0.0
 10
14.8989722051
 20
12.1211156823
 30
0.0
 10
14.8966041868
 20
12.1185077208
 30
0.0
 10
14.8929973818
 20
12.1155648412
 30
0.0
 10
14.8878749051
 20
12.1126587174
 30
0.0
 10
14.881971207
 20
12.1103587016
 30
0.0
 10
14.8753835012
 20
12.1086933808
 30
0.0
 10
14.8682233359
 20
12.1076942068
 30
0.0
 10
14.8632645873
 20
12.1074802043
 30
0.0
 10
14.8607224575
 20
12.1074802043
 30
0.0
  0
SPLINE
  5
374
100
AcDbEntity
  8
0
100
AcDbSpline
 62
7
  6
CONTINUOUS
 70
0
 71
3
 72
11
 73
7
 74
0
 42
0.0000001
 43
0.0000001
 44
0.0000000001
 40
0.0
 40
0.0
 40
0.0
 40
0.0
 40
0.2541815629
 40
0.5048257322
 40
0.7530174166
 40
1.0
 40
1.0
 40
1.0
 40
1.0
 10
14.920692062
 20
12.1830349368
 30
0.0
 10
14.9201802988
 20
12.1823421765
 30
0.0
 10
14.9192180662
 20
12.1809252019
 30
0.0
 10
14.9179624805
 20
12.1787005933
 30
0.0
 10
14.9169099392
 20
12.1763997554
 30
0.0
 10
14.9163449246
 20
12.1748172522
 30
0.0
 10
14.9160978395
 20
12.1740176631
 30
0.0
  0
SPLINE
  5
375
100
AcDbEntity
  8
0
100
AcDbSpline
 62
7
  6
CONTINUOUS
 70
0
 71
3
 72
15
 73
11
 74
0
 42
0.0000001
 43
0.0000001
 44
0.0000000001
 40
0.0
 40
0.0
 40
0.0
 40
0.0
 40
0.1496726062
 40
0.293263256
 40
0.4296920058
 40
0.5583368511
 40
0.6792076153
 40
0.792636199
 40
0.8992500449
 40
1.0
 40
1.0
 40
1.0
 40
1.0
 10
14.9678116442
 20
12.2007216996
 30
0.0
 10
14.9652146153
 20
12.2007216996
 30
0.0
 10
14.9601236487
 20
12.2005348912
 30
0.0
 10
14.9527098748
 20
12.1996711052
 30
0.0
 10
14.945755122
 20
12.198236433
 30
0.0
 10
14.9393502517
 20
12.196240211
 30
0.0
 10
14.9335676404
 20
12.1937095627
 30
0.0
 10
14.9284760427
 20
12.190662711
 30
0.0
 10
14.9241395264
 20
12.187141763
 30
0.0
 10
14.9217307846
 20
12.184441028
 30
0.0
 10
14.920692062
 20
12.1830349368
 30
0.0
  0
SPLINE
  5
376
100
AcDbEntity
  8
0
100
AcDbSpline
 62
7
  6
CONTINUOUS
 70
0
 71
3
 72
15
 73
11
 74
0
 42
0.0000001
 43
0.0000001
 44
0.0000000001
 40
0.0
 40
0.0
 40
0.0
 40
0.0
 40
0.1230579925
 40
0.2489161634
 40
0.3763010777
 40
0.5040772163
 40
0.631327426
 40
0.7571429756
 40
0.8804335243
 40
1.0
 40
1.0
 40
1.0
 40
1.0
 10
15.0858128858
 20
12.1830349368
 30
0.0
 10
15.083416128
 20
12.1844282483
 30
0.0
 10
15.0784667455
 20
12.187075353
 30
0.0
 10
15.070741344
 20
12.1905795097
 30
0.0
 10
15.0627093025
 20
12.1936239764
 30
0.0
 10
15.0544712515
 20
12.1961642791
 30
0.0
 10
15.0461246263
 20
12.1981755634
 30
0.0
 10
15.0377652912
 20
12.1996296044
 30
0.0
 10
15.0295009986
 20
12.2005136571
 30
0.0
 10
15.0240281609
 20
12.2007216996
 30
0.0
 10
15.0213344985
 20
12.2007216996
 30
0.0
  0
SPLINE
  5
377
100
AcDbEntity
  8
0
100
AcDbSpline
 62
7
  6
CONTINUOUS
 70
0
 71
3
 72
9
 73
5
 74
0
 42
0.0000001
 43
0.0000001
 44
0.0000000001
 40
0.0
 40
0.0
 40
0.0
 40
0.0
 40
0.489397013
 40
1.0
 40
1.0
 40
1.0
 40
1.0
 10
15.102435247
 20
12.1714575077
 30
0.0
 10
15.0998999995
 20
12.1735817357
 30
0.0
 10
15.0945105837
 20
12.1776767093
 30
0.0
 10
15.0887962606
 20
12.1813006062
 30
0.0
 10
15.0858128858
 20
12.1830349368
 30
0.0
  0
SPLINE
  5
378
100
AcDbEntity
  8
0
100
AcDbSpline
 62
7
  6
CONTINUOUS
 70
0
 71
3
 72
15
 73
11
 74
0
 42
0.0000001
 43
0.0000001
 44
0.0000000001
 40
0.0
 40
0.0
 40
0.0
 40
0.0
 40
0.1209370676
 40
0.2460060696
 40
0.3735982886
 40
0.5022867351
 40
0.6306764698
 40
0.7573827859
 40
0.8810070568
 40
1.0
 40
1.0
 40
1.0
 40
1.0
 10
15.2199362452
 20
12.1074802043
 30
0.0
 10
15.2172817528
 20
12.1074802043
 30
0.0
 10
15.2118799394
 20
12.1077233432
 30
0.0
 10
15.2037362959
 20
12.1087507418
 30
0.0
 10
15.1955297847
 20
12.1104400894
 30
0.0
 10
15.1874023334
 20
12.112756167
 30
0.0
 10
15.1794879664
 20
12.1156639122
 30
0.0
 10
15.1719153252
 20
12.1191128351
 30
0.0
 10
15.1648188665
 20
12.1230482401
 30
0.0
 10
15.1603845633
 20
12.1260115351
 30
0.0
 10
15.1582832082
 20
12.127562635
 30
0.0
  0
SPLINE
  5
379
100
AcDbEntity
  8
0
100
AcDbSpline
 62
7
  6
CONTINUOUS
 70
0
 71
3
 72
17
 73
13
 74
0
 42
0.0000001
 43
0.0000001
 44
0.0000000001
 40
0.0
 40
0.0
 40
0.0
 40
0.0
 40
0.0494263137
 40
0.0995709056
 40
0.1507836274
 40
0.2033806419
 40
0.3137125086
 40
0.43245207
 40
0.5605754536
 40
0.6983035917
 40
0.8452269996
 40
1.0
 40
1.0
 40
1.0
 40
1.0
 10
15.4553020397
 20
12.127562635
 30
0.0
 10
15.4550181278
 20
12.1268020768
 30
0.0
 10
15.4543572537
 20
12.1253015698
 30
0.0
 10
15.4531101142
 20
12.1231564683
 30
0.0
 10
15.4516088015
 20
12.1211156823
 30
0.0
 10
15.4492407832
 20
12.1185077208
 30
0.0
 10
15.4456339782
 20
12.1155648412
 30
0.0
 10
15.4405115015
 20
12.1126587174
 30
0.0
 10
15.4346078034
 20
12.1103587016
 30
0.0
 10
15.4280200976
 20
12.1086933808
 30
0.0
 10
15.4208599323
 20
12.1076942068
 30
0.0
 10
15.4159011837
 20
12.1074802043
 30
0.0
 10
15.4133590539
 20
12.1074802043
 30
0.0
  0
SPLINE
  5
37A
100
AcDbEntity
  8
0
100
AcDbSpline
 62
7
  6
CONTINUOUS
 70
0
 71
3
 72
11
 73
7
 74
0
 42
0.0000001
 43
0.0000001
 44
0.0000000001
 40
0.0
 40
0.0
 40
0.0
 40
0.0
 40
0.2541815629
 40
0.5048257322
 40
0.7530174166
 40
1.0
 40
1.0
 40
1.0
 40
1.0
 10
15.4733286584
 20
12.1830349368
 30
0.0
 10
15.4728168952
 20
12.1823421765
 30
0.0
 10
15.4718546626
 20
12.1809252019
 30
0.0
 10
15.4705990769
 20
12.1787005933
 30
0.0
 10
15.4695465356
 20
12.1763997554
 30
0.0
 10
15.468981521
 20
12.1748172522
 30
0.0
 10
15.4687344359
 20
12.1740176631
 30
0.0
  0
SPLINE
  5
37B
100
AcDbEntity
  8
0
100
AcDbSpline
 62
7
  6
CONTINUOUS
 70
0
 71
3
 72
15
 73
11
 74
0
 42
0.0000001
 43
0.0000001
 44
0.0000000001
 40
0.0
 40
0.0
 40
0.0
 40
0.0
 40
0.1496726062
 40
0.293263256
 40
0.4296920058
 40
0.5583368511
 40
0.6792076153
 40
0.792636199
 40
0.8992500449
 40
1.0
 40
1.0
 40
1.0
 40
1.0
 10
15.5204482406
 20
12.2007216996
 30
0.0
 10
15.5178512117
 20
12.2007216996
 30
0.0
 10
15.5127602451
 20
12.2005348912
 30
0.0
 10
15.5053464712
 20
12.1996711052
 30
0.0
 10
15.4983917184
 20
12.198236433
 30
0.0
 10
15.4919868481
 20
12.196240211
 30
0.0
 10
15.4862042368
 20
12.1937095627
 30
0.0
 10
15.4811126392
 20
12.190662711
 30
0.0
 10
15.4767761228
 20
12.187141763
 30
0.0
 10
15.474367381
 20
12.184441028
 30
0.0
 10
15.4733286584
 20
12.1830349368
 30
0.0
  0
SPLINE
  5
37C
100
AcDbEntity
  8
0
100
AcDbSpline
 62
7
  6
CONTINUOUS
 70
0
 71
3
 72
15
 73
11
 74
0
 42
0.0000001
 43
0.0000001
 44
0.0000000001
 40
0.0
 40
0.0
 40
0.0
 40
0.0
 40
0.1230579925
 40
0.2489161634
 40
0.3763010777
 40
0.5040772163
 40
0.631327426
 40
0.7571429756
 40
0.8804335243
 40
1.0
 40
1.0
 40
1.0
 40
1.0
 10
15.6384494822
 20
12.1830349368
 30
0.0
 10
15.6360527244
 20
12.1844282483
 30
0.0
 10
15.6311033419
 20
12.187075353
 30
0.0
 10
15.6233779404
 20
12.1905795097
 30
0.0
 10
15.6153458989
 20
12.1936239764
 30
0.0
 10
15.6071078479
 20
12.1961642791
 30
0.0
 10
15.5987612227
 20
12.1981755634
 30
0.0
 10
15.5904018876
 20
12.1996296044
 30
0.0
 10
15.582137595
 20
12.2005136571
 30
0.0
 10
15.5766647573
 20
12.2007216996
 30
0.0
 10
15.5739710949
 20
12.2007216996
 30
0.0
  0
SPLINE
  5
37D
100
AcDbEntity
  8
0
100
AcDbSpline
 62
7
  6
CONTINUOUS
 70
0
 71
3
 72
9
 73
5
 74
0
 42
0.0000001
 43
0.0000001
 44
0.0000000001
 40
0.0
 40
0.0
 40
0.0
 40
0.0
 40
0.489397013
 40
1.0
 40
1.0
 40
1.0
 40
1.0
 10
15.6550718434
 20
12.1714575077
 30
0.0
 10
15.6525365959
 20
12.1735817357
 30
0.0
 10
15.6471471801
 20
12.1776767093
 30
0.0
 10
15.641432857
 20
12.1813006062
 30
0.0
 10
15.6384494822
 20
12.1830349368
 30
0.0
  0
SPLINE
  5
37E
100
AcDbEntity
  8
0
100
AcDbSpline
 62
7
  6
CONTINUOUS
 70
0
 71
3
 72
15
 73
11
 74
0
 42
0.0000001
 43
0.0000001
 44
0.0000000001
 40
0.0
 40
0.0
 40
0.0
 40
0.0
 40
0.1209370676
 40
0.2460060696
 40
0.3735982886
 40
0.5022867351
 40
0.6306764698
 40
0.7573827859
 40
0.8810070568
 40
1.0
 40
1.0
 40
1.0
 40
1.0
 10
15.7725728416
 20
12.1074802043
 30
0.0
 10
15.7699183492
 20
12.1074802043
 30
0.0
 10
15.7645165358
 20
12.1077233432
 30
0.0
 10
15.7563728923
 20
12.1087507418
 30
0.0
 10
15.7481663811
 20
12.1104400894
 30
0.0
 10
15.7400389298
 20
12.112756167
 30
0.0
 10
15.7321245628
 20
12.1156639122
 30
0.0
 10
15.7245519216
 20
12.1191128351
 30
0.0
 10
15.7174554629
 20
12.1230482401
 30
0.0
 10
15.7130211597
 20
12.1260115351
 30
0.0
 10
15.7109198046
 20
12.127562635
 30
0.0
  0
ENDSEC
  0
SECTION
  2
OBJECTS
  0
DICTIONARY
  5
C
100
AcDbDictionary
280
0
281
1
  3
ACAD_GROUP
350
D
  3
ACAD_MLINESTYLE
350
17
  3
ACAD_LAYOUT
350
1A
  3
ACAD_PLOTSETTINGS
350
19
  3
ACAD_PLOTSTYLENAME
350
E
  0
DICTIONARY
  5
D
102
{ACAD_REACTORS
330
C
102
}
100
AcDbDictionary
280
0
281
1
  0
ACDBDICTIONARYWDFLT
  5
E
102
{ACAD_REACTORS
330
C
102
}
100
AcDbDictionary
281
1
  3
Normal
350
F
100
AcDbDictionaryWithDefault
340
F
  0
DICTIONARY
  5
17
102
{ACAD_REACTORS
330
C
102
}
100
AcDbDictionary
280
0
281
1
  3
Standard
350
18
  0
DICTIONARY
  5
19
102
{ACAD_REACTORS
330
C
102
}
100
AcDbDictionary
281
1
  0
DICTIONARY
  5
1A
102
{ACAD_REACTORS
330
C
102
}
100
AcDbDictionary
281
1
  3
Model
350
37F
  3
Layout1
350
380
  0
ACDBPLACEHOLDER
  5
F
102
{ACAD_REACTORS
330
E
102
}
  0
MLINESTYLE
  5
18
102
{ACAD_REACTORS
330
17
102
}
100
AcDbMlineStyle
  2
STANDARD
 70
0
  3

 62
256
 51
90.0
 52
90.0
 71
2
 49
0.5
 62
256
  6
BYLAYER
 49
-0.5
 62
256
  6
BYLAYER
  0
LAYOUT
  5
37F
102
{ACAD_REACTORS
330
1A
102
}
100
AcDbPlotSettings
  1

  2
none_device
  4
ANSI_C_(22.00_x_17.00_Inches)
  6

 40
0.0
 41
0.0
 42
0.0
 43
0.0
 44
558.8
 45
431.8
 46
0.0
 47
0.0
 48
0.0
 49
0.0
140
0.0
141
0.0
142
1.0
143
1.0
 70
1024
 72
0
 73
0
 74
0
  7

 75
0
147
1.0
148
0.0
149
0.0
100
AcDbLayout
  1
Model
 70
0
 71
0
 10
0.0
 20
0.0
 11
22.0
 21
17.0
 12
0.0
 22
0.0
 32
0.0
 14
0.0
 24
0.0
 34
0.0
 15
0.0
 25
0.0
 35
0.0
146
0.0
 13
0.0
 23
0.0
 33
0.0
 16
1.0
 26
0.0
 36
0.0
 17
0.0
 27
1.0
 37
0.0
 76
0
330
216
345
0
346
0
  0
LAYOUT
  5
380
102
{ACAD_REACTORS
330
1A
102
}
100
AcDbPlotSettings
  1

  2
none_device
  4
ANSI_C_(22.00_x_17.00_Inches)
  6

 40
0.0
 41
0.0
 42
0.0
 43
0.0
 44
558.8
 45
431.8
 46
0.0
 47
0.0
 48
0.0
 49
0.0
140
0.0
141
0.0
142
1.0
143
1.0
 70
0
 72
0
 73
0
 74
0
  7

 75
0
147
1.0
148
0.0
149
0.0
100
AcDbLayout
  1
Layout1
 70
0
 71
1
 10
0.0
 20
0.0
 11
22.0
 21
17.0
 12
0.0
 22
0.0
 32
0.0
 14
0.0
 24
0.0
 34
0.0
 15
0.0
 25
0.0
 35
0.0
146
0.0
 13
0.0
 23
0.0
 33
0.0
 16
1.0
 26
0.0
 36
0.0
 17
0.0
 27
1.0
 37
0.0
 76
0
330
217
345
0
346
0
  0
ENDSEC
  0
EOF