999
DXF file: _cgs_temp_output.dxf
999
Pro/ENGINEER 2015110 by Parametric Technology Corporation
  0
SECTION
  2
HEADER
  9
$ACADVER
  1
AC1021
  9
$DWGCODEPAGE
  3
ANSI_1252
  9
$EXTMAX
 10
22.0
 20
17.0
 30
0.0
  9
$EXTMIN
 10
0.0
 20
0.0
 30
0.0
  9
$LIMMIN
 10
0.0
 20
0.0
  9
$LIMMAX
 10
22.0
 20
17.0
  9
$VIEWCTR
 10
11.0
 20
8.5
  9
$VIEWSIZE
 40
17.0
  9
$CLAYER
  8
0
  9
$LTSCALE
 40
1.21
  9
$CELTYPE
  6
BYLAYER
  9
$DIMSCALE
 40
1.0
  9
$DIMASZ
 40
0.1875
  9
$DIMEXO
 40
0.0625
  9
$DIMDLI
 40
0.836
  9
$DIMEXE
 40
0.125
  9
$DIMCEN
 40
0.198
  9
$DIMLFAC
 40
1.0
  9
$DIMBLK
  1
_CLOSED
  9
$DIMALT
 70
0
  9
$DIMALTF
 40
25.4
  9
$DIMTXT
 40
0.15625
  9
$DIMTOL
 70
0
  9
$DIMLIM
 70
0
  9
$DIMTFAC
 40
1.0
  9
$DIMGAP
 40
0.09
  9
$DIMDSEP
 70
46
  9
$AUNITS
 70
0
  9
$PDMODE
 70
3
  9
$PDSIZE
 40
0.3125
  9
$HANDSEED
  5
345
  9
$TILEMODE
 70
1
  9
$MEASUREMENT
 70
0
  9
$INSUNITS
 70
1
  0
ENDSEC
  0
SECTION
  2
CLASSES
  0
CLASS
  1
ACDBDICTIONARYWDFLT
  2
AcDbDictionaryWithDefault
  3
AutoCAD 2000
 90
0
 91
1
280
0
281
0
  0
CLASS
  1
ACDBPLACEHOLDER
  2
AcDbPlaceHolder
  3
AutoCAD 2000
 90
0
 91
1
280
0
281
0
  0
CLASS
  1
LAYOUT
  2
AcDbLayout
  3
AutoCAD 2000
 90
0
 91
0
280
0
281
0
  0
ENDSEC
  0
SECTION
  2
TABLES
  0
TABLE
  2
VPORT
  5
8
100
AcDbSymbolTable
 70
2
  0
VPORT
  5
1F4
100
AcDbSymbolTableRecord
100
AcDbViewportTableRecord
  2
*ACTIVE
 70
0
 10
0.0
 20
0.0
 11
1.0
 21
1.0
 12
11.0
 22
8.5
 13
0.0
 23
0.0
 14
1.0
 24
1.0
 15
0.0
 25
0.0
 16
0.0
 26
0.0
 36
1.0
 17
0.0
 27
0.0
 37
0.0
 40
17.0
 41
1.2941176471
 42
50.0
 43
0.0
 44
0.0
 50
0.0
 51
0.0
 71
0
 72
100
 73
1
 74
1
 75
0
 76
0
 77
0
 78
0
  0
ENDTAB
  0
TABLE
  2
LTYPE
  5
5
100
AcDbSymbolTable
 70
6
  0
LTYPE
  5
14
100
AcDbSymbolTableRecord
100
AcDbLinetypeTableRecord
  2
BYBLOCK
 70
0
  3

 72
65
 73
0
 40
0.0
  0
LTYPE
  5
15
100
AcDbSymbolTableRecord
100
AcDbLinetypeTableRecord
  2
BYLAYER
 70
0
  3

 72
65
 73
0
 40
0.0
  0
LTYPE
  5
16
100
AcDbSymbolTableRecord
100
AcDbLinetypeTableRecord
  2
CONTINUOUS
 70
64
  3
Solid line
 72
65
 73
0
 40
0.0
  0
LTYPE
  5
1F5
100
AcDbSymbolTableRecord
100
AcDbLinetypeTableRecord
  2
CENTER
 70
64
  3
____ _ ____ _ ____ _ ____ _ ____ _ ____ _ ____
 72
65
 73
4
 40
0.6
 49
0.375
 74
0
 49
-0.075
 74
0
 49
0.075
 74
0
 49
-0.075
 74
0
  0
LTYPE
  5
1F6
100
AcDbSymbolTableRecord
100
AcDbLinetypeTableRecord
  2
HIDDEN
 70
64
  3
- - - - - - - - - - - - - - - - - - - -
 72
65
 73
2
 40
0.2
 49
0.1
 74
0
 49
-0.1
 74
0
  0
LTYPE
  5
1F7
100
AcDbSymbolTableRecord
100
AcDbLinetypeTableRecord
  2
PHANTOM
 70
64
  3
_____ _ _ _____ _ _ _____ _ _ _____
 72
65
 73
6
 40
0.8
 49
0.45
 74
0
 49
-0.05
 74
0
 49
0.1
 74
0
 49
-0.05
 74
0
 49
0.1
 74
0
 49
-0.05
 74
0
  0
LTYPE
  5
1F8
100
AcDbSymbolTableRecord
100
AcDbLinetypeTableRecord
  2
DOT
 70
64
  3
. . . . . . . . . . . . . . . . . . . .
 72
65
 73
2
 40
0.2
 49
0.1
 74
0
 49
-0.1
 74
0
  0
LTYPE
  5
1F9
100
AcDbSymbolTableRecord
100
AcDbLinetypeTableRecord
  2
DASHED
 70
64
  3
- - - - - - - - - - - - - - - - - - - -
 72
65
 73
2
 40
0.2
 49
0.1
 74
0
 49
-0.1
 74
0
  0
ENDTAB
  0
TABLE
  2
LAYER
  5
2
100
AcDbSymbolTable
 70
36
  0
LAYER
  5
10
100
AcDbSymbolTableRecord
100
AcDbLayerTableRecord
  2
0
 70
0
 62
7
  6
CONTINUOUS
370
-3
390
F
  0
LAYER
  5
1FA
100
AcDbSymbolTableRecord
100
AcDbLayerTableRecord
  2
DEFAULT_1
 70
0
 62
7
  6
CENTER
370
-3
390
F
  0
LAYER
  5
1FB
100
AcDbSymbolTableRecord
100
AcDbLayerTableRecord
  2
DEFAULT_2
 70
0
 62
8
  6
HIDDEN
370
-3
390
F
  0
LAYER
  5
1FC
100
AcDbSymbolTableRecord
100
AcDbLayerTableRecord
  2
DEFAULT_3
 70
0
 62
7
  6
PHANTOM
370
-3
390
F
  0
LAYER
  5
1FD
100
AcDbSymbolTableRecord
100
AcDbLayerTableRecord
  2
01_ALL_DTM_PLN
 70
0
 62
7
  6
CONTINUOUS
370
-3
390
F
  0
LAYER
  5
1FE
100
AcDbSymbolTableRecord
100
AcDbLayerTableRecord
  2
01__ASM_ALL_DTM_PLN
 70
0
 62
7
  6
CONTINUOUS
370
-3
390
F
  0
LAYER
  5
1FF
100
AcDbSymbolTableRecord
100
AcDbLayerTableRecord
  2
01__ASM_DEF_DTM_PLN
 70
0
 62
7
  6
CONTINUOUS
370
-3
390
F
  0
LAYER
  5
200
100
AcDbSymbolTableRecord
100
AcDbLayerTableRecord
  2
01___PRT_ALL_DTM_PLN
 70
0
 62
7
  6
CONTINUOUS
370
-3
390
F
  0
LAYER
  5
201
100
AcDbSymbolTableRecord
100
AcDbLayerTableRecord
  2
01___PRT_DEF_DTM_PLN
 70
0
 62
7
  6
CONTINUOUS
370
-3
390
F
  0
LAYER
  5
202
100
AcDbSymbolTableRecord
100
AcDbLayerTableRecord
  2
02_ALL_AXES
 70
0
 62
7
  6
CONTINUOUS
370
-3
390
F
  0
LAYER
  5
203
100
AcDbSymbolTableRecord
100
AcDbLayerTableRecord
  2
02__ASM_ALL_AXES
 70
0
 62
7
  6
CONTINUOUS
370
-3
390
F
  0
LAYER
  5
204
100
AcDbSymbolTableRecord
100
AcDbLayerTableRecord
  2
02___PRT_ALL_AXES
 70
0
 62
7
  6
CONTINUOUS
370
-3
390
F
  0
LAYER
  5
205
100
AcDbSymbolTableRecord
100
AcDbLayerTableRecord
  2
03_ALL_CURVES
 70
0
 62
7
  6
CONTINUOUS
370
-3
390
F
  0
LAYER
  5
206
100
AcDbSymbolTableRecord
100
AcDbLayerTableRecord
  2
03__ASM_ALL_CURVES
 70
0
 62
7
  6
CONTINUOUS
370
-3
390
F
  0
LAYER
  5
207
100
AcDbSymbolTableRecord
100
AcDbLayerTableRecord
  2
03___PRT_ALL_CURVES
 70
0
 62
7
  6
CONTINUOUS
370
-3
390
F
  0
LAYER
  5
208
100
AcDbSymbolTableRecord
100
AcDbLayerTableRecord
  2
04_ALL_DTM_PNT
 70
0
 62
7
  6
CONTINUOUS
370
-3
390
F
  0
LAYER
  5
209
100
AcDbSymbolTableRecord
100
AcDbLayerTableRecord
  2
04__ASM_ALL_DTM_PNT
 70
0
 62
7
  6
CONTINUOUS
370
-3
390
F
  0
LAYER
  5
20A
100
AcDbSymbolTableRecord
100
AcDbLayerTableRecord
  2
04___PRT_ALL_DTM_PNT
 70
0
 62
7
  6
CONTINUOUS
370
-3
390
F
  0
LAYER
  5
20B
100
AcDbSymbolTableRecord
100
AcDbLayerTableRecord
  2
05_ALL_DTM_CSYS
 70
0
 62
7
  6
CONTINUOUS
370
-3
390
F
  0
LAYER
  5
20C
100
AcDbSymbolTableRecord
100
AcDbLayerTableRecord
  2
05__ASM_ALL_DTM_CSYS
 70
0
 62
7
  6
CONTINUOUS
370
-3
390
F
  0
LAYER
  5
20D
100
AcDbSymbolTableRecord
100
AcDbLayerTableRecord
  2
05__ASM_DEF_DTM_CSYS
 70
0
 62
7
  6
CONTINUOUS
370
-3
390
F
  0
LAYER
  5
20E
100
AcDbSymbolTableRecord
100
AcDbLayerTableRecord
  2
05___PRT_ALL_DTM_CSYS
 70
0
 62
7
  6
CONTINUOUS
370
-3
390
F
  0
LAYER
  5
20F
100
AcDbSymbolTableRecord
100
AcDbLayerTableRecord
  2
05___PRT_DEF_DTM_CSYS
 70
0
 62
7
  6
CONTINUOUS
370
-3
390
F
  0
LAYER
  5
210
100
AcDbSymbolTableRecord
100
AcDbLayerTableRecord
  2
06_ALL_SURFS
 70
0
 62
7
  6
CONTINUOUS
370
-3
390
F
  0
LAYER
  5
211
100
AcDbSymbolTableRecord
100
AcDbLayerTableRecord
  2
06__ASM_ALL_SURFS
 70
0
 62
7
  6
CONTINUOUS
370
-3
390
F
  0
LAYER
  5
212
100
AcDbSymbolTableRecord
100
AcDbLayerTableRecord
  2
06___PRT_ALL_SURFS
 70
0
 62
7
  6
CONTINUOUS
370
-3
390
F
  0
LAYER
  5
213
100
AcDbSymbolTableRecord
100
AcDbLayerTableRecord
  2
07__ASM_ALL_SKELETONS
 70
0
 62
7
  6
CONTINUOUS
370
-3
390
F
  0
ENDTAB
  0
TABLE
  2
STYLE
  5
3
100
AcDbSymbolTable
 70
1
  0
STYLE
  5
11
100
AcDbSymbolTableRecord
100
AcDbTextStyleTableRecord
  2
STANDARD
 70
0
 40
0.0
 41
0.8
 50
0.0
 71
0
 42
0.2
  3
txt
  4

  0
STYLE
  5
214
100
AcDbSymbolTableRecord
100
AcDbTextStyleTableRecord
  2
TEXTSTYLE_1
 70
0
 40
0.0
 41
0.8
 50
0.0
 71
0
 42
0.2
  3
gdt
  4

  0
ENDTAB
  0
TABLE
  2
VIEW
  5
6
100
AcDbSymbolTable
 70
0
  0
ENDTAB
  0
TABLE
  2
UCS
  5
7
100
AcDbSymbolTable
 70
0
  0
ENDTAB
  0
TABLE
  2
APPID
  5
9
100
AcDbSymbolTable
 70
1
  0
APPID
  5
215
100
AcDbSymbolTableRecord
100
AcDbRegAppTableRecord
  2
ACAD
 70
0
  0
ENDTAB
  0
TABLE
  2
BLOCK_RECORD
  5
1
100
AcDbSymbolTable
 70
0
  0
BLOCK_RECORD
  5
216
100
AcDbSymbolTableRecord
100
AcDbBlockTableRecord
  2
*Model_Space
  0
BLOCK_RECORD
  5
217
100
AcDbSymbolTableRecord
100
AcDbBlockTableRecord
  2
*Paper_Space
  0
ENDTAB
  0
TABLE
  2
DIMSTYLE
  5
A
100
AcDbSymbolTable
 70
1
100
AcDbDimStyleTable
 71
0
  0
DIMSTYLE
105
218
100
AcDbSymbolTableRecord
100
AcDbDimStyleTableRecord
  2
STANDARD
 70
0
  3

  4

 40
1.0
 41
0.1875
 42
0.0625
 43
0.38
 44
0.125
 45
0.0
 46
0.0
 47
0.0001
 48
0.0001
140
0.15625
141
0.09
142
0.0
143
25.4
144
1.0
145
0.0
146
1.0
147
0.09
 71
0.0
 72
0.0
 73
1
 74
1
 75
0
 76
0
 77
0
 78
4
170
0
171
2
172
0
173
0
174
0
175
0
176
0
177
0
178
0
270
2
271
4
272
4
273
2
274
2
275
0
280
0
281
0
282
0
283
1
284
4
285
0
286
0
287
3
288
0
340
11
278
46
  0
ENDTAB
  0
ENDSEC
  0
SECTION
  2
BLOCKS
  0
BLOCK
  5
20
100
AcDbEntity
  8
0
100
AcDbBlockBegin
  2
*Model_Space
 70
0
 10
0.0
 20
0.0
 30
0.0
  3
*Model_Space
  1

  0
ENDBLK
  5
21
100
AcDbEntity
  8
0
100
AcDbBlockEnd
  0
BLOCK
  5
1C
100
AcDbEntity
  8
0
100
AcDbBlockBegin
  2
*Paper_Space
 70
0
 10
0.0
 20
0.0
 30
0.0
  3
*Paper_Space
  1

  0
ENDBLK
  5
1D
100
AcDbEntity
  8
0
100
AcDbBlockEnd
  0
ENDSEC
  0
SECTION
  2
ENTITIES
  0
MTEXT
  5
219
100
AcDbEntity
  8
0
100
AcDbMText
 62
7
  6
CONTINUOUS
  7
STANDARD
 71
1
 72
1
 10
15.9560215477
 20
0.9479130325
 30
0.0
 11
1.0
 21
0.0
 31
0.0
 44
0.9
  1
SCALE: 1:2.000
 40
0.3
 41
3.36
  0
LINE
  5
21A
100
AcDbEntity
  8
0
100
AcDbLine
 62
7
  6
CONTINUOUS
 10
0.0
 20
0.0
 11
0.0
 21
17.0
  0
LINE
  5
21B
100
AcDbEntity
  8
0
100
AcDbLine
 62
7
  6
CONTINUOUS
 10
0.0
 20
0.0
 11
22.0
 21
0.0
  0
LINE
  5
21C
100
AcDbEntity
  8
0
100
AcDbLine
 62
7
  6
CONTINUOUS
 10
0.0
 20
17.0
 11
22.0
 21
17.0
  0
LINE
  5
21D
100
AcDbEntity
  8
0
100
AcDbLine
 62
7
  6
CONTINUOUS
 10
22.0
 20
0.0
 11
22.0
 21
17.0
  0
LINE
  5
21E
100
AcDbEntity
  8
0
100
AcDbLine
 62
7
  6
CONTINUOUS
 10
4.2406034966
 20
5.5681513928
 11
4.2406034966
 21
5.4720884007
  0
LINE
  5
21F
100
AcDbEntity
  8
0
100
AcDbLine
 62
7
  6
CONTINUOUS
 10
4.5233900441
 20
5.1980726527
 11
4.587738209
 21
5.1980726527
  0
LINE
  5
220
100
AcDbEntity
  8
0
100
AcDbLine
 62
7
  6
CONTINUOUS
 10
5.1533113039
 20
5.1980726527
 11
5.2176594689
 21
5.1980726527
  0
LINE
  5
221
100
AcDbEntity
  8
0
100
AcDbLine
 62
7
  6
CONTINUOUS
 10
5.7832325638
 20
5.1980726527
 11
5.8475807287
 21
5.1980726527
  0
LINE
  5
222
100
AcDbEntity
  8
0
100
AcDbLine
 62
7
  6
CONTINUOUS
 10
6.4131538236
 20
5.1980726527
 11
6.4775019886
 21
5.1980726527
  0
LINE
  5
223
100
AcDbEntity
  8
0
100
AcDbLine
 62
7
  6
CONTINUOUS
 10
7.0430750835
 20
5.1980726527
 11
7.1074232484
 21
5.1980726527
  0
LINE
  5
224
100
AcDbEntity
  8
0
100
AcDbLine
 62
7
  6
CONTINUOUS
 10
7.6729963433
 20
5.1980726527
 11
7.7373445083
 21
5.1980726527
  0
LINE
  5
225
100
AcDbEntity
  8
0
100
AcDbLine
 62
7
  6
CONTINUOUS
 10
4.2406034966
 20
5.4720884007
 11
4.2783558694
 21
5.4720884007
  0
LINE
  5
226
100
AcDbEntity
  8
0
100
AcDbLine
 62
7
  6
CONTINUOUS
 10
4.8327723837
 20
5.4720884007
 11
4.9082771293
 21
5.4720884007
  0
LINE
  5
227
100
AcDbEntity
  8
0
100
AcDbLine
 62
7
  6
CONTINUOUS
 10
5.4626936435
 20
5.4720884007
 11
5.5381983891
 21
5.4720884007
  0
LINE
  5
228
100
AcDbEntity
  8
0
100
AcDbLine
 62
7
  6
CONTINUOUS
 10
6.0926149034
 20
5.4720884007
 11
6.1681196489
 21
5.4720884007
  0
LINE
  5
229
100
AcDbEntity
  8
0
100
AcDbLine
 62
7
  6
CONTINUOUS
 10
6.7225361632
 20
5.4720884007
 11
6.7980409088
 21
5.4720884007
  0
LINE
  5
22A
100
AcDbEntity
  8
0
100
AcDbLine
 62
7
  6
CONTINUOUS
 10
7.3524574231
 20
5.4720884007
 11
7.4279621686
 21
5.4720884007
  0
LINE
  5
22B
100
AcDbEntity
  8
0
100
AcDbLine
 62
7
  6
CONTINUOUS
 10
7.9823786829
 20
5.4720884007
 11
8.0201310557
 21
5.4720884007
  0
LINE
  5
22C
100
AcDbEntity
  8
0
100
AcDbLine
 62
7
  6
CONTINUOUS
 10
8.0201310557
 20
5.5681513928
 11
7.9823786829
 21
5.5681513928
  0
LINE
  5
22D
100
AcDbEntity
  8
0
100
AcDbLine
 62
7
  6
CONTINUOUS
 10
7.4279621686
 20
5.5681513928
 11
7.3524574231
 21
5.5681513928
  0
LINE
  5
22E
100
AcDbEntity
  8
0
100
AcDbLine
 62
7
  6
CONTINUOUS
 10
6.7980409088
 20
5.5681513928
 11
6.7225361632
 21
5.5681513928
  0
LINE
  5
22F
100
AcDbEntity
  8
0
100
AcDbLine
 62
7
  6
CONTINUOUS
 10
6.1681196489
 20
5.5681513928
 11
6.0926149034
 21
5.5681513928
  0
LINE
  5
230
100
AcDbEntity
  8
0
100
AcDbLine
 62
7
  6
CONTINUOUS
 10
5.5381983891
 20
5.5681513928
 11
5.4626936435
 21
5.5681513928
  0
LINE
  5
231
100
AcDbEntity
  8
0
100
AcDbLine
 62
7
  6
CONTINUOUS
 10
4.9082771293
 20
5.5681513928
 11
4.8327723837
 21
5.5681513928
  0
LINE
  5
232
100
AcDbEntity
  8
0
100
AcDbLine
 62
7
  6
CONTINUOUS
 10
4.2783558694
 20
5.5681513928
 11
4.2406034966
 21
5.5681513928
  0
LINE
  5
233
100
AcDbEntity
  8
0
100
AcDbLine
 62
7
  6
CONTINUOUS
 10
7.7373445083
 20
5.8421671408
 11
7.6729963433
 21
5.8421671408
  0
LINE
  5
234
100
AcDbEntity
  8
0
100
AcDbLine
 62
7
  6
CONTINUOUS
 10
7.1074232484
 20
5.8421671408
 11
7.0430750835
 21
5.8421671408
  0
LINE
  5
235
100
AcDbEntity
  8
0
100
AcDbLine
 62
7
  6
CONTINUOUS
 10
6.4775019886
 20
5.8421671408
 11
6.4131538236
 21
5.8421671408
  0
LINE
  5
236
100
AcDbEntity
  8
0
100
AcDbLine
 62
7
  6
CONTINUOUS
 10
5.8475807287
 20
5.8421671408
 11
5.7832325638
 21
5.8421671408
  0
LINE
  5
237
100
AcDbEntity
  8
0
100
AcDbLine
 62
7
  6
CONTINUOUS
 10
5.2176594689
 20
5.8421671408
 11
5.1533113039
 21
5.8421671408
  0
LINE
  5
238
100
AcDbEntity
  8
0
100
AcDbLine
 62
7
  6
CONTINUOUS
 10
4.587738209
 20
5.8421671408
 11
4.5233900441
 21
5.8421671408
  0
LINE
  5
239
100
AcDbEntity
  8
0
100
AcDbLine
 62
7
  6
CONTINUOUS
 10
8.0201310557
 20
5.4720884007
 11
8.0201310557
 21
5.5681513928
  0
LINE
  5
23A
100
AcDbEntity
  8
0
100
AcDbLine
 62
7
  6
CONTINUOUS
 10
4.1811083043
 20
13.3874493562
 11
4.1811083043
 21
11.8126462066
  0
LINE
  5
23B
100
AcDbEntity
  8
0
100
AcDbLine
 62
7
  6
CONTINUOUS
 10
7.9606358634
 20
11.8126462066
 11
4.1811083043
 21
11.8126462066
  0
LINE
  5
23C
100
AcDbEntity
  8
0
100
AcDbLine
 62
7
  6
CONTINUOUS
 10
4.1811083043
 20
13.3874493562
 11
7.9606358634
 21
13.3874493562
  0
LINE
  5
23D
100
AcDbEntity
  8
0
100
AcDbLine
 62
7
  6
CONTINUOUS
 10
7.9606358634
 20
13.3874493562
 11
7.9606358634
 21
11.8126462066
  0
LINE
  5
23E
100
AcDbEntity
  8
0
100
AcDbLine
 62
7
  6
CONTINUOUS
 10
14.7729536821
 20
5.1385774604
 11
14.7729536821
 21
5.7826719485
  0
LINE
  5
23F
100
AcDbEntity
  8
0
100
AcDbLine
 62
7
  6
CONTINUOUS
 10
14.7729536821
 20
5.1385774604
 11
16.3477568317
 21
5.1385774604
  0
LINE
  5
240
100
AcDbEntity
  8
0
100
AcDbLine
 62
7
  6
CONTINUOUS
 10
16.3477568317
 20
5.4125932084
 11
14.7729536821
 21
5.4125932084
  0
LINE
  5
241
100
AcDbEntity
  8
0
100
AcDbLine
 62
7
  6
CONTINUOUS
 10
16.3477568317
 20
5.5086562005
 11
14.7729536821
 21
5.5086562005
  0
LINE
  5
242
100
AcDbEntity
  8
0
100
AcDbLine
 62
7
  6
CONTINUOUS
 10
14.7729536821
 20
5.7826719485
 11
16.3477568317
 21
5.7826719485
  0
LINE
  5
243
100
AcDbEntity
  8
0
100
AcDbLine
 62
7
  6
CONTINUOUS
 10
16.3477568317
 20
5.1385774604
 11
16.3477568317
 21
5.7826719485
  0
LINE
  5
244
100
AcDbEntity
  8
0
100
AcDbLine
 62
7
  6
CONTINUOUS
 10
13.5252697418
 20
11.9238690074
 11
13.5545729762
 21
11.8641552939
  0
LINE
  5
245
100
AcDbEntity
  8
0
100
AcDbLine
 62
7
  6
CONTINUOUS
 10
13.9064765503
 20
13.1574546919
 11
13.5252697418
 21
11.9238690074
  0
LINE
  5
246
100
AcDbEntity
  8
0
100
AcDbLine
 62
7
  6
CONTINUOUS
 10
13.6167940016
 20
12.0513706696
 11
13.6160999225
 21
12.0488502692
  0
LINE
  5
247
100
AcDbEntity
  8
0
100
AcDbLine
 62
7
  6
CONTINUOUS
 10
13.6167955531
 20
12.0513701908
 11
13.9980023617
 21
13.2849558752
  0
LINE
  5
248
100
AcDbEntity
  8
0
100
AcDbLine
 62
7
  6
CONTINUOUS
 10
14.0432446181
 20
11.7366536317
 11
14.0439386973
 21
11.7391740321
  0
LINE
  5
249
100
AcDbEntity
  8
0
100
AcDbLine
 62
7
  6
CONTINUOUS
 10
14.0440145387
 20
11.7391505953
 11
14.0821931368
 21
11.862696584
  0
LINE
  5
24A
100
AcDbEntity
  8
0
100
AcDbLine
 62
7
  6
CONTINUOUS
 10
14.1969899034
 20
12.0513706696
 11
14.1962958242
 21
12.0488502692
  0
LINE
  5
24B
100
AcDbEntity
  8
0
100
AcDbLine
 62
7
  6
CONTINUOUS
 10
14.1969914549
 20
12.0513701908
 11
14.5781982634
 21
13.2849558752
  0
LINE
  5
24C
100
AcDbEntity
  8
0
100
AcDbLine
 62
7
  6
CONTINUOUS
 10
13.89862291
 20
11.6938243735
 11
13.9578914948
 21
11.6938243735
  0
LINE
  5
24D
100
AcDbEntity
  8
0
100
AcDbLine
 62
7
  6
CONTINUOUS
 10
14.4788188117
 20
11.6938243735
 11
14.5380873965
 21
11.6938243735
  0
LINE
  5
24E
100
AcDbEntity
  8
0
100
AcDbLine
 62
7
  6
CONTINUOUS
 10
15.0590147134
 20
11.6938243735
 11
15.1182832982
 21
11.6938243735
  0
LINE
  5
24F
100
AcDbEntity
  8
0
100
AcDbLine
 62
7
  6
CONTINUOUS
 10
15.6392106152
 20
11.6938243735
 11
15.6984792
 21
11.6938243735
  0
LINE
  5
250
100
AcDbEntity
  8
0
100
AcDbLine
 62
7
  6
CONTINUOUS
 10
16.2194065169
 20
11.6938243735
 11
16.2786751017
 21
11.6938243735
  0
LINE
  5
251
100
AcDbEntity
  8
0
100
AcDbLine
 62
7
  6
CONTINUOUS
 10
16.7996024186
 20
11.6938243735
 11
16.8588710034
 21
11.6938243735
  0
LINE
  5
252
100
AcDbEntity
  8
0
100
AcDbLine
 62
7
  6
CONTINUOUS
 10
14.6234405199
 20
11.7366536317
 11
14.624134599
 21
11.7391740321
  0
LINE
  5
253
100
AcDbEntity
  8
0
100
AcDbLine
 62
7
  6
CONTINUOUS
 10
14.7771858051
 20
12.0513706696
 11
14.776491726
 21
12.0488502692
  0
LINE
  5
254
100
AcDbEntity
  8
0
100
AcDbLine
 62
7
  6
CONTINUOUS
 10
14.6242104405
 20
11.7391505953
 11
14.6623890386
 21
11.862696584
  0
LINE
  5
255
100
AcDbEntity
  8
0
100
AcDbLine
 62
7
  6
CONTINUOUS
 10
13.5545729762
 20
11.8641552939
 11
13.5893452142
 21
11.8641552939
  0
LINE
  5
256
100
AcDbEntity
  8
0
100
AcDbLine
 62
7
  6
CONTINUOUS
 10
14.09999664
 20
11.8641552939
 11
14.169541116
 21
11.8641552939
  0
LINE
  5
257
100
AcDbEntity
  8
0
100
AcDbLine
 62
7
  6
CONTINUOUS
 10
14.6801925417
 20
11.8641552939
 11
14.7497370177
 21
11.8641552939
  0
LINE
  5
258
100
AcDbEntity
  8
0
100
AcDbLine
 62
7
  6
CONTINUOUS
 10
15.2603884434
 20
11.8641552939
 11
15.3299329194
 21
11.8641552939
  0
LINE
  5
259
100
AcDbEntity
  8
0
100
AcDbLine
 62
7
  6
CONTINUOUS
 10
15.8405843452
 20
11.8641552939
 11
15.9101288212
 21
11.8641552939
  0
LINE
  5
25A
100
AcDbEntity
  8
0
100
AcDbLine
 62
7
  6
CONTINUOUS
 10
16.4207802469
 20
11.8641552939
 11
16.4903247229
 21
11.8641552939
  0
LINE
  5
25B
100
AcDbEntity
  8
0
100
AcDbLine
 62
7
  6
CONTINUOUS
 10
17.0009761486
 20
11.8641552939
 11
17.0357483866
 21
11.8641552939
  0
LINE
  5
25C
100
AcDbEntity
  8
0
100
AcDbLine
 62
7
  6
CONTINUOUS
 10
17.0064451522
 20
11.9238690074
 11
16.9716729142
 21
11.9238690074
  0
LINE
  5
25D
100
AcDbEntity
  8
0
100
AcDbLine
 62
7
  6
CONTINUOUS
 10
16.4610214885
 20
11.9238690074
 11
16.3914770125
 21
11.9238690074
  0
LINE
  5
25E
100
AcDbEntity
  8
0
100
AcDbLine
 62
7
  6
CONTINUOUS
 10
15.8808255867
 20
11.9238690074
 11
15.8112811107
 21
11.9238690074
  0
LINE
  5
25F
100
AcDbEntity
  8
0
100
AcDbLine
 62
7
  6
CONTINUOUS
 10
15.300629685
 20
11.9238690074
 11
15.231085209
 21
11.9238690074
  0
LINE
  5
260
100
AcDbEntity
  8
0
100
AcDbLine
 62
7
  6
CONTINUOUS
 10
14.7204337833
 20
11.9238690074
 11
14.6508893073
 21
11.9238690074
  0
LINE
  5
261
100
AcDbEntity
  8
0
100
AcDbLine
 62
7
  6
CONTINUOUS
 10
14.1402378815
 20
11.9238690074
 11
14.0706934055
 21
11.9238690074
  0
LINE
  5
262
100
AcDbEntity
  8
0
100
AcDbLine
 62
7
  6
CONTINUOUS
 10
13.5600419798
 20
11.9238690074
 11
13.5252697418
 21
11.9238690074
  0
LINE
  5
263
100
AcDbEntity
  8
0
100
AcDbLine
 62
7
  6
CONTINUOUS
 10
14.7771873566
 20
12.0513701908
 11
15.1583941651
 21
13.2849558752
  0
LINE
  5
264
100
AcDbEntity
  8
0
100
AcDbLine
 62
7
  6
CONTINUOUS
 10
16.6623952185
 20
12.0941999279
 11
16.6031266337
 21
12.0941999279
  0
LINE
  5
265
100
AcDbEntity
  8
0
100
AcDbLine
 62
7
  6
CONTINUOUS
 10
16.0821993167
 20
12.0941999279
 11
16.0229307319
 21
12.0941999279
  0
LINE
  5
266
100
AcDbEntity
  8
0
100
AcDbLine
 62
7
  6
CONTINUOUS
 10
15.502003415
 20
12.0941999279
 11
15.4427348302
 21
12.0941999279
  0
LINE
  5
267
100
AcDbEntity
  8
0
100
AcDbLine
 62
7
  6
CONTINUOUS
 10
14.9218075133
 20
12.0941999279
 11
14.8625389285
 21
12.0941999279
  0
LINE
  5
268
100
AcDbEntity
  8
0
100
AcDbLine
 62
7
  6
CONTINUOUS
 10
14.3416116115
 20
12.0941999279
 11
14.2823430267
 21
12.0941999279
  0
LINE
  5
269
100
AcDbEntity
  8
0
100
AcDbLine
 62
7
  6
CONTINUOUS
 10
13.7614157098
 20
12.0941999279
 11
13.702147125
 21
12.0941999279
  0
LINE
  5
26A
100
AcDbEntity
  8
0
100
AcDbLine
 62
7
  6
CONTINUOUS
 10
15.2036364216
 20
11.7366536317
 11
15.2043305007
 21
11.7391740321
  0
LINE
  5
26B
100
AcDbEntity
  8
0
100
AcDbLine
 62
7
  6
CONTINUOUS
 10
15.3573817068
 20
12.0513706696
 11
15.3566876277
 21
12.0488502692
  0
LINE
  5
26C
100
AcDbEntity
  8
0
100
AcDbLine
 62
7
  6
CONTINUOUS
 10
15.2044063422
 20
11.7391505953
 11
15.2425849403
 21
11.862696584
  0
LINE
  5
26D
100
AcDbEntity
  8
0
100
AcDbLine
 62
7
  6
CONTINUOUS
 10
15.3573832583
 20
12.0513701908
 11
15.7385900669
 21
13.2849558752
  0
LINE
  5
26E
100
AcDbEntity
  8
0
100
AcDbLine
 62
7
  6
CONTINUOUS
 10
15.7838323233
 20
11.7366536317
 11
15.7845264025
 21
11.7391740321
  0
LINE
  5
26F
100
AcDbEntity
  8
0
100
AcDbLine
 62
7
  6
CONTINUOUS
 10
15.9375776086
 20
12.0513706696
 11
15.9368835294
 21
12.0488502692
  0
LINE
  5
270
100
AcDbEntity
  8
0
100
AcDbLine
 62
7
  6
CONTINUOUS
 10
15.784602244
 20
11.7391505953
 11
15.822780842
 21
11.862696584
  0
LINE
  5
271
100
AcDbEntity
  8
0
100
AcDbLine
 62
7
  6
CONTINUOUS
 10
15.9375791601
 20
12.0513701908
 11
16.3187859686
 21
13.2849558752
  0
LINE
  5
272
100
AcDbEntity
  8
0
100
AcDbLine
 62
7
  6
CONTINUOUS
 10
17.3876519607
 20
13.1574546919
 11
17.3528797227
 21
13.1574546919
  0
LINE
  5
273
100
AcDbEntity
  8
0
100
AcDbLine
 62
7
  6
CONTINUOUS
 10
13.9412487883
 20
13.1574546919
 11
13.9064765503
 21
13.1574546919
  0
LINE
  5
274
100
AcDbEntity
  8
0
100
AcDbLine
 62
7
  6
CONTINUOUS
 10
14.451900214
 20
13.1574546919
 11
14.52144469
 21
13.1574546919
  0
LINE
  5
275
100
AcDbEntity
  8
0
100
AcDbLine
 62
7
  6
CONTINUOUS
 10
15.0320961158
 20
13.1574546919
 11
15.1016405918
 21
13.1574546919
  0
LINE
  5
276
100
AcDbEntity
  8
0
100
AcDbLine
 62
7
  6
CONTINUOUS
 10
15.6122920175
 20
13.1574546919
 11
15.6818364935
 21
13.1574546919
  0
LINE
  5
277
100
AcDbEntity
  8
0
100
AcDbLine
 62
7
  6
CONTINUOUS
 10
16.1924879192
 20
13.1574546919
 11
16.2620323953
 21
13.1574546919
  0
LINE
  5
278
100
AcDbEntity
  8
0
100
AcDbLine
 62
7
  6
CONTINUOUS
 10
16.772683821
 20
13.1574546919
 11
16.842228297
 21
13.1574546919
  0
LINE
  5
279
100
AcDbEntity
  8
0
100
AcDbLine
 62
7
  6
CONTINUOUS
 10
17.043602027
 20
13.3277856123
 11
16.9843334422
 21
13.3277856123
  0
LINE
  5
27A
100
AcDbEntity
  8
0
100
AcDbLine
 62
7
  6
CONTINUOUS
 10
16.4634061252
 20
13.3277856123
 11
16.4041375405
 21
13.3277856123
  0
LINE
  5
27B
100
AcDbEntity
  8
0
100
AcDbLine
 62
7
  6
CONTINUOUS
 10
15.8832102235
 20
13.3277856123
 11
15.8239416387
 21
13.3277856123
  0
LINE
  5
27C
100
AcDbEntity
  8
0
100
AcDbLine
 62
7
  6
CONTINUOUS
 10
15.3030143218
 20
13.3277856123
 11
15.243745737
 21
13.3277856123
  0
LINE
  5
27D
100
AcDbEntity
  8
0
100
AcDbLine
 62
7
  6
CONTINUOUS
 10
14.72281842
 20
13.3277856123
 11
14.6635498353
 21
13.3277856123
  0
LINE
  5
27E
100
AcDbEntity
  8
0
100
AcDbLine
 62
7
  6
CONTINUOUS
 10
14.1426225183
 20
13.3277856123
 11
14.0833539335
 21
13.3277856123
  0
LINE
  5
27F
100
AcDbEntity
  8
0
100
AcDbLine
 62
7
  6
CONTINUOUS
 10
16.3640282251
 20
11.7366536317
 11
16.3647223042
 21
11.7391740321
  0
LINE
  5
280
100
AcDbEntity
  8
0
100
AcDbLine
 62
7
  6
CONTINUOUS
 10
16.5177735103
 20
12.0513706696
 11
16.5170794312
 21
12.0488502692
  0
LINE
  5
281
100
AcDbEntity
  8
0
100
AcDbLine
 62
7
  6
CONTINUOUS
 10
16.3647981457
 20
11.7391505953
 11
16.4029767438
 21
11.862696584
  0
LINE
  5
282
100
AcDbEntity
  8
0
100
AcDbLine
 62
7
  6
CONTINUOUS
 10
16.5177750618
 20
12.0513701908
 11
16.8989818703
 21
13.2849558752
  0
LINE
  5
283
100
AcDbEntity
  8
0
100
AcDbLine
 62
7
  6
CONTINUOUS
 10
17.0357483866
 20
11.8641552939
 11
17.0064451522
 21
11.9238690074
  0
LINE
  5
284
100
AcDbEntity
  8
0
100
AcDbLine
 62
7
  6
CONTINUOUS
 10
16.9442241268
 20
11.7366536317
 11
16.944918206
 21
11.7391740321
  0
LINE
  5
285
100
AcDbEntity
  8
0
100
AcDbLine
 62
7
  6
CONTINUOUS
 10
16.9449940474
 20
11.7391505953
 11
16.9831726455
 21
11.862696584
  0
LINE
  5
286
100
AcDbEntity
  8
0
100
AcDbLine
 62
7
  6
CONTINUOUS
 10
17.3876519607
 20
13.1574546919
 11
17.0064451522
 21
11.9238690074
  0
LINE
  5
287
100
AcDbEntity
  8
0
100
AcDbLine
 62
7
  6
CONTINUOUS
 10
17.4169551951
 20
13.0977409784
 11
17.0357483866
 21
11.8641552939
  0
LINE
  5
288
100
AcDbEntity
  8
0
100
AcDbLine
 62
7
  6
CONTINUOUS
 10
17.4169551951
 20
13.0977409784
 11
17.3876519607
 21
13.1574546919
  0
ARC
  5
289
100
AcDbEntity
  8
0
100
AcDbCircle
 62
7
  6
CONTINUOUS
 10
4.8114696384
 20
5.4720884007
 40
0.4527559055
100
AcDbArc
 50
189.3197114863
 51
206.364596849
  0
ARC
  5
28A
100
AcDbEntity
  8
0
100
AcDbCircle
 62
7
  6
CONTINUOUS
 10
4.2996586147
 20
5.4720884007
 40
0.4527559055
100
AcDbArc
 50
333.635403151
 51
350.6802885137
  0
ARC
  5
28B
100
AcDbEntity
  8
0
100
AcDbCircle
 62
7
  6
CONTINUOUS
 10
5.4413908982
 20
5.4720884007
 40
0.4527559055
100
AcDbArc
 50
189.3197114863
 51
206.364596849
  0
ARC
  5
28C
100
AcDbEntity
  8
0
100
AcDbCircle
 62
7
  6
CONTINUOUS
 10
4.9295798746
 20
5.4720884007
 40
0.4527559055
100
AcDbArc
 50
333.635403151
 51
350.6802885137
  0
ARC
  5
28D
100
AcDbEntity
  8
0
100
AcDbCircle
 62
7
  6
CONTINUOUS
 10
6.0713121581
 20
5.4720884007
 40
0.4527559055
100
AcDbArc
 50
189.3197114863
 51
206.364596849
  0
ARC
  5
28E
100
AcDbEntity
  8
0
100
AcDbCircle
 62
7
  6
CONTINUOUS
 10
5.5595011344
 20
5.4720884007
 40
0.4527559055
100
AcDbArc
 50
333.635403151
 51
350.6802885137
  0
ARC
  5
28F
100
AcDbEntity
  8
0
100
AcDbCircle
 62
7
  6
CONTINUOUS
 10
4.5233900441
 20
5.3293062485
 40
0.1312335958
100
AcDbArc
 50
206.364596849
 51
270.0
  0
ARC
  5
290
100
AcDbEntity
  8
0
100
AcDbCircle
 62
7
  6
CONTINUOUS
 10
4.587738209
 20
5.3293062485
 40
0.1312335958
100
AcDbArc
 50
270.0
 51
333.635403151
  0
ARC
  5
291
100
AcDbEntity
  8
0
100
AcDbCircle
 62
7
  6
CONTINUOUS
 10
5.1533113039
 20
5.3293062485
 40
0.1312335958
100
AcDbArc
 50
206.364596849
 51
270.0
  0
ARC
  5
292
100
AcDbEntity
  8
0
100
AcDbCircle
 62
7
  6
CONTINUOUS
 10
5.2176594689
 20
5.3293062485
 40
0.1312335958
100
AcDbArc
 50
270.0
 51
333.635403151
  0
ARC
  5
293
100
AcDbEntity
  8
0
100
AcDbCircle
 62
7
  6
CONTINUOUS
 10
5.7832325638
 20
5.3293062485
 40
0.1312335958
100
AcDbArc
 50
206.364596849
 51
270.0
  0
ARC
  5
294
100
AcDbEntity
  8
0
100
AcDbCircle
 62
7
  6
CONTINUOUS
 10
5.8475807287
 20
5.3293062485
 40
0.1312335958
100
AcDbArc
 50
270.0
 51
333.635403151
  0
ARC
  5
295
100
AcDbEntity
  8
0
100
AcDbCircle
 62
7
  6
CONTINUOUS
 10
4.8327723837
 20
5.3845993368
 40
0.0874890639
100
AcDbArc
 50
90.0
 51
170.6802885137
  0
ARC
  5
296
100
AcDbEntity
  8
0
100
AcDbCircle
 62
7
  6
CONTINUOUS
 10
4.2783558694
 20
5.3845993368
 40
0.0874890639
100
AcDbArc
 50
9.3197114863
 51
90.0
  0
ARC
  5
297
100
AcDbEntity
  8
0
100
AcDbCircle
 62
7
  6
CONTINUOUS
 10
5.4626936435
 20
5.3845993368
 40
0.0874890639
100
AcDbArc
 50
90.0
 51
170.6802885137
  0
ARC
  5
298
100
AcDbEntity
  8
0
100
AcDbCircle
 62
7
  6
CONTINUOUS
 10
4.9082771293
 20
5.3845993368
 40
0.0874890639
100
AcDbArc
 50
9.3197114863
 51
90.0
  0
ARC
  5
299
100
AcDbEntity
  8
0
100
AcDbCircle
 62
7
  6
CONTINUOUS
 10
6.0926149034
 20
5.3845993368
 40
0.0874890639
100
AcDbArc
 50
90.0
 51
170.6802885137
  0
ARC
  5
29A
100
AcDbEntity
  8
0
100
AcDbCircle
 62
7
  6
CONTINUOUS
 10
5.5381983891
 20
5.3845993368
 40
0.0874890639
100
AcDbArc
 50
9.3197114863
 51
90.0
  0
ARC
  5
29B
100
AcDbEntity
  8
0
100
AcDbCircle
 62
7
  6
CONTINUOUS
 10
4.8114696384
 20
5.5681513928
 40
0.4527559055
100
AcDbArc
 50
153.635403151
 51
170.6802885137
  0
ARC
  5
29C
100
AcDbEntity
  8
0
100
AcDbCircle
 62
7
  6
CONTINUOUS
 10
4.2996586147
 20
5.5681513928
 40
0.4527559055
100
AcDbArc
 50
9.3197114863
 51
26.364596849
  0
ARC
  5
29D
100
AcDbEntity
  8
0
100
AcDbCircle
 62
7
  6
CONTINUOUS
 10
5.4413908982
 20
5.5681513928
 40
0.4527559055
100
AcDbArc
 50
153.635403151
 51
170.6802885137
  0
ARC
  5
29E
100
AcDbEntity
  8
0
100
AcDbCircle
 62
7
  6
CONTINUOUS
 10
4.9295798746
 20
5.5681513928
 40
0.4527559055
100
AcDbArc
 50
9.3197114863
 51
26.364596849
  0
ARC
  5
29F
100
AcDbEntity
  8
0
100
AcDbCircle
 62
7
  6
CONTINUOUS
 10
6.0713121581
 20
5.5681513928
 40
0.4527559055
100
AcDbArc
 50
153.635403151
 51
170.6802885137
  0
ARC
  5
2A0
100
AcDbEntity
  8
0
100
AcDbCircle
 62
7
  6
CONTINUOUS
 10
5.5595011344
 20
5.5681513928
 40
0.4527559055
100
AcDbArc
 50
9.3197114863
 51
26.364596849
  0
ARC
  5
2A1
100
AcDbEntity
  8
0
100
AcDbCircle
 62
7
  6
CONTINUOUS
 10
4.587738209
 20
5.710933545
 40
0.1312335958
100
AcDbArc
 50
26.364596849
 51
90.0
  0
ARC
  5
2A2
100
AcDbEntity
  8
0
100
AcDbCircle
 62
7
  6
CONTINUOUS
 10
4.5233900441
 20
5.710933545
 40
0.1312335958
100
AcDbArc
 50
90.0
 51
153.635403151
  0
ARC
  5
2A3
100
AcDbEntity
  8
0
100
AcDbCircle
 62
7
  6
CONTINUOUS
 10
5.1533113039
 20
5.710933545
 40
0.1312335958
100
AcDbArc
 50
90.0
 51
153.635403151
  0
ARC
  5
2A4
100
AcDbEntity
  8
0
100
AcDbCircle
 62
7
  6
CONTINUOUS
 10
5.2176594689
 20
5.710933545
 40
0.1312335958
100
AcDbArc
 50
26.364596849
 51
90.0
  0
ARC
  5
2A5
100
AcDbEntity
  8
0
100
AcDbCircle
 62
7
  6
CONTINUOUS
 10
5.7832325638
 20
5.710933545
 40
0.1312335958
100
AcDbArc
 50
90.0
 51
153.635403151
  0
ARC
  5
2A6
100
AcDbEntity
  8
0
100
AcDbCircle
 62
7
  6
CONTINUOUS
 10
5.8475807287
 20
5.710933545
 40
0.1312335958
100
AcDbArc
 50
26.364596849
 51
90.0
  0
ARC
  5
2A7
100
AcDbEntity
  8
0
100
AcDbCircle
 62
7
  6
CONTINUOUS
 10
4.8327723837
 20
5.6556404567
 40
0.0874890639
100
AcDbArc
 50
189.3197114863
 51
270.0
  0
ARC
  5
2A8
100
AcDbEntity
  8
0
100
AcDbCircle
 62
7
  6
CONTINUOUS
 10
4.2783558694
 20
5.6556404567
 40
0.0874890639
100
AcDbArc
 50
270.0
 51
350.6802885137
  0
ARC
  5
2A9
100
AcDbEntity
  8
0
100
AcDbCircle
 62
7
  6
CONTINUOUS
 10
5.4626936435
 20
5.6556404567
 40
0.0874890639
100
AcDbArc
 50
189.3197114863
 51
270.0
  0
ARC
  5
2AA
100
AcDbEntity
  8
0
100
AcDbCircle
 62
7
  6
CONTINUOUS
 10
4.9082771293
 20
5.6556404567
 40
0.0874890639
100
AcDbArc
 50
270.0
 51
350.6802885137
  0
ARC
  5
2AB
100
AcDbEntity
  8
0
100
AcDbCircle
 62
7
  6
CONTINUOUS
 10
6.0926149034
 20
5.6556404567
 40
0.0874890639
100
AcDbArc
 50
189.3197114863
 51
270.0
  0
ARC
  5
2AC
100
AcDbEntity
  8
0
100
AcDbCircle
 62
7
  6
CONTINUOUS
 10
5.5381983891
 20
5.6556404567
 40
0.0874890639
100
AcDbArc
 50
270.0
 51
350.6802885137
  0
ARC
  5
2AD
100
AcDbEntity
  8
0
100
AcDbCircle
 62
7
  6
CONTINUOUS
 10
6.7012334179
 20
5.4720884007
 40
0.4527559055
100
AcDbArc
 50
189.3197114863
 51
206.364596849
  0
ARC
  5
2AE
100
AcDbEntity
  8
0
100
AcDbCircle
 62
7
  6
CONTINUOUS
 10
6.1894223943
 20
5.4720884007
 40
0.4527559055
100
AcDbArc
 50
333.635403151
 51
350.6802885137
  0
ARC
  5
2AF
100
AcDbEntity
  8
0
100
AcDbCircle
 62
7
  6
CONTINUOUS
 10
7.3311546777
 20
5.4720884007
 40
0.4527559055
100
AcDbArc
 50
189.3197114863
 51
206.364596849
  0
ARC
  5
2B0
100
AcDbEntity
  8
0
100
AcDbCircle
 62
7
  6
CONTINUOUS
 10
6.8193436541
 20
5.4720884007
 40
0.4527559055
100
AcDbArc
 50
333.635403151
 51
350.6802885137
  0
ARC
  5
2B1
100
AcDbEntity
  8
0
100
AcDbCircle
 62
7
  6
CONTINUOUS
 10
7.449264914
 20
5.4720884007
 40
0.4527559055
100
AcDbArc
 50
333.635403151
 51
350.6802885137
  0
ARC
  5
2B2
100
AcDbEntity
  8
0
100
AcDbCircle
 62
7
  6
CONTINUOUS
 10
7.9610759376
 20
5.4720884007
 40
0.4527559055
100
AcDbArc
 50
189.3197114863
 51
206.364596849
  0
ARC
  5
2B3
100
AcDbEntity
  8
0
100
AcDbCircle
 62
7
  6
CONTINUOUS
 10
6.4131538236
 20
5.3293062485
 40
0.1312335958
100
AcDbArc
 50
206.364596849
 51
270.0
  0
ARC
  5
2B4
100
AcDbEntity
  8
0
100
AcDbCircle
 62
7
  6
CONTINUOUS
 10
6.4775019886
 20
5.3293062485
 40
0.1312335958
100
AcDbArc
 50
270.0
 51
333.635403151
  0
ARC
  5
2B5
100
AcDbEntity
  8
0
100
AcDbCircle
 62
7
  6
CONTINUOUS
 10
7.0430750835
 20
5.3293062485
 40
0.1312335958
100
AcDbArc
 50
206.364596849
 51
270.0
  0
ARC
  5
2B6
100
AcDbEntity
  8
0
100
AcDbCircle
 62
7
  6
CONTINUOUS
 10
7.1074232484
 20
5.3293062485
 40
0.1312335958
100
AcDbArc
 50
270.0
 51
333.635403151
  0
ARC
  5
2B7
100
AcDbEntity
  8
0
100
AcDbCircle
 62
7
  6
CONTINUOUS
 10
7.7373445083
 20
5.3293062485
 40
0.1312335958
100
AcDbArc
 50
270.0
 51
333.635403151
  0
ARC
  5
2B8
100
AcDbEntity
  8
0
100
AcDbCircle
 62
7
  6
CONTINUOUS
 10
7.6729963433
 20
5.3293062485
 40
0.1312335958
100
AcDbArc
 50
206.364596849
 51
270.0
  0
ARC
  5
2B9
100
AcDbEntity
  8
0
100
AcDbCircle
 62
7
  6
CONTINUOUS
 10
6.7225361632
 20
5.3845993368
 40
0.0874890639
100
AcDbArc
 50
90.0
 51
170.6802885137
  0
ARC
  5
2BA
100
AcDbEntity
  8
0
100
AcDbCircle
 62
7
  6
CONTINUOUS
 10
6.1681196489
 20
5.3845993368
 40
0.0874890639
100
AcDbArc
 50
9.3197114863
 51
90.0
  0
ARC
  5
2BB
100
AcDbEntity
  8
0
100
AcDbCircle
 62
7
  6
CONTINUOUS
 10
7.3524574231
 20
5.3845993368
 40
0.0874890639
100
AcDbArc
 50
90.0
 51
170.6802885137
  0
ARC
  5
2BC
100
AcDbEntity
  8
0
100
AcDbCircle
 62
7
  6
CONTINUOUS
 10
6.7980409088
 20
5.3845993368
 40
0.0874890639
100
AcDbArc
 50
9.3197114863
 51
90.0
  0
ARC
  5
2BD
100
AcDbEntity
  8
0
100
AcDbCircle
 62
7
  6
CONTINUOUS
 10
7.9823786829
 20
5.3845993368
 40
0.0874890639
100
AcDbArc
 50
90.0
 51
170.6802885137
  0
ARC
  5
2BE
100
AcDbEntity
  8
0
100
AcDbCircle
 62
7
  6
CONTINUOUS
 10
7.4279621686
 20
5.3845993368
 40
0.0874890639
100
AcDbArc
 50
9.3197114863
 51
90.0
  0
ARC
  5
2BF
100
AcDbEntity
  8
0
100
AcDbCircle
 62
7
  6
CONTINUOUS
 10
6.7012334179
 20
5.5681513928
 40
0.4527559055
100
AcDbArc
 50
153.635403151
 51
170.6802885137
  0
ARC
  5
2C0
100
AcDbEntity
  8
0
100
AcDbCircle
 62
7
  6
CONTINUOUS
 10
6.1894223943
 20
5.5681513928
 40
0.4527559055
100
AcDbArc
 50
9.3197114863
 51
26.364596849
  0
ARC
  5
2C1
100
AcDbEntity
  8
0
100
AcDbCircle
 62
7
  6
CONTINUOUS
 10
7.3311546777
 20
5.5681513928
 40
0.4527559055
100
AcDbArc
 50
153.635403151
 51
170.6802885137
  0
ARC
  5
2C2
100
AcDbEntity
  8
0
100
AcDbCircle
 62
7
  6
CONTINUOUS
 10
6.8193436541
 20
5.5681513928
 40
0.4527559055
100
AcDbArc
 50
9.3197114863
 51
26.364596849
  0
ARC
  5
2C3
100
AcDbEntity
  8
0
100
AcDbCircle
 62
7
  6
CONTINUOUS
 10
7.9610759376
 20
5.5681513928
 40
0.4527559055
100
AcDbArc
 50
153.635403151
 51
170.6802885137
  0
ARC
  5
2C4
100
AcDbEntity
  8
0
100
AcDbCircle
 62
7
  6
CONTINUOUS
 10
7.449264914
 20
5.5681513928
 40
0.4527559055
100
AcDbArc
 50
9.3197114863
 51
26.364596849
  0
ARC
  5
2C5
100
AcDbEntity
  8
0
100
AcDbCircle
 62
7
  6
CONTINUOUS
 10
6.4131538236
 20
5.710933545
 40
0.1312335958
100
AcDbArc
 50
90.0
 51
153.635403151
  0
ARC
  5
2C6
100
AcDbEntity
  8
0
100
AcDbCircle
 62
7
  6
CONTINUOUS
 10
6.4775019886
 20
5.710933545
 40
0.1312335958
100
AcDbArc
 50
26.364596849
 51
90.0
  0
ARC
  5
2C7
100
AcDbEntity
  8
0
100
AcDbCircle
 62
7
  6
CONTINUOUS
 10
7.0430750835
 20
5.710933545
 40
0.1312335958
100
AcDbArc
 50
90.0
 51
153.635403151
  0
ARC
  5
2C8
100
AcDbEntity
  8
0
100
AcDbCircle
 62
7
  6
CONTINUOUS
 10
7.1074232484
 20
5.710933545
 40
0.1312335958
100
AcDbArc
 50
26.364596849
 51
90.0
  0
ARC
  5
2C9
100
AcDbEntity
  8
0
100
AcDbCircle
 62
7
  6
CONTINUOUS
 10
7.6729963433
 20
5.710933545
 40
0.1312335958
100
AcDbArc
 50
90.0
 51
153.635403151
  0
ARC
  5
2CA
100
AcDbEntity
  8
0
100
AcDbCircle
 62
7
  6
CONTINUOUS
 10
7.7373445083
 20
5.710933545
 40
0.1312335958
100
AcDbArc
 50
26.364596849
 51
90.0
  0
ARC
  5
2CB
100
AcDbEntity
  8
0
100
AcDbCircle
 62
7
  6
CONTINUOUS
 10
6.7225361632
 20
5.6556404567
 40
0.0874890639
100
AcDbArc
 50
189.3197114863
 51
270.0
  0
ARC
  5
2CC
100
AcDbEntity
  8
0
100
AcDbCircle
 62
7
  6
CONTINUOUS
 10
6.1681196489
 20
5.6556404567
 40
0.0874890639
100
AcDbArc
 50
270.0
 51
350.6802885137
  0
ARC
  5
2CD
100
AcDbEntity
  8
0
100
AcDbCircle
 62
7
  6
CONTINUOUS
 10
7.3524574231
 20
5.6556404567
 40
0.0874890639
100
AcDbArc
 50
189.3197114863
 51
270.0
  0
ARC
  5
2CE
100
AcDbEntity
  8
0
100
AcDbCircle
 62
7
  6
CONTINUOUS
 10
6.7980409088
 20
5.6556404567
 40
0.0874890639
100
AcDbArc
 50
270.0
 51
350.6802885137
  0
ARC
  5
2CF
100
AcDbEntity
  8
0
100
AcDbCircle
 62
7
  6
CONTINUOUS
 10
7.9823786829
 20
5.6556404567
 40
0.0874890639
100
AcDbArc
 50
189.3197114863
 51
270.0
  0
ARC
  5
2D0
100
AcDbEntity
  8
0
100
AcDbCircle
 62
7
  6
CONTINUOUS
 10
7.4279621686
 20
5.6556404567
 40
0.0874890639
100
AcDbArc
 50
270.0
 51
350.6802885137
  0
SPLINE
  5
2D1
100
AcDbEntity
  8
0
100
AcDbSpline
 62
7
  6
CONTINUOUS
 70
0
 71
3
 72
9
 73
5
 74
0
 42
0.0000001
 43
0.0000001
 44
0.0000000001
 40
0.0
 40
0.0
 40
0.0
 40
0.0
 40
0.4816193489
 40
1.0
 40
1.0
 40
1.0
 40
1.0
 10
14.3500152255
 20
13.2030316286
 30
0.0
 10
14.3394991976
 20
13.2173606814
 30
0.0
 10
14.3153858884
 20
13.2454716626
 30
0.0
 10
14.2879987278
 20
13.2703390505
 30
0.0
 10
14.2731784811
 20
13.2824359537
 30
0.0
  0
SPLINE
  5
2D2
100
AcDbEntity
  8
0
100
AcDbSpline
 62
7
  6
CONTINUOUS
 70
0
 71
3
 72
11
 73
7
 74
0
 42
0.0000001
 43
0.0000001
 44
0.0000000001
 40
0.0
 40
0.0
 40
0.0
 40
0.0
 40
0.2476653917
 40
0.505553383
 40
0.7605520152
 40
1.0
 40
1.0
 40
1.0
 40
1.0
 10
14.1426225183
 20
13.3277856123
 30
0.0
 10
14.154225188
 20
13.3277856123
 30
0.0
 10
14.1779411743
 20
13.3255152816
 30
0.0
 10
14.2125435534
 20
13.316456785
 30
0.0
 10
14.2449722191
 20
13.3022979671
 30
0.0
 10
14.2644882035
 20
13.2895293205
 30
0.0
 10
14.2731784811
 20
13.2824359537
 30
0.0
  0
SPLINE
  5
2D3
100
AcDbEntity
  8
0
100
AcDbSpline
 62
7
  6
CONTINUOUS
 70
0
 71
3
 72
12
 73
8
 74
0
 42
0.0000001
 43
0.0000001
 44
0.0000000001
 40
0.0
 40
0.0
 40
0.0
 40
0.0
 40
0.0998482179
 40
0.2032560843
 40
0.4308038635
 40
0.696575874
 40
1.0
 40
1.0
 40
1.0
 40
1.0
 10
14.0430957099
 20
11.8356020901
 30
0.0
 10
14.0437613271
 20
11.8377554992
 30
0.0
 10
14.0456472147
 20
11.8419928221
 30
0.0
 10
14.051565599
 20
11.8498012105
 30
0.0
 10
14.0629207653
 20
11.8576412653
 30
0.0
 10
14.0802464416
 20
11.8630620448
 30
0.0
 10
14.0931472654
 20
11.8641552939
 30
0.0
 10
14.09999664
 20
11.8641552939
 30
0.0
  0
SPLINE
  5
2D4
100
AcDbEntity
  8
0
100
AcDbSpline
 62
7
  6
CONTINUOUS
 70
0
 71
3
 72
12
 73
8
 74
0
 42
0.0000001
 43
0.0000001
 44
0.0000000001
 40
0.0
 40
0.0
 40
0.0
 40
0.0
 40
0.0998482179
 40
0.2032560843
 40
0.4308038635
 40
0.696575874
 40
1.0
 40
1.0
 40
1.0
 40
1.0
 10
14.6232916116
 20
11.8356020901
 30
0.0
 10
14.6239572289
 20
11.8377554992
 30
0.0
 10
14.6258431164
 20
11.8419928221
 30
0.0
 10
14.6317615008
 20
11.8498012105
 30
0.0
 10
14.6431166671
 20
11.8576412653
 30
0.0
 10
14.6604423434
 20
11.8630620448
 30
0.0
 10
14.6733431671
 20
11.8641552939
 30
0.0
 10
14.6801925417
 20
11.8641552939
 30
0.0
  0
SPLINE
  5
2D5
100
AcDbEntity
  8
0
100
AcDbSpline
 62
7
  6
CONTINUOUS
 70
0
 71
3
 72
12
 73
8
 74
0
 42
0.0000001
 43
0.0000001
 44
0.0000000001
 40
0.0
 40
0.0
 40
0.0
 40
0.0
 40
0.0998482179
 40
0.2032560843
 40
0.4308038635
 40
0.696575874
 40
1.0
 40
1.0
 40
1.0
 40
1.0
 10
15.2034875134
 20
11.8356020901
 30
0.0
 10
15.2041531306
 20
11.8377554992
 30
0.0
 10
15.2060390182
 20
11.8419928221
 30
0.0
 10
15.2119574025
 20
11.8498012105
 30
0.0
 10
15.2233125688
 20
11.8576412653
 30
0.0
 10
15.2406382451
 20
11.8630620448
 30
0.0
 10
15.2535390688
 20
11.8641552939
 30
0.0
 10
15.2603884434
 20
11.8641552939
 30
0.0
  0
SPLINE
  5
2D6
100
AcDbEntity
  8
0
100
AcDbSpline
 62
7
  6
CONTINUOUS
 70
0
 71
3
 72
12
 73
8
 74
0
 42
0.0000001
 43
0.0000001
 44
0.0000000001
 40
0.0
 40
0.0
 40
0.0
 40
0.0
 40
0.0998482179
 40
0.2032560843
 40
0.4308038635
 40
0.696575874
 40
1.0
 40
1.0
 40
1.0
 40
1.0
 10
15.7836834151
 20
11.8356020901
 30
0.0
 10
15.7843490323
 20
11.8377554992
 30
0.0
 10
15.7862349199
 20
11.8419928221
 30
0.0
 10
15.7921533042
 20
11.8498012105
 30
0.0
 10
15.8035084705
 20
11.8576412653
 30
0.0
 10
15.8208341468
 20
11.8630620448
 30
0.0
 10
15.8337349706
 20
11.8641552939
 30
0.0
 10
15.8405843452
 20
11.8641552939
 30
0.0
  0
SPLINE
  5
2D7
100
AcDbEntity
  8
0
100
AcDbSpline
 62
7
  6
CONTINUOUS
 70
0
 71
3
 72
12
 73
8
 74
0
 42
0.0000001
 43
0.0000001
 44
0.0000000001
 40
0.0
 40
0.0
 40
0.0
 40
0.0
 40
0.0998482179
 40
0.2032560843
 40
0.4308038635
 40
0.696575874
 40
1.0
 40
1.0
 40
1.0
 40
1.0
 10
16.3638793168
 20
11.8356020901
 30
0.0
 10
16.3645449341
 20
11.8377554992
 30
0.0
 10
16.3664308216
 20
11.8419928221
 30
0.0
 10
16.372349206
 20
11.8498012105
 30
0.0
 10
16.3837043723
 20
11.8576412653
 30
0.0
 10
16.4010300486
 20
11.8630620448
 30
0.0
 10
16.4139308723
 20
11.8641552939
 30
0.0
 10
16.4207802469
 20
11.8641552939
 30
0.0
  0
SPLINE
  5
2D8
100
AcDbEntity
  8
0
100
AcDbSpline
 62
7
  6
CONTINUOUS
 70
0
 71
3
 72
12
 73
8
 74
0
 42
0.0000001
 43
0.0000001
 44
0.0000000001
 40
0.0
 40
0.0
 40
0.0
 40
0.0
 40
0.0998482179
 40
0.2032560843
 40
0.4308038635
 40
0.696575874
 40
1.0
 40
1.0
 40
1.0
 40
1.0
 10
16.9440752186
 20
11.8356020901
 30
0.0
 10
16.9447408358
 20
11.8377554992
 30
0.0
 10
16.9466267234
 20
11.8419928221
 30
0.0
 10
16.9525451077
 20
11.8498012105
 30
0.0
 10
16.963900274
 20
11.8576412653
 30
0.0
 10
16.9812259503
 20
11.8630620448
 30
0.0
 10
16.994126774
 20
11.8641552939
 30
0.0
 10
17.0009761486
 20
11.8641552939
 30
0.0
  0
SPLINE
  5
2D9
100
AcDbEntity
  8
0
100
AcDbSpline
 62
7
  6
CONTINUOUS
 70
0
 71
3
 72
13
 73
9
 74
0
 42
0.0000001
 43
0.0000001
 44
0.0000000001
 40
0.0
 40
0.0
 40
0.0
 40
0.0
 40
0.0997725054
 40
0.2031217778
 40
0.3129403171
 40
0.4313511491
 40
0.696863045
 40
1.0
 40
1.0
 40
1.0
 40
1.0
 10
13.9980028078
 20
13.2849557365
 30
0.0
 10
13.9990021146
 20
13.2881861083
 30
0.0
 10
14.0018321723
 20
13.2945430486
 30
0.0
 10
14.0082862291
 20
13.3030603332
 30
0.0
 10
14.0168160781
 20
13.3104846298
 30
0.0
 10
14.0312528199
 20
13.3190889553
 30
0.0
 10
14.0537498604
 20
13.3261627521
 30
0.0
 10
14.0730802661
 20
13.3277856123
 30
0.0
 10
14.0833539335
 20
13.3277856123
 30
0.0
  0
SPLINE
  5
2DA
100
AcDbEntity
  8
0
100
AcDbSpline
 62
7
  6
CONTINUOUS
 70
0
 71
3
 72
9
 73
5
 74
0
 42
0.0000001
 43
0.0000001
 44
0.0000000001
 40
0.0
 40
0.0
 40
0.0
 40
0.0
 40
0.4816198055
 40
1.0
 40
1.0
 40
1.0
 40
1.0
 10
17.2509947341
 20
13.2030316286
 30
0.0
 10
17.2404786954
 20
13.2173606963
 30
0.0
 10
17.2163654982
 20
13.2454717833
 30
0.0
 10
17.1889782248
 20
13.2703390601
 30
0.0
 10
17.1741579897
 20
13.2824359537
 30
0.0
  0
SPLINE
  5
2DB
100
AcDbEntity
  8
0
100
AcDbSpline
 62
7
  6
CONTINUOUS
 70
0
 71
3
 72
11
 73
7
 74
0
 42
0.0000001
 43
0.0000001
 44
0.0000000001
 40
0.0
 40
0.0
 40
0.0
 40
0.0
 40
0.2476653917
 40
0.505553383
 40
0.7605520152
 40
1.0
 40
1.0
 40
1.0
 40
1.0
 10
17.043602027
 20
13.3277856123
 30
0.0
 10
17.0552046967
 20
13.3277856123
 30
0.0
 10
17.0789206829
 20
13.3255152816
 30
0.0
 10
17.1135230621
 20
13.316456785
 30
0.0
 10
17.1459517278
 20
13.3022979671
 30
0.0
 10
17.1654677122
 20
13.2895293205
 30
0.0
 10
17.1741579897
 20
13.2824359537
 30
0.0
  0
SPLINE
  5
2DC
100
AcDbEntity
  8
0
100
AcDbSpline
 62
7
  6
CONTINUOUS
 70
0
 71
3
 72
9
 73
5
 74
0
 42
0.0000001
 43
0.0000001
 44
0.0000000001
 40
0.0
 40
0.0
 40
0.0
 40
0.0
 40
0.4816202791
 40
1.0
 40
1.0
 40
1.0
 40
1.0
 10
16.6707988324
 20
13.2030316286
 30
0.0
 10
16.6602827842
 20
13.2173607091
 30
0.0
 10
16.6361694707
 20
13.2454716873
 30
0.0
 10
16.6087823082
 20
13.2703390722
 30
0.0
 10
16.593962088
 20
13.2824359537
 30
0.0
  0
SPLINE
  5
2DD
100
AcDbEntity
  8
0
100
AcDbSpline
 62
7
  6
CONTINUOUS
 70
0
 71
3
 72
11
 73
7
 74
0
 42
0.0000001
 43
0.0000001
 44
0.0000000001
 40
0.0
 40
0.0
 40
0.0
 40
0.0
 40
0.2476653917
 40
0.505553383
 40
0.7605520152
 40
1.0
 40
1.0
 40
1.0
 40
1.0
 10
16.4634061252
 20
13.3277856123
 30
0.0
 10
16.475008795
 20
13.3277856123
 30
0.0
 10
16.4987247812
 20
13.3255152816
 30
0.0
 10
16.5333271604
 20
13.316456785
 30
0.0
 10
16.5657558261
 20
13.3022979671
 30
0.0
 10
16.5852718104
 20
13.2895293205
 30
0.0
 10
16.593962088
 20
13.2824359537
 30
0.0
  0
SPLINE
  5
2DE
100
AcDbEntity
  8
0
100
AcDbSpline
 62
7
  6
CONTINUOUS
 70
0
 71
3
 72
13
 73
9
 74
0
 42
0.0000001
 43
0.0000001
 44
0.0000000001
 40
0.0
 40
0.0
 40
0.0
 40
0.0
 40
0.0997725054
 40
0.2031217778
 40
0.3129403171
 40
0.4313511491
 40
0.696863045
 40
1.0
 40
1.0
 40
1.0
 40
1.0
 10
14.5781987095
 20
13.2849557365
 30
0.0
 10
14.5791980163
 20
13.2881861083
 30
0.0
 10
14.5820280741
 20
13.2945430486
 30
0.0
 10
14.5884821308
 20
13.3030603332
 30
0.0
 10
14.5970119798
 20
13.3104846298
 30
0.0
 10
14.6114487216
 20
13.3190889553
 30
0.0
 10
14.6339457621
 20
13.3261627521
 30
0.0
 10
14.6532761679
 20
13.3277856123
 30
0.0
 10
14.6635498353
 20
13.3277856123
 30
0.0
  0
SPLINE
  5
2DF
100
AcDbEntity
  8
0
100
AcDbSpline
 62
7
  6
CONTINUOUS
 70
0
 71
3
 72
9
 73
5
 74
0
 42
0.0000001
 43
0.0000001
 44
0.0000000001
 40
0.0
 40
0.0
 40
0.0
 40
0.0
 40
0.4816202791
 40
1.0
 40
1.0
 40
1.0
 40
1.0
 10
16.0906029307
 20
13.2030316286
 30
0.0
 10
16.0800868825
 20
13.2173607091
 30
0.0
 10
16.0559735689
 20
13.2454716873
 30
0.0
 10
16.0285864064
 20
13.2703390722
 30
0.0
 10
16.0137661863
 20
13.2824359537
 30
0.0
  0
SPLINE
  5
2E0
100
AcDbEntity
  8
0
100
AcDbSpline
 62
7
  6
CONTINUOUS
 70
0
 71
3
 72
11
 73
7
 74
0
 42
0.0000001
 43
0.0000001
 44
0.0000000001
 40
0.0
 40
0.0
 40
0.0
 40
0.0
 40
0.2476653917
 40
0.505553383
 40
0.7605520152
 40
1.0
 40
1.0
 40
1.0
 40
1.0
 10
15.8832102235
 20
13.3277856123
 30
0.0
 10
15.8948128932
 20
13.3277856123
 30
0.0
 10
15.9185288795
 20
13.3255152816
 30
0.0
 10
15.9531312586
 20
13.316456785
 30
0.0
 10
15.9855599243
 20
13.3022979671
 30
0.0
 10
16.0050759087
 20
13.2895293205
 30
0.0
 10
16.0137661863
 20
13.2824359537
 30
0.0
  0
SPLINE
  5
2E1
100
AcDbEntity
  8
0
100
AcDbSpline
 62
7
  6
CONTINUOUS
 70
0
 71
3
 72
9
 73
5
 74
0
 42
0.0000001
 43
0.0000001
 44
0.0000000001
 40
0.0
 40
0.0
 40
0.0
 40
0.0
 40
0.4816202791
 40
1.0
 40
1.0
 40
1.0
 40
1.0
 10
15.5104070289
 20
13.2030316286
 30
0.0
 10
15.4998909808
 20
13.2173607091
 30
0.0
 10
15.4757776672
 20
13.2454716873
 30
0.0
 10
15.4483905047
 20
13.2703390722
 30
0.0
 10
15.4335702845
 20
13.2824359537
 30
0.0
  0
SPLINE
  5
2E2
100
AcDbEntity
  8
0
100
AcDbSpline
 62
7
  6
CONTINUOUS
 70
0
 71
3
 72
11
 73
7
 74
0
 42
0.0000001
 43
0.0000001
 44
0.0000000001
 40
0.0
 40
0.0
 40
0.0
 40
0.0
 40
0.2476653917
 40
0.505553383
 40
0.7605520152
 40
1.0
 40
1.0
 40
1.0
 40
1.0
 10
15.3030143218
 20
13.3277856123
 30
0.0
 10
15.3146169915
 20
13.3277856123
 30
0.0
 10
15.3383329777
 20
13.3255152816
 30
0.0
 10
15.3729353569
 20
13.316456785
 30
0.0
 10
15.4053640226
 20
13.3022979671
 30
0.0
 10
15.424880007
 20
13.2895293205
 30
0.0
 10
15.4335702845
 20
13.2824359537
 30
0.0
  0
SPLINE
  5
2E3
100
AcDbEntity
  8
0
100
AcDbSpline
 62
7
  6
CONTINUOUS
 70
0
 71
3
 72
13
 73
9
 74
0
 42
0.0000001
 43
0.0000001
 44
0.0000000001
 40
0.0
 40
0.0
 40
0.0
 40
0.0
 40
0.0997725054
 40
0.2031217778
 40
0.3129403171
 40
0.4313511491
 40
0.696863045
 40
1.0
 40
1.0
 40
1.0
 40
1.0
 10
15.1583946113
 20
13.2849557365
 30
0.0
 10
15.1593939181
 20
13.2881861083
 30
0.0
 10
15.1622239758
 20
13.2945430486
 30
0.0
 10
15.1686780325
 20
13.3030603332
 30
0.0
 10
15.1772078815
 20
13.3104846298
 30
0.0
 10
15.1916446234
 20
13.3190889553
 30
0.0
 10
15.2141416638
 20
13.3261627521
 30
0.0
 10
15.2334720696
 20
13.3277856123
 30
0.0
 10
15.243745737
 20
13.3277856123
 30
0.0
  0
SPLINE
  5
2E4
100
AcDbEntity
  8
0
100
AcDbSpline
 62
7
  6
CONTINUOUS
 70
0
 71
3
 72
9
 73
5
 74
0
 42
0.0000001
 43
0.0000001
 44
0.0000000001
 40
0.0
 40
0.0
 40
0.0
 40
0.0
 40
0.4816193489
 40
1.0
 40
1.0
 40
1.0
 40
1.0
 10
14.9302111272
 20
13.2030316286
 30
0.0
 10
14.9196950994
 20
13.2173606814
 30
0.0
 10
14.8955817901
 20
13.2454716626
 30
0.0
 10
14.8681946296
 20
13.2703390505
 30
0.0
 10
14.8533743828
 20
13.2824359537
 30
0.0
  0
SPLINE
  5
2E5
100
AcDbEntity
  8
0
100
AcDbSpline
 62
7
  6
CONTINUOUS
 70
0
 71
3
 72
11
 73
7
 74
0
 42
0.0000001
 43
0.0000001
 44
0.0000000001
 40
0.0
 40
0.0
 40
0.0
 40
0.0
 40
0.2476653917
 40
0.505553383
 40
0.7605520152
 40
1.0
 40
1.0
 40
1.0
 40
1.0
 10
14.72281842
 20
13.3277856123
 30
0.0
 10
14.7344210898
 20
13.3277856123
 30
0.0
 10
14.758137076
 20
13.3255152816
 30
0.0
 10
14.7927394552
 20
13.316456785
 30
0.0
 10
14.8251681209
 20
13.3022979671
 30
0.0
 10
14.8446841052
 20
13.2895293205
 30
0.0
 10
14.8533743828
 20
13.2824359537
 30
0.0
  0
SPLINE
  5
2E6
100
AcDbEntity
  8
0
100
AcDbSpline
 62
7
  6
CONTINUOUS
 70
0
 71
3
 72
9
 73
5
 74
0
 42
0.0000001
 43
0.0000001
 44
0.0000000001
 40
0.0
 40
0.0
 40
0.0
 40
0.0
 40
0.4873570824
 40
1.0
 40
1.0
 40
1.0
 40
1.0
 10
14.1962958242
 20
12.0488502692
 30
0.0
 10
14.1932190948
 20
12.0362236395
 30
0.0
 10
14.1903435996
 20
12.0093776832
 30
0.0
 10
14.194105955
 20
11.9827157199
 30
0.0
 10
14.1973910461
 20
11.9694459441
 30
0.0
  0
SPLINE
  5
2E7
100
AcDbEntity
  8
0
100
AcDbSpline
 62
7
  6
CONTINUOUS
 70
0
 71
3
 72
9
 73
5
 74
0
 42
0.0000001
 43
0.0000001
 44
0.0000000001
 40
0.0
 40
0.0
 40
0.0
 40
0.0
 40
0.4873561617
 40
1.0
 40
1.0
 40
1.0
 40
1.0
 10
14.776491726
 20
12.0488502692
 30
0.0
 10
14.7734150023
 20
12.0362236634
 30
0.0
 10
14.7705395002
 20
12.0093777092
 30
0.0
 10
14.7743018508
 20
11.9827157438
 30
0.0
 10
14.7775869479
 20
11.9694459441
 30
0.0
  0
SPLINE
  5
2E8
100
AcDbEntity
  8
0
100
AcDbSpline
 62
7
  6
CONTINUOUS
 70
0
 71
3
 72
9
 73
5
 74
0
 42
0.0000001
 43
0.0000001
 44
0.0000000001
 40
0.0
 40
0.0
 40
0.0
 40
0.0
 40
0.4873561617
 40
1.0
 40
1.0
 40
1.0
 40
1.0
 10
15.3566876277
 20
12.0488502692
 30
0.0
 10
15.353610904
 20
12.0362236634
 30
0.0
 10
15.350735402
 20
12.0093777092
 30
0.0
 10
15.3544977526
 20
11.9827157438
 30
0.0
 10
15.3577828496
 20
11.9694459441
 30
0.0
  0
SPLINE
  5
2E9
100
AcDbEntity
  8
0
100
AcDbSpline
 62
7
  6
CONTINUOUS
 70
0
 71
3
 72
9
 73
5
 74
0
 42
0.0000001
 43
0.0000001
 44
0.0000000001
 40
0.0
 40
0.0
 40
0.0
 40
0.0
 40
0.4873561617
 40
1.0
 40
1.0
 40
1.0
 40
1.0
 10
15.9368835294
 20
12.0488502692
 30
0.0
 10
15.9338068058
 20
12.0362236634
 30
0.0
 10
15.9309313037
 20
12.0093777092
 30
0.0
 10
15.9346936543
 20
11.9827157438
 30
0.0
 10
15.9379787513
 20
11.9694459441
 30
0.0
  0
SPLINE
  5
2EA
100
AcDbEntity
  8
0
100
AcDbSpline
 62
7
  6
CONTINUOUS
 70
0
 71
3
 72
9
 73
5
 74
0
 42
0.0000001
 43
0.0000001
 44
0.0000000001
 40
0.0
 40
0.0
 40
0.0
 40
0.0
 40
0.4873559464
 40
1.0
 40
1.0
 40
1.0
 40
1.0
 10
16.5170794312
 20
12.0488502692
 30
0.0
 10
16.5140027079
 20
12.0362236648
 30
0.0
 10
16.5111269879
 20
12.0093777137
 30
0.0
 10
16.5148895536
 20
11.9827157537
 30
0.0
 10
16.5181746531
 20
11.9694459441
 30
0.0
  0
SPLINE
  5
2EB
100
AcDbEntity
  8
0
100
AcDbSpline
 62
7
  6
CONTINUOUS
 70
0
 71
3
 72
13
 73
9
 74
0
 42
0.0000001
 43
0.0000001
 44
0.0000000001
 40
0.0
 40
0.0
 40
0.0
 40
0.0
 40
0.303136955
 40
0.5686488509
 40
0.6870596829
 40
0.7968782222
 40
0.9002274946
 40
1.0
 40
1.0
 40
1.0
 40
1.0
 10
16.8588710034
 20
11.6938243735
 30
0.0
 10
16.8691446708
 20
11.6938243735
 30
0.0
 10
16.8884750766
 20
11.6954472338
 30
0.0
 10
16.9109721171
 20
11.7025210305
 30
0.0
 10
16.9254088589
 20
11.711125356
 30
0.0
 10
16.9339387079
 20
11.7185496526
 30
0.0
 10
16.9403927646
 20
11.7270669372
 30
0.0
 10
16.9432228223
 20
11.7334238775
 30
0.0
 10
16.9442221291
 20
11.7366542493
 30
0.0
  0
SPLINE
  5
2EC
100
AcDbEntity
  8
0
100
AcDbSpline
 62
7
  6
CONTINUOUS
 70
0
 71
3
 72
11
 73
7
 74
0
 42
0.0000001
 43
0.0000001
 44
0.0000000001
 40
0.0
 40
0.0
 40
0.0
 40
0.0
 40
0.2394479848
 40
0.494446617
 40
0.7523346083
 40
1.0
 40
1.0
 40
1.0
 40
1.0
 10
16.6690464559
 20
11.7391740321
 30
0.0
 10
16.6777367335
 20
11.7320806653
 30
0.0
 10
16.6972527178
 20
11.7193120187
 30
0.0
 10
16.7296813835
 20
11.7051532008
 30
0.0
 10
16.7642837627
 20
11.6960947043
 30
0.0
 10
16.7879997489
 20
11.6938243735
 30
0.0
 10
16.7996024186
 20
11.6938243735
 30
0.0
  0
SPLINE
  5
2ED
100
AcDbEntity
  8
0
100
AcDbSpline
 62
7
  6
CONTINUOUS
 70
0
 71
3
 72
9
 73
5
 74
0
 42
0.0000001
 43
0.0000001
 44
0.0000000001
 40
0.0
 40
0.0
 40
0.0
 40
0.0
 40
0.4816198055
 40
1.0
 40
1.0
 40
1.0
 40
1.0
 10
16.5922097115
 20
11.8185783572
 30
0.0
 10
16.6027257502
 20
11.8042492895
 30
0.0
 10
16.6268389474
 20
11.7761382025
 30
0.0
 10
16.6542262209
 20
11.7512709257
 30
0.0
 10
16.6690464559
 20
11.7391740321
 30
0.0
  0
SPLINE
  5
2EE
100
AcDbEntity
  8
0
100
AcDbSpline
 62
7
  6
CONTINUOUS
 70
0
 71
3
 72
13
 73
9
 74
0
 42
0.0000001
 43
0.0000001
 44
0.0000000001
 40
0.0
 40
0.0
 40
0.0
 40
0.0
 40
0.303136955
 40
0.5686488509
 40
0.6870596829
 40
0.7968782222
 40
0.9002274946
 40
1.0
 40
1.0
 40
1.0
 40
1.0
 10
16.2786751017
 20
11.6938243735
 30
0.0
 10
16.2889487691
 20
11.6938243735
 30
0.0
 10
16.3082791748
 20
11.6954472338
 30
0.0
 10
16.3307762153
 20
11.7025210305
 30
0.0
 10
16.3452129572
 20
11.711125356
 30
0.0
 10
16.3537428061
 20
11.7185496526
 30
0.0
 10
16.3601968629
 20
11.7270669372
 30
0.0
 10
16.3630269206
 20
11.7334238775
 30
0.0
 10
16.3640262274
 20
11.7366542493
 30
0.0
  0
SPLINE
  5
2EF
100
AcDbEntity
  8
0
100
AcDbSpline
 62
7
  6
CONTINUOUS
 70
0
 71
3
 72
11
 73
7
 74
0
 42
0.0000001
 43
0.0000001
 44
0.0000000001
 40
0.0
 40
0.0
 40
0.0
 40
0.0
 40
0.2394479848
 40
0.494446617
 40
0.7523346083
 40
1.0
 40
1.0
 40
1.0
 40
1.0
 10
16.0888505542
 20
11.7391740321
 30
0.0
 10
16.0975408317
 20
11.7320806653
 30
0.0
 10
16.1170568161
 20
11.7193120187
 30
0.0
 10
16.1494854818
 20
11.7051532008
 30
0.0
 10
16.1840878609
 20
11.6960947043
 30
0.0
 10
16.2078038472
 20
11.6938243735
 30
0.0
 10
16.2194065169
 20
11.6938243735
 30
0.0
  0
SPLINE
  5
2F0
100
AcDbEntity
  8
0
100
AcDbSpline
 62
7
  6
CONTINUOUS
 70
0
 71
3
 72
9
 73
5
 74
0
 42
0.0000001
 43
0.0000001
 44
0.0000000001
 40
0.0
 40
0.0
 40
0.0
 40
0.0
 40
0.4816202791
 40
1.0
 40
1.0
 40
1.0
 40
1.0
 10
16.0120138098
 20
11.8185783572
 30
0.0
 10
16.0225298579
 20
11.8042492767
 30
0.0
 10
16.0466431715
 20
11.7761382985
 30
0.0
 10
16.074030334
 20
11.7512709136
 30
0.0
 10
16.0888505542
 20
11.7391740321
 30
0.0
  0
SPLINE
  5
2F1
100
AcDbEntity
  8
0
100
AcDbSpline
 62
7
  6
CONTINUOUS
 70
0
 71
3
 72
13
 73
9
 74
0
 42
0.0000001
 43
0.0000001
 44
0.0000000001
 40
0.0
 40
0.0
 40
0.0
 40
0.0
 40
0.303136955
 40
0.5686488509
 40
0.6870596829
 40
0.7968782222
 40
0.9002274946
 40
1.0
 40
1.0
 40
1.0
 40
1.0
 10
15.6984792
 20
11.6938243735
 30
0.0
 10
15.7087528674
 20
11.6938243735
 30
0.0
 10
15.7280832731
 20
11.6954472338
 30
0.0
 10
15.7505803136
 20
11.7025210305
 30
0.0
 10
15.7650170554
 20
11.711125356
 30
0.0
 10
15.7735469044
 20
11.7185496526
 30
0.0
 10
15.7800009611
 20
11.7270669372
 30
0.0
 10
15.7828310189
 20
11.7334238775
 30
0.0
 10
15.7838303257
 20
11.7366542493
 30
0.0
  0
SPLINE
  5
2F2
100
AcDbEntity
  8
0
100
AcDbSpline
 62
7
  6
CONTINUOUS
 70
0
 71
3
 72
11
 73
7
 74
0
 42
0.0000001
 43
0.0000001
 44
0.0000000001
 40
0.0
 40
0.0
 40
0.0
 40
0.0
 40
0.2394479848
 40
0.494446617
 40
0.7523346083
 40
1.0
 40
1.0
 40
1.0
 40
1.0
 10
15.5086546524
 20
11.7391740321
 30
0.0
 10
15.51734493
 20
11.7320806653
 30
0.0
 10
15.5368609143
 20
11.7193120187
 30
0.0
 10
15.5692895801
 20
11.7051532008
 30
0.0
 10
15.6038919592
 20
11.6960947043
 30
0.0
 10
15.6276079455
 20
11.6938243735
 30
0.0
 10
15.6392106152
 20
11.6938243735
 30
0.0
  0
SPLINE
  5
2F3
100
AcDbEntity
  8
0
100
AcDbSpline
 62
7
  6
CONTINUOUS
 70
0
 71
3
 72
9
 73
5
 74
0
 42
0.0000001
 43
0.0000001
 44
0.0000000001
 40
0.0
 40
0.0
 40
0.0
 40
0.0
 40
0.4816202791
 40
1.0
 40
1.0
 40
1.0
 40
1.0
 10
15.431817908
 20
11.8185783572
 30
0.0
 10
15.4423339562
 20
11.8042492767
 30
0.0
 10
15.4664472698
 20
11.7761382985
 30
0.0
 10
15.4938344323
 20
11.7512709136
 30
0.0
 10
15.5086546524
 20
11.7391740321
 30
0.0
  0
SPLINE
  5
2F4
100
AcDbEntity
  8
0
100
AcDbSpline
 62
7
  6
CONTINUOUS
 70
0
 71
3
 72
13
 73
9
 74
0
 42
0.0000001
 43
0.0000001
 44
0.0000000001
 40
0.0
 40
0.0
 40
0.0
 40
0.0
 40
0.303136955
 40
0.5686488509
 40
0.6870596829
 40
0.7968782222
 40
0.9002274946
 40
1.0
 40
1.0
 40
1.0
 40
1.0
 10
15.1182832982
 20
11.6938243735
 30
0.0
 10
15.1285569656
 20
11.6938243735
 30
0.0
 10
15.1478873714
 20
11.6954472338
 30
0.0
 10
15.1703844119
 20
11.7025210305
 30
0.0
 10
15.1848211537
 20
11.711125356
 30
0.0
 10
15.1933510027
 20
11.7185496526
 30
0.0
 10
15.1998050594
 20
11.7270669372
 30
0.0
 10
15.2026351171
 20
11.7334238775
 30
0.0
 10
15.2036344239
 20
11.7366542493
 30
0.0
  0
SPLINE
  5
2F5
100
AcDbEntity
  8
0
100
AcDbSpline
 62
7
  6
CONTINUOUS
 70
0
 71
3
 72
11
 73
7
 74
0
 42
0.0000001
 43
0.0000001
 44
0.0000000001
 40
0.0
 40
0.0
 40
0.0
 40
0.0
 40
0.2394479848
 40
0.494446617
 40
0.7523346083
 40
1.0
 40
1.0
 40
1.0
 40
1.0
 10
14.9284587507
 20
11.7391740321
 30
0.0
 10
14.9371490283
 20
11.7320806653
 30
0.0
 10
14.9566650126
 20
11.7193120187
 30
0.0
 10
14.9890936783
 20
11.7051532008
 30
0.0
 10
15.0236960575
 20
11.6960947043
 30
0.0
 10
15.0474120437
 20
11.6938243735
 30
0.0
 10
15.0590147134
 20
11.6938243735
 30
0.0
  0
SPLINE
  5
2F6
100
AcDbEntity
  8
0
100
AcDbSpline
 62
7
  6
CONTINUOUS
 70
0
 71
3
 72
9
 73
5
 74
0
 42
0.0000001
 43
0.0000001
 44
0.0000000001
 40
0.0
 40
0.0
 40
0.0
 40
0.0
 40
0.4816202791
 40
1.0
 40
1.0
 40
1.0
 40
1.0
 10
14.8516220063
 20
11.8185783572
 30
0.0
 10
14.8621380544
 20
11.8042492767
 30
0.0
 10
14.886251368
 20
11.7761382985
 30
0.0
 10
14.9136385305
 20
11.7512709136
 30
0.0
 10
14.9284587507
 20
11.7391740321
 30
0.0
  0
SPLINE
  5
2F7
100
AcDbEntity
  8
0
100
AcDbSpline
 62
7
  6
CONTINUOUS
 70
0
 71
3
 72
13
 73
9
 74
0
 42
0.0000001
 43
0.0000001
 44
0.0000000001
 40
0.0
 40
0.0
 40
0.0
 40
0.0
 40
0.303136955
 40
0.5686488509
 40
0.6870596829
 40
0.7968782222
 40
0.9002274946
 40
1.0
 40
1.0
 40
1.0
 40
1.0
 10
14.5380873965
 20
11.6938243735
 30
0.0
 10
14.5483610639
 20
11.6938243735
 30
0.0
 10
14.5676914696
 20
11.6954472338
 30
0.0
 10
14.5901885101
 20
11.7025210305
 30
0.0
 10
14.604625252
 20
11.711125356
 30
0.0
 10
14.6131551009
 20
11.7185496526
 30
0.0
 10
14.6196091577
 20
11.7270669372
 30
0.0
 10
14.6224392154
 20
11.7334238775
 30
0.0
 10
14.6234385222
 20
11.7366542493
 30
0.0
  0
SPLINE
  5
2F8
100
AcDbEntity
  8
0
100
AcDbSpline
 62
7
  6
CONTINUOUS
 70
0
 71
3
 72
11
 73
7
 74
0
 42
0.0000001
 43
0.0000001
 44
0.0000000001
 40
0.0
 40
0.0
 40
0.0
 40
0.0
 40
0.2394479848
 40
0.494446617
 40
0.7523346083
 40
1.0
 40
1.0
 40
1.0
 40
1.0
 10
14.348262849
 20
11.7391740321
 30
0.0
 10
14.3569531265
 20
11.7320806653
 30
0.0
 10
14.3764691109
 20
11.7193120187
 30
0.0
 10
14.4088977766
 20
11.7051532008
 30
0.0
 10
14.4435001557
 20
11.6960947043
 30
0.0
 10
14.467216142
 20
11.6938243735
 30
0.0
 10
14.4788188117
 20
11.6938243735
 30
0.0
  0
SPLINE
  5
2F9
100
AcDbEntity
  8
0
100
AcDbSpline
 62
7
  6
CONTINUOUS
 70
0
 71
3
 72
9
 73
5
 74
0
 42
0.0000001
 43
0.0000001
 44
0.0000000001
 40
0.0
 40
0.0
 40
0.0
 40
0.0
 40
0.4816193489
 40
1.0
 40
1.0
 40
1.0
 40
1.0
 10
14.2714261045
 20
11.8185783572
 30
0.0
 10
14.2819421324
 20
11.8042493044
 30
0.0
 10
14.3060554417
 20
11.7761383232
 30
0.0
 10
14.3334426022
 20
11.7512709353
 30
0.0
 10
14.348262849
 20
11.7391740321
 30
0.0
  0
SPLINE
  5
2FA
100
AcDbEntity
  8
0
100
AcDbSpline
 62
7
  6
CONTINUOUS
 70
0
 71
3
 72
13
 73
9
 74
0
 42
0.0000001
 43
0.0000001
 44
0.0000000001
 40
0.0
 40
0.0
 40
0.0
 40
0.0
 40
0.303136955
 40
0.5686488509
 40
0.6870596829
 40
0.7968782222
 40
0.9002274946
 40
1.0
 40
1.0
 40
1.0
 40
1.0
 10
13.9578914948
 20
11.6938243735
 30
0.0
 10
13.9681651622
 20
11.6938243735
 30
0.0
 10
13.9874955679
 20
11.6954472338
 30
0.0
 10
14.0099926084
 20
11.7025210305
 30
0.0
 10
14.0244293502
 20
11.711125356
 30
0.0
 10
14.0329591992
 20
11.7185496526
 30
0.0
 10
14.0394132559
 20
11.7270669372
 30
0.0
 10
14.0422433137
 20
11.7334238775
 30
0.0
 10
14.0432426205
 20
11.7366542493
 30
0.0
  0
SPLINE
  5
2FB
100
AcDbEntity
  8
0
100
AcDbSpline
 62
7
  6
CONTINUOUS
 70
0
 71
3
 72
11
 73
7
 74
0
 42
0.0000001
 43
0.0000001
 44
0.0000000001
 40
0.0
 40
0.0
 40
0.0
 40
0.0
 40
0.2394479848
 40
0.494446617
 40
0.7523346083
 40
1.0
 40
1.0
 40
1.0
 40
1.0
 10
13.7680669472
 20
11.7391740321
 30
0.0
 10
13.7767572248
 20
11.7320806653
 30
0.0
 10
13.7962732091
 20
11.7193120187
 30
0.0
 10
13.8287018749
 20
11.7051532008
 30
0.0
 10
13.863304254
 20
11.6960947043
 30
0.0
 10
13.8870202403
 20
11.6938243735
 30
0.0
 10
13.89862291
 20
11.6938243735
 30
0.0
  0
SPLINE
  5
2FC
100
AcDbEntity
  8
0
100
AcDbSpline
 62
7
  6
CONTINUOUS
 70
0
 71
3
 72
9
 73
5
 74
0
 42
0.0000001
 43
0.0000001
 44
0.0000000001
 40
0.0
 40
0.0
 40
0.0
 40
0.0
 40
0.4816193489
 40
1.0
 40
1.0
 40
1.0
 40
1.0
 10
13.6912302028
 20
11.8185783572
 30
0.0
 10
13.7017462307
 20
11.8042493044
 30
0.0
 10
13.7258595399
 20
11.7761383232
 30
0.0
 10
13.7532467005
 20
11.7512709353
 30
0.0
 10
13.7680669472
 20
11.7391740321
 30
0.0
  0
SPLINE
  5
2FD
100
AcDbEntity
  8
0
100
AcDbSpline
 62
7
  6
CONTINUOUS
 70
0
 71
3
 72
9
 73
5
 74
0
 42
0.0000001
 43
0.0000001
 44
0.0000000001
 40
0.0
 40
0.0
 40
0.0
 40
0.0
 40
0.4873570824
 40
1.0
 40
1.0
 40
1.0
 40
1.0
 10
13.6160999225
 20
12.0488502692
 30
0.0
 10
13.613023193
 20
12.0362236395
 30
0.0
 10
13.6101476979
 20
12.0093776832
 30
0.0
 10
13.6139100533
 20
11.9827157199
 30
0.0
 10
13.6171951444
 20
11.9694459441
 30
0.0
  0
SPLINE
  5
2FE
100
AcDbEntity
  8
0
100
AcDbSpline
 62
7
  6
CONTINUOUS
 70
0
 71
3
 72
13
 73
9
 74
0
 42
0.0000001
 43
0.0000001
 44
0.0000000001
 40
0.0
 40
0.0
 40
0.0
 40
0.0
 40
0.0997725054
 40
0.2031217778
 40
0.3129403171
 40
0.4313511491
 40
0.696863045
 40
1.0
 40
1.0
 40
1.0
 40
1.0
 10
15.738590513
 20
13.2849557365
 30
0.0
 10
15.7395898198
 20
13.2881861083
 30
0.0
 10
15.7424198775
 20
13.2945430486
 30
0.0
 10
15.7488739343
 20
13.3030603332
 30
0.0
 10
15.7574037833
 20
13.3104846298
 30
0.0
 10
15.7718405251
 20
13.3190889553
 30
0.0
 10
15.7943375656
 20
13.3261627521
 30
0.0
 10
15.8136679713
 20
13.3277856123
 30
0.0
 10
15.8239416387
 20
13.3277856123
 30
0.0
  0
SPLINE
  5
2FF
100
AcDbEntity
  8
0
100
AcDbSpline
 62
7
  6
CONTINUOUS
 70
0
 71
3
 72
13
 73
9
 74
0
 42
0.0000001
 43
0.0000001
 44
0.0000000001
 40
0.0
 40
0.0
 40
0.0
 40
0.0
 40
0.0997725054
 40
0.2031217778
 40
0.3129403171
 40
0.4313511491
 40
0.696863045
 40
1.0
 40
1.0
 40
1.0
 40
1.0
 10
16.3187864147
 20
13.2849557365
 30
0.0
 10
16.3197857215
 20
13.2881861083
 30
0.0
 10
16.3226157793
 20
13.2945430486
 30
0.0
 10
16.329069836
 20
13.3030603332
 30
0.0
 10
16.337599685
 20
13.3104846298
 30
0.0
 10
16.3520364268
 20
13.3190889553
 30
0.0
 10
16.3745334673
 20
13.3261627521
 30
0.0
 10
16.3938638731
 20
13.3277856123
 30
0.0
 10
16.4041375405
 20
13.3277856123
 30
0.0
  0
SPLINE
  5
300
100
AcDbEntity
  8
0
100
AcDbSpline
 62
7
  6
CONTINUOUS
 70
0
 71
3
 72
13
 73
9
 74
0
 42
0.0000001
 43
0.0000001
 44
0.0000000001
 40
0.0
 40
0.0
 40
0.0
 40
0.0
 40
0.0997725054
 40
0.2031217778
 40
0.3129403171
 40
0.4313511491
 40
0.696863045
 40
1.0
 40
1.0
 40
1.0
 40
1.0
 10
16.8989823165
 20
13.2849557365
 30
0.0
 10
16.8999816233
 20
13.2881861083
 30
0.0
 10
16.902811681
 20
13.2945430486
 30
0.0
 10
16.9092657377
 20
13.3030603332
 30
0.0
 10
16.9177955867
 20
13.3104846298
 30
0.0
 10
16.9322323286
 20
13.3190889553
 30
0.0
 10
16.954729369
 20
13.3261627521
 30
0.0
 10
16.9740597748
 20
13.3277856123
 30
0.0
 10
16.9843334422
 20
13.3277856123
 30
0.0
  0
SPLINE
  5
301
100
AcDbEntity
  8
0
100
AcDbSpline
 62
7
  6
CONTINUOUS
 70
0
 71
3
 72
11
 73
7
 74
0
 42
0.0000001
 43
0.0000001
 44
0.0000000001
 40
0.0
 40
0.0
 40
0.0
 40
0.0
 40
0.257592686
 40
0.5240194332
 40
0.777584723
 40
1.0
 40
1.0
 40
1.0
 40
1.0
 10
13.5893452142
 20
11.8641552939
 30
0.0
 10
13.5992159229
 20
11.8641552939
 30
0.0
 10
13.6193317882
 20
11.8617168235
 30
0.0
 10
13.6478071249
 20
11.8523367648
 30
0.0
 10
13.6726898746
 20
11.8381705371
 30
0.0
 10
13.6861876504
 20
11.8254492976
 30
0.0
 10
13.6912302028
 20
11.8185783572
 30
0.0
  0
SPLINE
  5
302
100
AcDbEntity
  8
0
100
AcDbSpline
 62
7
  6
CONTINUOUS
 70
0
 71
3
 72
11
 73
7
 74
0
 42
0.0000001
 43
0.0000001
 44
0.0000000001
 40
0.0
 40
0.0
 40
0.0
 40
0.0
 40
0.222415277
 40
0.4759805668
 40
0.742407314
 40
1.0
 40
1.0
 40
1.0
 40
1.0
 10
14.3500152255
 20
13.2030316286
 30
0.0
 10
14.3550577779
 20
13.1961606882
 30
0.0
 10
14.3685555536
 20
13.1834394487
 30
0.0
 10
14.3934383034
 20
13.169273221
 30
0.0
 10
14.4219136401
 20
13.1598931623
 30
0.0
 10
14.4420295054
 20
13.1574546919
 30
0.0
 10
14.451900214
 20
13.1574546919
 30
0.0
  0
SPLINE
  5
303
100
AcDbEntity
  8
0
100
AcDbSpline
 62
7
  6
CONTINUOUS
 70
0
 71
3
 72
9
 73
5
 74
0
 42
0.0000001
 43
0.0000001
 44
0.0000000001
 40
0.0
 40
0.0
 40
0.0
 40
0.0
 40
0.5127288647
 40
1.0
 40
1.0
 40
1.0
 40
1.0
 10
13.6171951444
 20
11.9694459441
 30
0.0
 10
13.6179009918
 20
11.9665947487
 30
0.0
 10
13.6186434258
 20
11.960842821
 30
0.0
 10
13.6177672563
 20
11.9550891418
 30
0.0
 10
13.6169429099
 20
11.9524222112
 30
0.0
  0
SPLINE
  5
304
100
AcDbEntity
  8
0
100
AcDbSpline
 62
7
  6
CONTINUOUS
 70
0
 71
3
 72
9
 73
5
 74
0
 42
0.0000001
 43
0.0000001
 44
0.0000000001
 40
0.0
 40
0.0
 40
0.0
 40
0.0
 40
0.2583565967
 40
1.0
 40
1.0
 40
1.0
 40
1.0
 10
13.9412487883
 20
13.1574546919
 30
0.0
 10
13.9427883534
 20
13.1574546919
 30
0.0
 10
13.9487462287
 20
13.157571187
 30
0.0
 10
13.9546997489
 20
13.1581580044
 30
0.0
 10
13.9590547177
 20
13.1589105149
 30
0.0
  0
SPLINE
  5
305
100
AcDbEntity
  8
0
100
AcDbSpline
 62
7
  6
CONTINUOUS
 70
0
 71
3
 72
11
 73
7
 74
0
 42
0.0000001
 43
0.0000001
 44
0.0000000001
 40
0.0
 40
0.0
 40
0.0
 40
0.0
 40
0.257592686
 40
0.5240194332
 40
0.777584723
 40
1.0
 40
1.0
 40
1.0
 40
1.0
 10
14.169541116
 20
11.8641552939
 30
0.0
 10
14.1794118246
 20
11.8641552939
 30
0.0
 10
14.1995276899
 20
11.8617168235
 30
0.0
 10
14.2280030266
 20
11.8523367648
 30
0.0
 10
14.2528857764
 20
11.8381705371
 30
0.0
 10
14.2663835521
 20
11.8254492976
 30
0.0
 10
14.2714261045
 20
11.8185783572
 30
0.0
  0
SPLINE
  5
306
100
AcDbEntity
  8
0
100
AcDbSpline
 62
7
  6
CONTINUOUS
 70
0
 71
3
 72
11
 73
7
 74
0
 42
0.0000001
 43
0.0000001
 44
0.0000000001
 40
0.0
 40
0.0
 40
0.0
 40
0.0
 40
0.222415277
 40
0.4759805668
 40
0.742407314
 40
1.0
 40
1.0
 40
1.0
 40
1.0
 10
14.9302111272
 20
13.2030316286
 30
0.0
 10
14.9352536796
 20
13.1961606882
 30
0.0
 10
14.9487514554
 20
13.1834394487
 30
0.0
 10
14.9736342051
 20
13.169273221
 30
0.0
 10
15.0021095419
 20
13.1598931623
 30
0.0
 10
15.0222254072
 20
13.1574546919
 30
0.0
 10
15.0320961158
 20
13.1574546919
 30
0.0
  0
SPLINE
  5
307
100
AcDbEntity
  8
0
100
AcDbSpline
 62
7
  6
CONTINUOUS
 70
0
 71
3
 72
9
 73
5
 74
0
 42
0.0000001
 43
0.0000001
 44
0.0000000001
 40
0.0
 40
0.0
 40
0.0
 40
0.0
 40
0.5127288647
 40
1.0
 40
1.0
 40
1.0
 40
1.0
 10
14.1973910461
 20
11.9694459441
 30
0.0
 10
14.1980968935
 20
11.9665947487
 30
0.0
 10
14.1988393275
 20
11.960842821
 30
0.0
 10
14.197963158
 20
11.9550891418
 30
0.0
 10
14.1971388116
 20
11.9524222112
 30
0.0
  0
SPLINE
  5
308
100
AcDbEntity
  8
0
100
AcDbSpline
 62
7
  6
CONTINUOUS
 70
0
 71
3
 72
9
 73
5
 74
0
 42
0.0000001
 43
0.0000001
 44
0.0000000001
 40
0.0
 40
0.0
 40
0.0
 40
0.0
 40
0.2583565967
 40
1.0
 40
1.0
 40
1.0
 40
1.0
 10
14.52144469
 20
13.1574546919
 30
0.0
 10
14.5229842552
 20
13.1574546919
 30
0.0
 10
14.5289421305
 20
13.157571187
 30
0.0
 10
14.5348956506
 20
13.1581580044
 30
0.0
 10
14.5392506195
 20
13.1589105149
 30
0.0
  0
SPLINE
  5
309
100
AcDbEntity
  8
0
100
AcDbSpline
 62
7
  6
CONTINUOUS
 70
0
 71
3
 72
11
 73
7
 74
0
 42
0.0000001
 43
0.0000001
 44
0.0000000001
 40
0.0
 40
0.0
 40
0.0
 40
0.0
 40
0.257592686
 40
0.5240194332
 40
0.777584723
 40
1.0
 40
1.0
 40
1.0
 40
1.0
 10
14.7497370177
 20
11.8641552939
 30
0.0
 10
14.7596077263
 20
11.8641552939
 30
0.0
 10
14.7797235916
 20
11.8617168235
 30
0.0
 10
14.8081989284
 20
11.8523367648
 30
0.0
 10
14.8330816781
 20
11.8381705371
 30
0.0
 10
14.8465794538
 20
11.8254492976
 30
0.0
 10
14.8516220063
 20
11.8185783572
 30
0.0
  0
SPLINE
  5
30A
100
AcDbEntity
  8
0
100
AcDbSpline
 62
7
  6
CONTINUOUS
 70
0
 71
3
 72
11
 73
7
 74
0
 42
0.0000001
 43
0.0000001
 44
0.0000000001
 40
0.0
 40
0.0
 40
0.0
 40
0.0
 40
0.222415277
 40
0.4759805668
 40
0.742407314
 40
1.0
 40
1.0
 40
1.0
 40
1.0
 10
15.5104070289
 20
13.2030316286
 30
0.0
 10
15.5154495814
 20
13.1961606882
 30
0.0
 10
15.5289473571
 20
13.1834394487
 30
0.0
 10
15.5538301069
 20
13.169273221
 30
0.0
 10
15.5823054436
 20
13.1598931623
 30
0.0
 10
15.6024213089
 20
13.1574546919
 30
0.0
 10
15.6122920175
 20
13.1574546919
 30
0.0
  0
SPLINE
  5
30B
100
AcDbEntity
  8
0
100
AcDbSpline
 62
7
  6
CONTINUOUS
 70
0
 71
3
 72
9
 73
5
 74
0
 42
0.0000001
 43
0.0000001
 44
0.0000000001
 40
0.0
 40
0.0
 40
0.0
 40
0.0
 40
0.5127288647
 40
1.0
 40
1.0
 40
1.0
 40
1.0
 10
14.7775869479
 20
11.9694459441
 30
0.0
 10
14.7782927953
 20
11.9665947487
 30
0.0
 10
14.7790352293
 20
11.960842821
 30
0.0
 10
14.7781590597
 20
11.9550891418
 30
0.0
 10
14.7773347133
 20
11.9524222112
 30
0.0
  0
SPLINE
  5
30C
100
AcDbEntity
  8
0
100
AcDbSpline
 62
7
  6
CONTINUOUS
 70
0
 71
3
 72
9
 73
5
 74
0
 42
0.0000001
 43
0.0000001
 44
0.0000000001
 40
0.0
 40
0.0
 40
0.0
 40
0.0
 40
0.2583565967
 40
1.0
 40
1.0
 40
1.0
 40
1.0
 10
15.1016405918
 20
13.1574546919
 30
0.0
 10
15.1031801569
 20
13.1574546919
 30
0.0
 10
15.1091380322
 20
13.157571187
 30
0.0
 10
15.1150915523
 20
13.1581580044
 30
0.0
 10
15.1194465212
 20
13.1589105149
 30
0.0
  0
SPLINE
  5
30D
100
AcDbEntity
  8
0
100
AcDbSpline
 62
7
  6
CONTINUOUS
 70
0
 71
3
 72
11
 73
7
 74
0
 42
0.0000001
 43
0.0000001
 44
0.0000000001
 40
0.0
 40
0.0
 40
0.0
 40
0.0
 40
0.257592686
 40
0.5240194332
 40
0.777584723
 40
1.0
 40
1.0
 40
1.0
 40
1.0
 10
15.3299329194
 20
11.8641552939
 30
0.0
 10
15.3398036281
 20
11.8641552939
 30
0.0
 10
15.3599194934
 20
11.8617168235
 30
0.0
 10
15.3883948301
 20
11.8523367648
 30
0.0
 10
15.4132775799
 20
11.8381705371
 30
0.0
 10
15.4267753556
 20
11.8254492976
 30
0.0
 10
15.431817908
 20
11.8185783572
 30
0.0
  0
SPLINE
  5
30E
100
AcDbEntity
  8
0
100
AcDbSpline
 62
7
  6
CONTINUOUS
 70
0
 71
3
 72
11
 73
7
 74
0
 42
0.0000001
 43
0.0000001
 44
0.0000000001
 40
0.0
 40
0.0
 40
0.0
 40
0.0
 40
0.222415277
 40
0.4759805668
 40
0.742407314
 40
1.0
 40
1.0
 40
1.0
 40
1.0
 10
16.0906029307
 20
13.2030316286
 30
0.0
 10
16.0956454831
 20
13.1961606882
 30
0.0
 10
16.1091432588
 20
13.1834394487
 30
0.0
 10
16.1340260086
 20
13.169273221
 30
0.0
 10
16.1625013453
 20
13.1598931623
 30
0.0
 10
16.1826172106
 20
13.1574546919
 30
0.0
 10
16.1924879192
 20
13.1574546919
 30
0.0
  0
SPLINE
  5
30F
100
AcDbEntity
  8
0
100
AcDbSpline
 62
7
  6
CONTINUOUS
 70
0
 71
3
 72
9
 73
5
 74
0
 42
0.0000001
 43
0.0000001
 44
0.0000000001
 40
0.0
 40
0.0
 40
0.0
 40
0.0
 40
0.5127288647
 40
1.0
 40
1.0
 40
1.0
 40
1.0
 10
15.3577828496
 20
11.9694459441
 30
0.0
 10
15.358488697
 20
11.9665947487
 30
0.0
 10
15.359231131
 20
11.960842821
 30
0.0
 10
15.3583549615
 20
11.9550891418
 30
0.0
 10
15.3575306151
 20
11.9524222112
 30
0.0
  0
SPLINE
  5
310
100
AcDbEntity
  8
0
100
AcDbSpline
 62
7
  6
CONTINUOUS
 70
0
 71
3
 72
9
 73
5
 74
0
 42
0.0000001
 43
0.0000001
 44
0.0000000001
 40
0.0
 40
0.0
 40
0.0
 40
0.0
 40
0.2583565967
 40
1.0
 40
1.0
 40
1.0
 40
1.0
 10
15.6818364935
 20
13.1574546919
 30
0.0
 10
15.6833760586
 20
13.1574546919
 30
0.0
 10
15.6893339339
 20
13.157571187
 30
0.0
 10
15.6952874541
 20
13.1581580044
 30
0.0
 10
15.6996424229
 20
13.1589105149
 30
0.0
  0
SPLINE
  5
311
100
AcDbEntity
  8
0
100
AcDbSpline
 62
7
  6
CONTINUOUS
 70
0
 71
3
 72
11
 73
7
 74
0
 42
0.0000001
 43
0.0000001
 44
0.0000000001
 40
0.0
 40
0.0
 40
0.0
 40
0.0
 40
0.257592686
 40
0.5240194332
 40
0.777584723
 40
1.0
 40
1.0
 40
1.0
 40
1.0
 10
15.9101288212
 20
11.8641552939
 30
0.0
 10
15.9199995298
 20
11.8641552939
 30
0.0
 10
15.9401153951
 20
11.8617168235
 30
0.0
 10
15.9685907318
 20
11.8523367648
 30
0.0
 10
15.9934734816
 20
11.8381705371
 30
0.0
 10
16.0069712573
 20
11.8254492976
 30
0.0
 10
16.0120138098
 20
11.8185783572
 30
0.0
  0
SPLINE
  5
312
100
AcDbEntity
  8
0
100
AcDbSpline
 62
7
  6
CONTINUOUS
 70
0
 71
3
 72
11
 73
7
 74
0
 42
0.0000001
 43
0.0000001
 44
0.0000000001
 40
0.0
 40
0.0
 40
0.0
 40
0.0
 40
0.222415277
 40
0.4759805668
 40
0.742407314
 40
1.0
 40
1.0
 40
1.0
 40
1.0
 10
16.6707988324
 20
13.2030316286
 30
0.0
 10
16.6758413848
 20
13.1961606882
 30
0.0
 10
16.6893391606
 20
13.1834394487
 30
0.0
 10
16.7142219103
 20
13.169273221
 30
0.0
 10
16.7426972471
 20
13.1598931623
 30
0.0
 10
16.7628131124
 20
13.1574546919
 30
0.0
 10
16.772683821
 20
13.1574546919
 30
0.0
  0
SPLINE
  5
313
100
AcDbEntity
  8
0
100
AcDbSpline
 62
7
  6
CONTINUOUS
 70
0
 71
3
 72
9
 73
5
 74
0
 42
0.0000001
 43
0.0000001
 44
0.0000000001
 40
0.0
 40
0.0
 40
0.0
 40
0.0
 40
0.5127288647
 40
1.0
 40
1.0
 40
1.0
 40
1.0
 10
15.9379787513
 20
11.9694459441
 30
0.0
 10
15.9386845987
 20
11.9665947487
 30
0.0
 10
15.9394270327
 20
11.960842821
 30
0.0
 10
15.9385508632
 20
11.9550891418
 30
0.0
 10
15.9377265168
 20
11.9524222112
 30
0.0
  0
SPLINE
  5
314
100
AcDbEntity
  8
0
100
AcDbSpline
 62
7
  6
CONTINUOUS
 70
0
 71
3
 72
9
 73
5
 74
0
 42
0.0000001
 43
0.0000001
 44
0.0000000001
 40
0.0
 40
0.0
 40
0.0
 40
0.0
 40
0.2583565967
 40
1.0
 40
1.0
 40
1.0
 40
1.0
 10
16.2620323953
 20
13.1574546919
 30
0.0
 10
16.2635719604
 20
13.1574546919
 30
0.0
 10
16.2695298357
 20
13.157571187
 30
0.0
 10
16.2754833558
 20
13.1581580044
 30
0.0
 10
16.2798383247
 20
13.1589105149
 30
0.0
  0
SPLINE
  5
315
100
AcDbEntity
  8
0
100
AcDbSpline
 62
7
  6
CONTINUOUS
 70
0
 71
3
 72
11
 73
7
 74
0
 42
0.0000001
 43
0.0000001
 44
0.0000000001
 40
0.0
 40
0.0
 40
0.0
 40
0.0
 40
0.257592686
 40
0.5240194332
 40
0.777584723
 40
1.0
 40
1.0
 40
1.0
 40
1.0
 10
16.4903247229
 20
11.8641552939
 30
0.0
 10
16.5001954315
 20
11.8641552939
 30
0.0
 10
16.5203112968
 20
11.8617168235
 30
0.0
 10
16.5487866336
 20
11.8523367648
 30
0.0
 10
16.5736693833
 20
11.8381705371
 30
0.0
 10
16.587167159
 20
11.8254492976
 30
0.0
 10
16.5922097115
 20
11.8185783572
 30
0.0
  0
SPLINE
  5
316
100
AcDbEntity
  8
0
100
AcDbSpline
 62
7
  6
CONTINUOUS
 70
0
 71
3
 72
11
 73
7
 74
0
 42
0.0000001
 43
0.0000001
 44
0.0000000001
 40
0.0
 40
0.0
 40
0.0
 40
0.0
 40
0.222415277
 40
0.4759805668
 40
0.742407314
 40
1.0
 40
1.0
 40
1.0
 40
1.0
 10
17.2509947341
 20
13.2030316286
 30
0.0
 10
17.2560372866
 20
13.1961606882
 30
0.0
 10
17.2695350623
 20
13.1834394487
 30
0.0
 10
17.2944178121
 20
13.169273221
 30
0.0
 10
17.3228931488
 20
13.1598931623
 30
0.0
 10
17.3430090141
 20
13.1574546919
 30
0.0
 10
17.3528797227
 20
13.1574546919
 30
0.0
  0
SPLINE
  5
317
100
AcDbEntity
  8
0
100
AcDbSpline
 62
7
  6
CONTINUOUS
 70
0
 71
3
 72
9
 73
5
 74
0
 42
0.0000001
 43
0.0000001
 44
0.0000000001
 40
0.0
 40
0.0
 40
0.0
 40
0.0
 40
0.5127288647
 40
1.0
 40
1.0
 40
1.0
 40
1.0
 10
16.5181746531
 20
11.9694459441
 30
0.0
 10
16.5188805005
 20
11.9665947487
 30
0.0
 10
16.5196229345
 20
11.960842821
 30
0.0
 10
16.5187467649
 20
11.9550891418
 30
0.0
 10
16.5179224185
 20
11.9524222112
 30
0.0
  0
SPLINE
  5
318
100
AcDbEntity
  8
0
100
AcDbSpline
 62
7
  6
CONTINUOUS
 70
0
 71
3
 72
9
 73
5
 74
0
 42
0.0000001
 43
0.0000001
 44
0.0000000001
 40
0.0
 40
0.0
 40
0.0
 40
0.0
 40
0.2583565967
 40
1.0
 40
1.0
 40
1.0
 40
1.0
 10
16.842228297
 20
13.1574546919
 30
0.0
 10
16.8437678621
 20
13.1574546919
 30
0.0
 10
16.8497257374
 20
13.157571187
 30
0.0
 10
16.8556792575
 20
13.1581580044
 30
0.0
 10
16.8600342264
 20
13.1589105149
 30
0.0
  0
SPLINE
  5
319
100
AcDbEntity
  8
0
100
AcDbSpline
 62
7
  6
CONTINUOUS
 70
0
 71
3
 72
9
 73
5
 74
0
 42
0.0000001
 43
0.0000001
 44
0.0000000001
 40
0.0
 40
0.0
 40
0.0
 40
0.0
 40
0.4873559464
 40
1.0
 40
1.0
 40
1.0
 40
1.0
 10
16.944918206
 20
11.7391740321
 30
0.0
 10
16.9479949293
 20
11.7518006366
 30
0.0
 10
16.9508706492
 20
11.7786465876
 30
0.0
 10
16.9471080836
 20
11.8053085476
 30
0.0
 10
16.943822984
 20
11.8185783572
 30
0.0
  0
SPLINE
  5
31A
100
AcDbEntity
  8
0
100
AcDbSpline
 62
7
  6
CONTINUOUS
 70
0
 71
3
 72
12
 73
8
 74
0
 42
0.0000001
 43
0.0000001
 44
0.0000000001
 40
0.0
 40
0.0
 40
0.0
 40
0.0
 40
0.0998482179
 40
0.2032560843
 40
0.4308038635
 40
0.696575874
 40
1.0
 40
1.0
 40
1.0
 40
1.0
 10
15.9377265168
 20
11.9524222112
 30
0.0
 10
15.9370608996
 20
11.9502688022
 30
0.0
 10
15.935175012
 20
11.9460314792
 30
0.0
 10
15.9292566277
 20
11.9382230909
 30
0.0
 10
15.9179014614
 20
11.930383036
 30
0.0
 10
15.9005757851
 20
11.9249622566
 30
0.0
 10
15.8876749613
 20
11.9238690074
 30
0.0
 10
15.8808255867
 20
11.9238690074
 30
0.0
  0
SPLINE
  5
31B
100
AcDbEntity
  8
0
100
AcDbSpline
 62
7
  6
CONTINUOUS
 70
0
 71
3
 72
12
 73
8
 74
0
 42
0.0000001
 43
0.0000001
 44
0.0000000001
 40
0.0
 40
0.0
 40
0.0
 40
0.0
 40
0.0998482179
 40
0.2032560843
 40
0.4308038635
 40
0.696575874
 40
1.0
 40
1.0
 40
1.0
 40
1.0
 10
14.1971388116
 20
11.9524222112
 30
0.0
 10
14.1964731944
 20
11.9502688022
 30
0.0
 10
14.1945873068
 20
11.9460314792
 30
0.0
 10
14.1886689225
 20
11.9382230909
 30
0.0
 10
14.1773137562
 20
11.930383036
 30
0.0
 10
14.1599880799
 20
11.9249622566
 30
0.0
 10
14.1470872561
 20
11.9238690074
 30
0.0
 10
14.1402378815
 20
11.9238690074
 30
0.0
  0
SPLINE
  5
31C
100
AcDbEntity
  8
0
100
AcDbSpline
 62
7
  6
CONTINUOUS
 70
0
 71
3
 72
9
 73
5
 74
0
 42
0.0000001
 43
0.0000001
 44
0.0000000001
 40
0.0
 40
0.0
 40
0.0
 40
0.0
 40
0.4816193489
 40
1.0
 40
1.0
 40
1.0
 40
1.0
 10
13.9688084169
 20
11.9694459441
 30
0.0
 10
13.9582923891
 20
11.983774997
 30
0.0
 10
13.9341790798
 20
12.0118859782
 30
0.0
 10
13.9067919193
 20
12.0367533661
 30
0.0
 10
13.8919716725
 20
12.0488502692
 30
0.0
  0
SPLINE
  5
31D
100
AcDbEntity
  8
0
100
AcDbSpline
 62
7
  6
CONTINUOUS
 70
0
 71
3
 72
9
 73
5
 74
0
 42
0.0000001
 43
0.0000001
 44
0.0000000001
 40
0.0
 40
0.0
 40
0.0
 40
0.0
 40
0.4873561617
 40
1.0
 40
1.0
 40
1.0
 40
1.0
 10
16.3647223042
 20
11.7391740321
 30
0.0
 10
16.3677990279
 20
11.751800638
 30
0.0
 10
16.3706745299
 20
11.7786465921
 30
0.0
 10
16.3669121794
 20
11.8053085576
 30
0.0
 10
16.3636270823
 20
11.8185783572
 30
0.0
  0
SPLINE
  5
31E
100
AcDbEntity
  8
0
100
AcDbSpline
 62
7
  6
CONTINUOUS
 70
0
 71
3
 72
12
 73
8
 74
0
 42
0.0000001
 43
0.0000001
 44
0.0000000001
 40
0.0
 40
0.0
 40
0.0
 40
0.0
 40
0.0998482179
 40
0.2032560843
 40
0.4308038635
 40
0.696575874
 40
1.0
 40
1.0
 40
1.0
 40
1.0
 10
14.7773347133
 20
11.9524222112
 30
0.0
 10
14.7766690961
 20
11.9502688022
 30
0.0
 10
14.7747832085
 20
11.9460314792
 30
0.0
 10
14.7688648242
 20
11.9382230909
 30
0.0
 10
14.7575096579
 20
11.930383036
 30
0.0
 10
14.7401839816
 20
11.9249622566
 30
0.0
 10
14.7272831579
 20
11.9238690074
 30
0.0
 10
14.7204337833
 20
11.9238690074
 30
0.0
  0
SPLINE
  5
31F
100
AcDbEntity
  8
0
100
AcDbSpline
 62
7
  6
CONTINUOUS
 70
0
 71
3
 72
13
 73
9
 74
0
 42
0.0000001
 43
0.0000001
 44
0.0000000001
 40
0.0
 40
0.0
 40
0.0
 40
0.0
 40
0.303136955
 40
0.5686488509
 40
0.6870596829
 40
0.7968782222
 40
0.9002274946
 40
1.0
 40
1.0
 40
1.0
 40
1.0
 10
14.2823430267
 20
12.0941999279
 30
0.0
 10
14.2720693593
 20
12.0941999279
 30
0.0
 10
14.2527389536
 20
12.0925770676
 30
0.0
 10
14.2302419131
 20
12.0855032708
 30
0.0
 10
14.2158051713
 20
12.0768989454
 30
0.0
 10
14.2072753223
 20
12.0694746488
 30
0.0
 10
14.2008212656
 20
12.0609573641
 30
0.0
 10
14.1979912078
 20
12.0546004239
 30
0.0
 10
14.196991901
 20
12.0513700521
 30
0.0
  0
SPLINE
  5
320
100
AcDbEntity
  8
0
100
AcDbSpline
 62
7
  6
CONTINUOUS
 70
0
 71
3
 72
11
 73
7
 74
0
 42
0.0000001
 43
0.0000001
 44
0.0000000001
 40
0.0
 40
0.0
 40
0.0
 40
0.0
 40
0.2394479848
 40
0.494446617
 40
0.7523346083
 40
1.0
 40
1.0
 40
1.0
 40
1.0
 10
14.4721675743
 20
12.0488502692
 30
0.0
 10
14.4634772967
 20
12.055943636
 30
0.0
 10
14.4439613124
 20
12.0687122827
 30
0.0
 10
14.4115326466
 20
12.0828711005
 30
0.0
 10
14.3769302675
 20
12.0919295971
 30
0.0
 10
14.3532142812
 20
12.0941999279
 30
0.0
 10
14.3416116115
 20
12.0941999279
 30
0.0
  0
SPLINE
  5
321
100
AcDbEntity
  8
0
100
AcDbSpline
 62
7
  6
CONTINUOUS
 70
0
 71
3
 72
9
 73
5
 74
0
 42
0.0000001
 43
0.0000001
 44
0.0000000001
 40
0.0
 40
0.0
 40
0.0
 40
0.0
 40
0.4873561617
 40
1.0
 40
1.0
 40
1.0
 40
1.0
 10
15.7845264025
 20
11.7391740321
 30
0.0
 10
15.7876031261
 20
11.751800638
 30
0.0
 10
15.7904786282
 20
11.7786465921
 30
0.0
 10
15.7867162776
 20
11.8053085576
 30
0.0
 10
15.7834311806
 20
11.8185783572
 30
0.0
  0
SPLINE
  5
322
100
AcDbEntity
  8
0
100
AcDbSpline
 62
7
  6
CONTINUOUS
 70
0
 71
3
 72
9
 73
5
 74
0
 42
0.0000001
 43
0.0000001
 44
0.0000000001
 40
0.0
 40
0.0
 40
0.0
 40
0.0
 40
0.5127288647
 40
1.0
 40
1.0
 40
1.0
 40
1.0
 10
14.0428434754
 20
11.8185783572
 30
0.0
 10
14.042137628
 20
11.8214295527
 30
0.0
 10
14.041395194
 20
11.8271814804
 30
0.0
 10
14.0422713635
 20
11.8329351595
 30
0.0
 10
14.0430957099
 20
11.8356020901
 30
0.0
  0
SPLINE
  5
323
100
AcDbEntity
  8
0
100
AcDbSpline
 62
7
  6
CONTINUOUS
 70
0
 71
3
 72
9
 73
5
 74
0
 42
0.0000001
 43
0.0000001
 44
0.0000000001
 40
0.0
 40
0.0
 40
0.0
 40
0.0
 40
0.4816193489
 40
1.0
 40
1.0
 40
1.0
 40
1.0
 10
14.5490043187
 20
11.9694459441
 30
0.0
 10
14.5384882908
 20
11.983774997
 30
0.0
 10
14.5143749816
 20
12.0118859782
 30
0.0
 10
14.486987821
 20
12.0367533661
 30
0.0
 10
14.4721675743
 20
12.0488502692
 30
0.0
  0
SPLINE
  5
324
100
AcDbEntity
  8
0
100
AcDbSpline
 62
7
  6
CONTINUOUS
 70
0
 71
3
 72
11
 73
7
 74
0
 42
0.0000001
 43
0.0000001
 44
0.0000000001
 40
0.0
 40
0.0
 40
0.0
 40
0.0
 40
0.257592686
 40
0.5240194332
 40
0.777584723
 40
1.0
 40
1.0
 40
1.0
 40
1.0
 10
14.0706934055
 20
11.9238690074
 30
0.0
 10
14.0608226969
 20
11.9238690074
 30
0.0
 10
14.0407068316
 20
11.9263074778
 30
0.0
 10
14.0122314949
 20
11.9356875365
 30
0.0
 10
13.9873487451
 20
11.9498537643
 30
0.0
 10
13.9738509694
 20
11.9625750037
 30
0.0
 10
13.9688084169
 20
11.9694459441
 30
0.0
  0
SPLINE
  5
325
100
AcDbEntity
  8
0
100
AcDbSpline
 62
7
  6
CONTINUOUS
 70
0
 71
3
 72
12
 73
8
 74
0
 42
0.0000001
 43
0.0000001
 44
0.0000000001
 40
0.0
 40
0.0
 40
0.0
 40
0.0
 40
0.0998482179
 40
0.2032560843
 40
0.4308038635
 40
0.696575874
 40
1.0
 40
1.0
 40
1.0
 40
1.0
 10
13.6169429099
 20
11.9524222112
 30
0.0
 10
13.6162772926
 20
11.9502688022
 30
0.0
 10
13.6143914051
 20
11.9460314792
 30
0.0
 10
13.6084730207
 20
11.9382230909
 30
0.0
 10
13.5971178544
 20
11.930383036
 30
0.0
 10
13.5797921781
 20
11.9249622566
 30
0.0
 10
13.5668913544
 20
11.9238690074
 30
0.0
 10
13.5600419798
 20
11.9238690074
 30
0.0
  0
SPLINE
  5
326
100
AcDbEntity
  8
0
100
AcDbSpline
 62
7
  6
CONTINUOUS
 70
0
 71
3
 72
13
 73
9
 74
0
 42
0.0000001
 43
0.0000001
 44
0.0000000001
 40
0.0
 40
0.0
 40
0.0
 40
0.0
 40
0.303136955
 40
0.5686488509
 40
0.6870596829
 40
0.7968782222
 40
0.9002274946
 40
1.0
 40
1.0
 40
1.0
 40
1.0
 10
14.8625389285
 20
12.0941999279
 30
0.0
 10
14.8522652611
 20
12.0941999279
 30
0.0
 10
14.8329348553
 20
12.0925770676
 30
0.0
 10
14.8104378148
 20
12.0855032708
 30
0.0
 10
14.796001073
 20
12.0768989454
 30
0.0
 10
14.787471224
 20
12.0694746488
 30
0.0
 10
14.7810171673
 20
12.0609573641
 30
0.0
 10
14.7781871096
 20
12.0546004239
 30
0.0
 10
14.7771878028
 20
12.0513700521
 30
0.0
  0
SPLINE
  5
327
100
AcDbEntity
  8
0
100
AcDbSpline
 62
7
  6
CONTINUOUS
 70
0
 71
3
 72
9
 73
5
 74
0
 42
0.0000001
 43
0.0000001
 44
0.0000000001
 40
0.0
 40
0.0
 40
0.0
 40
0.0
 40
0.4873561617
 40
1.0
 40
1.0
 40
1.0
 40
1.0
 10
15.2043305007
 20
11.7391740321
 30
0.0
 10
15.2074072244
 20
11.751800638
 30
0.0
 10
15.2102827265
 20
11.7786465921
 30
0.0
 10
15.2065203759
 20
11.8053085576
 30
0.0
 10
15.2032352788
 20
11.8185783572
 30
0.0
  0
SPLINE
  5
328
100
AcDbEntity
  8
0
100
AcDbSpline
 62
7
  6
CONTINUOUS
 70
0
 71
3
 72
11
 73
7
 74
0
 42
0.0000001
 43
0.0000001
 44
0.0000000001
 40
0.0
 40
0.0
 40
0.0
 40
0.0
 40
0.2394479848
 40
0.494446617
 40
0.7523346083
 40
1.0
 40
1.0
 40
1.0
 40
1.0
 10
15.052363476
 20
12.0488502692
 30
0.0
 10
15.0436731984
 20
12.055943636
 30
0.0
 10
15.0241572141
 20
12.0687122827
 30
0.0
 10
14.9917285484
 20
12.0828711005
 30
0.0
 10
14.9571261692
 20
12.0919295971
 30
0.0
 10
14.933410183
 20
12.0941999279
 30
0.0
 10
14.9218075133
 20
12.0941999279
 30
0.0
  0
SPLINE
  5
329
100
AcDbEntity
  8
0
100
AcDbSpline
 62
7
  6
CONTINUOUS
 70
0
 71
3
 72
9
 73
5
 74
0
 42
0.0000001
 43
0.0000001
 44
0.0000000001
 40
0.0
 40
0.0
 40
0.0
 40
0.0
 40
0.5127288647
 40
1.0
 40
1.0
 40
1.0
 40
1.0
 10
14.6230393771
 20
11.8185783572
 30
0.0
 10
14.6223335297
 20
11.8214295527
 30
0.0
 10
14.6215910957
 20
11.8271814804
 30
0.0
 10
14.6224672652
 20
11.8329351595
 30
0.0
 10
14.6232916116
 20
11.8356020901
 30
0.0
  0
SPLINE
  5
32A
100
AcDbEntity
  8
0
100
AcDbSpline
 62
7
  6
CONTINUOUS
 70
0
 71
3
 72
9
 73
5
 74
0
 42
0.0000001
 43
0.0000001
 44
0.0000000001
 40
0.0
 40
0.0
 40
0.0
 40
0.0
 40
0.4816202791
 40
1.0
 40
1.0
 40
1.0
 40
1.0
 10
15.1292002204
 20
11.9694459441
 30
0.0
 10
15.1186841723
 20
11.9837750246
 30
0.0
 10
15.0945708587
 20
12.0118860029
 30
0.0
 10
15.0671836962
 20
12.0367533878
 30
0.0
 10
15.052363476
 20
12.0488502692
 30
0.0
  0
SPLINE
  5
32B
100
AcDbEntity
  8
0
100
AcDbSpline
 62
7
  6
CONTINUOUS
 70
0
 71
3
 72
11
 73
7
 74
0
 42
0.0000001
 43
0.0000001
 44
0.0000000001
 40
0.0
 40
0.0
 40
0.0
 40
0.0
 40
0.257592686
 40
0.5240194332
 40
0.777584723
 40
1.0
 40
1.0
 40
1.0
 40
1.0
 10
14.6508893073
 20
11.9238690074
 30
0.0
 10
14.6410185986
 20
11.9238690074
 30
0.0
 10
14.6209027333
 20
11.9263074778
 30
0.0
 10
14.5924273966
 20
11.9356875365
 30
0.0
 10
14.5675446468
 20
11.9498537643
 30
0.0
 10
14.5540468711
 20
11.9625750037
 30
0.0
 10
14.5490043187
 20
11.9694459441
 30
0.0
  0
SPLINE
  5
32C
100
AcDbEntity
  8
0
100
AcDbSpline
 62
7
  6
CONTINUOUS
 70
0
 71
3
 72
12
 73
8
 74
0
 42
0.0000001
 43
0.0000001
 44
0.0000000001
 40
0.0
 40
0.0
 40
0.0
 40
0.0
 40
0.0998482179
 40
0.2032560843
 40
0.4308038635
 40
0.696575874
 40
1.0
 40
1.0
 40
1.0
 40
1.0
 10
15.3575306151
 20
11.9524222112
 30
0.0
 10
15.3568649978
 20
11.9502688022
 30
0.0
 10
15.3549791103
 20
11.9460314792
 30
0.0
 10
15.3490607259
 20
11.9382230909
 30
0.0
 10
15.3377055596
 20
11.930383036
 30
0.0
 10
15.3203798833
 20
11.9249622566
 30
0.0
 10
15.3074790596
 20
11.9238690074
 30
0.0
 10
15.300629685
 20
11.9238690074
 30
0.0
  0
SPLINE
  5
32D
100
AcDbEntity
  8
0
100
AcDbSpline
 62
7
  6
CONTINUOUS
 70
0
 71
3
 72
13
 73
9
 74
0
 42
0.0000001
 43
0.0000001
 44
0.0000000001
 40
0.0
 40
0.0
 40
0.0
 40
0.0
 40
0.303136955
 40
0.5686488509
 40
0.6870596829
 40
0.7968782222
 40
0.9002274946
 40
1.0
 40
1.0
 40
1.0
 40
1.0
 10
15.4427348302
 20
12.0941999279
 30
0.0
 10
15.4324611628
 20
12.0941999279
 30
0.0
 10
15.4131307571
 20
12.0925770676
 30
0.0
 10
15.3906337166
 20
12.0855032708
 30
0.0
 10
15.3761969747
 20
12.0768989454
 30
0.0
 10
15.3676671258
 20
12.0694746488
 30
0.0
 10
15.361213069
 20
12.0609573641
 30
0.0
 10
15.3583830113
 20
12.0546004239
 30
0.0
 10
15.3573837045
 20
12.0513700521
 30
0.0
  0
SPLINE
  5
32E
100
AcDbEntity
  8
0
100
AcDbSpline
 62
7
  6
CONTINUOUS
 70
0
 71
3
 72
9
 73
5
 74
0
 42
0.0000001
 43
0.0000001
 44
0.0000000001
 40
0.0
 40
0.0
 40
0.0
 40
0.0
 40
0.4873570824
 40
1.0
 40
1.0
 40
1.0
 40
1.0
 10
14.624134599
 20
11.7391740321
 30
0.0
 10
14.6272113285
 20
11.7518006618
 30
0.0
 10
14.6300868236
 20
11.7786466181
 30
0.0
 10
14.6263244682
 20
11.8053085814
 30
0.0
 10
14.6230393771
 20
11.8185783572
 30
0.0
  0
SPLINE
  5
32F
100
AcDbEntity
  8
0
100
AcDbSpline
 62
7
  6
CONTINUOUS
 70
0
 71
3
 72
9
 73
5
 74
0
 42
0.0000001
 43
0.0000001
 44
0.0000000001
 40
0.0
 40
0.0
 40
0.0
 40
0.0
 40
0.5127288647
 40
1.0
 40
1.0
 40
1.0
 40
1.0
 10
15.2032352788
 20
11.8185783572
 30
0.0
 10
15.2025294314
 20
11.8214295527
 30
0.0
 10
15.2017869974
 20
11.8271814804
 30
0.0
 10
15.202663167
 20
11.8329351595
 30
0.0
 10
15.2034875134
 20
11.8356020901
 30
0.0
  0
SPLINE
  5
330
100
AcDbEntity
  8
0
100
AcDbSpline
 62
7
  6
CONTINUOUS
 70
0
 71
3
 72
11
 73
7
 74
0
 42
0.0000001
 43
0.0000001
 44
0.0000000001
 40
0.0
 40
0.0
 40
0.0
 40
0.0
 40
0.2394479848
 40
0.494446617
 40
0.7523346083
 40
1.0
 40
1.0
 40
1.0
 40
1.0
 10
15.6325593777
 20
12.0488502692
 30
0.0
 10
15.6238691002
 20
12.055943636
 30
0.0
 10
15.6043531158
 20
12.0687122827
 30
0.0
 10
15.5719244501
 20
12.0828711005
 30
0.0
 10
15.537322071
 20
12.0919295971
 30
0.0
 10
15.5136060847
 20
12.0941999279
 30
0.0
 10
15.502003415
 20
12.0941999279
 30
0.0
  0
SPLINE
  5
331
100
AcDbEntity
  8
0
100
AcDbSpline
 62
7
  6
CONTINUOUS
 70
0
 71
3
 72
11
 73
7
 74
0
 42
0.0000001
 43
0.0000001
 44
0.0000000001
 40
0.0
 40
0.0
 40
0.0
 40
0.0
 40
0.257592686
 40
0.5240194332
 40
0.777584723
 40
1.0
 40
1.0
 40
1.0
 40
1.0
 10
15.231085209
 20
11.9238690074
 30
0.0
 10
15.2212145004
 20
11.9238690074
 30
0.0
 10
15.2010986351
 20
11.9263074778
 30
0.0
 10
15.1726232983
 20
11.9356875365
 30
0.0
 10
15.1477405486
 20
11.9498537643
 30
0.0
 10
15.1342427729
 20
11.9625750037
 30
0.0
 10
15.1292002204
 20
11.9694459441
 30
0.0
  0
SPLINE
  5
332
100
AcDbEntity
  8
0
100
AcDbSpline
 62
7
  6
CONTINUOUS
 70
0
 71
3
 72
9
 73
5
 74
0
 42
0.0000001
 43
0.0000001
 44
0.0000000001
 40
0.0
 40
0.0
 40
0.0
 40
0.0
 40
0.4816202791
 40
1.0
 40
1.0
 40
1.0
 40
1.0
 10
15.7093961222
 20
11.9694459441
 30
0.0
 10
15.698880074
 20
11.9837750246
 30
0.0
 10
15.6747667604
 20
12.0118860029
 30
0.0
 10
15.6473795979
 20
12.0367533878
 30
0.0
 10
15.6325593777
 20
12.0488502692
 30
0.0
  0
SPLINE
  5
333
100
AcDbEntity
  8
0
100
AcDbSpline
 62
7
  6
CONTINUOUS
 70
0
 71
3
 72
12
 73
8
 74
0
 42
0.0000001
 43
0.0000001
 44
0.0000000001
 40
0.0
 40
0.0
 40
0.0
 40
0.0
 40
0.0998482179
 40
0.2032560843
 40
0.4308038635
 40
0.696575874
 40
1.0
 40
1.0
 40
1.0
 40
1.0
 10
16.5179224185
 20
11.9524222112
 30
0.0
 10
16.5172568013
 20
11.9502688022
 30
0.0
 10
16.5153709137
 20
11.9460314792
 30
0.0
 10
16.5094525294
 20
11.9382230909
 30
0.0
 10
16.4980973631
 20
11.930383036
 30
0.0
 10
16.4807716868
 20
11.9249622566
 30
0.0
 10
16.4678708631
 20
11.9238690074
 30
0.0
 10
16.4610214885
 20
11.9238690074
 30
0.0
  0
SPLINE
  5
334
100
AcDbEntity
  8
0
100
AcDbSpline
 62
7
  6
CONTINUOUS
 70
0
 71
3
 72
9
 73
5
 74
0
 42
0.0000001
 43
0.0000001
 44
0.0000000001
 40
0.0
 40
0.0
 40
0.0
 40
0.0
 40
0.4873570824
 40
1.0
 40
1.0
 40
1.0
 40
1.0
 10
14.0439386973
 20
11.7391740321
 30
0.0
 10
14.0470154267
 20
11.7518006618
 30
0.0
 10
14.0498909219
 20
11.7786466181
 30
0.0
 10
14.0461285665
 20
11.8053085814
 30
0.0
 10
14.0428434754
 20
11.8185783572
 30
0.0
  0
SPLINE
  5
335
100
AcDbEntity
  8
0
100
AcDbSpline
 62
7
  6
CONTINUOUS
 70
0
 71
3
 72
13
 73
9
 74
0
 42
0.0000001
 43
0.0000001
 44
0.0000000001
 40
0.0
 40
0.0
 40
0.0
 40
0.0
 40
0.303136955
 40
0.5686488509
 40
0.6870596829
 40
0.7968782222
 40
0.9002274946
 40
1.0
 40
1.0
 40
1.0
 40
1.0
 10
16.0229307319
 20
12.0941999279
 30
0.0
 10
16.0126570645
 20
12.0941999279
 30
0.0
 10
15.9933266588
 20
12.0925770676
 30
0.0
 10
15.9708296183
 20
12.0855032708
 30
0.0
 10
15.9563928765
 20
12.0768989454
 30
0.0
 10
15.9478630275
 20
12.0694746488
 30
0.0
 10
15.9414089708
 20
12.0609573641
 30
0.0
 10
15.938578913
 20
12.0546004239
 30
0.0
 10
15.9375796062
 20
12.0513700521
 30
0.0
  0
SPLINE
  5
336
100
AcDbEntity
  8
0
100
AcDbSpline
 62
7
  6
CONTINUOUS
 70
0
 71
3
 72
9
 73
5
 74
0
 42
0.0000001
 43
0.0000001
 44
0.0000000001
 40
0.0
 40
0.0
 40
0.0
 40
0.0
 40
0.5127288647
 40
1.0
 40
1.0
 40
1.0
 40
1.0
 10
15.7834311806
 20
11.8185783572
 30
0.0
 10
15.7827253332
 20
11.8214295527
 30
0.0
 10
15.7819828992
 20
11.8271814804
 30
0.0
 10
15.7828590687
 20
11.8329351595
 30
0.0
 10
15.7836834151
 20
11.8356020901
 30
0.0
  0
SPLINE
  5
337
100
AcDbEntity
  8
0
100
AcDbSpline
 62
7
  6
CONTINUOUS
 70
0
 71
3
 72
11
 73
7
 74
0
 42
0.0000001
 43
0.0000001
 44
0.0000000001
 40
0.0
 40
0.0
 40
0.0
 40
0.0
 40
0.257592686
 40
0.5240194332
 40
0.777584723
 40
1.0
 40
1.0
 40
1.0
 40
1.0
 10
15.8112811107
 20
11.9238690074
 30
0.0
 10
15.8014104021
 20
11.9238690074
 30
0.0
 10
15.7812945368
 20
11.9263074778
 30
0.0
 10
15.7528192001
 20
11.9356875365
 30
0.0
 10
15.7279364503
 20
11.9498537643
 30
0.0
 10
15.7144386746
 20
11.9625750037
 30
0.0
 10
15.7093961222
 20
11.9694459441
 30
0.0
  0
SPLINE
  5
338
100
AcDbEntity
  8
0
100
AcDbSpline
 62
7
  6
CONTINUOUS
 70
0
 71
3
 72
11
 73
7
 74
0
 42
0.0000001
 43
0.0000001
 44
0.0000000001
 40
0.0
 40
0.0
 40
0.0
 40
0.0
 40
0.2394479848
 40
0.494446617
 40
0.7523346083
 40
1.0
 40
1.0
 40
1.0
 40
1.0
 10
16.2127552795
 20
12.0488502692
 30
0.0
 10
16.2040650019
 20
12.055943636
 30
0.0
 10
16.1845490176
 20
12.0687122827
 30
0.0
 10
16.1521203518
 20
12.0828711005
 30
0.0
 10
16.1175179727
 20
12.0919295971
 30
0.0
 10
16.0938019864
 20
12.0941999279
 30
0.0
 10
16.0821993167
 20
12.0941999279
 30
0.0
  0
SPLINE
  5
339
100
AcDbEntity
  8
0
100
AcDbSpline
 62
7
  6
CONTINUOUS
 70
0
 71
3
 72
9
 73
5
 74
0
 42
0.0000001
 43
0.0000001
 44
0.0000000001
 40
0.0
 40
0.0
 40
0.0
 40
0.0
 40
0.4816202791
 40
1.0
 40
1.0
 40
1.0
 40
1.0
 10
16.2895920239
 20
11.9694459441
 30
0.0
 10
16.2790759757
 20
11.9837750246
 30
0.0
 10
16.2549626621
 20
12.0118860029
 30
0.0
 10
16.2275754996
 20
12.0367533878
 30
0.0
 10
16.2127552795
 20
12.0488502692
 30
0.0
  0
SPLINE
  5
33A
100
AcDbEntity
  8
0
100
AcDbSpline
 62
7
  6
CONTINUOUS
 70
0
 71
3
 72
13
 73
9
 74
0
 42
0.0000001
 43
0.0000001
 44
0.0000000001
 40
0.0
 40
0.0
 40
0.0
 40
0.0
 40
0.303136955
 40
0.5686488509
 40
0.6870596829
 40
0.7968782222
 40
0.9002274946
 40
1.0
 40
1.0
 40
1.0
 40
1.0
 10
16.6031266337
 20
12.0941999279
 30
0.0
 10
16.5928529663
 20
12.0941999279
 30
0.0
 10
16.5735225605
 20
12.0925770676
 30
0.0
 10
16.55102552
 20
12.0855032708
 30
0.0
 10
16.5365887782
 20
12.0768989454
 30
0.0
 10
16.5280589292
 20
12.0694746488
 30
0.0
 10
16.5216048725
 20
12.0609573641
 30
0.0
 10
16.5187748148
 20
12.0546004239
 30
0.0
 10
16.517775508
 20
12.0513700521
 30
0.0
  0
SPLINE
  5
33B
100
AcDbEntity
  8
0
100
AcDbSpline
 62
7
  6
CONTINUOUS
 70
0
 71
3
 72
9
 73
5
 74
0
 42
0.0000001
 43
0.0000001
 44
0.0000000001
 40
0.0
 40
0.0
 40
0.0
 40
0.0
 40
0.5127288647
 40
1.0
 40
1.0
 40
1.0
 40
1.0
 10
16.3636270823
 20
11.8185783572
 30
0.0
 10
16.3629212349
 20
11.8214295527
 30
0.0
 10
16.3621788009
 20
11.8271814804
 30
0.0
 10
16.3630549704
 20
11.8329351595
 30
0.0
 10
16.3638793168
 20
11.8356020901
 30
0.0
  0
SPLINE
  5
33C
100
AcDbEntity
  8
0
100
AcDbSpline
 62
7
  6
CONTINUOUS
 70
0
 71
3
 72
11
 73
7
 74
0
 42
0.0000001
 43
0.0000001
 44
0.0000000001
 40
0.0
 40
0.0
 40
0.0
 40
0.0
 40
0.257592686
 40
0.5240194332
 40
0.777584723
 40
1.0
 40
1.0
 40
1.0
 40
1.0
 10
16.3914770125
 20
11.9238690074
 30
0.0
 10
16.3816063038
 20
11.9238690074
 30
0.0
 10
16.3614904385
 20
11.9263074778
 30
0.0
 10
16.3330151018
 20
11.9356875365
 30
0.0
 10
16.3081323521
 20
11.9498537643
 30
0.0
 10
16.2946345763
 20
11.9625750037
 30
0.0
 10
16.2895920239
 20
11.9694459441
 30
0.0
  0
SPLINE
  5
33D
100
AcDbEntity
  8
0
100
AcDbSpline
 62
7
  6
CONTINUOUS
 70
0
 71
3
 72
13
 73
9
 74
0
 42
0.0000001
 43
0.0000001
 44
0.0000000001
 40
0.0
 40
0.0
 40
0.0
 40
0.0
 40
0.303136955
 40
0.5686488509
 40
0.6870596829
 40
0.7968782222
 40
0.9002274946
 40
1.0
 40
1.0
 40
1.0
 40
1.0
 10
13.702147125
 20
12.0941999279
 30
0.0
 10
13.6918734576
 20
12.0941999279
 30
0.0
 10
13.6725430519
 20
12.0925770676
 30
0.0
 10
13.6500460114
 20
12.0855032708
 30
0.0
 10
13.6356092695
 20
12.0768989454
 30
0.0
 10
13.6270794206
 20
12.0694746488
 30
0.0
 10
13.6206253638
 20
12.0609573641
 30
0.0
 10
13.6177953061
 20
12.0546004239
 30
0.0
 10
13.6167959993
 20
12.0513700521
 30
0.0
  0
SPLINE
  5
33E
100
AcDbEntity
  8
0
100
AcDbSpline
 62
7
  6
CONTINUOUS
 70
0
 71
3
 72
11
 73
7
 74
0
 42
0.0000001
 43
0.0000001
 44
0.0000000001
 40
0.0
 40
0.0
 40
0.0
 40
0.0
 40
0.2394479848
 40
0.494446617
 40
0.7523346083
 40
1.0
 40
1.0
 40
1.0
 40
1.0
 10
13.8919716725
 20
12.0488502692
 30
0.0
 10
13.883281395
 20
12.055943636
 30
0.0
 10
13.8637654106
 20
12.0687122827
 30
0.0
 10
13.8313367449
 20
12.0828711005
 30
0.0
 10
13.7967343658
 20
12.0919295971
 30
0.0
 10
13.7730183795
 20
12.0941999279
 30
0.0
 10
13.7614157098
 20
12.0941999279
 30
0.0
  0
SPLINE
  5
33F
100
AcDbEntity
  8
0
100
AcDbSpline
 62
7
  6
CONTINUOUS
 70
0
 71
3
 72
9
 73
5
 74
0
 42
0.0000001
 43
0.0000001
 44
0.0000000001
 40
0.0
 40
0.0
 40
0.0
 40
0.0
 40
0.5127288647
 40
1.0
 40
1.0
 40
1.0
 40
1.0
 10
16.943822984
 20
11.8185783572
 30
0.0
 10
16.9431171366
 20
11.8214295527
 30
0.0
 10
16.9423747026
 20
11.8271814804
 30
0.0
 10
16.9432508722
 20
11.8329351595
 30
0.0
 10
16.9440752186
 20
11.8356020901
 30
0.0
  0
SPLINE
  5
340
100
AcDbEntity
  8
0
100
AcDbSpline
 62
7
  6
CONTINUOUS
 70
0
 71
3
 72
11
 73
7
 74
0
 42
0.0000001
 43
0.0000001
 44
0.0000000001
 40
0.0
 40
0.0
 40
0.0
 40
0.0
 40
0.2394479848
 40
0.494446617
 40
0.7523346083
 40
1.0
 40
1.0
 40
1.0
 40
1.0
 10
16.7929511812
 20
12.0488502692
 30
0.0
 10
16.7842609036
 20
12.055943636
 30
0.0
 10
16.7647449193
 20
12.0687122827
 30
0.0
 10
16.7323162536
 20
12.0828711005
 30
0.0
 10
16.6977138744
 20
12.0919295971
 30
0.0
 10
16.6739978882
 20
12.0941999279
 30
0.0
 10
16.6623952185
 20
12.0941999279
 30
0.0
  0
SPLINE
  5
341
100
AcDbEntity
  8
0
100
AcDbSpline
 62
7
  6
CONTINUOUS
 70
0
 71
3
 72
11
 73
7
 74
0
 42
0.0000001
 43
0.0000001
 44
0.0000000001
 40
0.0
 40
0.0
 40
0.0
 40
0.0
 40
0.257592686
 40
0.5240194332
 40
0.777584723
 40
1.0
 40
1.0
 40
1.0
 40
1.0
 10
16.9716729142
 20
11.9238690074
 30
0.0
 10
16.9618022056
 20
11.9238690074
 30
0.0
 10
16.9416863403
 20
11.9263074778
 30
0.0
 10
16.9132110036
 20
11.9356875365
 30
0.0
 10
16.8883282538
 20
11.9498537643
 30
0.0
 10
16.8748304781
 20
11.9625750037
 30
0.0
 10
16.8697879256
 20
11.9694459441
 30
0.0
  0
SPLINE
  5
342
100
AcDbEntity
  8
0
100
AcDbSpline
 62
7
  6
CONTINUOUS
 70
0
 71
3
 72
9
 73
5
 74
0
 42
0.0000001
 43
0.0000001
 44
0.0000000001
 40
0.0
 40
0.0
 40
0.0
 40
0.0
 40
0.4816198055
 40
1.0
 40
1.0
 40
1.0
 40
1.0
 10
16.8697879256
 20
11.9694459441
 30
0.0
 10
16.8592718869
 20
11.9837750118
 30
0.0
 10
16.8351586897
 20
12.0118860988
 30
0.0
 10
16.8077714162
 20
12.0367533757
 30
0.0
 10
16.7929511812
 20
12.0488502692
 30
0.0
  0
ENDSEC
  0
SECTION
  2
OBJECTS
  0
DICTIONARY
  5
C
100
AcDbDictionary
280
0
281
1
  3
ACAD_GROUP
350
D
  3
ACAD_MLINESTYLE
350
17
  3
ACAD_LAYOUT
350
1A
  3
ACAD_PLOTSETTINGS
350
19
  3
ACAD_PLOTSTYLENAME
350
E
  0
DICTIONARY
  5
D
102
{ACAD_REACTORS
330
C
102
}
100
AcDbDictionary
280
0
281
1
  0
ACDBDICTIONARYWDFLT
  5
E
102
{ACAD_REACTORS
330
C
102
}
100
AcDbDictionary
281
1
  3
Normal
350
F
100
AcDbDictionaryWithDefault
340
F
  0
DICTIONARY
  5
17
102
{ACAD_REACTORS
330
C
102
}
100
AcDbDictionary
280
0
281
1
  3
Standard
350
18
  0
DICTIONARY
  5
19
102
{ACAD_REACTORS
330
C
102
}
100
AcDbDictionary
281
1
  0
DICTIONARY
  5
1A
102
{ACAD_REACTORS
330
C
102
}
100
AcDbDictionary
281
1
  3
Model
350
343
  3
Layout1
350
344
  0
ACDBPLACEHOLDER
  5
F
102
{ACAD_REACTORS
330
E
102
}
  0
MLINESTYLE
  5
18
102
{ACAD_REACTORS
330
17
102
}
100
AcDbMlineStyle
  2
STANDARD
 70
0
  3

 62
256
 51
90.0
 52
90.0
 71
2
 49
0.5
 62
256
  6
BYLAYER
 49
-0.5
 62
256
  6
BYLAYER
  0
LAYOUT
  5
343
102
{ACAD_REACTORS
330
1A
102
}
100
AcDbPlotSettings
  1

  2
none_device
  4
ANSI_C_(22.00_x_17.00_Inches)
  6

 40
0.0
 41
0.0
 42
0.0
 43
0.0
 44
558.8
 45
431.8
 46
0.0
 47
0.0
 48
0.0
 49
0.0
140
0.0
141
0.0
142
1.0
143
1.0
 70
1024
 72
0
 73
0
 74
0
  7

 75
0
147
1.0
148
0.0
149
0.0
100
AcDbLayout
  1
Model
 70
0
 71
0
 10
0.0
 20
0.0
 11
22.0
 21
17.0
 12
0.0
 22
0.0
 32
0.0
 14
0.0
 24
0.0
 34
0.0
 15
0.0
 25
0.0
 35
0.0
146
0.0
 13
0.0
 23
0.0
 33
0.0
 16
1.0
 26
0.0
 36
0.0
 17
0.0
 27
1.0
 37
0.0
 76
0
330
216
345
0
346
0
  0
LAYOUT
  5
344
102
{ACAD_REACTORS
330
1A
102
}
100
AcDbPlotSettings
  1

  2
none_device
  4
ANSI_C_(22.00_x_17.00_Inches)
  6

 40
0.0
 41
0.0
 42
0.0
 43
0.0
 44
558.8
 45
431.8
 46
0.0
 47
0.0
 48
0.0
 49
0.0
140
0.0
141
0.0
142
1.0
143
1.0
 70
0
 72
0
 73
0
 74
0
  7

 75
0
147
1.0
148
0.0
149
0.0
100
AcDbLayout
  1
Layout1
 70
0
 71
1
 10
0.0
 20
0.0
 11
22.0
 21
17.0
 12
0.0
 22
0.0
 32
0.0
 14
0.0
 24
0.0
 34
0.0
 15
0.0
 25
0.0
 35
0.0
146
0.0
 13
0.0
 23
0.0
 33
0.0
 16
1.0
 26
0.0
 36
0.0
 17
0.0
 27
1.0
 37
0.0
 76
0
330
217
345
0
346
0
  0
ENDSEC
  0
EOF