999
DXF file: _cgs_temp_output.dxf
999
Pro/ENGINEER 2015110 by Parametric Technology Corporation
  0
SECTION
  2
HEADER
  9
$ACADVER
  1
AC1021
  9
$DWGCODEPAGE
  3
ANSI_1252
  9
$EXTMAX
 10
22.0
 20
17.0
 30
0.0
  9
$EXTMIN
 10
0.0
 20
0.0
 30
0.0
  9
$LIMMIN
 10
0.0
 20
0.0
  9
$LIMMAX
 10
22.0
 20
17.0
  9
$VIEWCTR
 10
11.0
 20
8.5
  9
$VIEWSIZE
 40
17.0
  9
$CLAYER
  8
0
  9
$LTSCALE
 40
1.21
  9
$CELTYPE
  6
BYLAYER
  9
$DIMSCALE
 40
1.0
  9
$DIMASZ
 40
0.1875
  9
$DIMEXO
 40
0.0625
  9
$DIMDLI
 40
0.836
  9
$DIMEXE
 40
0.125
  9
$DIMCEN
 40
0.198
  9
$DIMLFAC
 40
1.0
  9
$DIMBLK
  1
_CLOSED
  9
$DIMALT
 70
0
  9
$DIMALTF
 40
25.4
  9
$DIMTXT
 40
0.15625
  9
$DIMTOL
 70
0
  9
$DIMLIM
 70
0
  9
$DIMTFAC
 40
1.0
  9
$DIMGAP
 40
0.09
  9
$DIMDSEP
 70
46
  9
$AUNITS
 70
0
  9
$PDMODE
 70
3
  9
$PDSIZE
 40
0.3125
  9
$HANDSEED
  5
345
  9
$TILEMODE
 70
1
  9
$MEASUREMENT
 70
0
  9
$INSUNITS
 70
1
  0
ENDSEC
  0
SECTION
  2
CLASSES
  0
CLASS
  1
ACDBDICTIONARYWDFLT
  2
AcDbDictionaryWithDefault
  3
AutoCAD 2000
 90
0
 91
1
280
0
281
0
  0
CLASS
  1
ACDBPLACEHOLDER
  2
AcDbPlaceHolder
  3
AutoCAD 2000
 90
0
 91
1
280
0
281
0
  0
CLASS
  1
LAYOUT
  2
AcDbLayout
  3
AutoCAD 2000
 90
0
 91
0
280
0
281
0
  0
ENDSEC
  0
SECTION
  2
TABLES
  0
TABLE
  2
VPORT
  5
8
100
AcDbSymbolTable
 70
2
  0
VPORT
  5
1F4
100
AcDbSymbolTableRecord
100
AcDbViewportTableRecord
  2
*ACTIVE
 70
0
 10
0.0
 20
0.0
 11
1.0
 21
1.0
 12
11.0
 22
8.5
 13
0.0
 23
0.0
 14
1.0
 24
1.0
 15
0.0
 25
0.0
 16
0.0
 26
0.0
 36
1.0
 17
0.0
 27
0.0
 37
0.0
 40
17.0
 41
1.2941176471
 42
50.0
 43
0.0
 44
0.0
 50
0.0
 51
0.0
 71
0
 72
100
 73
1
 74
1
 75
0
 76
0
 77
0
 78
0
  0
ENDTAB
  0
TABLE
  2
LTYPE
  5
5
100
AcDbSymbolTable
 70
6
  0
LTYPE
  5
14
100
AcDbSymbolTableRecord
100
AcDbLinetypeTableRecord
  2
BYBLOCK
 70
0
  3

 72
65
 73
0
 40
0.0
  0
LTYPE
  5
15
100
AcDbSymbolTableRecord
100
AcDbLinetypeTableRecord
  2
BYLAYER
 70
0
  3

 72
65
 73
0
 40
0.0
  0
LTYPE
  5
16
100
AcDbSymbolTableRecord
100
AcDbLinetypeTableRecord
  2
CONTINUOUS
 70
64
  3
Solid line
 72
65
 73
0
 40
0.0
  0
LTYPE
  5
1F5
100
AcDbSymbolTableRecord
100
AcDbLinetypeTableRecord
  2
CENTER
 70
64
  3
____ _ ____ _ ____ _ ____ _ ____ _ ____ _ ____
 72
65
 73
4
 40
0.6
 49
0.375
 74
0
 49
-0.075
 74
0
 49
0.075
 74
0
 49
-0.075
 74
0
  0
LTYPE
  5
1F6
100
AcDbSymbolTableRecord
100
AcDbLinetypeTableRecord
  2
HIDDEN
 70
64
  3
- - - - - - - - - - - - - - - - - - - -
 72
65
 73
2
 40
0.2
 49
0.1
 74
0
 49
-0.1
 74
0
  0
LTYPE
  5
1F7
100
AcDbSymbolTableRecord
100
AcDbLinetypeTableRecord
  2
PHANTOM
 70
64
  3
_____ _ _ _____ _ _ _____ _ _ _____
 72
65
 73
6
 40
0.8
 49
0.45
 74
0
 49
-0.05
 74
0
 49
0.1
 74
0
 49
-0.05
 74
0
 49
0.1
 74
0
 49
-0.05
 74
0
  0
LTYPE
  5
1F8
100
AcDbSymbolTableRecord
100
AcDbLinetypeTableRecord
  2
DOT
 70
64
  3
. . . . . . . . . . . . . . . . . . . .
 72
65
 73
2
 40
0.2
 49
0.1
 74
0
 49
-0.1
 74
0
  0
LTYPE
  5
1F9
100
AcDbSymbolTableRecord
100
AcDbLinetypeTableRecord
  2
DASHED
 70
64
  3
- - - - - - - - - - - - - - - - - - - -
 72
65
 73
2
 40
0.2
 49
0.1
 74
0
 49
-0.1
 74
0
  0
ENDTAB
  0
TABLE
  2
LAYER
  5
2
100
AcDbSymbolTable
 70
36
  0
LAYER
  5
10
100
AcDbSymbolTableRecord
100
AcDbLayerTableRecord
  2
0
 70
0
 62
7
  6
CONTINUOUS
370
-3
390
F
  0
LAYER
  5
1FA
100
AcDbSymbolTableRecord
100
AcDbLayerTableRecord
  2
DEFAULT_1
 70
0
 62
7
  6
CENTER
370
-3
390
F
  0
LAYER
  5
1FB
100
AcDbSymbolTableRecord
100
AcDbLayerTableRecord
  2
DEFAULT_2
 70
0
 62
8
  6
HIDDEN
370
-3
390
F
  0
LAYER
  5
1FC
100
AcDbSymbolTableRecord
100
AcDbLayerTableRecord
  2
DEFAULT_3
 70
0
 62
7
  6
PHANTOM
370
-3
390
F
  0
LAYER
  5
1FD
100
AcDbSymbolTableRecord
100
AcDbLayerTableRecord
  2
01_ALL_DTM_PLN
 70
0
 62
7
  6
CONTINUOUS
370
-3
390
F
  0
LAYER
  5
1FE
100
AcDbSymbolTableRecord
100
AcDbLayerTableRecord
  2
01__ASM_ALL_DTM_PLN
 70
0
 62
7
  6
CONTINUOUS
370
-3
390
F
  0
LAYER
  5
1FF
100
AcDbSymbolTableRecord
100
AcDbLayerTableRecord
  2
01__ASM_DEF_DTM_PLN
 70
0
 62
7
  6
CONTINUOUS
370
-3
390
F
  0
LAYER
  5
200
100
AcDbSymbolTableRecord
100
AcDbLayerTableRecord
  2
01___PRT_ALL_DTM_PLN
 70
0
 62
7
  6
CONTINUOUS
370
-3
390
F
  0
LAYER
  5
201
100
AcDbSymbolTableRecord
100
AcDbLayerTableRecord
  2
01___PRT_DEF_DTM_PLN
 70
0
 62
7
  6
CONTINUOUS
370
-3
390
F
  0
LAYER
  5
202
100
AcDbSymbolTableRecord
100
AcDbLayerTableRecord
  2
02_ALL_AXES
 70
0
 62
7
  6
CONTINUOUS
370
-3
390
F
  0
LAYER
  5
203
100
AcDbSymbolTableRecord
100
AcDbLayerTableRecord
  2
02__ASM_ALL_AXES
 70
0
 62
7
  6
CONTINUOUS
370
-3
390
F
  0
LAYER
  5
204
100
AcDbSymbolTableRecord
100
AcDbLayerTableRecord
  2
02___PRT_ALL_AXES
 70
0
 62
7
  6
CONTINUOUS
370
-3
390
F
  0
LAYER
  5
205
100
AcDbSymbolTableRecord
100
AcDbLayerTableRecord
  2
03_ALL_CURVES
 70
0
 62
7
  6
CONTINUOUS
370
-3
390
F
  0
LAYER
  5
206
100
AcDbSymbolTableRecord
100
AcDbLayerTableRecord
  2
03__ASM_ALL_CURVES
 70
0
 62
7
  6
CONTINUOUS
370
-3
390
F
  0
LAYER
  5
207
100
AcDbSymbolTableRecord
100
AcDbLayerTableRecord
  2
03___PRT_ALL_CURVES
 70
0
 62
7
  6
CONTINUOUS
370
-3
390
F
  0
LAYER
  5
208
100
AcDbSymbolTableRecord
100
AcDbLayerTableRecord
  2
04_ALL_DTM_PNT
 70
0
 62
7
  6
CONTINUOUS
370
-3
390
F
  0
LAYER
  5
209
100
AcDbSymbolTableRecord
100
AcDbLayerTableRecord
  2
04__ASM_ALL_DTM_PNT
 70
0
 62
7
  6
CONTINUOUS
370
-3
390
F
  0
LAYER
  5
20A
100
AcDbSymbolTableRecord
100
AcDbLayerTableRecord
  2
04___PRT_ALL_DTM_PNT
 70
0
 62
7
  6
CONTINUOUS
370
-3
390
F
  0
LAYER
  5
20B
100
AcDbSymbolTableRecord
100
AcDbLayerTableRecord
  2
05_ALL_DTM_CSYS
 70
0
 62
7
  6
CONTINUOUS
370
-3
390
F
  0
LAYER
  5
20C
100
AcDbSymbolTableRecord
100
AcDbLayerTableRecord
  2
05__ASM_ALL_DTM_CSYS
 70
0
 62
7
  6
CONTINUOUS
370
-3
390
F
  0
LAYER
  5
20D
100
AcDbSymbolTableRecord
100
AcDbLayerTableRecord
  2
05__ASM_DEF_DTM_CSYS
 70
0
 62
7
  6
CONTINUOUS
370
-3
390
F
  0
LAYER
  5
20E
100
AcDbSymbolTableRecord
100
AcDbLayerTableRecord
  2
05___PRT_ALL_DTM_CSYS
 70
0
 62
7
  6
CONTINUOUS
370
-3
390
F
  0
LAYER
  5
20F
100
AcDbSymbolTableRecord
100
AcDbLayerTableRecord
  2
05___PRT_DEF_DTM_CSYS
 70
0
 62
7
  6
CONTINUOUS
370
-3
390
F
  0
LAYER
  5
210
100
AcDbSymbolTableRecord
100
AcDbLayerTableRecord
  2
06_ALL_SURFS
 70
0
 62
7
  6
CONTINUOUS
370
-3
390
F
  0
LAYER
  5
211
100
AcDbSymbolTableRecord
100
AcDbLayerTableRecord
  2
06__ASM_ALL_SURFS
 70
0
 62
7
  6
CONTINUOUS
370
-3
390
F
  0
LAYER
  5
212
100
AcDbSymbolTableRecord
100
AcDbLayerTableRecord
  2
06___PRT_ALL_SURFS
 70
0
 62
7
  6
CONTINUOUS
370
-3
390
F
  0
LAYER
  5
213
100
AcDbSymbolTableRecord
100
AcDbLayerTableRecord
  2
07__ASM_ALL_SKELETONS
 70
0
 62
7
  6
CONTINUOUS
370
-3
390
F
  0
ENDTAB
  0
TABLE
  2
STYLE
  5
3
100
AcDbSymbolTable
 70
1
  0
STYLE
  5
11
100
AcDbSymbolTableRecord
100
AcDbTextStyleTableRecord
  2
STANDARD
 70
0
 40
0.0
 41
0.8
 50
0.0
 71
0
 42
0.2
  3
txt
  4

  0
STYLE
  5
214
100
AcDbSymbolTableRecord
100
AcDbTextStyleTableRecord
  2
TEXTSTYLE_1
 70
0
 40
0.0
 41
0.8
 50
0.0
 71
0
 42
0.2
  3
gdt
  4

  0
ENDTAB
  0
TABLE
  2
VIEW
  5
6
100
AcDbSymbolTable
 70
0
  0
ENDTAB
  0
TABLE
  2
UCS
  5
7
100
AcDbSymbolTable
 70
0
  0
ENDTAB
  0
TABLE
  2
APPID
  5
9
100
AcDbSymbolTable
 70
1
  0
APPID
  5
215
100
AcDbSymbolTableRecord
100
AcDbRegAppTableRecord
  2
ACAD
 70
0
  0
ENDTAB
  0
TABLE
  2
BLOCK_RECORD
  5
1
100
AcDbSymbolTable
 70
0
  0
BLOCK_RECORD
  5
216
100
AcDbSymbolTableRecord
100
AcDbBlockTableRecord
  2
*Model_Space
  0
BLOCK_RECORD
  5
217
100
AcDbSymbolTableRecord
100
AcDbBlockTableRecord
  2
*Paper_Space
  0
ENDTAB
  0
TABLE
  2
DIMSTYLE
  5
A
100
AcDbSymbolTable
 70
1
100
AcDbDimStyleTable
 71
0
  0
DIMSTYLE
105
218
100
AcDbSymbolTableRecord
100
AcDbDimStyleTableRecord
  2
STANDARD
 70
0
  3

  4

 40
1.0
 41
0.1875
 42
0.0625
 43
0.38
 44
0.125
 45
0.0
 46
0.0
 47
0.0001
 48
0.0001
140
0.15625
141
0.09
142
0.0
143
25.4
144
1.0
145
0.0
146
1.0
147
0.09
 71
0.0
 72
0.0
 73
1
 74
1
 75
0
 76
0
 77
0
 78
4
170
0
171
2
172
0
173
0
174
0
175
0
176
0
177
0
178
0
270
2
271
4
272
4
273
2
274
2
275
0
280
0
281
0
282
0
283
1
284
4
285
0
286
0
287
3
288
0
340
11
278
46
  0
ENDTAB
  0
ENDSEC
  0
SECTION
  2
BLOCKS
  0
BLOCK
  5
20
100
AcDbEntity
  8
0
100
AcDbBlockBegin
  2
*Model_Space
 70
0
 10
0.0
 20
0.0
 30
0.0
  3
*Model_Space
  1

  0
ENDBLK
  5
21
100
AcDbEntity
  8
0
100
AcDbBlockEnd
  0
BLOCK
  5
1C
100
AcDbEntity
  8
0
100
AcDbBlockBegin
  2
*Paper_Space
 70
0
 10
0.0
 20
0.0
 30
0.0
  3
*Paper_Space
  1

  0
ENDBLK
  5
1D
100
AcDbEntity
  8
0
100
AcDbBlockEnd
  0
ENDSEC
  0
SECTION
  2
ENTITIES
  0
MTEXT
  5
219
100
AcDbEntity
  8
0
100
AcDbMText
 62
7
  6
CONTINUOUS
  7
STANDARD
 71
1
 72
1
 10
15.9560215477
 20
0.9479130325
 30
0.0
 11
1.0
 21
0.0
 31
0.0
 44
0.9
  1
SCALE: 1:1.000
 40
0.3
 41
3.36
  0
LINE
  5
21A
100
AcDbEntity
  8
0
100
AcDbLine
 62
7
  6
CONTINUOUS
 10
0.0
 20
0.0
 11
0.0
 21
17.0
  0
LINE
  5
21B
100
AcDbEntity
  8
0
100
AcDbLine
 62
7
  6
CONTINUOUS
 10
0.0
 20
0.0
 11
22.0
 21
0.0
  0
LINE
  5
21C
100
AcDbEntity
  8
0
100
AcDbLine
 62
7
  6
CONTINUOUS
 10
0.0
 20
17.0
 11
22.0
 21
17.0
  0
LINE
  5
21D
100
AcDbEntity
  8
0
100
AcDbLine
 62
7
  6
CONTINUOUS
 10
22.0
 20
0.0
 11
22.0
 21
17.0
  0
LINE
  5
21E
100
AcDbEntity
  8
0
100
AcDbLine
 62
7
  6
CONTINUOUS
 10
4.4768239691
 20
5.5716946999
 11
4.4768239691
 21
5.4685450936
  0
LINE
  5
21F
100
AcDbEntity
  8
0
100
AcDbLine
 62
7
  6
CONTINUOUS
 10
4.7262521146
 20
5.2248443062
 11
4.7785769259
 21
5.2248443062
  0
LINE
  5
220
100
AcDbEntity
  8
0
100
AcDbLine
 62
7
  6
CONTINUOUS
 10
5.277433217
 20
5.2248443062
 11
5.3297580283
 21
5.2248443062
  0
LINE
  5
221
100
AcDbEntity
  8
0
100
AcDbLine
 62
7
  6
CONTINUOUS
 10
5.8286143193
 20
5.2248443062
 11
5.8809391306
 21
5.2248443062
  0
LINE
  5
222
100
AcDbEntity
  8
0
100
AcDbLine
 62
7
  6
CONTINUOUS
 10
6.3797954217
 20
5.2248443062
 11
6.432120233
 21
5.2248443062
  0
LINE
  5
223
100
AcDbEntity
  8
0
100
AcDbLine
 62
7
  6
CONTINUOUS
 10
6.9309765241
 20
5.2248443062
 11
6.9833013354
 21
5.2248443062
  0
LINE
  5
224
100
AcDbEntity
  8
0
100
AcDbLine
 62
7
  6
CONTINUOUS
 10
7.4821576264
 20
5.2248443062
 11
7.5344824377
 21
5.2248443062
  0
LINE
  5
225
100
AcDbEntity
  8
0
100
AcDbLine
 62
7
  6
CONTINUOUS
 10
4.4768239691
 20
5.4685450936
 11
4.5098572953
 21
5.4685450936
  0
LINE
  5
226
100
AcDbEntity
  8
0
100
AcDbLine
 62
7
  6
CONTINUOUS
 10
4.9949717453
 20
5.4685450936
 11
5.0610383976
 21
5.4685450936
  0
LINE
  5
227
100
AcDbEntity
  8
0
100
AcDbLine
 62
7
  6
CONTINUOUS
 10
5.5461528476
 20
5.4685450936
 11
5.6122195
 21
5.4685450936
  0
LINE
  5
228
100
AcDbEntity
  8
0
100
AcDbLine
 62
7
  6
CONTINUOUS
 10
6.09733395
 20
5.4685450936
 11
6.1634006024
 21
5.4685450936
  0
LINE
  5
229
100
AcDbEntity
  8
0
100
AcDbLine
 62
7
  6
CONTINUOUS
 10
6.6485150523
 20
5.4685450936
 11
6.7145817047
 21
5.4685450936
  0
LINE
  5
22A
100
AcDbEntity
  8
0
100
AcDbLine
 62
7
  6
CONTINUOUS
 10
7.1996961547
 20
5.4685450936
 11
7.2657628071
 21
5.4685450936
  0
LINE
  5
22B
100
AcDbEntity
  8
0
100
AcDbLine
 62
7
  6
CONTINUOUS
 10
7.7508772571
 20
5.4685450936
 11
7.7839105833
 21
5.4685450936
  0
LINE
  5
22C
100
AcDbEntity
  8
0
100
AcDbLine
 62
7
  6
CONTINUOUS
 10
7.7839105833
 20
5.5716946999
 11
7.7508772571
 21
5.5716946999
  0
LINE
  5
22D
100
AcDbEntity
  8
0
100
AcDbLine
 62
7
  6
CONTINUOUS
 10
7.2657628071
 20
5.5716946999
 11
7.1996961547
 21
5.5716946999
  0
LINE
  5
22E
100
AcDbEntity
  8
0
100
AcDbLine
 62
7
  6
CONTINUOUS
 10
6.7145817047
 20
5.5716946999
 11
6.6485150523
 21
5.5716946999
  0
LINE
  5
22F
100
AcDbEntity
  8
0
100
AcDbLine
 62
7
  6
CONTINUOUS
 10
6.1634006024
 20
5.5716946999
 11
6.09733395
 21
5.5716946999
  0
LINE
  5
230
100
AcDbEntity
  8
0
100
AcDbLine
 62
7
  6
CONTINUOUS
 10
5.6122195
 20
5.5716946999
 11
5.5461528476
 21
5.5716946999
  0
LINE
  5
231
100
AcDbEntity
  8
0
100
AcDbLine
 62
7
  6
CONTINUOUS
 10
5.0610383976
 20
5.5716946999
 11
4.9949717453
 21
5.5716946999
  0
LINE
  5
232
100
AcDbEntity
  8
0
100
AcDbLine
 62
7
  6
CONTINUOUS
 10
4.5098572953
 20
5.5716946999
 11
4.4768239691
 21
5.5716946999
  0
LINE
  5
233
100
AcDbEntity
  8
0
100
AcDbLine
 62
7
  6
CONTINUOUS
 10
7.5344824377
 20
5.8153954873
 11
7.4821576264
 21
5.8153954873
  0
LINE
  5
234
100
AcDbEntity
  8
0
100
AcDbLine
 62
7
  6
CONTINUOUS
 10
6.9833013354
 20
5.8153954873
 11
6.9309765241
 21
5.8153954873
  0
LINE
  5
235
100
AcDbEntity
  8
0
100
AcDbLine
 62
7
  6
CONTINUOUS
 10
6.432120233
 20
5.8153954873
 11
6.3797954217
 21
5.8153954873
  0
LINE
  5
236
100
AcDbEntity
  8
0
100
AcDbLine
 62
7
  6
CONTINUOUS
 10
5.8809391306
 20
5.8153954873
 11
5.8286143193
 21
5.8153954873
  0
LINE
  5
237
100
AcDbEntity
  8
0
100
AcDbLine
 62
7
  6
CONTINUOUS
 10
5.3297580283
 20
5.8153954873
 11
5.277433217
 21
5.8153954873
  0
LINE
  5
238
100
AcDbEntity
  8
0
100
AcDbLine
 62
7
  6
CONTINUOUS
 10
4.7785769259
 20
5.8153954873
 11
4.7262521146
 21
5.8153954873
  0
LINE
  5
239
100
AcDbEntity
  8
0
100
AcDbLine
 62
7
  6
CONTINUOUS
 10
7.7839105833
 20
5.4685450936
 11
7.7839105833
 21
5.5716946999
  0
LINE
  5
23A
100
AcDbEntity
  8
0
100
AcDbLine
 62
7
  6
CONTINUOUS
 10
7.7244153909
 20
9.2535910885
 11
4.4173287768
 21
9.2535910885
  0
LINE
  5
23B
100
AcDbEntity
  8
0
100
AcDbLine
 62
7
  6
CONTINUOUS
 10
4.4173287768
 20
15.9465044743
 11
4.4173287768
 21
9.2535910885
  0
LINE
  5
23C
100
AcDbEntity
  8
0
100
AcDbLine
 62
7
  6
CONTINUOUS
 10
7.7244153909
 20
15.9465044743
 11
7.7244153909
 21
9.2535910885
  0
LINE
  5
23D
100
AcDbEntity
  8
0
100
AcDbLine
 62
7
  6
CONTINUOUS
 10
4.4173287768
 20
15.9465044743
 11
7.7244153909
 21
15.9465044743
  0
LINE
  5
23E
100
AcDbEntity
  8
0
100
AcDbLine
 62
7
  6
CONTINUOUS
 10
12.213898564
 20
5.1653491139
 11
12.213898564
 21
5.755900295
  0
LINE
  5
23F
100
AcDbEntity
  8
0
100
AcDbLine
 62
7
  6
CONTINUOUS
 10
12.213898564
 20
5.1653491139
 11
18.9068119498
 21
5.1653491139
  0
LINE
  5
240
100
AcDbEntity
  8
0
100
AcDbLine
 62
7
  6
CONTINUOUS
 10
18.9068119498
 20
5.4090499013
 11
12.213898564
 21
5.4090499013
  0
LINE
  5
241
100
AcDbEntity
  8
0
100
AcDbLine
 62
7
  6
CONTINUOUS
 10
18.9068119498
 20
5.5121995076
 11
12.213898564
 21
5.5121995076
  0
LINE
  5
242
100
AcDbEntity
  8
0
100
AcDbLine
 62
7
  6
CONTINUOUS
 10
12.213898564
 20
5.755900295
 11
18.9068119498
 21
5.755900295
  0
LINE
  5
243
100
AcDbEntity
  8
0
100
AcDbLine
 62
7
  6
CONTINUOUS
 10
18.9068119498
 20
5.1653491139
 11
18.9068119498
 21
5.755900295
  0
LINE
  5
244
100
AcDbEntity
  8
0
100
AcDbLine
 62
7
  6
CONTINUOUS
 10
13.1223012841
 20
9.9214948252
 11
13.1537662326
 21
9.8573760017
  0
LINE
  5
245
100
AcDbEntity
  8
0
100
AcDbLine
 62
7
  6
CONTINUOUS
 10
13.4578437113
 20
9.705889163
 11
13.506038054
 21
9.705889163
  0
LINE
  5
246
100
AcDbEntity
  8
0
100
AcDbLine
 62
7
  6
CONTINUOUS
 10
13.9655151253
 20
9.705889163
 11
14.013709468
 21
9.705889163
  0
LINE
  5
247
100
AcDbEntity
  8
0
100
AcDbLine
 62
7
  6
CONTINUOUS
 10
14.4731865393
 20
9.705889163
 11
14.521380882
 21
9.705889163
  0
LINE
  5
248
100
AcDbEntity
  8
0
100
AcDbLine
 62
7
  6
CONTINUOUS
 10
14.9808579533
 20
9.705889163
 11
15.0290522961
 21
9.705889163
  0
LINE
  5
249
100
AcDbEntity
  8
0
100
AcDbLine
 62
7
  6
CONTINUOUS
 10
15.4885293674
 20
9.705889163
 11
15.5367237101
 21
9.705889163
  0
LINE
  5
24A
100
AcDbEntity
  8
0
100
AcDbLine
 62
7
  6
CONTINUOUS
 10
15.9962007814
 20
9.705889163
 11
16.0443951241
 21
9.705889163
  0
LINE
  5
24B
100
AcDbEntity
  8
0
100
AcDbLine
 62
7
  6
CONTINUOUS
 10
13.1537662326
 20
9.8573760017
 11
13.1841919408
 21
9.8573760017
  0
LINE
  5
24C
100
AcDbEntity
  8
0
100
AcDbLine
 62
7
  6
CONTINUOUS
 10
13.6310119383
 20
9.8573760017
 11
13.6918633548
 21
9.8573760017
  0
LINE
  5
24D
100
AcDbEntity
  8
0
100
AcDbLine
 62
7
  6
CONTINUOUS
 10
14.1386833523
 20
9.8573760017
 11
14.1995347688
 21
9.8573760017
  0
LINE
  5
24E
100
AcDbEntity
  8
0
100
AcDbLine
 62
7
  6
CONTINUOUS
 10
14.6463547664
 20
9.8573760017
 11
14.7072061829
 21
9.8573760017
  0
LINE
  5
24F
100
AcDbEntity
  8
0
100
AcDbLine
 62
7
  6
CONTINUOUS
 10
15.1540261804
 20
9.8573760017
 11
15.2148775969
 21
9.8573760017
  0
LINE
  5
250
100
AcDbEntity
  8
0
100
AcDbLine
 62
7
  6
CONTINUOUS
 10
15.6616975944
 20
9.8573760017
 11
15.7225490109
 21
9.8573760017
  0
LINE
  5
251
100
AcDbEntity
  8
0
100
AcDbLine
 62
7
  6
CONTINUOUS
 10
16.1693690084
 20
9.8573760017
 11
16.1997947167
 21
9.8573760017
  0
LINE
  5
252
100
AcDbEntity
  8
0
100
AcDbLine
 62
7
  6
CONTINUOUS
 10
16.1683297682
 20
9.9214948252
 11
16.13790406
 21
9.9214948252
  0
LINE
  5
253
100
AcDbEntity
  8
0
100
AcDbLine
 62
7
  6
CONTINUOUS
 10
15.6910840624
 20
9.9214948252
 11
15.6302326459
 21
9.9214948252
  0
LINE
  5
254
100
AcDbEntity
  8
0
100
AcDbLine
 62
7
  6
CONTINUOUS
 10
15.1834126484
 20
9.9214948252
 11
15.1225612319
 21
9.9214948252
  0
LINE
  5
255
100
AcDbEntity
  8
0
100
AcDbLine
 62
7
  6
CONTINUOUS
 10
14.6757412344
 20
9.9214948252
 11
14.6148898179
 21
9.9214948252
  0
LINE
  5
256
100
AcDbEntity
  8
0
100
AcDbLine
 62
7
  6
CONTINUOUS
 10
14.1680698204
 20
9.9214948252
 11
14.1072184039
 21
9.9214948252
  0
LINE
  5
257
100
AcDbEntity
  8
0
100
AcDbLine
 62
7
  6
CONTINUOUS
 10
13.6603984064
 20
9.9214948252
 11
13.5995469899
 21
9.9214948252
  0
LINE
  5
258
100
AcDbEntity
  8
0
100
AcDbLine
 62
7
  6
CONTINUOUS
 10
13.1527269924
 20
9.9214948252
 11
13.1223012841
 21
9.9214948252
  0
LINE
  5
259
100
AcDbEntity
  8
0
100
AcDbLine
 62
7
  6
CONTINUOUS
 10
15.8642522895
 20
10.0729816639
 11
15.8160579468
 21
10.0729816639
  0
LINE
  5
25A
100
AcDbEntity
  8
0
100
AcDbLine
 62
7
  6
CONTINUOUS
 10
15.3565808755
 20
10.0729816639
 11
15.3083865327
 21
10.0729816639
  0
LINE
  5
25B
100
AcDbEntity
  8
0
100
AcDbLine
 62
7
  6
CONTINUOUS
 10
14.8489094614
 20
10.0729816639
 11
14.8007151187
 21
10.0729816639
  0
LINE
  5
25C
100
AcDbEntity
  8
0
100
AcDbLine
 62
7
  6
CONTINUOUS
 10
14.3412380474
 20
10.0729816639
 11
14.2930437047
 21
10.0729816639
  0
LINE
  5
25D
100
AcDbEntity
  8
0
100
AcDbLine
 62
7
  6
CONTINUOUS
 10
13.8335666334
 20
10.0729816639
 11
13.7853722907
 21
10.0729816639
  0
LINE
  5
25E
100
AcDbEntity
  8
0
100
AcDbLine
 62
7
  6
CONTINUOUS
 10
13.3258952194
 20
10.0729816639
 11
13.2777008767
 21
10.0729816639
  0
LINE
  5
25F
100
AcDbEntity
  8
0
100
AcDbLine
 62
7
  6
CONTINUOUS
 10
13.2030169873
 20
10.035506034
 11
13.2026674856
 21
10.0342996038
  0
LINE
  5
260
100
AcDbEntity
  8
0
100
AcDbLine
 62
7
  6
CONTINUOUS
 10
14.7424302203
 20
15.1642339841
 11
13.1223012841
 21
9.9214948252
  0
LINE
  5
261
100
AcDbEntity
  8
0
100
AcDbLine
 62
7
  6
CONTINUOUS
 10
13.2030182513
 20
10.0355056439
 11
14.8231471875
 21
15.2782448029
  0
LINE
  5
262
100
AcDbEntity
  8
0
100
AcDbLine
 62
7
  6
CONTINUOUS
 10
13.5807219434
 20
9.7433647929
 11
13.5810714451
 21
9.7445712231
  0
LINE
  5
263
100
AcDbEntity
  8
0
100
AcDbLine
 62
7
  6
CONTINUOUS
 10
13.7106884013
 20
10.035506034
 11
13.7103388996
 21
10.0342996038
  0
LINE
  5
264
100
AcDbEntity
  8
0
100
AcDbLine
 62
7
  6
CONTINUOUS
 10
13.5807206794
 20
9.7433651829
 11
13.6154727537
 21
9.8558229366
  0
LINE
  5
265
100
AcDbEntity
  8
0
100
AcDbLine
 62
7
  6
CONTINUOUS
 10
13.7106896653
 20
10.0355056439
 11
15.3308186015
 21
15.2782448029
  0
LINE
  5
266
100
AcDbEntity
  8
0
100
AcDbLine
 62
7
  6
CONTINUOUS
 10
14.0883933574
 20
9.7433647929
 11
14.0887428591
 21
9.7445712231
  0
LINE
  5
267
100
AcDbEntity
  8
0
100
AcDbLine
 62
7
  6
CONTINUOUS
 10
14.2183598153
 20
10.035506034
 11
14.2180103136
 21
10.0342996038
  0
LINE
  5
268
100
AcDbEntity
  8
0
100
AcDbLine
 62
7
  6
CONTINUOUS
 10
14.0883920934
 20
9.7433651829
 11
14.1231441677
 21
9.8558229366
  0
LINE
  5
269
100
AcDbEntity
  8
0
100
AcDbLine
 62
7
  6
CONTINUOUS
 10
14.2183610793
 20
10.0355056439
 11
15.8384900155
 21
15.2782448029
  0
LINE
  5
26A
100
AcDbEntity
  8
0
100
AcDbLine
 62
7
  6
CONTINUOUS
 10
16.1997947167
 20
9.8573760017
 11
16.1683297682
 21
9.9214948252
  0
LINE
  5
26B
100
AcDbEntity
  8
0
100
AcDbLine
 62
7
  6
CONTINUOUS
 10
14.5960647714
 20
9.7433647929
 11
14.5964142731
 21
9.7445712231
  0
LINE
  5
26C
100
AcDbEntity
  8
0
100
AcDbLine
 62
7
  6
CONTINUOUS
 10
14.7260312293
 20
10.035506034
 11
14.7256817276
 21
10.0342996038
  0
LINE
  5
26D
100
AcDbEntity
  8
0
100
AcDbLine
 62
7
  6
CONTINUOUS
 10
14.5960635074
 20
9.7433651829
 11
14.6308155817
 21
9.8558229366
  0
LINE
  5
26E
100
AcDbEntity
  8
0
100
AcDbLine
 62
7
  6
CONTINUOUS
 10
14.7260324933
 20
10.0355056439
 11
16.3461614295
 21
15.2782448029
  0
LINE
  5
26F
100
AcDbEntity
  8
0
100
AcDbLine
 62
7
  6
CONTINUOUS
 10
15.1037361854
 20
9.7433647929
 11
15.1040856871
 21
9.7445712231
  0
LINE
  5
270
100
AcDbEntity
  8
0
100
AcDbLine
 62
7
  6
CONTINUOUS
 10
15.2337026434
 20
10.035506034
 11
15.2333531417
 21
10.0342996038
  0
LINE
  5
271
100
AcDbEntity
  8
0
100
AcDbLine
 62
7
  6
CONTINUOUS
 10
15.1037349214
 20
9.7433651829
 11
15.1384869958
 21
9.8558229366
  0
LINE
  5
272
100
AcDbEntity
  8
0
100
AcDbLine
 62
7
  6
CONTINUOUS
 10
15.2337039074
 20
10.0355056439
 11
16.8538328435
 21
15.2782448029
  0
LINE
  5
273
100
AcDbEntity
  8
0
100
AcDbLine
 62
7
  6
CONTINUOUS
 10
15.6114075995
 20
9.7433647929
 11
15.6117571012
 21
9.7445712231
  0
LINE
  5
274
100
AcDbEntity
  8
0
100
AcDbLine
 62
7
  6
CONTINUOUS
 10
15.7413740574
 20
10.035506034
 11
15.7410245557
 21
10.0342996038
  0
LINE
  5
275
100
AcDbEntity
  8
0
100
AcDbLine
 62
7
  6
CONTINUOUS
 10
15.6114063355
 20
9.7433651829
 11
15.6461584098
 21
9.8558229366
  0
LINE
  5
276
100
AcDbEntity
  8
0
100
AcDbLine
 62
7
  6
CONTINUOUS
 10
15.7413753214
 20
10.0355056439
 11
17.3615042576
 21
15.2782448029
  0
LINE
  5
277
100
AcDbEntity
  8
0
100
AcDbLine
 62
7
  6
CONTINUOUS
 10
16.1190790135
 20
9.7433647929
 11
16.1194285152
 21
9.7445712231
  0
LINE
  5
278
100
AcDbEntity
  8
0
100
AcDbLine
 62
7
  6
CONTINUOUS
 10
17.7884587044
 20
15.1642339841
 11
16.1683297682
 21
9.9214948252
  0
LINE
  5
279
100
AcDbEntity
  8
0
100
AcDbLine
 62
7
  6
CONTINUOUS
 10
16.1190777495
 20
9.7433651829
 11
16.1538298238
 21
9.8558229366
  0
LINE
  5
27A
100
AcDbEntity
  8
0
100
AcDbLine
 62
7
  6
CONTINUOUS
 10
17.8199236528
 20
15.1001151606
 11
16.1997947167
 21
9.8573760017
  0
LINE
  5
27B
100
AcDbEntity
  8
0
100
AcDbLine
 62
7
  6
CONTINUOUS
 10
17.7884587044
 20
15.1642339841
 11
17.7580329961
 21
15.1642339841
  0
LINE
  5
27C
100
AcDbEntity
  8
0
100
AcDbLine
 62
7
  6
CONTINUOUS
 10
14.7728559285
 20
15.1642339841
 11
14.7424302203
 21
15.1642339841
  0
LINE
  5
27D
100
AcDbEntity
  8
0
100
AcDbLine
 62
7
  6
CONTINUOUS
 10
15.2196759261
 20
15.1642339841
 11
15.2805273426
 21
15.1642339841
  0
LINE
  5
27E
100
AcDbEntity
  8
0
100
AcDbLine
 62
7
  6
CONTINUOUS
 10
15.7273473401
 20
15.1642339841
 11
15.7881987566
 21
15.1642339841
  0
LINE
  5
27F
100
AcDbEntity
  8
0
100
AcDbLine
 62
7
  6
CONTINUOUS
 10
16.2350187541
 20
15.1642339841
 11
16.2958701706
 21
15.1642339841
  0
LINE
  5
280
100
AcDbEntity
  8
0
100
AcDbLine
 62
7
  6
CONTINUOUS
 10
16.7426901681
 20
15.1642339841
 11
16.8035415846
 21
15.1642339841
  0
LINE
  5
281
100
AcDbEntity
  8
0
100
AcDbLine
 62
7
  6
CONTINUOUS
 10
17.2503615821
 20
15.1642339841
 11
17.3112129986
 21
15.1642339841
  0
LINE
  5
282
100
AcDbEntity
  8
0
100
AcDbLine
 62
7
  6
CONTINUOUS
 10
17.4843812257
 20
15.3157208228
 11
17.4361868829
 21
15.3157208228
  0
LINE
  5
283
100
AcDbEntity
  8
0
100
AcDbLine
 62
7
  6
CONTINUOUS
 10
16.9767098116
 20
15.3157208228
 11
16.9285154689
 21
15.3157208228
  0
LINE
  5
284
100
AcDbEntity
  8
0
100
AcDbLine
 62
7
  6
CONTINUOUS
 10
16.4690383976
 20
15.3157208228
 11
16.4208440549
 21
15.3157208228
  0
LINE
  5
285
100
AcDbEntity
  8
0
100
AcDbLine
 62
7
  6
CONTINUOUS
 10
15.9613669836
 20
15.3157208228
 11
15.9131726409
 21
15.3157208228
  0
LINE
  5
286
100
AcDbEntity
  8
0
100
AcDbLine
 62
7
  6
CONTINUOUS
 10
15.4536955696
 20
15.3157208228
 11
15.4055012269
 21
15.3157208228
  0
LINE
  5
287
100
AcDbEntity
  8
0
100
AcDbLine
 62
7
  6
CONTINUOUS
 10
14.9460241556
 20
15.3157208228
 11
14.8978298129
 21
15.3157208228
  0
LINE
  5
288
100
AcDbEntity
  8
0
100
AcDbLine
 62
7
  6
CONTINUOUS
 10
17.8199236528
 20
15.1001151606
 11
17.7884587044
 21
15.1642339841
  0
ARC
  5
289
100
AcDbEntity
  8
0
100
AcDbCircle
 62
7
  6
CONTINUOUS
 10
4.9763318431
 20
5.4685450936
 40
0.3961614173
100
AcDbArc
 50
189.3197114863
 51
207.2630120422
  0
ARC
  5
28A
100
AcDbEntity
  8
0
100
AcDbCircle
 62
7
  6
CONTINUOUS
 10
4.5284971974
 20
5.4685450936
 40
0.3961614173
100
AcDbArc
 50
332.7369879578
 51
350.6802885137
  0
ARC
  5
28B
100
AcDbEntity
  8
0
100
AcDbCircle
 62
7
  6
CONTINUOUS
 10
5.5275129455
 20
5.4685450936
 40
0.3961614173
100
AcDbArc
 50
189.3197114863
 51
207.2630120422
  0
ARC
  5
28C
100
AcDbEntity
  8
0
100
AcDbCircle
 62
7
  6
CONTINUOUS
 10
5.0796782998
 20
5.4685450936
 40
0.3961614173
100
AcDbArc
 50
332.7369879578
 51
350.6802885137
  0
ARC
  5
28D
100
AcDbEntity
  8
0
100
AcDbCircle
 62
7
  6
CONTINUOUS
 10
6.0786940478
 20
5.4685450936
 40
0.3961614173
100
AcDbArc
 50
189.3197114863
 51
207.2630120422
  0
ARC
  5
28E
100
AcDbEntity
  8
0
100
AcDbCircle
 62
7
  6
CONTINUOUS
 10
5.6308594022
 20
5.4685450936
 40
0.3961614173
100
AcDbArc
 50
332.7369879578
 51
350.6802885137
  0
ARC
  5
28F
100
AcDbEntity
  8
0
100
AcDbCircle
 62
7
  6
CONTINUOUS
 10
4.7262521146
 20
5.3396737025
 40
0.1148293963
100
AcDbArc
 50
207.2630120422
 51
270.0
  0
ARC
  5
290
100
AcDbEntity
  8
0
100
AcDbCircle
 62
7
  6
CONTINUOUS
 10
4.7785769259
 20
5.3396737025
 40
0.1148293963
100
AcDbArc
 50
270.0
 51
332.7369879578
  0
ARC
  5
291
100
AcDbEntity
  8
0
100
AcDbCircle
 62
7
  6
CONTINUOUS
 10
5.277433217
 20
5.3396737025
 40
0.1148293963
100
AcDbArc
 50
207.2630120422
 51
270.0
  0
ARC
  5
292
100
AcDbEntity
  8
0
100
AcDbCircle
 62
7
  6
CONTINUOUS
 10
5.3297580283
 20
5.3396737025
 40
0.1148293963
100
AcDbArc
 50
270.0
 51
332.7369879578
  0
ARC
  5
293
100
AcDbEntity
  8
0
100
AcDbCircle
 62
7
  6
CONTINUOUS
 10
5.8286143193
 20
5.3396737025
 40
0.1148293963
100
AcDbArc
 50
207.2630120422
 51
270.0
  0
ARC
  5
294
100
AcDbEntity
  8
0
100
AcDbCircle
 62
7
  6
CONTINUOUS
 10
5.8809391306
 20
5.3396737025
 40
0.1148293963
100
AcDbArc
 50
270.0
 51
332.7369879578
  0
ARC
  5
295
100
AcDbEntity
  8
0
100
AcDbCircle
 62
7
  6
CONTINUOUS
 10
4.9949717453
 20
5.3919921627
 40
0.0765529309
100
AcDbArc
 50
90.0
 51
170.6802885137
  0
ARC
  5
296
100
AcDbEntity
  8
0
100
AcDbCircle
 62
7
  6
CONTINUOUS
 10
4.5098572953
 20
5.3919921627
 40
0.0765529309
100
AcDbArc
 50
9.3197114863
 51
90.0
  0
ARC
  5
297
100
AcDbEntity
  8
0
100
AcDbCircle
 62
7
  6
CONTINUOUS
 10
5.5461528476
 20
5.3919921627
 40
0.0765529309
100
AcDbArc
 50
90.0
 51
170.6802885137
  0
ARC
  5
298
100
AcDbEntity
  8
0
100
AcDbCircle
 62
7
  6
CONTINUOUS
 10
5.0610383976
 20
5.3919921627
 40
0.0765529309
100
AcDbArc
 50
9.3197114863
 51
90.0
  0
ARC
  5
299
100
AcDbEntity
  8
0
100
AcDbCircle
 62
7
  6
CONTINUOUS
 10
6.09733395
 20
5.3919921627
 40
0.0765529309
100
AcDbArc
 50
90.0
 51
170.6802885137
  0
ARC
  5
29A
100
AcDbEntity
  8
0
100
AcDbCircle
 62
7
  6
CONTINUOUS
 10
5.6122195
 20
5.3919921627
 40
0.0765529309
100
AcDbArc
 50
9.3197114863
 51
90.0
  0
ARC
  5
29B
100
AcDbEntity
  8
0
100
AcDbCircle
 62
7
  6
CONTINUOUS
 10
4.9763318431
 20
5.5716946999
 40
0.3961614173
100
AcDbArc
 50
152.7369879578
 51
170.6802885137
  0
ARC
  5
29C
100
AcDbEntity
  8
0
100
AcDbCircle
 62
7
  6
CONTINUOUS
 10
4.5284971974
 20
5.5716946999
 40
0.3961614173
100
AcDbArc
 50
9.3197114863
 51
27.2630120422
  0
ARC
  5
29D
100
AcDbEntity
  8
0
100
AcDbCircle
 62
7
  6
CONTINUOUS
 10
5.5275129455
 20
5.5716946999
 40
0.3961614173
100
AcDbArc
 50
152.7369879578
 51
170.6802885137
  0
ARC
  5
29E
100
AcDbEntity
  8
0
100
AcDbCircle
 62
7
  6
CONTINUOUS
 10
5.0796782998
 20
5.5716946999
 40
0.3961614173
100
AcDbArc
 50
9.3197114863
 51
27.2630120422
  0
ARC
  5
29F
100
AcDbEntity
  8
0
100
AcDbCircle
 62
7
  6
CONTINUOUS
 10
6.0786940478
 20
5.5716946999
 40
0.3961614173
100
AcDbArc
 50
152.7369879578
 51
170.6802885137
  0
ARC
  5
2A0
100
AcDbEntity
  8
0
100
AcDbCircle
 62
7
  6
CONTINUOUS
 10
5.6308594022
 20
5.5716946999
 40
0.3961614173
100
AcDbArc
 50
9.3197114863
 51
27.2630120422
  0
ARC
  5
2A1
100
AcDbEntity
  8
0
100
AcDbCircle
 62
7
  6
CONTINUOUS
 10
4.7785769259
 20
5.700566091
 40
0.1148293963
100
AcDbArc
 50
27.2630120422
 51
90.0
  0
ARC
  5
2A2
100
AcDbEntity
  8
0
100
AcDbCircle
 62
7
  6
CONTINUOUS
 10
4.7262521146
 20
5.700566091
 40
0.1148293963
100
AcDbArc
 50
90.0
 51
152.7369879578
  0
ARC
  5
2A3
100
AcDbEntity
  8
0
100
AcDbCircle
 62
7
  6
CONTINUOUS
 10
5.277433217
 20
5.700566091
 40
0.1148293963
100
AcDbArc
 50
90.0
 51
152.7369879578
  0
ARC
  5
2A4
100
AcDbEntity
  8
0
100
AcDbCircle
 62
7
  6
CONTINUOUS
 10
5.3297580283
 20
5.700566091
 40
0.1148293963
100
AcDbArc
 50
27.2630120422
 51
90.0
  0
ARC
  5
2A5
100
AcDbEntity
  8
0
100
AcDbCircle
 62
7
  6
CONTINUOUS
 10
5.8286143193
 20
5.700566091
 40
0.1148293963
100
AcDbArc
 50
90.0
 51
152.7369879578
  0
ARC
  5
2A6
100
AcDbEntity
  8
0
100
AcDbCircle
 62
7
  6
CONTINUOUS
 10
5.8809391306
 20
5.700566091
 40
0.1148293963
100
AcDbArc
 50
27.2630120422
 51
90.0
  0
ARC
  5
2A7
100
AcDbEntity
  8
0
100
AcDbCircle
 62
7
  6
CONTINUOUS
 10
4.9949717453
 20
5.6482476308
 40
0.0765529309
100
AcDbArc
 50
189.3197114863
 51
270.0
  0
ARC
  5
2A8
100
AcDbEntity
  8
0
100
AcDbCircle
 62
7
  6
CONTINUOUS
 10
4.5098572953
 20
5.6482476308
 40
0.0765529309
100
AcDbArc
 50
270.0
 51
350.6802885137
  0
ARC
  5
2A9
100
AcDbEntity
  8
0
100
AcDbCircle
 62
7
  6
CONTINUOUS
 10
5.5461528476
 20
5.6482476308
 40
0.0765529309
100
AcDbArc
 50
189.3197114863
 51
270.0
  0
ARC
  5
2AA
100
AcDbEntity
  8
0
100
AcDbCircle
 62
7
  6
CONTINUOUS
 10
5.0610383976
 20
5.6482476308
 40
0.0765529309
100
AcDbArc
 50
270.0
 51
350.6802885137
  0
ARC
  5
2AB
100
AcDbEntity
  8
0
100
AcDbCircle
 62
7
  6
CONTINUOUS
 10
6.09733395
 20
5.6482476308
 40
0.0765529309
100
AcDbArc
 50
189.3197114863
 51
270.0
  0
ARC
  5
2AC
100
AcDbEntity
  8
0
100
AcDbCircle
 62
7
  6
CONTINUOUS
 10
5.6122195
 20
5.6482476308
 40
0.0765529309
100
AcDbArc
 50
270.0
 51
350.6802885137
  0
ARC
  5
2AD
100
AcDbEntity
  8
0
100
AcDbCircle
 62
7
  6
CONTINUOUS
 10
6.6298751502
 20
5.4685450936
 40
0.3961614173
100
AcDbArc
 50
189.3197114863
 51
207.2630120422
  0
ARC
  5
2AE
100
AcDbEntity
  8
0
100
AcDbCircle
 62
7
  6
CONTINUOUS
 10
6.1820405045
 20
5.4685450936
 40
0.3961614173
100
AcDbArc
 50
332.7369879578
 51
350.6802885137
  0
ARC
  5
2AF
100
AcDbEntity
  8
0
100
AcDbCircle
 62
7
  6
CONTINUOUS
 10
7.1810562525
 20
5.4685450936
 40
0.3961614173
100
AcDbArc
 50
189.3197114863
 51
207.2630120422
  0
ARC
  5
2B0
100
AcDbEntity
  8
0
100
AcDbCircle
 62
7
  6
CONTINUOUS
 10
6.7332216069
 20
5.4685450936
 40
0.3961614173
100
AcDbArc
 50
332.7369879578
 51
350.6802885137
  0
ARC
  5
2B1
100
AcDbEntity
  8
0
100
AcDbCircle
 62
7
  6
CONTINUOUS
 10
7.2844027092
 20
5.4685450936
 40
0.3961614173
100
AcDbArc
 50
332.7369879578
 51
350.6802885137
  0
ARC
  5
2B2
100
AcDbEntity
  8
0
100
AcDbCircle
 62
7
  6
CONTINUOUS
 10
7.7322373549
 20
5.4685450936
 40
0.3961614173
100
AcDbArc
 50
189.3197114863
 51
207.2630120422
  0
ARC
  5
2B3
100
AcDbEntity
  8
0
100
AcDbCircle
 62
7
  6
CONTINUOUS
 10
6.3797954217
 20
5.3396737025
 40
0.1148293963
100
AcDbArc
 50
207.2630120422
 51
270.0
  0
ARC
  5
2B4
100
AcDbEntity
  8
0
100
AcDbCircle
 62
7
  6
CONTINUOUS
 10
6.432120233
 20
5.3396737025
 40
0.1148293963
100
AcDbArc
 50
270.0
 51
332.7369879578
  0
ARC
  5
2B5
100
AcDbEntity
  8
0
100
AcDbCircle
 62
7
  6
CONTINUOUS
 10
6.9309765241
 20
5.3396737025
 40
0.1148293963
100
AcDbArc
 50
207.2630120422
 51
270.0
  0
ARC
  5
2B6
100
AcDbEntity
  8
0
100
AcDbCircle
 62
7
  6
CONTINUOUS
 10
6.9833013354
 20
5.3396737025
 40
0.1148293963
100
AcDbArc
 50
270.0
 51
332.7369879578
  0
ARC
  5
2B7
100
AcDbEntity
  8
0
100
AcDbCircle
 62
7
  6
CONTINUOUS
 10
7.5344824377
 20
5.3396737025
 40
0.1148293963
100
AcDbArc
 50
270.0
 51
332.7369879578
  0
ARC
  5
2B8
100
AcDbEntity
  8
0
100
AcDbCircle
 62
7
  6
CONTINUOUS
 10
7.4821576264
 20
5.3396737025
 40
0.1148293963
100
AcDbArc
 50
207.2630120422
 51
270.0
  0
ARC
  5
2B9
100
AcDbEntity
  8
0
100
AcDbCircle
 62
7
  6
CONTINUOUS
 10
6.6485150523
 20
5.3919921627
 40
0.0765529309
100
AcDbArc
 50
90.0
 51
170.6802885137
  0
ARC
  5
2BA
100
AcDbEntity
  8
0
100
AcDbCircle
 62
7
  6
CONTINUOUS
 10
6.1634006024
 20
5.3919921627
 40
0.0765529309
100
AcDbArc
 50
9.3197114863
 51
90.0
  0
ARC
  5
2BB
100
AcDbEntity
  8
0
100
AcDbCircle
 62
7
  6
CONTINUOUS
 10
7.1996961547
 20
5.3919921627
 40
0.0765529309
100
AcDbArc
 50
90.0
 51
170.6802885137
  0
ARC
  5
2BC
100
AcDbEntity
  8
0
100
AcDbCircle
 62
7
  6
CONTINUOUS
 10
6.7145817047
 20
5.3919921627
 40
0.0765529309
100
AcDbArc
 50
9.3197114863
 51
90.0
  0
ARC
  5
2BD
100
AcDbEntity
  8
0
100
AcDbCircle
 62
7
  6
CONTINUOUS
 10
7.7508772571
 20
5.3919921627
 40
0.0765529309
100
AcDbArc
 50
90.0
 51
170.6802885137
  0
ARC
  5
2BE
100
AcDbEntity
  8
0
100
AcDbCircle
 62
7
  6
CONTINUOUS
 10
7.2657628071
 20
5.3919921627
 40
0.0765529309
100
AcDbArc
 50
9.3197114863
 51
90.0
  0
ARC
  5
2BF
100
AcDbEntity
  8
0
100
AcDbCircle
 62
7
  6
CONTINUOUS
 10
6.6298751502
 20
5.5716946999
 40
0.3961614173
100
AcDbArc
 50
152.7369879578
 51
170.6802885137
  0
ARC
  5
2C0
100
AcDbEntity
  8
0
100
AcDbCircle
 62
7
  6
CONTINUOUS
 10
6.1820405045
 20
5.5716946999
 40
0.3961614173
100
AcDbArc
 50
9.3197114863
 51
27.2630120422
  0
ARC
  5
2C1
100
AcDbEntity
  8
0
100
AcDbCircle
 62
7
  6
CONTINUOUS
 10
7.1810562525
 20
5.5716946999
 40
0.3961614173
100
AcDbArc
 50
152.7369879578
 51
170.6802885137
  0
ARC
  5
2C2
100
AcDbEntity
  8
0
100
AcDbCircle
 62
7
  6
CONTINUOUS
 10
6.7332216069
 20
5.5716946999
 40
0.3961614173
100
AcDbArc
 50
9.3197114863
 51
27.2630120422
  0
ARC
  5
2C3
100
AcDbEntity
  8
0
100
AcDbCircle
 62
7
  6
CONTINUOUS
 10
7.7322373549
 20
5.5716946999
 40
0.3961614173
100
AcDbArc
 50
152.7369879578
 51
170.6802885137
  0
ARC
  5
2C4
100
AcDbEntity
  8
0
100
AcDbCircle
 62
7
  6
CONTINUOUS
 10
7.2844027092
 20
5.5716946999
 40
0.3961614173
100
AcDbArc
 50
9.3197114863
 51
27.2630120422
  0
ARC
  5
2C5
100
AcDbEntity
  8
0
100
AcDbCircle
 62
7
  6
CONTINUOUS
 10
6.3797954217
 20
5.700566091
 40
0.1148293963
100
AcDbArc
 50
90.0
 51
152.7369879578
  0
ARC
  5
2C6
100
AcDbEntity
  8
0
100
AcDbCircle
 62
7
  6
CONTINUOUS
 10
6.432120233
 20
5.700566091
 40
0.1148293963
100
AcDbArc
 50
27.2630120422
 51
90.0
  0
ARC
  5
2C7
100
AcDbEntity
  8
0
100
AcDbCircle
 62
7
  6
CONTINUOUS
 10
6.9309765241
 20
5.700566091
 40
0.1148293963
100
AcDbArc
 50
90.0
 51
152.7369879578
  0
ARC
  5
2C8
100
AcDbEntity
  8
0
100
AcDbCircle
 62
7
  6
CONTINUOUS
 10
6.9833013354
 20
5.700566091
 40
0.1148293963
100
AcDbArc
 50
27.2630120422
 51
90.0
  0
ARC
  5
2C9
100
AcDbEntity
  8
0
100
AcDbCircle
 62
7
  6
CONTINUOUS
 10
7.4821576264
 20
5.700566091
 40
0.1148293963
100
AcDbArc
 50
90.0
 51
152.7369879578
  0
ARC
  5
2CA
100
AcDbEntity
  8
0
100
AcDbCircle
 62
7
  6
CONTINUOUS
 10
7.5344824377
 20
5.700566091
 40
0.1148293963
100
AcDbArc
 50
27.2630120422
 51
90.0
  0
ARC
  5
2CB
100
AcDbEntity
  8
0
100
AcDbCircle
 62
7
  6
CONTINUOUS
 10
6.6485150523
 20
5.6482476308
 40
0.0765529309
100
AcDbArc
 50
189.3197114863
 51
270.0
  0
ARC
  5
2CC
100
AcDbEntity
  8
0
100
AcDbCircle
 62
7
  6
CONTINUOUS
 10
6.1634006024
 20
5.6482476308
 40
0.0765529309
100
AcDbArc
 50
270.0
 51
350.6802885137
  0
ARC
  5
2CD
100
AcDbEntity
  8
0
100
AcDbCircle
 62
7
  6
CONTINUOUS
 10
7.1996961547
 20
5.6482476308
 40
0.0765529309
100
AcDbArc
 50
189.3197114863
 51
270.0
  0
ARC
  5
2CE
100
AcDbEntity
  8
0
100
AcDbCircle
 62
7
  6
CONTINUOUS
 10
6.7145817047
 20
5.6482476308
 40
0.0765529309
100
AcDbArc
 50
270.0
 51
350.6802885137
  0
ARC
  5
2CF
100
AcDbEntity
  8
0
100
AcDbCircle
 62
7
  6
CONTINUOUS
 10
7.7508772571
 20
5.6482476308
 40
0.0765529309
100
AcDbArc
 50
189.3197114863
 51
270.0
  0
ARC
  5
2D0
100
AcDbEntity
  8
0
100
AcDbCircle
 62
7
  6
CONTINUOUS
 10
7.2657628071
 20
5.6482476308
 40
0.0765529309
100
AcDbArc
 50
270.0
 51
350.6802885137
  0
SPLINE
  5
2D1
100
AcDbEntity
  8
0
100
AcDbSpline
 62
7
  6
CONTINUOUS
 70
0
 71
3
 72
9
 73
5
 74
0
 42
0.0000001
 43
0.0000001
 44
0.0000000001
 40
0.0
 40
0.0
 40
0.0
 40
0.0
 40
0.2355953265
 40
1.0
 40
1.0
 40
1.0
 40
1.0
 10
15.130526561
 20
15.2041138037
 30
0.0
 10
15.1257731162
 20
15.2105908084
 30
0.0
 10
15.1045083373
 20
15.2372816588
 30
0.0
 10
15.0794046205
 20
15.2607888144
 30
0.0
 10
15.0590223427
 20
15.2770387627
 30
0.0
  0
SPLINE
  5
2D2
100
AcDbEntity
  8
0
100
AcDbSpline
 62
7
  6
CONTINUOUS
 70
0
 71
3
 72
9
 73
5
 74
0
 42
0.0000001
 43
0.0000001
 44
0.0000000001
 40
0.0
 40
0.0
 40
0.0
 40
0.0
 40
0.5048331913
 40
1.0
 40
1.0
 40
1.0
 40
1.0
 10
14.9460241556
 20
15.3157208228
 30
0.0
 10
14.9663815356
 20
15.3157208228
 30
0.0
 10
15.0067570316
 20
15.3082250514
 30
0.0
 10
15.0434094235
 20
15.2894862984
 30
0.0
 10
15.0590223427
 20
15.2770387627
 30
0.0
  0
SPLINE
  5
2D3
100
AcDbEntity
  8
0
100
AcDbSpline
 62
7
  6
CONTINUOUS
 70
0
 71
3
 72
11
 73
7
 74
0
 42
0.0000001
 43
0.0000001
 44
0.0000000001
 40
0.0
 40
0.0
 40
0.0
 40
0.0
 40
0.2022199507
 40
0.4300501653
 40
0.6962092299
 40
1.0
 40
1.0
 40
1.0
 40
1.0
 10
13.5812231941
 20
9.8323920722
 30
0.0
 10
13.5824011054
 20
9.8362032606
 30
0.0
 10
13.5870051267
 20
9.8437402169
 30
0.0
 10
13.5985662767
 20
9.8516581436
 30
0.0
 10
13.6137322679
 20
9.8564254092
 30
0.0
 10
13.6250192515
 20
9.8573760017
 30
0.0
 10
13.6310119383
 20
9.8573760017
 30
0.0
  0
SPLINE
  5
2D4
100
AcDbEntity
  8
0
100
AcDbSpline
 62
7
  6
CONTINUOUS
 70
0
 71
3
 72
11
 73
7
 74
0
 42
0.0000001
 43
0.0000001
 44
0.0000000001
 40
0.0
 40
0.0
 40
0.0
 40
0.0
 40
0.2022199507
 40
0.4300501653
 40
0.6962092299
 40
1.0
 40
1.0
 40
1.0
 40
1.0
 10
14.0888946081
 20
9.8323920722
 30
0.0
 10
14.0900725194
 20
9.8362032606
 30
0.0
 10
14.0946765407
 20
9.8437402169
 30
0.0
 10
14.1062376907
 20
9.8516581436
 30
0.0
 10
14.1214036819
 20
9.8564254092
 30
0.0
 10
14.1326906655
 20
9.8573760017
 30
0.0
 10
14.1386833523
 20
9.8573760017
 30
0.0
  0
SPLINE
  5
2D5
100
AcDbEntity
  8
0
100
AcDbSpline
 62
7
  6
CONTINUOUS
 70
0
 71
3
 72
11
 73
7
 74
0
 42
0.0000001
 43
0.0000001
 44
0.0000000001
 40
0.0
 40
0.0
 40
0.0
 40
0.0
 40
0.2022199507
 40
0.4300501653
 40
0.6962092299
 40
1.0
 40
1.0
 40
1.0
 40
1.0
 10
14.5965660222
 20
9.8323920722
 30
0.0
 10
14.5977439334
 20
9.8362032606
 30
0.0
 10
14.6023479547
 20
9.8437402169
 30
0.0
 10
14.6139091047
 20
9.8516581436
 30
0.0
 10
14.6290750959
 20
9.8564254092
 30
0.0
 10
14.6403620796
 20
9.8573760017
 30
0.0
 10
14.6463547664
 20
9.8573760017
 30
0.0
  0
SPLINE
  5
2D6
100
AcDbEntity
  8
0
100
AcDbSpline
 62
7
  6
CONTINUOUS
 70
0
 71
3
 72
11
 73
7
 74
0
 42
0.0000001
 43
0.0000001
 44
0.0000000001
 40
0.0
 40
0.0
 40
0.0
 40
0.0
 40
0.2022199507
 40
0.4300501653
 40
0.6962092299
 40
1.0
 40
1.0
 40
1.0
 40
1.0
 10
15.1042374362
 20
9.8323920722
 30
0.0
 10
15.1054153474
 20
9.8362032606
 30
0.0
 10
15.1100193687
 20
9.8437402169
 30
0.0
 10
15.1215805187
 20
9.8516581436
 30
0.0
 10
15.13674651
 20
9.8564254092
 30
0.0
 10
15.1480334936
 20
9.8573760017
 30
0.0
 10
15.1540261804
 20
9.8573760017
 30
0.0
  0
SPLINE
  5
2D7
100
AcDbEntity
  8
0
100
AcDbSpline
 62
7
  6
CONTINUOUS
 70
0
 71
3
 72
11
 73
7
 74
0
 42
0.0000001
 43
0.0000001
 44
0.0000000001
 40
0.0
 40
0.0
 40
0.0
 40
0.0
 40
0.2022199507
 40
0.4300501653
 40
0.6962092299
 40
1.0
 40
1.0
 40
1.0
 40
1.0
 10
15.6119088502
 20
9.8323920722
 30
0.0
 10
15.6130867614
 20
9.8362032606
 30
0.0
 10
15.6176907828
 20
9.8437402169
 30
0.0
 10
15.6292519328
 20
9.8516581436
 30
0.0
 10
15.644417924
 20
9.8564254092
 30
0.0
 10
15.6557049076
 20
9.8573760017
 30
0.0
 10
15.6616975944
 20
9.8573760017
 30
0.0
  0
SPLINE
  5
2D8
100
AcDbEntity
  8
0
100
AcDbSpline
 62
7
  6
CONTINUOUS
 70
0
 71
3
 72
11
 73
7
 74
0
 42
0.0000001
 43
0.0000001
 44
0.0000000001
 40
0.0
 40
0.0
 40
0.0
 40
0.0
 40
0.2022199507
 40
0.4300501653
 40
0.6962092299
 40
1.0
 40
1.0
 40
1.0
 40
1.0
 10
16.1195802642
 20
9.8323920722
 30
0.0
 10
16.1207581755
 20
9.8362032606
 30
0.0
 10
16.1253621968
 20
9.8437402169
 30
0.0
 10
16.1369233468
 20
9.8516581436
 30
0.0
 10
16.152089338
 20
9.8564254092
 30
0.0
 10
16.1633763216
 20
9.8573760017
 30
0.0
 10
16.1693690084
 20
9.8573760017
 30
0.0
  0
SPLINE
  5
2D9
100
AcDbEntity
  8
0
100
AcDbSpline
 62
7
  6
CONTINUOUS
 70
0
 71
3
 72
11
 73
7
 74
0
 42
0.0000001
 43
0.0000001
 44
0.0000000001
 40
0.0
 40
0.0
 40
0.0
 40
0.0
 40
0.2022600563
 40
0.4300871704
 40
0.6961904944
 40
1.0
 40
1.0
 40
1.0
 40
1.0
 10
14.8231473194
 20
15.2782447614
 30
0.0
 10
14.8249154564
 20
15.2839623899
 30
0.0
 10
14.8318187609
 20
15.2952709772
 30
0.0
 10
14.8491646738
 20
15.3071419963
 30
0.0
 10
14.8719102188
 20
15.3142964625
 30
0.0
 10
14.8888402334
 20
15.3157208228
 30
0.0
 10
14.8978298129
 20
15.3157208228
 30
0.0
  0
SPLINE
  5
2DA
100
AcDbEntity
  8
0
100
AcDbSpline
 62
7
  6
CONTINUOUS
 70
0
 71
3
 72
9
 73
5
 74
0
 42
0.0000001
 43
0.0000001
 44
0.0000000001
 40
0.0
 40
0.0
 40
0.0
 40
0.0
 40
0.2356730812
 40
1.0
 40
1.0
 40
1.0
 40
1.0
 10
17.6688836311
 20
15.2041138037
 30
0.0
 10
17.6641286127
 20
15.2105929526
 30
0.0
 10
17.6428645326
 20
15.2372844417
 30
0.0
 10
17.6177596378
 20
15.2607904509
 30
0.0
 10
17.5973794128
 20
15.2770387627
 30
0.0
  0
SPLINE
  5
2DB
100
AcDbEntity
  8
0
100
AcDbSpline
 62
7
  6
CONTINUOUS
 70
0
 71
3
 72
9
 73
5
 74
0
 42
0.0000001
 43
0.0000001
 44
0.0000000001
 40
0.0
 40
0.0
 40
0.0
 40
0.0
 40
0.5048331913
 40
1.0
 40
1.0
 40
1.0
 40
1.0
 10
17.4843812257
 20
15.3157208228
 30
0.0
 10
17.5047386057
 20
15.3157208228
 30
0.0
 10
17.5451141017
 20
15.3082250514
 30
0.0
 10
17.5817664935
 20
15.2894862984
 30
0.0
 10
17.5973794128
 20
15.2770387627
 30
0.0
  0
SPLINE
  5
2DC
100
AcDbEntity
  8
0
100
AcDbSpline
 62
7
  6
CONTINUOUS
 70
0
 71
3
 72
9
 73
5
 74
0
 42
0.0000001
 43
0.0000001
 44
0.0000000001
 40
0.0
 40
0.0
 40
0.0
 40
0.0
 40
0.2355953265
 40
1.0
 40
1.0
 40
1.0
 40
1.0
 10
17.1612122171
 20
15.2041138037
 30
0.0
 10
17.1564587723
 20
15.2105908084
 30
0.0
 10
17.1351939934
 20
15.2372816588
 30
0.0
 10
17.1100902765
 20
15.2607888144
 30
0.0
 10
17.0897079988
 20
15.2770387627
 30
0.0
  0
SPLINE
  5
2DD
100
AcDbEntity
  8
0
100
AcDbSpline
 62
7
  6
CONTINUOUS
 70
0
 71
3
 72
9
 73
5
 74
0
 42
0.0000001
 43
0.0000001
 44
0.0000000001
 40
0.0
 40
0.0
 40
0.0
 40
0.0
 40
0.5048331913
 40
1.0
 40
1.0
 40
1.0
 40
1.0
 10
16.9767098116
 20
15.3157208228
 30
0.0
 10
16.9970671917
 20
15.3157208228
 30
0.0
 10
17.0374426877
 20
15.3082250514
 30
0.0
 10
17.0740950795
 20
15.2894862984
 30
0.0
 10
17.0897079988
 20
15.2770387627
 30
0.0
  0
SPLINE
  5
2DE
100
AcDbEntity
  8
0
100
AcDbSpline
 62
7
  6
CONTINUOUS
 70
0
 71
3
 72
11
 73
7
 74
0
 42
0.0000001
 43
0.0000001
 44
0.0000000001
 40
0.0
 40
0.0
 40
0.0
 40
0.0
 40
0.2022600563
 40
0.4300871704
 40
0.6961904944
 40
1.0
 40
1.0
 40
1.0
 40
1.0
 10
15.3308187335
 20
15.2782447614
 30
0.0
 10
15.3325868704
 20
15.2839623899
 30
0.0
 10
15.3394901749
 20
15.2952709772
 30
0.0
 10
15.3568360879
 20
15.3071419963
 30
0.0
 10
15.3795816329
 20
15.3142964625
 30
0.0
 10
15.3965116474
 20
15.3157208228
 30
0.0
 10
15.4055012269
 20
15.3157208228
 30
0.0
  0
SPLINE
  5
2DF
100
AcDbEntity
  8
0
100
AcDbSpline
 62
7
  6
CONTINUOUS
 70
0
 71
3
 72
9
 73
5
 74
0
 42
0.0000001
 43
0.0000001
 44
0.0000000001
 40
0.0
 40
0.0
 40
0.0
 40
0.0
 40
0.2355953265
 40
1.0
 40
1.0
 40
1.0
 40
1.0
 10
16.6535408031
 20
15.2041138037
 30
0.0
 10
16.6487873583
 20
15.2105908084
 30
0.0
 10
16.6275225794
 20
15.2372816588
 30
0.0
 10
16.6024188625
 20
15.2607888144
 30
0.0
 10
16.5820365847
 20
15.2770387627
 30
0.0
  0
SPLINE
  5
2E0
100
AcDbEntity
  8
0
100
AcDbSpline
 62
7
  6
CONTINUOUS
 70
0
 71
3
 72
9
 73
5
 74
0
 42
0.0000001
 43
0.0000001
 44
0.0000000001
 40
0.0
 40
0.0
 40
0.0
 40
0.0
 40
0.5048331913
 40
1.0
 40
1.0
 40
1.0
 40
1.0
 10
16.4690383976
 20
15.3157208228
 30
0.0
 10
16.4893957777
 20
15.3157208228
 30
0.0
 10
16.5297712736
 20
15.3082250514
 30
0.0
 10
16.5664236655
 20
15.2894862984
 30
0.0
 10
16.5820365847
 20
15.2770387627
 30
0.0
  0
SPLINE
  5
2E1
100
AcDbEntity
  8
0
100
AcDbSpline
 62
7
  6
CONTINUOUS
 70
0
 71
3
 72
9
 73
5
 74
0
 42
0.0000001
 43
0.0000001
 44
0.0000000001
 40
0.0
 40
0.0
 40
0.0
 40
0.0
 40
0.2355953265
 40
1.0
 40
1.0
 40
1.0
 40
1.0
 10
16.1458693891
 20
15.2041138037
 30
0.0
 10
16.1411159443
 20
15.2105908084
 30
0.0
 10
16.1198511653
 20
15.2372816588
 30
0.0
 10
16.0947474485
 20
15.2607888144
 30
0.0
 10
16.0743651707
 20
15.2770387627
 30
0.0
  0
SPLINE
  5
2E2
100
AcDbEntity
  8
0
100
AcDbSpline
 62
7
  6
CONTINUOUS
 70
0
 71
3
 72
9
 73
5
 74
0
 42
0.0000001
 43
0.0000001
 44
0.0000000001
 40
0.0
 40
0.0
 40
0.0
 40
0.0
 40
0.5048331913
 40
1.0
 40
1.0
 40
1.0
 40
1.0
 10
15.9613669836
 20
15.3157208228
 30
0.0
 10
15.9817243637
 20
15.3157208228
 30
0.0
 10
16.0220998596
 20
15.3082250514
 30
0.0
 10
16.0587522515
 20
15.2894862984
 30
0.0
 10
16.0743651707
 20
15.2770387627
 30
0.0
  0
SPLINE
  5
2E3
100
AcDbEntity
  8
0
100
AcDbSpline
 62
7
  6
CONTINUOUS
 70
0
 71
3
 72
11
 73
7
 74
0
 42
0.0000001
 43
0.0000001
 44
0.0000000001
 40
0.0
 40
0.0
 40
0.0
 40
0.0
 40
0.2022600563
 40
0.4300871704
 40
0.6961904944
 40
1.0
 40
1.0
 40
1.0
 40
1.0
 10
15.8384901475
 20
15.2782447614
 30
0.0
 10
15.8402582844
 20
15.2839623899
 30
0.0
 10
15.8471615889
 20
15.2952709772
 30
0.0
 10
15.8645075019
 20
15.3071419963
 30
0.0
 10
15.8872530469
 20
15.3142964625
 30
0.0
 10
15.9041830614
 20
15.3157208228
 30
0.0
 10
15.9131726409
 20
15.3157208228
 30
0.0
  0
SPLINE
  5
2E4
100
AcDbEntity
  8
0
100
AcDbSpline
 62
7
  6
CONTINUOUS
 70
0
 71
3
 72
9
 73
5
 74
0
 42
0.0000001
 43
0.0000001
 44
0.0000000001
 40
0.0
 40
0.0
 40
0.0
 40
0.0
 40
0.2355953265
 40
1.0
 40
1.0
 40
1.0
 40
1.0
 10
15.6381979751
 20
15.2041138037
 30
0.0
 10
15.6334445303
 20
15.2105908084
 30
0.0
 10
15.6121797513
 20
15.2372816588
 30
0.0
 10
15.5870760345
 20
15.2607888144
 30
0.0
 10
15.5666937567
 20
15.2770387627
 30
0.0
  0
SPLINE
  5
2E5
100
AcDbEntity
  8
0
100
AcDbSpline
 62
7
  6
CONTINUOUS
 70
0
 71
3
 72
9
 73
5
 74
0
 42
0.0000001
 43
0.0000001
 44
0.0000000001
 40
0.0
 40
0.0
 40
0.0
 40
0.0
 40
0.5048331913
 40
1.0
 40
1.0
 40
1.0
 40
1.0
 10
15.4536955696
 20
15.3157208228
 30
0.0
 10
15.4740529497
 20
15.3157208228
 30
0.0
 10
15.5144284456
 20
15.3082250514
 30
0.0
 10
15.5510808375
 20
15.2894862984
 30
0.0
 10
15.5666937567
 20
15.2770387627
 30
0.0
  0
SPLINE
  5
2E6
100
AcDbEntity
  8
0
100
AcDbSpline
 62
7
  6
CONTINUOUS
 70
0
 71
3
 72
9
 73
5
 74
0
 42
0.0000001
 43
0.0000001
 44
0.0000000001
 40
0.0
 40
0.0
 40
0.0
 40
0.0
 40
0.4871870484
 40
1.0
 40
1.0
 40
1.0
 40
1.0
 10
13.7103388996
 20
10.0342996038
 30
0.0
 10
13.7071958473
 20
10.0227798637
 30
0.0
 10
13.7040523771
 20
9.9981267759
 30
0.0
 10
13.7073870227
 20
9.9735752398
 30
0.0
 10
13.7104074254
 20
9.9613746448
 30
0.0
  0
SPLINE
  5
2E7
100
AcDbEntity
  8
0
100
AcDbSpline
 62
7
  6
CONTINUOUS
 70
0
 71
3
 72
9
 73
5
 74
0
 42
0.0000001
 43
0.0000001
 44
0.0000000001
 40
0.0
 40
0.0
 40
0.0
 40
0.0
 40
0.4871870484
 40
1.0
 40
1.0
 40
1.0
 40
1.0
 10
14.2180103136
 20
10.0342996038
 30
0.0
 10
14.2148672613
 20
10.0227798637
 30
0.0
 10
14.2117237912
 20
9.9981267759
 30
0.0
 10
14.2150584367
 20
9.9735752398
 30
0.0
 10
14.2180788394
 20
9.9613746448
 30
0.0
  0
SPLINE
  5
2E8
100
AcDbEntity
  8
0
100
AcDbSpline
 62
7
  6
CONTINUOUS
 70
0
 71
3
 72
9
 73
5
 74
0
 42
0.0000001
 43
0.0000001
 44
0.0000000001
 40
0.0
 40
0.0
 40
0.0
 40
0.0
 40
0.4871870484
 40
1.0
 40
1.0
 40
1.0
 40
1.0
 10
14.7256817276
 20
10.0342996038
 30
0.0
 10
14.7225386753
 20
10.0227798637
 30
0.0
 10
14.7193952052
 20
9.9981267759
 30
0.0
 10
14.7227298507
 20
9.9735752398
 30
0.0
 10
14.7257502534
 20
9.9613746448
 30
0.0
  0
SPLINE
  5
2E9
100
AcDbEntity
  8
0
100
AcDbSpline
 62
7
  6
CONTINUOUS
 70
0
 71
3
 72
9
 73
5
 74
0
 42
0.0000001
 43
0.0000001
 44
0.0000000001
 40
0.0
 40
0.0
 40
0.0
 40
0.0
 40
0.4871870484
 40
1.0
 40
1.0
 40
1.0
 40
1.0
 10
15.2333531417
 20
10.0342996038
 30
0.0
 10
15.2302100894
 20
10.0227798637
 30
0.0
 10
15.2270666192
 20
9.9981267759
 30
0.0
 10
15.2304012648
 20
9.9735752398
 30
0.0
 10
15.2334216675
 20
9.9613746448
 30
0.0
  0
SPLINE
  5
2EA
100
AcDbEntity
  8
0
100
AcDbSpline
 62
7
  6
CONTINUOUS
 70
0
 71
3
 72
9
 73
5
 74
0
 42
0.0000001
 43
0.0000001
 44
0.0000000001
 40
0.0
 40
0.0
 40
0.0
 40
0.0
 40
0.4871860435
 40
1.0
 40
1.0
 40
1.0
 40
1.0
 10
15.7410245557
 20
10.0342996038
 30
0.0
 10
15.7378815086
 20
10.0227798828
 30
0.0
 10
15.7347377988
 20
9.9981268037
 30
0.0
 10
15.7380726716
 20
9.9735752687
 30
0.0
 10
15.7410930815
 20
9.9613746448
 30
0.0
  0
SPLINE
  5
2EB
100
AcDbEntity
  8
0
100
AcDbSpline
 62
7
  6
CONTINUOUS
 70
0
 71
3
 72
11
 73
7
 74
0
 42
0.0000001
 43
0.0000001
 44
0.0000000001
 40
0.0
 40
0.0
 40
0.0
 40
0.0
 40
0.3038095056
 40
0.5699128296
 40
0.7977399437
 40
1.0
 40
1.0
 40
1.0
 40
1.0
 10
16.0443951241
 20
9.705889163
 30
0.0
 10
16.0533847036
 20
9.705889163
 30
0.0
 10
16.0703147181
 20
9.7073135233
 30
0.0
 10
16.0930602631
 20
9.7144679895
 30
0.0
 10
16.1104061761
 20
9.7263390087
 30
0.0
 10
16.1173094806
 20
9.7376475959
 30
0.0
 10
16.1190776175
 20
9.7433652244
 30
0.0
  0
SPLINE
  5
2EC
100
AcDbEntity
  8
0
100
AcDbSpline
 62
7
  6
CONTINUOUS
 70
0
 71
3
 72
9
 73
5
 74
0
 42
0.0000001
 43
0.0000001
 44
0.0000000001
 40
0.0
 40
0.0
 40
0.0
 40
0.0
 40
0.4951668087
 40
1.0
 40
1.0
 40
1.0
 40
1.0
 10
15.8832025943
 20
9.7445712231
 30
0.0
 10
15.8988155135
 20
9.7321236874
 30
0.0
 10
15.9354679054
 20
9.7133849344
 30
0.0
 10
15.9758434013
 20
9.705889163
 30
0.0
 10
15.9962007814
 20
9.705889163
 30
0.0
  0
SPLINE
  5
2ED
100
AcDbEntity
  8
0
100
AcDbSpline
 62
7
  6
CONTINUOUS
 70
0
 71
3
 72
9
 73
5
 74
0
 42
0.0000001
 43
0.0000001
 44
0.0000000001
 40
0.0
 40
0.0
 40
0.0
 40
0.0
 40
0.2356730812
 40
1.0
 40
1.0
 40
1.0
 40
1.0
 10
15.8116983759
 20
9.8174961821
 30
0.0
 10
15.8164533943
 20
9.8110170332
 30
0.0
 10
15.8377174745
 20
9.7843255441
 30
0.0
 10
15.8628223692
 20
9.7608195349
 30
0.0
 10
15.8832025943
 20
9.7445712231
 30
0.0
  0
SPLINE
  5
2EE
100
AcDbEntity
  8
0
100
AcDbSpline
 62
7
  6
CONTINUOUS
 70
0
 71
3
 72
11
 73
7
 74
0
 42
0.0000001
 43
0.0000001
 44
0.0000000001
 40
0.0
 40
0.0
 40
0.0
 40
0.0
 40
0.3038095056
 40
0.5699128296
 40
0.7977399437
 40
1.0
 40
1.0
 40
1.0
 40
1.0
 10
15.5367237101
 20
9.705889163
 30
0.0
 10
15.5457132896
 20
9.705889163
 30
0.0
 10
15.5626433041
 20
9.7073135233
 30
0.0
 10
15.5853888491
 20
9.7144679895
 30
0.0
 10
15.602734762
 20
9.7263390087
 30
0.0
 10
15.6096380665
 20
9.7376475959
 30
0.0
 10
15.6114062035
 20
9.7433652244
 30
0.0
  0
SPLINE
  5
2EF
100
AcDbEntity
  8
0
100
AcDbSpline
 62
7
  6
CONTINUOUS
 70
0
 71
3
 72
9
 73
5
 74
0
 42
0.0000001
 43
0.0000001
 44
0.0000000001
 40
0.0
 40
0.0
 40
0.0
 40
0.0
 40
0.4951668087
 40
1.0
 40
1.0
 40
1.0
 40
1.0
 10
15.3755311802
 20
9.7445712231
 30
0.0
 10
15.3911440995
 20
9.7321236874
 30
0.0
 10
15.4277964913
 20
9.7133849344
 30
0.0
 10
15.4681719873
 20
9.705889163
 30
0.0
 10
15.4885293674
 20
9.705889163
 30
0.0
  0
SPLINE
  5
2F0
100
AcDbEntity
  8
0
100
AcDbSpline
 62
7
  6
CONTINUOUS
 70
0
 71
3
 72
9
 73
5
 74
0
 42
0.0000001
 43
0.0000001
 44
0.0000000001
 40
0.0
 40
0.0
 40
0.0
 40
0.0
 40
0.2355953265
 40
1.0
 40
1.0
 40
1.0
 40
1.0
 10
15.3040269619
 20
9.8174961821
 30
0.0
 10
15.3087804067
 20
9.8110191774
 30
0.0
 10
15.3300451856
 20
9.784328327
 30
0.0
 10
15.3551489025
 20
9.7608211714
 30
0.0
 10
15.3755311802
 20
9.7445712231
 30
0.0
  0
SPLINE
  5
2F1
100
AcDbEntity
  8
0
100
AcDbSpline
 62
7
  6
CONTINUOUS
 70
0
 71
3
 72
11
 73
7
 74
0
 42
0.0000001
 43
0.0000001
 44
0.0000000001
 40
0.0
 40
0.0
 40
0.0
 40
0.0
 40
0.3038095056
 40
0.5699128296
 40
0.7977399437
 40
1.0
 40
1.0
 40
1.0
 40
1.0
 10
15.0290522961
 20
9.705889163
 30
0.0
 10
15.0380418755
 20
9.705889163
 30
0.0
 10
15.0549718901
 20
9.7073135233
 30
0.0
 10
15.0777174351
 20
9.7144679895
 30
0.0
 10
15.095063348
 20
9.7263390087
 30
0.0
 10
15.1019666525
 20
9.7376475959
 30
0.0
 10
15.1037347895
 20
9.7433652244
 30
0.0
  0
SPLINE
  5
2F2
100
AcDbEntity
  8
0
100
AcDbSpline
 62
7
  6
CONTINUOUS
 70
0
 71
3
 72
9
 73
5
 74
0
 42
0.0000001
 43
0.0000001
 44
0.0000000001
 40
0.0
 40
0.0
 40
0.0
 40
0.0
 40
0.4951668087
 40
1.0
 40
1.0
 40
1.0
 40
1.0
 10
14.8678597662
 20
9.7445712231
 30
0.0
 10
14.8834726855
 20
9.7321236874
 30
0.0
 10
14.9201250773
 20
9.7133849344
 30
0.0
 10
14.9605005733
 20
9.705889163
 30
0.0
 10
14.9808579533
 20
9.705889163
 30
0.0
  0
SPLINE
  5
2F3
100
AcDbEntity
  8
0
100
AcDbSpline
 62
7
  6
CONTINUOUS
 70
0
 71
3
 72
9
 73
5
 74
0
 42
0.0000001
 43
0.0000001
 44
0.0000000001
 40
0.0
 40
0.0
 40
0.0
 40
0.0
 40
0.2355953265
 40
1.0
 40
1.0
 40
1.0
 40
1.0
 10
14.7963555479
 20
9.8174961821
 30
0.0
 10
14.8011089927
 20
9.8110191774
 30
0.0
 10
14.8223737716
 20
9.784328327
 30
0.0
 10
14.8474774885
 20
9.7608211714
 30
0.0
 10
14.8678597662
 20
9.7445712231
 30
0.0
  0
SPLINE
  5
2F4
100
AcDbEntity
  8
0
100
AcDbSpline
 62
7
  6
CONTINUOUS
 70
0
 71
3
 72
11
 73
7
 74
0
 42
0.0000001
 43
0.0000001
 44
0.0000000001
 40
0.0
 40
0.0
 40
0.0
 40
0.0
 40
0.3038095056
 40
0.5699128296
 40
0.7977399437
 40
1.0
 40
1.0
 40
1.0
 40
1.0
 10
14.521380882
 20
9.705889163
 30
0.0
 10
14.5303704615
 20
9.705889163
 30
0.0
 10
14.547300476
 20
9.7073135233
 30
0.0
 10
14.570046021
 20
9.7144679895
 30
0.0
 10
14.587391934
 20
9.7263390087
 30
0.0
 10
14.5942952385
 20
9.7376475959
 30
0.0
 10
14.5960633755
 20
9.7433652244
 30
0.0
  0
SPLINE
  5
2F5
100
AcDbEntity
  8
0
100
AcDbSpline
 62
7
  6
CONTINUOUS
 70
0
 71
3
 72
9
 73
5
 74
0
 42
0.0000001
 43
0.0000001
 44
0.0000000001
 40
0.0
 40
0.0
 40
0.0
 40
0.0
 40
0.4951668087
 40
1.0
 40
1.0
 40
1.0
 40
1.0
 10
14.3601883522
 20
9.7445712231
 30
0.0
 10
14.3758012714
 20
9.7321236874
 30
0.0
 10
14.4124536633
 20
9.7133849344
 30
0.0
 10
14.4528291592
 20
9.705889163
 30
0.0
 10
14.4731865393
 20
9.705889163
 30
0.0
  0
SPLINE
  5
2F6
100
AcDbEntity
  8
0
100
AcDbSpline
 62
7
  6
CONTINUOUS
 70
0
 71
3
 72
9
 73
5
 74
0
 42
0.0000001
 43
0.0000001
 44
0.0000000001
 40
0.0
 40
0.0
 40
0.0
 40
0.0
 40
0.2355953265
 40
1.0
 40
1.0
 40
1.0
 40
1.0
 10
14.2886841338
 20
9.8174961821
 30
0.0
 10
14.2934375787
 20
9.8110191774
 30
0.0
 10
14.3147023576
 20
9.784328327
 30
0.0
 10
14.3398060744
 20
9.7608211714
 30
0.0
 10
14.3601883522
 20
9.7445712231
 30
0.0
  0
SPLINE
  5
2F7
100
AcDbEntity
  8
0
100
AcDbSpline
 62
7
  6
CONTINUOUS
 70
0
 71
3
 72
11
 73
7
 74
0
 42
0.0000001
 43
0.0000001
 44
0.0000000001
 40
0.0
 40
0.0
 40
0.0
 40
0.0
 40
0.3038095056
 40
0.5699128296
 40
0.7977399437
 40
1.0
 40
1.0
 40
1.0
 40
1.0
 10
14.013709468
 20
9.705889163
 30
0.0
 10
14.0226990475
 20
9.705889163
 30
0.0
 10
14.039629062
 20
9.7073135233
 30
0.0
 10
14.062374607
 20
9.7144679895
 30
0.0
 10
14.07972052
 20
9.7263390087
 30
0.0
 10
14.0866238245
 20
9.7376475959
 30
0.0
 10
14.0883919614
 20
9.7433652244
 30
0.0
  0
SPLINE
  5
2F8
100
AcDbEntity
  8
0
100
AcDbSpline
 62
7
  6
CONTINUOUS
 70
0
 71
3
 72
9
 73
5
 74
0
 42
0.0000001
 43
0.0000001
 44
0.0000000001
 40
0.0
 40
0.0
 40
0.0
 40
0.0
 40
0.4951668087
 40
1.0
 40
1.0
 40
1.0
 40
1.0
 10
13.8525169382
 20
9.7445712231
 30
0.0
 10
13.8681298574
 20
9.7321236874
 30
0.0
 10
13.9047822493
 20
9.7133849344
 30
0.0
 10
13.9451577452
 20
9.705889163
 30
0.0
 10
13.9655151253
 20
9.705889163
 30
0.0
  0
SPLINE
  5
2F9
100
AcDbEntity
  8
0
100
AcDbSpline
 62
7
  6
CONTINUOUS
 70
0
 71
3
 72
9
 73
5
 74
0
 42
0.0000001
 43
0.0000001
 44
0.0000000001
 40
0.0
 40
0.0
 40
0.0
 40
0.0
 40
0.2355953265
 40
1.0
 40
1.0
 40
1.0
 40
1.0
 10
13.7810127198
 20
9.8174961821
 30
0.0
 10
13.7857661646
 20
9.8110191774
 30
0.0
 10
13.8070309436
 20
9.784328327
 30
0.0
 10
13.8321346604
 20
9.7608211714
 30
0.0
 10
13.8525169382
 20
9.7445712231
 30
0.0
  0
SPLINE
  5
2FA
100
AcDbEntity
  8
0
100
AcDbSpline
 62
7
  6
CONTINUOUS
 70
0
 71
3
 72
11
 73
7
 74
0
 42
0.0000001
 43
0.0000001
 44
0.0000000001
 40
0.0
 40
0.0
 40
0.0
 40
0.0
 40
0.3038095056
 40
0.5699128296
 40
0.7977399437
 40
1.0
 40
1.0
 40
1.0
 40
1.0
 10
13.506038054
 20
9.705889163
 30
0.0
 10
13.5150276335
 20
9.705889163
 30
0.0
 10
13.531957648
 20
9.7073135233
 30
0.0
 10
13.554703193
 20
9.7144679895
 30
0.0
 10
13.572049106
 20
9.7263390087
 30
0.0
 10
13.5789524105
 20
9.7376475959
 30
0.0
 10
13.5807205474
 20
9.7433652244
 30
0.0
  0
SPLINE
  5
2FB
100
AcDbEntity
  8
0
100
AcDbSpline
 62
7
  6
CONTINUOUS
 70
0
 71
3
 72
9
 73
5
 74
0
 42
0.0000001
 43
0.0000001
 44
0.0000000001
 40
0.0
 40
0.0
 40
0.0
 40
0.0
 40
0.4951668087
 40
1.0
 40
1.0
 40
1.0
 40
1.0
 10
13.3448455242
 20
9.7445712231
 30
0.0
 10
13.3604584434
 20
9.7321236874
 30
0.0
 10
13.3971108353
 20
9.7133849344
 30
0.0
 10
13.4374863312
 20
9.705889163
 30
0.0
 10
13.4578437113
 20
9.705889163
 30
0.0
  0
SPLINE
  5
2FC
100
AcDbEntity
  8
0
100
AcDbSpline
 62
7
  6
CONTINUOUS
 70
0
 71
3
 72
9
 73
5
 74
0
 42
0.0000001
 43
0.0000001
 44
0.0000000001
 40
0.0
 40
0.0
 40
0.0
 40
0.0
 40
0.2355953265
 40
1.0
 40
1.0
 40
1.0
 40
1.0
 10
13.2733413058
 20
9.8174961821
 30
0.0
 10
13.2780947506
 20
9.8110191774
 30
0.0
 10
13.2993595296
 20
9.784328327
 30
0.0
 10
13.3244632464
 20
9.7608211714
 30
0.0
 10
13.3448455242
 20
9.7445712231
 30
0.0
  0
SPLINE
  5
2FD
100
AcDbEntity
  8
0
100
AcDbSpline
 62
7
  6
CONTINUOUS
 70
0
 71
3
 72
9
 73
5
 74
0
 42
0.0000001
 43
0.0000001
 44
0.0000000001
 40
0.0
 40
0.0
 40
0.0
 40
0.0
 40
0.4871870484
 40
1.0
 40
1.0
 40
1.0
 40
1.0
 10
13.2026674856
 20
10.0342996038
 30
0.0
 10
13.1995244333
 20
10.0227798637
 30
0.0
 10
13.1963809631
 20
9.9981267759
 30
0.0
 10
13.1997156087
 20
9.9735752398
 30
0.0
 10
13.2027360114
 20
9.9613746448
 30
0.0
  0
SPLINE
  5
2FE
100
AcDbEntity
  8
0
100
AcDbSpline
 62
7
  6
CONTINUOUS
 70
0
 71
3
 72
11
 73
7
 74
0
 42
0.0000001
 43
0.0000001
 44
0.0000000001
 40
0.0
 40
0.0
 40
0.0
 40
0.0
 40
0.2022600563
 40
0.4300871704
 40
0.6961904944
 40
1.0
 40
1.0
 40
1.0
 40
1.0
 10
16.3461615615
 20
15.2782447614
 30
0.0
 10
16.3479296984
 20
15.2839623899
 30
0.0
 10
16.3548330029
 20
15.2952709772
 30
0.0
 10
16.3721789159
 20
15.3071419963
 30
0.0
 10
16.3949244609
 20
15.3142964625
 30
0.0
 10
16.4118544754
 20
15.3157208228
 30
0.0
 10
16.4208440549
 20
15.3157208228
 30
0.0
  0
SPLINE
  5
2FF
100
AcDbEntity
  8
0
100
AcDbSpline
 62
7
  6
CONTINUOUS
 70
0
 71
3
 72
11
 73
7
 74
0
 42
0.0000001
 43
0.0000001
 44
0.0000000001
 40
0.0
 40
0.0
 40
0.0
 40
0.0
 40
0.2022600563
 40
0.4300871704
 40
0.6961904944
 40
1.0
 40
1.0
 40
1.0
 40
1.0
 10
16.8538329755
 20
15.2782447614
 30
0.0
 10
16.8556011125
 20
15.2839623899
 30
0.0
 10
16.862504417
 20
15.2952709772
 30
0.0
 10
16.8798503299
 20
15.3071419963
 30
0.0
 10
16.9025958749
 20
15.3142964625
 30
0.0
 10
16.9195258894
 20
15.3157208228
 30
0.0
 10
16.9285154689
 20
15.3157208228
 30
0.0
  0
SPLINE
  5
300
100
AcDbEntity
  8
0
100
AcDbSpline
 62
7
  6
CONTINUOUS
 70
0
 71
3
 72
11
 73
7
 74
0
 42
0.0000001
 43
0.0000001
 44
0.0000000001
 40
0.0
 40
0.0
 40
0.0
 40
0.0
 40
0.2022600563
 40
0.4300871704
 40
0.6961904944
 40
1.0
 40
1.0
 40
1.0
 40
1.0
 10
17.3615043895
 20
15.2782447614
 30
0.0
 10
17.3632725265
 20
15.2839623899
 30
0.0
 10
17.370175831
 20
15.2952709772
 30
0.0
 10
17.3875217439
 20
15.3071419963
 30
0.0
 10
17.4102672889
 20
15.3142964625
 30
0.0
 10
17.4271973035
 20
15.3157208228
 30
0.0
 10
17.4361868829
 20
15.3157208228
 30
0.0
  0
SPLINE
  5
301
100
AcDbEntity
  8
0
100
AcDbSpline
 62
7
  6
CONTINUOUS
 70
0
 71
3
 72
11
 73
7
 74
0
 42
0.0000001
 43
0.0000001
 44
0.0000000001
 40
0.0
 40
0.0
 40
0.0
 40
0.0
 40
0.2576005889
 40
0.5240168507
 40
0.7775777579
 40
1.0
 40
1.0
 40
1.0
 40
1.0
 10
13.1841919408
 20
9.8573760017
 30
0.0
 10
13.1928290633
 20
9.8573760017
 30
0.0
 10
13.2104306544
 20
9.8552433634
 30
0.0
 10
13.2353450104
 20
9.8470325001
 30
0.0
 10
13.2571188823
 20
9.8346404043
 30
0.0
 10
13.2689289407
 20
9.8235084345
 30
0.0
 10
13.2733413058
 20
9.8174961821
 30
0.0
  0
SPLINE
  5
302
100
AcDbEntity
  8
0
100
AcDbSpline
 62
7
  6
CONTINUOUS
 70
0
 71
3
 72
11
 73
7
 74
0
 42
0.0000001
 43
0.0000001
 44
0.0000000001
 40
0.0
 40
0.0
 40
0.0
 40
0.0
 40
0.2224222421
 40
0.4759831493
 40
0.7423994111
 40
1.0
 40
1.0
 40
1.0
 40
1.0
 10
15.130526561
 20
15.2041138037
 30
0.0
 10
15.1349389262
 20
15.1981015513
 30
0.0
 10
15.1467489846
 20
15.1869695815
 30
0.0
 10
15.1685228564
 20
15.1745774857
 30
0.0
 10
15.1934372125
 20
15.1663666225
 30
0.0
 10
15.2110388036
 20
15.1642339841
 30
0.0
 10
15.2196759261
 20
15.1642339841
 30
0.0
  0
SPLINE
  5
303
100
AcDbEntity
  8
0
100
AcDbSpline
 62
7
  6
CONTINUOUS
 70
0
 71
3
 72
9
 73
5
 74
0
 42
0.0000001
 43
0.0000001
 44
0.0000000001
 40
0.0
 40
0.0
 40
0.0
 40
0.0
 40
0.2617854915
 40
1.0
 40
1.0
 40
1.0
 40
1.0
 10
13.2027360114
 20
9.9613746448
 30
0.0
 10
13.2030505458
 20
9.9601041164
 30
0.0
 10
13.2039726784
 20
9.9551896411
 30
0.0
 10
13.2036056182
 20
9.9500051191
 30
0.0
 10
13.2025157366
 20
9.9464787547
 30
0.0
  0
SPLINE
  5
304
100
AcDbEntity
  8
0
100
AcDbSpline
 62
7
  6
CONTINUOUS
 70
0
 71
3
 72
9
 73
5
 74
0
 42
0.0000001
 43
0.0000001
 44
0.0000000001
 40
0.0
 40
0.0
 40
0.0
 40
0.0
 40
0.2583182431
 40
1.0
 40
1.0
 40
1.0
 40
1.0
 10
14.7728559285
 20
15.1642339841
 30
0.0
 10
14.7742176095
 20
15.1642339841
 30
0.0
 10
14.7794878707
 20
15.1643385916
 30
0.0
 10
14.7847540264
 20
15.1648648411
 30
0.0
 10
14.7886052681
 20
15.1655381175
 30
0.0
  0
SPLINE
  5
305
100
AcDbEntity
  8
0
100
AcDbSpline
 62
7
  6
CONTINUOUS
 70
0
 71
3
 72
11
 73
7
 74
0
 42
0.0000001
 43
0.0000001
 44
0.0000000001
 40
0.0
 40
0.0
 40
0.0
 40
0.0
 40
0.2576005889
 40
0.5240168507
 40
0.7775777579
 40
1.0
 40
1.0
 40
1.0
 40
1.0
 10
13.6918633548
 20
9.8573760017
 30
0.0
 10
13.7005004773
 20
9.8573760017
 30
0.0
 10
13.7181020684
 20
9.8552433634
 30
0.0
 10
13.7430164244
 20
9.8470325001
 30
0.0
 10
13.7647902963
 20
9.8346404043
 30
0.0
 10
13.7766003547
 20
9.8235084345
 30
0.0
 10
13.7810127198
 20
9.8174961821
 30
0.0
  0
SPLINE
  5
306
100
AcDbEntity
  8
0
100
AcDbSpline
 62
7
  6
CONTINUOUS
 70
0
 71
3
 72
11
 73
7
 74
0
 42
0.0000001
 43
0.0000001
 44
0.0000000001
 40
0.0
 40
0.0
 40
0.0
 40
0.0
 40
0.2224222421
 40
0.4759831493
 40
0.7423994111
 40
1.0
 40
1.0
 40
1.0
 40
1.0
 10
15.6381979751
 20
15.2041138037
 30
0.0
 10
15.6426103402
 20
15.1981015513
 30
0.0
 10
15.6544203986
 20
15.1869695815
 30
0.0
 10
15.6761942705
 20
15.1745774857
 30
0.0
 10
15.7011086265
 20
15.1663666225
 30
0.0
 10
15.7187102176
 20
15.1642339841
 30
0.0
 10
15.7273473401
 20
15.1642339841
 30
0.0
  0
SPLINE
  5
307
100
AcDbEntity
  8
0
100
AcDbSpline
 62
7
  6
CONTINUOUS
 70
0
 71
3
 72
9
 73
5
 74
0
 42
0.0000001
 43
0.0000001
 44
0.0000000001
 40
0.0
 40
0.0
 40
0.0
 40
0.0
 40
0.2617854915
 40
1.0
 40
1.0
 40
1.0
 40
1.0
 10
13.7104074254
 20
9.9613746448
 30
0.0
 10
13.7107219598
 20
9.9601041164
 30
0.0
 10
13.7116440925
 20
9.9551896411
 30
0.0
 10
13.7112770322
 20
9.9500051191
 30
0.0
 10
13.7101871506
 20
9.9464787547
 30
0.0
  0
SPLINE
  5
308
100
AcDbEntity
  8
0
100
AcDbSpline
 62
7
  6
CONTINUOUS
 70
0
 71
3
 72
9
 73
5
 74
0
 42
0.0000001
 43
0.0000001
 44
0.0000000001
 40
0.0
 40
0.0
 40
0.0
 40
0.0
 40
0.2583182431
 40
1.0
 40
1.0
 40
1.0
 40
1.0
 10
15.2805273426
 20
15.1642339841
 30
0.0
 10
15.2818890235
 20
15.1642339841
 30
0.0
 10
15.2871592847
 20
15.1643385916
 30
0.0
 10
15.2924254404
 20
15.1648648411
 30
0.0
 10
15.2962766821
 20
15.1655381175
 30
0.0
  0
SPLINE
  5
309
100
AcDbEntity
  8
0
100
AcDbSpline
 62
7
  6
CONTINUOUS
 70
0
 71
3
 72
11
 73
7
 74
0
 42
0.0000001
 43
0.0000001
 44
0.0000000001
 40
0.0
 40
0.0
 40
0.0
 40
0.0
 40
0.2576005889
 40
0.5240168507
 40
0.7775777579
 40
1.0
 40
1.0
 40
1.0
 40
1.0
 10
14.1995347688
 20
9.8573760017
 30
0.0
 10
14.2081718913
 20
9.8573760017
 30
0.0
 10
14.2257734824
 20
9.8552433634
 30
0.0
 10
14.2506878385
 20
9.8470325001
 30
0.0
 10
14.2724617103
 20
9.8346404043
 30
0.0
 10
14.2842717687
 20
9.8235084345
 30
0.0
 10
14.2886841338
 20
9.8174961821
 30
0.0
  0
SPLINE
  5
30A
100
AcDbEntity
  8
0
100
AcDbSpline
 62
7
  6
CONTINUOUS
 70
0
 71
3
 72
11
 73
7
 74
0
 42
0.0000001
 43
0.0000001
 44
0.0000000001
 40
0.0
 40
0.0
 40
0.0
 40
0.0
 40
0.2224222421
 40
0.4759831493
 40
0.7423994111
 40
1.0
 40
1.0
 40
1.0
 40
1.0
 10
16.1458693891
 20
15.2041138037
 30
0.0
 10
16.1502817542
 20
15.1981015513
 30
0.0
 10
16.1620918126
 20
15.1869695815
 30
0.0
 10
16.1838656845
 20
15.1745774857
 30
0.0
 10
16.2087800405
 20
15.1663666225
 30
0.0
 10
16.2263816316
 20
15.1642339841
 30
0.0
 10
16.2350187541
 20
15.1642339841
 30
0.0
  0
SPLINE
  5
30B
100
AcDbEntity
  8
0
100
AcDbSpline
 62
7
  6
CONTINUOUS
 70
0
 71
3
 72
9
 73
5
 74
0
 42
0.0000001
 43
0.0000001
 44
0.0000000001
 40
0.0
 40
0.0
 40
0.0
 40
0.0
 40
0.2617854915
 40
1.0
 40
1.0
 40
1.0
 40
1.0
 10
14.2180788394
 20
9.9613746448
 30
0.0
 10
14.2183933739
 20
9.9601041164
 30
0.0
 10
14.2193155065
 20
9.9551896411
 30
0.0
 10
14.2189484462
 20
9.9500051191
 30
0.0
 10
14.2178585646
 20
9.9464787547
 30
0.0
  0
SPLINE
  5
30C
100
AcDbEntity
  8
0
100
AcDbSpline
 62
7
  6
CONTINUOUS
 70
0
 71
3
 72
9
 73
5
 74
0
 42
0.0000001
 43
0.0000001
 44
0.0000000001
 40
0.0
 40
0.0
 40
0.0
 40
0.0
 40
0.2583182431
 40
1.0
 40
1.0
 40
1.0
 40
1.0
 10
15.7881987566
 20
15.1642339841
 30
0.0
 10
15.7895604376
 20
15.1642339841
 30
0.0
 10
15.7948306987
 20
15.1643385916
 30
0.0
 10
15.8000968544
 20
15.1648648411
 30
0.0
 10
15.8039480961
 20
15.1655381175
 30
0.0
  0
SPLINE
  5
30D
100
AcDbEntity
  8
0
100
AcDbSpline
 62
7
  6
CONTINUOUS
 70
0
 71
3
 72
11
 73
7
 74
0
 42
0.0000001
 43
0.0000001
 44
0.0000000001
 40
0.0
 40
0.0
 40
0.0
 40
0.0
 40
0.2576005889
 40
0.5240168507
 40
0.7775777579
 40
1.0
 40
1.0
 40
1.0
 40
1.0
 10
14.7072061829
 20
9.8573760017
 30
0.0
 10
14.7158433053
 20
9.8573760017
 30
0.0
 10
14.7334448964
 20
9.8552433634
 30
0.0
 10
14.7583592525
 20
9.8470325001
 30
0.0
 10
14.7801331244
 20
9.8346404043
 30
0.0
 10
14.7919431827
 20
9.8235084345
 30
0.0
 10
14.7963555479
 20
9.8174961821
 30
0.0
  0
SPLINE
  5
30E
100
AcDbEntity
  8
0
100
AcDbSpline
 62
7
  6
CONTINUOUS
 70
0
 71
3
 72
11
 73
7
 74
0
 42
0.0000001
 43
0.0000001
 44
0.0000000001
 40
0.0
 40
0.0
 40
0.0
 40
0.0
 40
0.2224222421
 40
0.4759831493
 40
0.7423994111
 40
1.0
 40
1.0
 40
1.0
 40
1.0
 10
16.6535408031
 20
15.2041138037
 30
0.0
 10
16.6579531683
 20
15.1981015513
 30
0.0
 10
16.6697632266
 20
15.1869695815
 30
0.0
 10
16.6915370985
 20
15.1745774857
 30
0.0
 10
16.7164514545
 20
15.1663666225
 30
0.0
 10
16.7340530456
 20
15.1642339841
 30
0.0
 10
16.7426901681
 20
15.1642339841
 30
0.0
  0
SPLINE
  5
30F
100
AcDbEntity
  8
0
100
AcDbSpline
 62
7
  6
CONTINUOUS
 70
0
 71
3
 72
9
 73
5
 74
0
 42
0.0000001
 43
0.0000001
 44
0.0000000001
 40
0.0
 40
0.0
 40
0.0
 40
0.0
 40
0.2617854915
 40
1.0
 40
1.0
 40
1.0
 40
1.0
 10
14.7257502534
 20
9.9613746448
 30
0.0
 10
14.7260647879
 20
9.9601041164
 30
0.0
 10
14.7269869205
 20
9.9551896411
 30
0.0
 10
14.7266198603
 20
9.9500051191
 30
0.0
 10
14.7255299786
 20
9.9464787547
 30
0.0
  0
SPLINE
  5
310
100
AcDbEntity
  8
0
100
AcDbSpline
 62
7
  6
CONTINUOUS
 70
0
 71
3
 72
9
 73
5
 74
0
 42
0.0000001
 43
0.0000001
 44
0.0000000001
 40
0.0
 40
0.0
 40
0.0
 40
0.0
 40
0.2583182431
 40
1.0
 40
1.0
 40
1.0
 40
1.0
 10
16.2958701706
 20
15.1642339841
 30
0.0
 10
16.2972318516
 20
15.1642339841
 30
0.0
 10
16.3025021127
 20
15.1643385916
 30
0.0
 10
16.3077682684
 20
15.1648648411
 30
0.0
 10
16.3116195101
 20
15.1655381175
 30
0.0
  0
SPLINE
  5
311
100
AcDbEntity
  8
0
100
AcDbSpline
 62
7
  6
CONTINUOUS
 70
0
 71
3
 72
11
 73
7
 74
0
 42
0.0000001
 43
0.0000001
 44
0.0000000001
 40
0.0
 40
0.0
 40
0.0
 40
0.0
 40
0.2576005889
 40
0.5240168507
 40
0.7775777579
 40
1.0
 40
1.0
 40
1.0
 40
1.0
 10
15.2148775969
 20
9.8573760017
 30
0.0
 10
15.2235147194
 20
9.8573760017
 30
0.0
 10
15.2411163105
 20
9.8552433634
 30
0.0
 10
15.2660306665
 20
9.8470325001
 30
0.0
 10
15.2878045384
 20
9.8346404043
 30
0.0
 10
15.2996145967
 20
9.8235084345
 30
0.0
 10
15.3040269619
 20
9.8174961821
 30
0.0
  0
SPLINE
  5
312
100
AcDbEntity
  8
0
100
AcDbSpline
 62
7
  6
CONTINUOUS
 70
0
 71
3
 72
11
 73
7
 74
0
 42
0.0000001
 43
0.0000001
 44
0.0000000001
 40
0.0
 40
0.0
 40
0.0
 40
0.0
 40
0.2224222421
 40
0.4759831493
 40
0.7423994111
 40
1.0
 40
1.0
 40
1.0
 40
1.0
 10
17.1612122171
 20
15.2041138037
 30
0.0
 10
17.1656245823
 20
15.1981015513
 30
0.0
 10
17.1774346406
 20
15.1869695815
 30
0.0
 10
17.1992085125
 20
15.1745774857
 30
0.0
 10
17.2241228685
 20
15.1663666225
 30
0.0
 10
17.2417244596
 20
15.1642339841
 30
0.0
 10
17.2503615821
 20
15.1642339841
 30
0.0
  0
SPLINE
  5
313
100
AcDbEntity
  8
0
100
AcDbSpline
 62
7
  6
CONTINUOUS
 70
0
 71
3
 72
9
 73
5
 74
0
 42
0.0000001
 43
0.0000001
 44
0.0000000001
 40
0.0
 40
0.0
 40
0.0
 40
0.0
 40
0.2617854915
 40
1.0
 40
1.0
 40
1.0
 40
1.0
 10
15.2334216675
 20
9.9613746448
 30
0.0
 10
15.2337362019
 20
9.9601041164
 30
0.0
 10
15.2346583345
 20
9.9551896411
 30
0.0
 10
15.2342912743
 20
9.9500051191
 30
0.0
 10
15.2332013926
 20
9.9464787547
 30
0.0
  0
SPLINE
  5
314
100
AcDbEntity
  8
0
100
AcDbSpline
 62
7
  6
CONTINUOUS
 70
0
 71
3
 72
9
 73
5
 74
0
 42
0.0000001
 43
0.0000001
 44
0.0000000001
 40
0.0
 40
0.0
 40
0.0
 40
0.0
 40
0.2583182431
 40
1.0
 40
1.0
 40
1.0
 40
1.0
 10
16.8035415846
 20
15.1642339841
 30
0.0
 10
16.8049032656
 20
15.1642339841
 30
0.0
 10
16.8101735267
 20
15.1643385916
 30
0.0
 10
16.8154396825
 20
15.1648648411
 30
0.0
 10
16.8192909242
 20
15.1655381175
 30
0.0
  0
SPLINE
  5
315
100
AcDbEntity
  8
0
100
AcDbSpline
 62
7
  6
CONTINUOUS
 70
0
 71
3
 72
11
 73
7
 74
0
 42
0.0000001
 43
0.0000001
 44
0.0000000001
 40
0.0
 40
0.0
 40
0.0
 40
0.0
 40
0.2576005889
 40
0.5240168507
 40
0.7775777579
 40
1.0
 40
1.0
 40
1.0
 40
1.0
 10
15.7225490109
 20
9.8573760017
 30
0.0
 10
15.7311861334
 20
9.8573760017
 30
0.0
 10
15.7487877245
 20
9.8552433634
 30
0.0
 10
15.7737020805
 20
9.8470325001
 30
0.0
 10
15.7954759524
 20
9.8346404043
 30
0.0
 10
15.8072860107
 20
9.8235084345
 30
0.0
 10
15.8116983759
 20
9.8174961821
 30
0.0
  0
SPLINE
  5
316
100
AcDbEntity
  8
0
100
AcDbSpline
 62
7
  6
CONTINUOUS
 70
0
 71
3
 72
11
 73
7
 74
0
 42
0.0000001
 43
0.0000001
 44
0.0000000001
 40
0.0
 40
0.0
 40
0.0
 40
0.0
 40
0.2224222421
 40
0.4759831493
 40
0.7423994111
 40
1.0
 40
1.0
 40
1.0
 40
1.0
 10
17.6688836311
 20
15.2041138037
 30
0.0
 10
17.6732959963
 20
15.1981015513
 30
0.0
 10
17.6851060546
 20
15.1869695815
 30
0.0
 10
17.7068799265
 20
15.1745774857
 30
0.0
 10
17.7317942826
 20
15.1663666225
 30
0.0
 10
17.7493958737
 20
15.1642339841
 30
0.0
 10
17.7580329961
 20
15.1642339841
 30
0.0
  0
SPLINE
  5
317
100
AcDbEntity
  8
0
100
AcDbSpline
 62
7
  6
CONTINUOUS
 70
0
 71
3
 72
9
 73
5
 74
0
 42
0.0000001
 43
0.0000001
 44
0.0000000001
 40
0.0
 40
0.0
 40
0.0
 40
0.0
 40
0.2617854915
 40
1.0
 40
1.0
 40
1.0
 40
1.0
 10
15.7410930815
 20
9.9613746448
 30
0.0
 10
15.7414076159
 20
9.9601041164
 30
0.0
 10
15.7423297485
 20
9.9551896411
 30
0.0
 10
15.7419626883
 20
9.9500051191
 30
0.0
 10
15.7408728066
 20
9.9464787547
 30
0.0
  0
SPLINE
  5
318
100
AcDbEntity
  8
0
100
AcDbSpline
 62
7
  6
CONTINUOUS
 70
0
 71
3
 72
9
 73
5
 74
0
 42
0.0000001
 43
0.0000001
 44
0.0000000001
 40
0.0
 40
0.0
 40
0.0
 40
0.0
 40
0.2583182431
 40
1.0
 40
1.0
 40
1.0
 40
1.0
 10
17.3112129986
 20
15.1642339841
 30
0.0
 10
17.3125746796
 20
15.1642339841
 30
0.0
 10
17.3178449408
 20
15.1643385916
 30
0.0
 10
17.3231110965
 20
15.1648648411
 30
0.0
 10
17.3269623382
 20
15.1655381175
 30
0.0
  0
SPLINE
  5
319
100
AcDbEntity
  8
0
100
AcDbSpline
 62
7
  6
CONTINUOUS
 70
0
 71
3
 72
9
 73
5
 74
0
 42
0.0000001
 43
0.0000001
 44
0.0000000001
 40
0.0
 40
0.0
 40
0.0
 40
0.0
 40
0.4871860435
 40
1.0
 40
1.0
 40
1.0
 40
1.0
 10
16.1194285152
 20
9.7445712231
 30
0.0
 10
16.1225715623
 20
9.7560909441
 30
0.0
 10
16.125715272
 20
9.7807440232
 30
0.0
 10
16.1223803992
 20
9.8052955582
 30
0.0
 10
16.1193599894
 20
9.8174961821
 30
0.0
  0
SPLINE
  5
31A
100
AcDbEntity
  8
0
100
AcDbSpline
 62
7
  6
CONTINUOUS
 70
0
 71
3
 72
11
 73
7
 74
0
 42
0.0000001
 43
0.0000001
 44
0.0000000001
 40
0.0
 40
0.0
 40
0.0
 40
0.0
 40
0.2022199507
 40
0.4300501653
 40
0.6962092299
 40
1.0
 40
1.0
 40
1.0
 40
1.0
 10
15.2332013926
 20
9.9464787547
 30
0.0
 10
15.2320234814
 20
9.9426675663
 30
0.0
 10
15.2274194601
 20
9.9351306099
 30
0.0
 10
15.2158583101
 20
9.9272126833
 30
0.0
 10
15.2006923188
 20
9.9224454177
 30
0.0
 10
15.1894053352
 20
9.9214948252
 30
0.0
 10
15.1834126484
 20
9.9214948252
 30
0.0
  0
SPLINE
  5
31B
100
AcDbEntity
  8
0
100
AcDbSpline
 62
7
  6
CONTINUOUS
 70
0
 71
3
 72
11
 73
7
 74
0
 42
0.0000001
 43
0.0000001
 44
0.0000000001
 40
0.0
 40
0.0
 40
0.0
 40
0.0
 40
0.2022199507
 40
0.4300501653
 40
0.6962092299
 40
1.0
 40
1.0
 40
1.0
 40
1.0
 10
13.7101871506
 20
9.9464787547
 30
0.0
 10
13.7090092393
 20
9.9426675663
 30
0.0
 10
13.704405218
 20
9.9351306099
 30
0.0
 10
13.692844068
 20
9.9272126833
 30
0.0
 10
13.6776780768
 20
9.9224454177
 30
0.0
 10
13.6663910932
 20
9.9214948252
 30
0.0
 10
13.6603984064
 20
9.9214948252
 30
0.0
  0
SPLINE
  5
31C
100
AcDbEntity
  8
0
100
AcDbSpline
 62
7
  6
CONTINUOUS
 70
0
 71
3
 72
9
 73
5
 74
0
 42
0.0000001
 43
0.0000001
 44
0.0000000001
 40
0.0
 40
0.0
 40
0.0
 40
0.0
 40
0.2355953265
 40
1.0
 40
1.0
 40
1.0
 40
1.0
 10
13.5103976249
 20
9.9613746448
 30
0.0
 10
13.5056441801
 20
9.9678516495
 30
0.0
 10
13.4843794011
 20
9.9945424999
 30
0.0
 10
13.4592756843
 20
10.0180496554
 30
0.0
 10
13.4388934065
 20
10.0342996038
 30
0.0
  0
SPLINE
  5
31D
100
AcDbEntity
  8
0
100
AcDbSpline
 62
7
  6
CONTINUOUS
 70
0
 71
3
 72
9
 73
5
 74
0
 42
0.0000001
 43
0.0000001
 44
0.0000000001
 40
0.0
 40
0.0
 40
0.0
 40
0.0
 40
0.4871870484
 40
1.0
 40
1.0
 40
1.0
 40
1.0
 10
15.6117571012
 20
9.7445712231
 30
0.0
 10
15.6149001534
 20
9.7560909632
 30
0.0
 10
15.6180436236
 20
9.780744051
 30
0.0
 10
15.6147089781
 20
9.8052955871
 30
0.0
 10
15.6116885754
 20
9.8174961821
 30
0.0
  0
SPLINE
  5
31E
100
AcDbEntity
  8
0
100
AcDbSpline
 62
7
  6
CONTINUOUS
 70
0
 71
3
 72
11
 73
7
 74
0
 42
0.0000001
 43
0.0000001
 44
0.0000000001
 40
0.0
 40
0.0
 40
0.0
 40
0.0
 40
0.2022199507
 40
0.4300501653
 40
0.6962092299
 40
1.0
 40
1.0
 40
1.0
 40
1.0
 10
14.2178585646
 20
9.9464787547
 30
0.0
 10
14.2166806533
 20
9.9426675663
 30
0.0
 10
14.212076632
 20
9.9351306099
 30
0.0
 10
14.200515482
 20
9.9272126833
 30
0.0
 10
14.1853494908
 20
9.9224454177
 30
0.0
 10
14.1740625072
 20
9.9214948252
 30
0.0
 10
14.1680698204
 20
9.9214948252
 30
0.0
  0
SPLINE
  5
31F
100
AcDbEntity
  8
0
100
AcDbSpline
 62
7
  6
CONTINUOUS
 70
0
 71
3
 72
11
 73
7
 74
0
 42
0.0000001
 43
0.0000001
 44
0.0000000001
 40
0.0
 40
0.0
 40
0.0
 40
0.0
 40
0.3038095056
 40
0.5699128296
 40
0.7977399437
 40
1.0
 40
1.0
 40
1.0
 40
1.0
 10
13.7853722907
 20
10.0729816639
 30
0.0
 10
13.7763827112
 20
10.0729816639
 30
0.0
 10
13.7594526967
 20
10.0715573036
 30
0.0
 10
13.7367071517
 20
10.0644028373
 30
0.0
 10
13.7193612387
 20
10.0525318182
 30
0.0
 10
13.7124579342
 20
10.041223231
 30
0.0
 10
13.7106897973
 20
10.0355056025
 30
0.0
  0
SPLINE
  5
320
100
AcDbEntity
  8
0
100
AcDbSpline
 62
7
  6
CONTINUOUS
 70
0
 71
3
 72
9
 73
5
 74
0
 42
0.0000001
 43
0.0000001
 44
0.0000000001
 40
0.0
 40
0.0
 40
0.0
 40
0.0
 40
0.4951668087
 40
1.0
 40
1.0
 40
1.0
 40
1.0
 10
13.9465648205
 20
10.0342996038
 30
0.0
 10
13.9309519013
 20
10.0467471395
 30
0.0
 10
13.8942995094
 20
10.0654858925
 30
0.0
 10
13.8539240135
 20
10.0729816639
 30
0.0
 10
13.8335666334
 20
10.0729816639
 30
0.0
  0
SPLINE
  5
321
100
AcDbEntity
  8
0
100
AcDbSpline
 62
7
  6
CONTINUOUS
 70
0
 71
3
 72
9
 73
5
 74
0
 42
0.0000001
 43
0.0000001
 44
0.0000000001
 40
0.0
 40
0.0
 40
0.0
 40
0.0
 40
0.4871870484
 40
1.0
 40
1.0
 40
1.0
 40
1.0
 10
15.1040856871
 20
9.7445712231
 30
0.0
 10
15.1072287394
 20
9.7560909632
 30
0.0
 10
15.1103722096
 20
9.780744051
 30
0.0
 10
15.107037564
 20
9.8052955871
 30
0.0
 10
15.1040171613
 20
9.8174961821
 30
0.0
  0
SPLINE
  5
322
100
AcDbEntity
  8
0
100
AcDbSpline
 62
7
  6
CONTINUOUS
 70
0
 71
3
 72
9
 73
5
 74
0
 42
0.0000001
 43
0.0000001
 44
0.0000000001
 40
0.0
 40
0.0
 40
0.0
 40
0.0
 40
0.2617854915
 40
1.0
 40
1.0
 40
1.0
 40
1.0
 10
13.5810029193
 20
9.8174961821
 30
0.0
 10
13.5806883849
 20
9.8187667105
 30
0.0
 10
13.5797662522
 20
9.8236811858
 30
0.0
 10
13.5801333125
 20
9.8288657078
 30
0.0
 10
13.5812231941
 20
9.8323920722
 30
0.0
  0
SPLINE
  5
323
100
AcDbEntity
  8
0
100
AcDbSpline
 62
7
  6
CONTINUOUS
 70
0
 71
3
 72
9
 73
5
 74
0
 42
0.0000001
 43
0.0000001
 44
0.0000000001
 40
0.0
 40
0.0
 40
0.0
 40
0.0
 40
0.2355953265
 40
1.0
 40
1.0
 40
1.0
 40
1.0
 10
14.0180690389
 20
9.9613746448
 30
0.0
 10
14.0133155941
 20
9.9678516495
 30
0.0
 10
13.9920508151
 20
9.9945424999
 30
0.0
 10
13.9669470983
 20
10.0180496554
 30
0.0
 10
13.9465648205
 20
10.0342996038
 30
0.0
  0
SPLINE
  5
324
100
AcDbEntity
  8
0
100
AcDbSpline
 62
7
  6
CONTINUOUS
 70
0
 71
3
 72
11
 73
7
 74
0
 42
0.0000001
 43
0.0000001
 44
0.0000000001
 40
0.0
 40
0.0
 40
0.0
 40
0.0
 40
0.2576005889
 40
0.5240168507
 40
0.7775777579
 40
1.0
 40
1.0
 40
1.0
 40
1.0
 10
13.5995469899
 20
9.9214948252
 30
0.0
 10
13.5909098674
 20
9.9214948252
 30
0.0
 10
13.5733082763
 20
9.9236274635
 30
0.0
 10
13.5483939203
 20
9.9318383268
 30
0.0
 10
13.5266200484
 20
9.9442304226
 30
0.0
 10
13.51480999
 20
9.9553623924
 30
0.0
 10
13.5103976249
 20
9.9613746448
 30
0.0
  0
SPLINE
  5
325
100
AcDbEntity
  8
0
100
AcDbSpline
 62
7
  6
CONTINUOUS
 70
0
 71
3
 72
11
 73
7
 74
0
 42
0.0000001
 43
0.0000001
 44
0.0000000001
 40
0.0
 40
0.0
 40
0.0
 40
0.0
 40
0.2022199507
 40
0.4300501653
 40
0.6962092299
 40
1.0
 40
1.0
 40
1.0
 40
1.0
 10
13.2025157366
 20
9.9464787547
 30
0.0
 10
13.2013378253
 20
9.9426675663
 30
0.0
 10
13.196733804
 20
9.9351306099
 30
0.0
 10
13.185172654
 20
9.9272126833
 30
0.0
 10
13.1700066628
 20
9.9224454177
 30
0.0
 10
13.1587196792
 20
9.9214948252
 30
0.0
 10
13.1527269924
 20
9.9214948252
 30
0.0
  0
SPLINE
  5
326
100
AcDbEntity
  8
0
100
AcDbSpline
 62
7
  6
CONTINUOUS
 70
0
 71
3
 72
11
 73
7
 74
0
 42
0.0000001
 43
0.0000001
 44
0.0000000001
 40
0.0
 40
0.0
 40
0.0
 40
0.0
 40
0.3038095056
 40
0.5699128296
 40
0.7977399437
 40
1.0
 40
1.0
 40
1.0
 40
1.0
 10
14.2930437047
 20
10.0729816639
 30
0.0
 10
14.2840541252
 20
10.0729816639
 30
0.0
 10
14.2671241107
 20
10.0715573036
 30
0.0
 10
14.2443785657
 20
10.0644028373
 30
0.0
 10
14.2270326527
 20
10.0525318182
 30
0.0
 10
14.2201293482
 20
10.041223231
 30
0.0
 10
14.2183612113
 20
10.0355056025
 30
0.0
  0
SPLINE
  5
327
100
AcDbEntity
  8
0
100
AcDbSpline
 62
7
  6
CONTINUOUS
 70
0
 71
3
 72
9
 73
5
 74
0
 42
0.0000001
 43
0.0000001
 44
0.0000000001
 40
0.0
 40
0.0
 40
0.0
 40
0.0
 40
0.4871870484
 40
1.0
 40
1.0
 40
1.0
 40
1.0
 10
14.5964142731
 20
9.7445712231
 30
0.0
 10
14.5995573254
 20
9.7560909632
 30
0.0
 10
14.6027007956
 20
9.780744051
 30
0.0
 10
14.59936615
 20
9.8052955871
 30
0.0
 10
14.5963457473
 20
9.8174961821
 30
0.0
  0
SPLINE
  5
328
100
AcDbEntity
  8
0
100
AcDbSpline
 62
7
  6
CONTINUOUS
 70
0
 71
3
 72
9
 73
5
 74
0
 42
0.0000001
 43
0.0000001
 44
0.0000000001
 40
0.0
 40
0.0
 40
0.0
 40
0.0
 40
0.4951668087
 40
1.0
 40
1.0
 40
1.0
 40
1.0
 10
14.4542362345
 20
10.0342996038
 30
0.0
 10
14.4386233153
 20
10.0467471395
 30
0.0
 10
14.4019709234
 20
10.0654858925
 30
0.0
 10
14.3615954275
 20
10.0729816639
 30
0.0
 10
14.3412380474
 20
10.0729816639
 30
0.0
  0
SPLINE
  5
329
100
AcDbEntity
  8
0
100
AcDbSpline
 62
7
  6
CONTINUOUS
 70
0
 71
3
 72
9
 73
5
 74
0
 42
0.0000001
 43
0.0000001
 44
0.0000000001
 40
0.0
 40
0.0
 40
0.0
 40
0.0
 40
0.2617854915
 40
1.0
 40
1.0
 40
1.0
 40
1.0
 10
14.0886743333
 20
9.8174961821
 30
0.0
 10
14.0883597989
 20
9.8187667105
 30
0.0
 10
14.0874376662
 20
9.8236811858
 30
0.0
 10
14.0878047265
 20
9.8288657078
 30
0.0
 10
14.0888946081
 20
9.8323920722
 30
0.0
  0
SPLINE
  5
32A
100
AcDbEntity
  8
0
100
AcDbSpline
 62
7
  6
CONTINUOUS
 70
0
 71
3
 72
9
 73
5
 74
0
 42
0.0000001
 43
0.0000001
 44
0.0000000001
 40
0.0
 40
0.0
 40
0.0
 40
0.0
 40
0.2355953265
 40
1.0
 40
1.0
 40
1.0
 40
1.0
 10
14.5257404529
 20
9.9613746448
 30
0.0
 10
14.5209870081
 20
9.9678516495
 30
0.0
 10
14.4997222292
 20
9.9945424999
 30
0.0
 10
14.4746185123
 20
10.0180496554
 30
0.0
 10
14.4542362345
 20
10.0342996038
 30
0.0
  0
SPLINE
  5
32B
100
AcDbEntity
  8
0
100
AcDbSpline
 62
7
  6
CONTINUOUS
 70
0
 71
3
 72
11
 73
7
 74
0
 42
0.0000001
 43
0.0000001
 44
0.0000000001
 40
0.0
 40
0.0
 40
0.0
 40
0.0
 40
0.2576005889
 40
0.5240168507
 40
0.7775777579
 40
1.0
 40
1.0
 40
1.0
 40
1.0
 10
14.1072184039
 20
9.9214948252
 30
0.0
 10
14.0985812814
 20
9.9214948252
 30
0.0
 10
14.0809796903
 20
9.9236274635
 30
0.0
 10
14.0560653343
 20
9.9318383268
 30
0.0
 10
14.0342914624
 20
9.9442304226
 30
0.0
 10
14.022481404
 20
9.9553623924
 30
0.0
 10
14.0180690389
 20
9.9613746448
 30
0.0
  0
SPLINE
  5
32C
100
AcDbEntity
  8
0
100
AcDbSpline
 62
7
  6
CONTINUOUS
 70
0
 71
3
 72
11
 73
7
 74
0
 42
0.0000001
 43
0.0000001
 44
0.0000000001
 40
0.0
 40
0.0
 40
0.0
 40
0.0
 40
0.2022199507
 40
0.4300501653
 40
0.6962092299
 40
1.0
 40
1.0
 40
1.0
 40
1.0
 10
14.7255299786
 20
9.9464787547
 30
0.0
 10
14.7243520674
 20
9.9426675663
 30
0.0
 10
14.719748046
 20
9.9351306099
 30
0.0
 10
14.708186896
 20
9.9272126833
 30
0.0
 10
14.6930209048
 20
9.9224454177
 30
0.0
 10
14.6817339212
 20
9.9214948252
 30
0.0
 10
14.6757412344
 20
9.9214948252
 30
0.0
  0
SPLINE
  5
32D
100
AcDbEntity
  8
0
100
AcDbSpline
 62
7
  6
CONTINUOUS
 70
0
 71
3
 72
11
 73
7
 74
0
 42
0.0000001
 43
0.0000001
 44
0.0000000001
 40
0.0
 40
0.0
 40
0.0
 40
0.0
 40
0.3038095056
 40
0.5699128296
 40
0.7977399437
 40
1.0
 40
1.0
 40
1.0
 40
1.0
 10
14.8007151187
 20
10.0729816639
 30
0.0
 10
14.7917255392
 20
10.0729816639
 30
0.0
 10
14.7747955247
 20
10.0715573036
 30
0.0
 10
14.7520499797
 20
10.0644028373
 30
0.0
 10
14.7347040668
 20
10.0525318182
 30
0.0
 10
14.7278007622
 20
10.041223231
 30
0.0
 10
14.7260326253
 20
10.0355056025
 30
0.0
  0
SPLINE
  5
32E
100
AcDbEntity
  8
0
100
AcDbSpline
 62
7
  6
CONTINUOUS
 70
0
 71
3
 72
9
 73
5
 74
0
 42
0.0000001
 43
0.0000001
 44
0.0000000001
 40
0.0
 40
0.0
 40
0.0
 40
0.0
 40
0.4871870484
 40
1.0
 40
1.0
 40
1.0
 40
1.0
 10
14.0887428591
 20
9.7445712231
 30
0.0
 10
14.0918859114
 20
9.7560909632
 30
0.0
 10
14.0950293816
 20
9.780744051
 30
0.0
 10
14.091694736
 20
9.8052955871
 30
0.0
 10
14.0886743333
 20
9.8174961821
 30
0.0
  0
SPLINE
  5
32F
100
AcDbEntity
  8
0
100
AcDbSpline
 62
7
  6
CONTINUOUS
 70
0
 71
3
 72
9
 73
5
 74
0
 42
0.0000001
 43
0.0000001
 44
0.0000000001
 40
0.0
 40
0.0
 40
0.0
 40
0.0
 40
0.2617854915
 40
1.0
 40
1.0
 40
1.0
 40
1.0
 10
14.5963457473
 20
9.8174961821
 30
0.0
 10
14.5960312129
 20
9.8187667105
 30
0.0
 10
14.5951090803
 20
9.8236811858
 30
0.0
 10
14.5954761405
 20
9.8288657078
 30
0.0
 10
14.5965660222
 20
9.8323920722
 30
0.0
  0
SPLINE
  5
330
100
AcDbEntity
  8
0
100
AcDbSpline
 62
7
  6
CONTINUOUS
 70
0
 71
3
 72
9
 73
5
 74
0
 42
0.0000001
 43
0.0000001
 44
0.0000000001
 40
0.0
 40
0.0
 40
0.0
 40
0.0
 40
0.4951668087
 40
1.0
 40
1.0
 40
1.0
 40
1.0
 10
14.9619076486
 20
10.0342996038
 30
0.0
 10
14.9462947293
 20
10.0467471395
 30
0.0
 10
14.9096423374
 20
10.0654858925
 30
0.0
 10
14.8692668415
 20
10.0729816639
 30
0.0
 10
14.8489094614
 20
10.0729816639
 30
0.0
  0
SPLINE
  5
331
100
AcDbEntity
  8
0
100
AcDbSpline
 62
7
  6
CONTINUOUS
 70
0
 71
3
 72
11
 73
7
 74
0
 42
0.0000001
 43
0.0000001
 44
0.0000000001
 40
0.0
 40
0.0
 40
0.0
 40
0.0
 40
0.2576005889
 40
0.5240168507
 40
0.7775777579
 40
1.0
 40
1.0
 40
1.0
 40
1.0
 10
14.6148898179
 20
9.9214948252
 30
0.0
 10
14.6062526954
 20
9.9214948252
 30
0.0
 10
14.5886511043
 20
9.9236274635
 30
0.0
 10
14.5637367483
 20
9.9318383268
 30
0.0
 10
14.5419628764
 20
9.9442304226
 30
0.0
 10
14.5301528181
 20
9.9553623924
 30
0.0
 10
14.5257404529
 20
9.9613746448
 30
0.0
  0
SPLINE
  5
332
100
AcDbEntity
  8
0
100
AcDbSpline
 62
7
  6
CONTINUOUS
 70
0
 71
3
 72
9
 73
5
 74
0
 42
0.0000001
 43
0.0000001
 44
0.0000000001
 40
0.0
 40
0.0
 40
0.0
 40
0.0
 40
0.2355953265
 40
1.0
 40
1.0
 40
1.0
 40
1.0
 10
15.0334118669
 20
9.9613746448
 30
0.0
 10
15.0286584221
 20
9.9678516495
 30
0.0
 10
15.0073936432
 20
9.9945424999
 30
0.0
 10
14.9822899263
 20
10.0180496554
 30
0.0
 10
14.9619076486
 20
10.0342996038
 30
0.0
  0
SPLINE
  5
333
100
AcDbEntity
  8
0
100
AcDbSpline
 62
7
  6
CONTINUOUS
 70
0
 71
3
 72
11
 73
7
 74
0
 42
0.0000001
 43
0.0000001
 44
0.0000000001
 40
0.0
 40
0.0
 40
0.0
 40
0.0
 40
0.2022199507
 40
0.4300501653
 40
0.6962092299
 40
1.0
 40
1.0
 40
1.0
 40
1.0
 10
15.7408728066
 20
9.9464787547
 30
0.0
 10
15.7396948954
 20
9.9426675663
 30
0.0
 10
15.7350908741
 20
9.9351306099
 30
0.0
 10
15.7235297241
 20
9.9272126833
 30
0.0
 10
15.7083637328
 20
9.9224454177
 30
0.0
 10
15.6970767492
 20
9.9214948252
 30
0.0
 10
15.6910840624
 20
9.9214948252
 30
0.0
  0
SPLINE
  5
334
100
AcDbEntity
  8
0
100
AcDbSpline
 62
7
  6
CONTINUOUS
 70
0
 71
3
 72
9
 73
5
 74
0
 42
0.0000001
 43
0.0000001
 44
0.0000000001
 40
0.0
 40
0.0
 40
0.0
 40
0.0
 40
0.4871870484
 40
1.0
 40
1.0
 40
1.0
 40
1.0
 10
13.5810714451
 20
9.7445712231
 30
0.0
 10
13.5842144974
 20
9.7560909632
 30
0.0
 10
13.5873579676
 20
9.780744051
 30
0.0
 10
13.584023322
 20
9.8052955871
 30
0.0
 10
13.5810029193
 20
9.8174961821
 30
0.0
  0
SPLINE
  5
335
100
AcDbEntity
  8
0
100
AcDbSpline
 62
7
  6
CONTINUOUS
 70
0
 71
3
 72
11
 73
7
 74
0
 42
0.0000001
 43
0.0000001
 44
0.0000000001
 40
0.0
 40
0.0
 40
0.0
 40
0.0
 40
0.3038095056
 40
0.5699128296
 40
0.7977399437
 40
1.0
 40
1.0
 40
1.0
 40
1.0
 10
15.3083865327
 20
10.0729816639
 30
0.0
 10
15.2993969533
 20
10.0729816639
 30
0.0
 10
15.2824669387
 20
10.0715573036
 30
0.0
 10
15.2597213937
 20
10.0644028373
 30
0.0
 10
15.2423754808
 20
10.0525318182
 30
0.0
 10
15.2354721763
 20
10.041223231
 30
0.0
 10
15.2337040393
 20
10.0355056025
 30
0.0
  0
SPLINE
  5
336
100
AcDbEntity
  8
0
100
AcDbSpline
 62
7
  6
CONTINUOUS
 70
0
 71
3
 72
9
 73
5
 74
0
 42
0.0000001
 43
0.0000001
 44
0.0000000001
 40
0.0
 40
0.0
 40
0.0
 40
0.0
 40
0.2617854915
 40
1.0
 40
1.0
 40
1.0
 40
1.0
 10
15.1040171613
 20
9.8174961821
 30
0.0
 10
15.1037026269
 20
9.8187667105
 30
0.0
 10
15.1027804943
 20
9.8236811858
 30
0.0
 10
15.1031475545
 20
9.8288657078
 30
0.0
 10
15.1042374362
 20
9.8323920722
 30
0.0
  0
SPLINE
  5
337
100
AcDbEntity
  8
0
100
AcDbSpline
 62
7
  6
CONTINUOUS
 70
0
 71
3
 72
11
 73
7
 74
0
 42
0.0000001
 43
0.0000001
 44
0.0000000001
 40
0.0
 40
0.0
 40
0.0
 40
0.0
 40
0.2576005889
 40
0.5240168507
 40
0.7775777579
 40
1.0
 40
1.0
 40
1.0
 40
1.0
 10
15.1225612319
 20
9.9214948252
 30
0.0
 10
15.1139241094
 20
9.9214948252
 30
0.0
 10
15.0963225183
 20
9.9236274635
 30
0.0
 10
15.0714081623
 20
9.9318383268
 30
0.0
 10
15.0496342904
 20
9.9442304226
 30
0.0
 10
15.0378242321
 20
9.9553623924
 30
0.0
 10
15.0334118669
 20
9.9613746448
 30
0.0
  0
SPLINE
  5
338
100
AcDbEntity
  8
0
100
AcDbSpline
 62
7
  6
CONTINUOUS
 70
0
 71
3
 72
9
 73
5
 74
0
 42
0.0000001
 43
0.0000001
 44
0.0000000001
 40
0.0
 40
0.0
 40
0.0
 40
0.0
 40
0.4951668087
 40
1.0
 40
1.0
 40
1.0
 40
1.0
 10
15.4695790626
 20
10.0342996038
 30
0.0
 10
15.4539661433
 20
10.0467471395
 30
0.0
 10
15.4173137515
 20
10.0654858925
 30
0.0
 10
15.3769382555
 20
10.0729816639
 30
0.0
 10
15.3565808755
 20
10.0729816639
 30
0.0
  0
SPLINE
  5
339
100
AcDbEntity
  8
0
100
AcDbSpline
 62
7
  6
CONTINUOUS
 70
0
 71
3
 72
9
 73
5
 74
0
 42
0.0000001
 43
0.0000001
 44
0.0000000001
 40
0.0
 40
0.0
 40
0.0
 40
0.0
 40
0.2355953265
 40
1.0
 40
1.0
 40
1.0
 40
1.0
 10
15.5410832809
 20
9.9613746448
 30
0.0
 10
15.5363298361
 20
9.9678516495
 30
0.0
 10
15.5150650572
 20
9.9945424999
 30
0.0
 10
15.4899613403
 20
10.0180496554
 30
0.0
 10
15.4695790626
 20
10.0342996038
 30
0.0
  0
SPLINE
  5
33A
100
AcDbEntity
  8
0
100
AcDbSpline
 62
7
  6
CONTINUOUS
 70
0
 71
3
 72
11
 73
7
 74
0
 42
0.0000001
 43
0.0000001
 44
0.0000000001
 40
0.0
 40
0.0
 40
0.0
 40
0.0
 40
0.3038095056
 40
0.5699128296
 40
0.7977399437
 40
1.0
 40
1.0
 40
1.0
 40
1.0
 10
15.8160579468
 20
10.0729816639
 30
0.0
 10
15.8070683673
 20
10.0729816639
 30
0.0
 10
15.7901383528
 20
10.0715573036
 30
0.0
 10
15.7673928077
 20
10.0644028373
 30
0.0
 10
15.7500468948
 20
10.0525318182
 30
0.0
 10
15.7431435903
 20
10.041223231
 30
0.0
 10
15.7413754533
 20
10.0355056025
 30
0.0
  0
SPLINE
  5
33B
100
AcDbEntity
  8
0
100
AcDbSpline
 62
7
  6
CONTINUOUS
 70
0
 71
3
 72
9
 73
5
 74
0
 42
0.0000001
 43
0.0000001
 44
0.0000000001
 40
0.0
 40
0.0
 40
0.0
 40
0.0
 40
0.2617854915
 40
1.0
 40
1.0
 40
1.0
 40
1.0
 10
15.6116885754
 20
9.8174961821
 30
0.0
 10
15.6113740409
 20
9.8187667105
 30
0.0
 10
15.6104519083
 20
9.8236811858
 30
0.0
 10
15.6108189685
 20
9.8288657078
 30
0.0
 10
15.6119088502
 20
9.8323920722
 30
0.0
  0
SPLINE
  5
33C
100
AcDbEntity
  8
0
100
AcDbSpline
 62
7
  6
CONTINUOUS
 70
0
 71
3
 72
11
 73
7
 74
0
 42
0.0000001
 43
0.0000001
 44
0.0000000001
 40
0.0
 40
0.0
 40
0.0
 40
0.0
 40
0.2576005889
 40
0.5240168507
 40
0.7775777579
 40
1.0
 40
1.0
 40
1.0
 40
1.0
 10
15.6302326459
 20
9.9214948252
 30
0.0
 10
15.6215955234
 20
9.9214948252
 30
0.0
 10
15.6039939324
 20
9.9236274635
 30
0.0
 10
15.5790795763
 20
9.9318383268
 30
0.0
 10
15.5573057044
 20
9.9442304226
 30
0.0
 10
15.5454956461
 20
9.9553623924
 30
0.0
 10
15.5410832809
 20
9.9613746448
 30
0.0
  0
SPLINE
  5
33D
100
AcDbEntity
  8
0
100
AcDbSpline
 62
7
  6
CONTINUOUS
 70
0
 71
3
 72
11
 73
7
 74
0
 42
0.0000001
 43
0.0000001
 44
0.0000000001
 40
0.0
 40
0.0
 40
0.0
 40
0.0
 40
0.3038095056
 40
0.5699128296
 40
0.7977399437
 40
1.0
 40
1.0
 40
1.0
 40
1.0
 10
13.2777008767
 20
10.0729816639
 30
0.0
 10
13.2687112972
 20
10.0729816639
 30
0.0
 10
13.2517812827
 20
10.0715573036
 30
0.0
 10
13.2290357377
 20
10.0644028373
 30
0.0
 10
13.2116898247
 20
10.0525318182
 30
0.0
 10
13.2047865202
 20
10.041223231
 30
0.0
 10
13.2030183833
 20
10.0355056025
 30
0.0
  0
SPLINE
  5
33E
100
AcDbEntity
  8
0
100
AcDbSpline
 62
7
  6
CONTINUOUS
 70
0
 71
3
 72
9
 73
5
 74
0
 42
0.0000001
 43
0.0000001
 44
0.0000000001
 40
0.0
 40
0.0
 40
0.0
 40
0.0
 40
0.4951668087
 40
1.0
 40
1.0
 40
1.0
 40
1.0
 10
13.4388934065
 20
10.0342996038
 30
0.0
 10
13.4232804873
 20
10.0467471395
 30
0.0
 10
13.3866280954
 20
10.0654858925
 30
0.0
 10
13.3462525995
 20
10.0729816639
 30
0.0
 10
13.3258952194
 20
10.0729816639
 30
0.0
  0
SPLINE
  5
33F
100
AcDbEntity
  8
0
100
AcDbSpline
 62
7
  6
CONTINUOUS
 70
0
 71
3
 72
9
 73
5
 74
0
 42
0.0000001
 43
0.0000001
 44
0.0000000001
 40
0.0
 40
0.0
 40
0.0
 40
0.0
 40
0.2617854915
 40
1.0
 40
1.0
 40
1.0
 40
1.0
 10
16.1193599894
 20
9.8174961821
 30
0.0
 10
16.1190454549
 20
9.8187667105
 30
0.0
 10
16.1181233223
 20
9.8236811858
 30
0.0
 10
16.1184903826
 20
9.8288657078
 30
0.0
 10
16.1195802642
 20
9.8323920722
 30
0.0
  0
SPLINE
  5
340
100
AcDbEntity
  8
0
100
AcDbSpline
 62
7
  6
CONTINUOUS
 70
0
 71
3
 72
9
 73
5
 74
0
 42
0.0000001
 43
0.0000001
 44
0.0000000001
 40
0.0
 40
0.0
 40
0.0
 40
0.0
 40
0.4951668087
 40
1.0
 40
1.0
 40
1.0
 40
1.0
 10
15.9772504766
 20
10.0342996038
 30
0.0
 10
15.9616375574
 20
10.0467471395
 30
0.0
 10
15.9249851655
 20
10.0654858925
 30
0.0
 10
15.8846096696
 20
10.0729816639
 30
0.0
 10
15.8642522895
 20
10.0729816639
 30
0.0
  0
SPLINE
  5
341
100
AcDbEntity
  8
0
100
AcDbSpline
 62
7
  6
CONTINUOUS
 70
0
 71
3
 72
11
 73
7
 74
0
 42
0.0000001
 43
0.0000001
 44
0.0000000001
 40
0.0
 40
0.0
 40
0.0
 40
0.0
 40
0.2576005889
 40
0.5240168507
 40
0.7775777579
 40
1.0
 40
1.0
 40
1.0
 40
1.0
 10
16.13790406
 20
9.9214948252
 30
0.0
 10
16.1292669375
 20
9.9214948252
 30
0.0
 10
16.1116653464
 20
9.9236274635
 30
0.0
 10
16.0867509903
 20
9.9318383268
 30
0.0
 10
16.0649771185
 20
9.9442304226
 30
0.0
 10
16.0531670601
 20
9.9553623924
 30
0.0
 10
16.0487546949
 20
9.9613746448
 30
0.0
  0
SPLINE
  5
342
100
AcDbEntity
  8
0
100
AcDbSpline
 62
7
  6
CONTINUOUS
 70
0
 71
3
 72
9
 73
5
 74
0
 42
0.0000001
 43
0.0000001
 44
0.0000000001
 40
0.0
 40
0.0
 40
0.0
 40
0.0
 40
0.2356730812
 40
1.0
 40
1.0
 40
1.0
 40
1.0
 10
16.0487546949
 20
9.9613746448
 30
0.0
 10
16.0439996765
 20
9.9678537937
 30
0.0
 10
16.0227355964
 20
9.9945452828
 30
0.0
 10
15.9976307016
 20
10.018051292
 30
0.0
 10
15.9772504766
 20
10.0342996038
 30
0.0
  0
ENDSEC
  0
SECTION
  2
OBJECTS
  0
DICTIONARY
  5
C
100
AcDbDictionary
280
0
281
1
  3
ACAD_GROUP
350
D
  3
ACAD_MLINESTYLE
350
17
  3
ACAD_LAYOUT
350
1A
  3
ACAD_PLOTSETTINGS
350
19
  3
ACAD_PLOTSTYLENAME
350
E
  0
DICTIONARY
  5
D
102
{ACAD_REACTORS
330
C
102
}
100
AcDbDictionary
280
0
281
1
  0
ACDBDICTIONARYWDFLT
  5
E
102
{ACAD_REACTORS
330
C
102
}
100
AcDbDictionary
281
1
  3
Normal
350
F
100
AcDbDictionaryWithDefault
340
F
  0
DICTIONARY
  5
17
102
{ACAD_REACTORS
330
C
102
}
100
AcDbDictionary
280
0
281
1
  3
Standard
350
18
  0
DICTIONARY
  5
19
102
{ACAD_REACTORS
330
C
102
}
100
AcDbDictionary
281
1
  0
DICTIONARY
  5
1A
102
{ACAD_REACTORS
330
C
102
}
100
AcDbDictionary
281
1
  3
Model
350
343
  3
Layout1
350
344
  0
ACDBPLACEHOLDER
  5
F
102
{ACAD_REACTORS
330
E
102
}
  0
MLINESTYLE
  5
18
102
{ACAD_REACTORS
330
17
102
}
100
AcDbMlineStyle
  2
STANDARD
 70
0
  3

 62
256
 51
90.0
 52
90.0
 71
2
 49
0.5
 62
256
  6
BYLAYER
 49
-0.5
 62
256
  6
BYLAYER
  0
LAYOUT
  5
343
102
{ACAD_REACTORS
330
1A
102
}
100
AcDbPlotSettings
  1

  2
none_device
  4
ANSI_C_(22.00_x_17.00_Inches)
  6

 40
0.0
 41
0.0
 42
0.0
 43
0.0
 44
558.8
 45
431.8
 46
0.0
 47
0.0
 48
0.0
 49
0.0
140
0.0
141
0.0
142
1.0
143
1.0
 70
1024
 72
0
 73
0
 74
0
  7

 75
0
147
1.0
148
0.0
149
0.0
100
AcDbLayout
  1
Model
 70
0
 71
0
 10
0.0
 20
0.0
 11
22.0
 21
17.0
 12
0.0
 22
0.0
 32
0.0
 14
0.0
 24
0.0
 34
0.0
 15
0.0
 25
0.0
 35
0.0
146
0.0
 13
0.0
 23
0.0
 33
0.0
 16
1.0
 26
0.0
 36
0.0
 17
0.0
 27
1.0
 37
0.0
 76
0
330
216
345
0
346
0
  0
LAYOUT
  5
344
102
{ACAD_REACTORS
330
1A
102
}
100
AcDbPlotSettings
  1

  2
none_device
  4
ANSI_C_(22.00_x_17.00_Inches)
  6

 40
0.0
 41
0.0
 42
0.0
 43
0.0
 44
558.8
 45
431.8
 46
0.0
 47
0.0
 48
0.0
 49
0.0
140
0.0
141
0.0
142
1.0
143
1.0
 70
0
 72
0
 73
0
 74
0
  7

 75
0
147
1.0
148
0.0
149
0.0
100
AcDbLayout
  1
Layout1
 70
0
 71
1
 10
0.0
 20
0.0
 11
22.0
 21
17.0
 12
0.0
 22
0.0
 32
0.0
 14
0.0
 24
0.0
 34
0.0
 15
0.0
 25
0.0
 35
0.0
146
0.0
 13
0.0
 23
0.0
 33
0.0
 16
1.0
 26
0.0
 36
0.0
 17
0.0
 27
1.0
 37
0.0
 76
0
330
217
345
0
346
0
  0
ENDSEC
  0
EOF