999
DXF file: _cgs_temp_output.dxf
999
Pro/ENGINEER 2015110 by Parametric Technology Corporation
  0
SECTION
  2
HEADER
  9
$ACADVER
  1
AC1021
  9
$DWGCODEPAGE
  3
ANSI_1252
  9
$EXTMAX
 10
22.0
 20
17.0
 30
0.0
  9
$EXTMIN
 10
0.0
 20
0.0
 30
0.0
  9
$LIMMIN
 10
0.0
 20
0.0
  9
$LIMMAX
 10
22.0
 20
17.0
  9
$VIEWCTR
 10
11.0
 20
8.5
  9
$VIEWSIZE
 40
17.0
  9
$CLAYER
  8
0
  9
$LTSCALE
 40
1.21
  9
$CELTYPE
  6
BYLAYER
  9
$DIMSCALE
 40
1.0
  9
$DIMASZ
 40
0.1875
  9
$DIMEXO
 40
0.0625
  9
$DIMDLI
 40
0.836
  9
$DIMEXE
 40
0.125
  9
$DIMCEN
 40
0.198
  9
$DIMLFAC
 40
1.0
  9
$DIMBLK
  1
_CLOSED
  9
$DIMALT
 70
0
  9
$DIMALTF
 40
25.4
  9
$DIMTXT
 40
0.15625
  9
$DIMTOL
 70
0
  9
$DIMLIM
 70
0
  9
$DIMTFAC
 40
1.0
  9
$DIMGAP
 40
0.09
  9
$DIMDSEP
 70
46
  9
$AUNITS
 70
0
  9
$PDMODE
 70
3
  9
$PDSIZE
 40
0.3125
  9
$HANDSEED
  5
345
  9
$TILEMODE
 70
1
  9
$MEASUREMENT
 70
0
  9
$INSUNITS
 70
1
  0
ENDSEC
  0
SECTION
  2
CLASSES
  0
CLASS
  1
ACDBDICTIONARYWDFLT
  2
AcDbDictionaryWithDefault
  3
AutoCAD 2000
 90
0
 91
1
280
0
281
0
  0
CLASS
  1
ACDBPLACEHOLDER
  2
AcDbPlaceHolder
  3
AutoCAD 2000
 90
0
 91
1
280
0
281
0
  0
CLASS
  1
LAYOUT
  2
AcDbLayout
  3
AutoCAD 2000
 90
0
 91
0
280
0
281
0
  0
ENDSEC
  0
SECTION
  2
TABLES
  0
TABLE
  2
VPORT
  5
8
100
AcDbSymbolTable
 70
2
  0
VPORT
  5
1F4
100
AcDbSymbolTableRecord
100
AcDbViewportTableRecord
  2
*ACTIVE
 70
0
 10
0.0
 20
0.0
 11
1.0
 21
1.0
 12
11.0
 22
8.5
 13
0.0
 23
0.0
 14
1.0
 24
1.0
 15
0.0
 25
0.0
 16
0.0
 26
0.0
 36
1.0
 17
0.0
 27
0.0
 37
0.0
 40
17.0
 41
1.2941176471
 42
50.0
 43
0.0
 44
0.0
 50
0.0
 51
0.0
 71
0
 72
100
 73
1
 74
1
 75
0
 76
0
 77
0
 78
0
  0
ENDTAB
  0
TABLE
  2
LTYPE
  5
5
100
AcDbSymbolTable
 70
6
  0
LTYPE
  5
14
100
AcDbSymbolTableRecord
100
AcDbLinetypeTableRecord
  2
BYBLOCK
 70
0
  3

 72
65
 73
0
 40
0.0
  0
LTYPE
  5
15
100
AcDbSymbolTableRecord
100
AcDbLinetypeTableRecord
  2
BYLAYER
 70
0
  3

 72
65
 73
0
 40
0.0
  0
LTYPE
  5
16
100
AcDbSymbolTableRecord
100
AcDbLinetypeTableRecord
  2
CONTINUOUS
 70
64
  3
Solid line
 72
65
 73
0
 40
0.0
  0
LTYPE
  5
1F5
100
AcDbSymbolTableRecord
100
AcDbLinetypeTableRecord
  2
CENTER
 70
64
  3
____ _ ____ _ ____ _ ____ _ ____ _ ____ _ ____
 72
65
 73
4
 40
0.6
 49
0.375
 74
0
 49
-0.075
 74
0
 49
0.075
 74
0
 49
-0.075
 74
0
  0
LTYPE
  5
1F6
100
AcDbSymbolTableRecord
100
AcDbLinetypeTableRecord
  2
HIDDEN
 70
64
  3
- - - - - - - - - - - - - - - - - - - -
 72
65
 73
2
 40
0.2
 49
0.1
 74
0
 49
-0.1
 74
0
  0
LTYPE
  5
1F7
100
AcDbSymbolTableRecord
100
AcDbLinetypeTableRecord
  2
PHANTOM
 70
64
  3
_____ _ _ _____ _ _ _____ _ _ _____
 72
65
 73
6
 40
0.8
 49
0.45
 74
0
 49
-0.05
 74
0
 49
0.1
 74
0
 49
-0.05
 74
0
 49
0.1
 74
0
 49
-0.05
 74
0
  0
LTYPE
  5
1F8
100
AcDbSymbolTableRecord
100
AcDbLinetypeTableRecord
  2
DOT
 70
64
  3
. . . . . . . . . . . . . . . . . . . .
 72
65
 73
2
 40
0.2
 49
0.1
 74
0
 49
-0.1
 74
0
  0
LTYPE
  5
1F9
100
AcDbSymbolTableRecord
100
AcDbLinetypeTableRecord
  2
DASHED
 70
64
  3
- - - - - - - - - - - - - - - - - - - -
 72
65
 73
2
 40
0.2
 49
0.1
 74
0
 49
-0.1
 74
0
  0
ENDTAB
  0
TABLE
  2
LAYER
  5
2
100
AcDbSymbolTable
 70
36
  0
LAYER
  5
10
100
AcDbSymbolTableRecord
100
AcDbLayerTableRecord
  2
0
 70
0
 62
7
  6
CONTINUOUS
370
-3
390
F
  0
LAYER
  5
1FA
100
AcDbSymbolTableRecord
100
AcDbLayerTableRecord
  2
DEFAULT_1
 70
0
 62
7
  6
CENTER
370
-3
390
F
  0
LAYER
  5
1FB
100
AcDbSymbolTableRecord
100
AcDbLayerTableRecord
  2
DEFAULT_2
 70
0
 62
8
  6
HIDDEN
370
-3
390
F
  0
LAYER
  5
1FC
100
AcDbSymbolTableRecord
100
AcDbLayerTableRecord
  2
DEFAULT_3
 70
0
 62
7
  6
PHANTOM
370
-3
390
F
  0
LAYER
  5
1FD
100
AcDbSymbolTableRecord
100
AcDbLayerTableRecord
  2
01_ALL_DTM_PLN
 70
0
 62
7
  6
CONTINUOUS
370
-3
390
F
  0
LAYER
  5
1FE
100
AcDbSymbolTableRecord
100
AcDbLayerTableRecord
  2
01__ASM_ALL_DTM_PLN
 70
0
 62
7
  6
CONTINUOUS
370
-3
390
F
  0
LAYER
  5
1FF
100
AcDbSymbolTableRecord
100
AcDbLayerTableRecord
  2
01__ASM_DEF_DTM_PLN
 70
0
 62
7
  6
CONTINUOUS
370
-3
390
F
  0
LAYER
  5
200
100
AcDbSymbolTableRecord
100
AcDbLayerTableRecord
  2
01___PRT_ALL_DTM_PLN
 70
0
 62
7
  6
CONTINUOUS
370
-3
390
F
  0
LAYER
  5
201
100
AcDbSymbolTableRecord
100
AcDbLayerTableRecord
  2
01___PRT_DEF_DTM_PLN
 70
0
 62
7
  6
CONTINUOUS
370
-3
390
F
  0
LAYER
  5
202
100
AcDbSymbolTableRecord
100
AcDbLayerTableRecord
  2
02_ALL_AXES
 70
0
 62
7
  6
CONTINUOUS
370
-3
390
F
  0
LAYER
  5
203
100
AcDbSymbolTableRecord
100
AcDbLayerTableRecord
  2
02__ASM_ALL_AXES
 70
0
 62
7
  6
CONTINUOUS
370
-3
390
F
  0
LAYER
  5
204
100
AcDbSymbolTableRecord
100
AcDbLayerTableRecord
  2
02___PRT_ALL_AXES
 70
0
 62
7
  6
CONTINUOUS
370
-3
390
F
  0
LAYER
  5
205
100
AcDbSymbolTableRecord
100
AcDbLayerTableRecord
  2
03_ALL_CURVES
 70
0
 62
7
  6
CONTINUOUS
370
-3
390
F
  0
LAYER
  5
206
100
AcDbSymbolTableRecord
100
AcDbLayerTableRecord
  2
03__ASM_ALL_CURVES
 70
0
 62
7
  6
CONTINUOUS
370
-3
390
F
  0
LAYER
  5
207
100
AcDbSymbolTableRecord
100
AcDbLayerTableRecord
  2
03___PRT_ALL_CURVES
 70
0
 62
7
  6
CONTINUOUS
370
-3
390
F
  0
LAYER
  5
208
100
AcDbSymbolTableRecord
100
AcDbLayerTableRecord
  2
04_ALL_DTM_PNT
 70
0
 62
7
  6
CONTINUOUS
370
-3
390
F
  0
LAYER
  5
209
100
AcDbSymbolTableRecord
100
AcDbLayerTableRecord
  2
04__ASM_ALL_DTM_PNT
 70
0
 62
7
  6
CONTINUOUS
370
-3
390
F
  0
LAYER
  5
20A
100
AcDbSymbolTableRecord
100
AcDbLayerTableRecord
  2
04___PRT_ALL_DTM_PNT
 70
0
 62
7
  6
CONTINUOUS
370
-3
390
F
  0
LAYER
  5
20B
100
AcDbSymbolTableRecord
100
AcDbLayerTableRecord
  2
05_ALL_DTM_CSYS
 70
0
 62
7
  6
CONTINUOUS
370
-3
390
F
  0
LAYER
  5
20C
100
AcDbSymbolTableRecord
100
AcDbLayerTableRecord
  2
05__ASM_ALL_DTM_CSYS
 70
0
 62
7
  6
CONTINUOUS
370
-3
390
F
  0
LAYER
  5
20D
100
AcDbSymbolTableRecord
100
AcDbLayerTableRecord
  2
05__ASM_DEF_DTM_CSYS
 70
0
 62
7
  6
CONTINUOUS
370
-3
390
F
  0
LAYER
  5
20E
100
AcDbSymbolTableRecord
100
AcDbLayerTableRecord
  2
05___PRT_ALL_DTM_CSYS
 70
0
 62
7
  6
CONTINUOUS
370
-3
390
F
  0
LAYER
  5
20F
100
AcDbSymbolTableRecord
100
AcDbLayerTableRecord
  2
05___PRT_DEF_DTM_CSYS
 70
0
 62
7
  6
CONTINUOUS
370
-3
390
F
  0
LAYER
  5
210
100
AcDbSymbolTableRecord
100
AcDbLayerTableRecord
  2
06_ALL_SURFS
 70
0
 62
7
  6
CONTINUOUS
370
-3
390
F
  0
LAYER
  5
211
100
AcDbSymbolTableRecord
100
AcDbLayerTableRecord
  2
06__ASM_ALL_SURFS
 70
0
 62
7
  6
CONTINUOUS
370
-3
390
F
  0
LAYER
  5
212
100
AcDbSymbolTableRecord
100
AcDbLayerTableRecord
  2
06___PRT_ALL_SURFS
 70
0
 62
7
  6
CONTINUOUS
370
-3
390
F
  0
LAYER
  5
213
100
AcDbSymbolTableRecord
100
AcDbLayerTableRecord
  2
07__ASM_ALL_SKELETONS
 70
0
 62
7
  6
CONTINUOUS
370
-3
390
F
  0
ENDTAB
  0
TABLE
  2
STYLE
  5
3
100
AcDbSymbolTable
 70
1
  0
STYLE
  5
11
100
AcDbSymbolTableRecord
100
AcDbTextStyleTableRecord
  2
STANDARD
 70
0
 40
0.0
 41
0.8
 50
0.0
 71
0
 42
0.2
  3
txt
  4

  0
STYLE
  5
214
100
AcDbSymbolTableRecord
100
AcDbTextStyleTableRecord
  2
TEXTSTYLE_1
 70
0
 40
0.0
 41
0.8
 50
0.0
 71
0
 42
0.2
  3
gdt
  4

  0
ENDTAB
  0
TABLE
  2
VIEW
  5
6
100
AcDbSymbolTable
 70
0
  0
ENDTAB
  0
TABLE
  2
UCS
  5
7
100
AcDbSymbolTable
 70
0
  0
ENDTAB
  0
TABLE
  2
APPID
  5
9
100
AcDbSymbolTable
 70
1
  0
APPID
  5
215
100
AcDbSymbolTableRecord
100
AcDbRegAppTableRecord
  2
ACAD
 70
0
  0
ENDTAB
  0
TABLE
  2
BLOCK_RECORD
  5
1
100
AcDbSymbolTable
 70
0
  0
BLOCK_RECORD
  5
216
100
AcDbSymbolTableRecord
100
AcDbBlockTableRecord
  2
*Model_Space
  0
BLOCK_RECORD
  5
217
100
AcDbSymbolTableRecord
100
AcDbBlockTableRecord
  2
*Paper_Space
  0
ENDTAB
  0
TABLE
  2
DIMSTYLE
  5
A
100
AcDbSymbolTable
 70
1
100
AcDbDimStyleTable
 71
0
  0
DIMSTYLE
105
218
100
AcDbSymbolTableRecord
100
AcDbDimStyleTableRecord
  2
STANDARD
 70
0
  3

  4

 40
1.0
 41
0.1875
 42
0.0625
 43
0.38
 44
0.125
 45
0.0
 46
0.0
 47
0.0001
 48
0.0001
140
0.15625
141
0.09
142
0.0
143
25.4
144
1.0
145
0.0
146
1.0
147
0.09
 71
0.0
 72
0.0
 73
1
 74
1
 75
0
 76
0
 77
0
 78
4
170
0
171
2
172
0
173
0
174
0
175
0
176
0
177
0
178
0
270
2
271
4
272
4
273
2
274
2
275
0
280
0
281
0
282
0
283
1
284
4
285
0
286
0
287
3
288
0
340
11
278
46
  0
ENDTAB
  0
ENDSEC
  0
SECTION
  2
BLOCKS
  0
BLOCK
  5
20
100
AcDbEntity
  8
0
100
AcDbBlockBegin
  2
*Model_Space
 70
0
 10
0.0
 20
0.0
 30
0.0
  3
*Model_Space
  1

  0
ENDBLK
  5
21
100
AcDbEntity
  8
0
100
AcDbBlockEnd
  0
BLOCK
  5
1C
100
AcDbEntity
  8
0
100
AcDbBlockBegin
  2
*Paper_Space
 70
0
 10
0.0
 20
0.0
 30
0.0
  3
*Paper_Space
  1

  0
ENDBLK
  5
1D
100
AcDbEntity
  8
0
100
AcDbBlockEnd
  0
ENDSEC
  0
SECTION
  2
ENTITIES
  0
MTEXT
  5
219
100
AcDbEntity
  8
0
100
AcDbMText
 62
7
  6
CONTINUOUS
  7
STANDARD
 71
1
 72
1
 10
15.9560215477
 20
0.9479130325
 30
0.0
 11
1.0
 21
0.0
 31
0.0
 44
0.9
  1
SCALE: 1:1.000
 40
0.3
 41
3.36
  0
LINE
  5
21A
100
AcDbEntity
  8
0
100
AcDbLine
 62
7
  6
CONTINUOUS
 10
0.0
 20
0.0
 11
0.0
 21
17.0
  0
LINE
  5
21B
100
AcDbEntity
  8
0
100
AcDbLine
 62
7
  6
CONTINUOUS
 10
0.0
 20
0.0
 11
22.0
 21
0.0
  0
LINE
  5
21C
100
AcDbEntity
  8
0
100
AcDbLine
 62
7
  6
CONTINUOUS
 10
0.0
 20
17.0
 11
22.0
 21
17.0
  0
LINE
  5
21D
100
AcDbEntity
  8
0
100
AcDbLine
 62
7
  6
CONTINUOUS
 10
22.0
 20
0.0
 11
22.0
 21
17.0
  0
LINE
  5
21E
100
AcDbEntity
  8
0
100
AcDbLine
 62
7
  6
CONTINUOUS
 10
5.1854853864
 20
5.5441356448
 11
5.1854853864
 21
5.4961041487
  0
LINE
  5
21F
100
AcDbEntity
  8
0
100
AcDbLine
 62
7
  6
CONTINUOUS
 10
5.3268786601
 20
5.3590962747
 11
5.3590527426
 21
5.3590962747
  0
LINE
  5
220
100
AcDbEntity
  8
0
100
AcDbLine
 62
7
  6
CONTINUOUS
 10
5.64183929
 20
5.3590962747
 11
5.6740133725
 21
5.3590962747
  0
LINE
  5
221
100
AcDbEntity
  8
0
100
AcDbLine
 62
7
  6
CONTINUOUS
 10
5.95679992
 20
5.3590962747
 11
5.9889740024
 21
5.3590962747
  0
LINE
  5
222
100
AcDbEntity
  8
0
100
AcDbLine
 62
7
  6
CONTINUOUS
 10
6.2717605499
 20
5.3590962747
 11
6.3039346324
 21
5.3590962747
  0
LINE
  5
223
100
AcDbEntity
  8
0
100
AcDbLine
 62
7
  6
CONTINUOUS
 10
6.5867211798
 20
5.3590962747
 11
6.6188952623
 21
5.3590962747
  0
LINE
  5
224
100
AcDbEntity
  8
0
100
AcDbLine
 62
7
  6
CONTINUOUS
 10
6.9016818097
 20
5.3590962747
 11
6.9338558922
 21
5.3590962747
  0
LINE
  5
225
100
AcDbEntity
  8
0
100
AcDbLine
 62
7
  6
CONTINUOUS
 10
5.1854853864
 20
5.4961041487
 11
5.2043615728
 21
5.4961041487
  0
LINE
  5
226
100
AcDbEntity
  8
0
100
AcDbLine
 62
7
  6
CONTINUOUS
 10
5.4815698299
 20
5.4961041487
 11
5.5193222027
 21
5.4961041487
  0
LINE
  5
227
100
AcDbEntity
  8
0
100
AcDbLine
 62
7
  6
CONTINUOUS
 10
5.7965304599
 20
5.4961041487
 11
5.8342828326
 21
5.4961041487
  0
LINE
  5
228
100
AcDbEntity
  8
0
100
AcDbLine
 62
7
  6
CONTINUOUS
 10
6.1114910898
 20
5.4961041487
 11
6.1492434626
 21
5.4961041487
  0
LINE
  5
229
100
AcDbEntity
  8
0
100
AcDbLine
 62
7
  6
CONTINUOUS
 10
6.4264517197
 20
5.4961041487
 11
6.4642040925
 21
5.4961041487
  0
LINE
  5
22A
100
AcDbEntity
  8
0
100
AcDbLine
 62
7
  6
CONTINUOUS
 10
6.7414123496
 20
5.4961041487
 11
6.7791647224
 21
5.4961041487
  0
LINE
  5
22B
100
AcDbEntity
  8
0
100
AcDbLine
 62
7
  6
CONTINUOUS
 10
7.0563729795
 20
5.4961041487
 11
7.0752491659
 21
5.4961041487
  0
LINE
  5
22C
100
AcDbEntity
  8
0
100
AcDbLine
 62
7
  6
CONTINUOUS
 10
7.0752491659
 20
5.5441356448
 11
7.0563729795
 21
5.5441356448
  0
LINE
  5
22D
100
AcDbEntity
  8
0
100
AcDbLine
 62
7
  6
CONTINUOUS
 10
6.7791647224
 20
5.5441356448
 11
6.7414123496
 21
5.5441356448
  0
LINE
  5
22E
100
AcDbEntity
  8
0
100
AcDbLine
 62
7
  6
CONTINUOUS
 10
6.4642040925
 20
5.5441356448
 11
6.4264517197
 21
5.5441356448
  0
LINE
  5
22F
100
AcDbEntity
  8
0
100
AcDbLine
 62
7
  6
CONTINUOUS
 10
6.1492434626
 20
5.5441356448
 11
6.1114910898
 21
5.5441356448
  0
LINE
  5
230
100
AcDbEntity
  8
0
100
AcDbLine
 62
7
  6
CONTINUOUS
 10
5.8342828326
 20
5.5441356448
 11
5.7965304599
 21
5.5441356448
  0
LINE
  5
231
100
AcDbEntity
  8
0
100
AcDbLine
 62
7
  6
CONTINUOUS
 10
5.5193222027
 20
5.5441356448
 11
5.4815698299
 21
5.5441356448
  0
LINE
  5
232
100
AcDbEntity
  8
0
100
AcDbLine
 62
7
  6
CONTINUOUS
 10
5.2043615728
 20
5.5441356448
 11
5.1854853864
 21
5.5441356448
  0
LINE
  5
233
100
AcDbEntity
  8
0
100
AcDbLine
 62
7
  6
CONTINUOUS
 10
6.9338558922
 20
5.6811435188
 11
6.9016818097
 21
5.6811435188
  0
LINE
  5
234
100
AcDbEntity
  8
0
100
AcDbLine
 62
7
  6
CONTINUOUS
 10
6.6188952623
 20
5.6811435188
 11
6.5867211798
 21
5.6811435188
  0
LINE
  5
235
100
AcDbEntity
  8
0
100
AcDbLine
 62
7
  6
CONTINUOUS
 10
6.3039346324
 20
5.6811435188
 11
6.2717605499
 21
5.6811435188
  0
LINE
  5
236
100
AcDbEntity
  8
0
100
AcDbLine
 62
7
  6
CONTINUOUS
 10
5.9889740024
 20
5.6811435188
 11
5.95679992
 21
5.6811435188
  0
LINE
  5
237
100
AcDbEntity
  8
0
100
AcDbLine
 62
7
  6
CONTINUOUS
 10
5.6740133725
 20
5.6811435188
 11
5.64183929
 21
5.6811435188
  0
LINE
  5
238
100
AcDbEntity
  8
0
100
AcDbLine
 62
7
  6
CONTINUOUS
 10
5.3590527426
 20
5.6811435188
 11
5.3268786601
 21
5.6811435188
  0
LINE
  5
239
100
AcDbEntity
  8
0
100
AcDbLine
 62
7
  6
CONTINUOUS
 10
7.0752491659
 20
5.4961041487
 11
7.0752491659
 21
5.5441356448
  0
LINE
  5
23A
100
AcDbEntity
  8
0
100
AcDbLine
 62
7
  6
CONTINUOUS
 10
5.1259901941
 20
13.5842997499
 11
5.1259901941
 21
11.6157958129
  0
LINE
  5
23B
100
AcDbEntity
  8
0
100
AcDbLine
 62
7
  6
CONTINUOUS
 10
7.0157539736
 20
11.6157958129
 11
5.1259901941
 21
11.6157958129
  0
LINE
  5
23C
100
AcDbEntity
  8
0
100
AcDbLine
 62
7
  6
CONTINUOUS
 10
7.0157539736
 20
13.5842997499
 11
7.0157539736
 21
11.6157958129
  0
LINE
  5
23D
100
AcDbEntity
  8
0
100
AcDbLine
 62
7
  6
CONTINUOUS
 10
5.1259901941
 20
13.5842997499
 11
7.0157539736
 21
13.5842997499
  0
LINE
  5
23E
100
AcDbEntity
  8
0
100
AcDbLine
 62
7
  6
CONTINUOUS
 10
14.5761032884
 20
5.2996010824
 11
14.5761032884
 21
5.6216483265
  0
LINE
  5
23F
100
AcDbEntity
  8
0
100
AcDbLine
 62
7
  6
CONTINUOUS
 10
14.5761032884
 20
5.2996010824
 11
16.5446072254
 21
5.2996010824
  0
LINE
  5
240
100
AcDbEntity
  8
0
100
AcDbLine
 62
7
  6
CONTINUOUS
 10
16.5446072254
 20
5.4366089564
 11
14.5761032884
 21
5.4366089564
  0
LINE
  5
241
100
AcDbEntity
  8
0
100
AcDbLine
 62
7
  6
CONTINUOUS
 10
16.5446072254
 20
5.4846404525
 11
14.5761032884
 21
5.4846404525
  0
LINE
  5
242
100
AcDbEntity
  8
0
100
AcDbLine
 62
7
  6
CONTINUOUS
 10
14.5761032884
 20
5.6216483265
 11
16.5446072254
 21
5.6216483265
  0
LINE
  5
243
100
AcDbEntity
  8
0
100
AcDbLine
 62
7
  6
CONTINUOUS
 10
16.5446072254
 20
5.2996010824
 11
16.5446072254
 21
5.6216483265
  0
LINE
  5
244
100
AcDbEntity
  8
0
100
AcDbLine
 62
7
  6
CONTINUOUS
 10
14.3552385519
 20
11.7547423685
 11
14.3698901692
 21
11.7248855118
  0
LINE
  5
245
100
AcDbEntity
  8
0
100
AcDbLine
 62
7
  6
CONTINUOUS
 10
14.401000275
 20
11.8184933251
 11
14.4006536423
 21
11.8172329994
  0
LINE
  5
246
100
AcDbEntity
  8
0
100
AcDbLine
 62
7
  6
CONTINUOUS
 10
14.8317470626
 20
13.2967244741
 11
14.3552385519
 21
11.7547423685
  0
LINE
  5
247
100
AcDbEntity
  8
0
100
AcDbLine
 62
7
  6
CONTINUOUS
 10
14.541915136
 20
11.6397200515
 11
14.5715494284
 21
11.6397200515
  0
LINE
  5
248
100
AcDbEntity
  8
0
100
AcDbLine
 62
7
  6
CONTINUOUS
 10
14.8320130869
 20
11.6397200515
 11
14.8616473793
 21
11.6397200515
  0
LINE
  5
249
100
AcDbEntity
  8
0
100
AcDbLine
 62
7
  6
CONTINUOUS
 10
15.1221110378
 20
11.6397200515
 11
15.1517453302
 21
11.6397200515
  0
LINE
  5
24A
100
AcDbEntity
  8
0
100
AcDbLine
 62
7
  6
CONTINUOUS
 10
15.4122089886
 20
11.6397200515
 11
15.441843281
 21
11.6397200515
  0
LINE
  5
24B
100
AcDbEntity
  8
0
100
AcDbLine
 62
7
  6
CONTINUOUS
 10
15.7023069395
 20
11.6397200515
 11
15.7319412319
 21
11.6397200515
  0
LINE
  5
24C
100
AcDbEntity
  8
0
100
AcDbLine
 62
7
  6
CONTINUOUS
 10
15.9924048904
 20
11.6397200515
 11
16.0220391828
 21
11.6397200515
  0
LINE
  5
24D
100
AcDbEntity
  8
0
100
AcDbLine
 62
7
  6
CONTINUOUS
 10
14.4010014576
 20
11.8184929602
 11
14.8775099683
 21
13.3604750657
  0
LINE
  5
24E
100
AcDbEntity
  8
0
100
AcDbLine
 62
7
  6
CONTINUOUS
 10
14.3698901692
 20
11.7248855118
 11
14.3872762882
 21
11.7248855118
  0
LINE
  5
24F
100
AcDbEntity
  8
0
100
AcDbLine
 62
7
  6
CONTINUOUS
 10
14.642602001
 20
11.7248855118
 11
14.677374239
 21
11.7248855118
  0
LINE
  5
250
100
AcDbEntity
  8
0
100
AcDbLine
 62
7
  6
CONTINUOUS
 10
14.9326999519
 20
11.7248855118
 11
14.9674721899
 21
11.7248855118
  0
LINE
  5
251
100
AcDbEntity
  8
0
100
AcDbLine
 62
7
  6
CONTINUOUS
 10
15.2227979028
 20
11.7248855118
 11
15.2575701408
 21
11.7248855118
  0
LINE
  5
252
100
AcDbEntity
  8
0
100
AcDbLine
 62
7
  6
CONTINUOUS
 10
15.5128958536
 20
11.7248855118
 11
15.5476680916
 21
11.7248855118
  0
LINE
  5
253
100
AcDbEntity
  8
0
100
AcDbLine
 62
7
  6
CONTINUOUS
 10
15.8029938045
 20
11.7248855118
 11
15.8377660425
 21
11.7248855118
  0
LINE
  5
254
100
AcDbEntity
  8
0
100
AcDbLine
 62
7
  6
CONTINUOUS
 10
16.0930917554
 20
11.7248855118
 11
16.1104778744
 21
11.7248855118
  0
LINE
  5
255
100
AcDbEntity
  8
0
100
AcDbLine
 62
7
  6
CONTINUOUS
 10
16.0958262571
 20
11.7547423685
 11
16.0784401381
 21
11.7547423685
  0
LINE
  5
256
100
AcDbEntity
  8
0
100
AcDbLine
 62
7
  6
CONTINUOUS
 10
15.8231144253
 20
11.7547423685
 11
15.7883421873
 21
11.7547423685
  0
LINE
  5
257
100
AcDbEntity
  8
0
100
AcDbLine
 62
7
  6
CONTINUOUS
 10
15.5330164744
 20
11.7547423685
 11
15.4982442364
 21
11.7547423685
  0
LINE
  5
258
100
AcDbEntity
  8
0
100
AcDbLine
 62
7
  6
CONTINUOUS
 10
15.2429185235
 20
11.7547423685
 11
15.2081462855
 21
11.7547423685
  0
LINE
  5
259
100
AcDbEntity
  8
0
100
AcDbLine
 62
7
  6
CONTINUOUS
 10
14.9528205727
 20
11.7547423685
 11
14.9180483347
 21
11.7547423685
  0
LINE
  5
25A
100
AcDbEntity
  8
0
100
AcDbLine
 62
7
  6
CONTINUOUS
 10
14.6627226218
 20
11.7547423685
 11
14.6279503838
 21
11.7547423685
  0
LINE
  5
25B
100
AcDbEntity
  8
0
100
AcDbLine
 62
7
  6
CONTINUOUS
 10
14.3726246709
 20
11.7547423685
 11
14.3552385519
 21
11.7547423685
  0
LINE
  5
25C
100
AcDbEntity
  8
0
100
AcDbLine
 62
7
  6
CONTINUOUS
 10
15.9238012903
 20
11.8399078287
 11
15.8941669979
 21
11.8399078287
  0
LINE
  5
25D
100
AcDbEntity
  8
0
100
AcDbLine
 62
7
  6
CONTINUOUS
 10
15.6337033394
 20
11.8399078287
 11
15.604069047
 21
11.8399078287
  0
LINE
  5
25E
100
AcDbEntity
  8
0
100
AcDbLine
 62
7
  6
CONTINUOUS
 10
15.3436053885
 20
11.8399078287
 11
15.3139710962
 21
11.8399078287
  0
LINE
  5
25F
100
AcDbEntity
  8
0
100
AcDbLine
 62
7
  6
CONTINUOUS
 10
15.0535074377
 20
11.8399078287
 11
15.0238731453
 21
11.8399078287
  0
LINE
  5
260
100
AcDbEntity
  8
0
100
AcDbLine
 62
7
  6
CONTINUOUS
 10
14.7634094868
 20
11.8399078287
 11
14.7337751944
 21
11.8399078287
  0
LINE
  5
261
100
AcDbEntity
  8
0
100
AcDbLine
 62
7
  6
CONTINUOUS
 10
14.4733115359
 20
11.8399078287
 11
14.4436772435
 21
11.8399078287
  0
LINE
  5
262
100
AcDbEntity
  8
0
100
AcDbLine
 62
7
  6
CONTINUOUS
 10
14.614226397
 20
11.6611345552
 11
14.6145730297
 21
11.6623948808
  0
LINE
  5
263
100
AcDbEntity
  8
0
100
AcDbLine
 62
7
  6
CONTINUOUS
 10
14.6910982258
 20
11.8184933251
 11
14.6907515932
 21
11.8172329994
  0
LINE
  5
264
100
AcDbEntity
  8
0
100
AcDbLine
 62
7
  6
CONTINUOUS
 10
14.6146109504
 20
11.6623831624
 11
14.6337002892
 21
11.7241562853
  0
LINE
  5
265
100
AcDbEntity
  8
0
100
AcDbLine
 62
7
  6
CONTINUOUS
 10
14.6910994085
 20
11.8184929602
 11
15.1676079191
 21
13.3604750657
  0
LINE
  5
266
100
AcDbEntity
  8
0
100
AcDbLine
 62
7
  6
CONTINUOUS
 10
14.9043243479
 20
11.6611345552
 11
14.9046709806
 21
11.6623948808
  0
LINE
  5
267
100
AcDbEntity
  8
0
100
AcDbLine
 62
7
  6
CONTINUOUS
 10
14.9811961767
 20
11.8184933251
 11
14.980849544
 21
11.8172329994
  0
LINE
  5
268
100
AcDbEntity
  8
0
100
AcDbLine
 62
7
  6
CONTINUOUS
 10
14.9047089013
 20
11.6623831624
 11
14.9237982401
 21
11.7241562853
  0
LINE
  5
269
100
AcDbEntity
  8
0
100
AcDbLine
 62
7
  6
CONTINUOUS
 10
14.9811973594
 20
11.8184929602
 11
15.45770587
 21
13.3604750657
  0
LINE
  5
26A
100
AcDbEntity
  8
0
100
AcDbLine
 62
7
  6
CONTINUOUS
 10
15.1944222987
 20
11.6611345552
 11
15.1947689314
 21
11.6623948808
  0
LINE
  5
26B
100
AcDbEntity
  8
0
100
AcDbLine
 62
7
  6
CONTINUOUS
 10
15.2712941276
 20
11.8184933251
 11
15.2709474949
 21
11.8172329994
  0
LINE
  5
26C
100
AcDbEntity
  8
0
100
AcDbLine
 62
7
  6
CONTINUOUS
 10
15.1948068522
 20
11.6623831624
 11
15.2138961909
 21
11.7241562853
  0
LINE
  5
26D
100
AcDbEntity
  8
0
100
AcDbLine
 62
7
  6
CONTINUOUS
 10
15.2712953102
 20
11.8184929602
 11
15.7478038209
 21
13.3604750657
  0
LINE
  5
26E
100
AcDbEntity
  8
0
100
AcDbLine
 62
7
  6
CONTINUOUS
 10
15.4845202496
 20
11.6611345552
 11
15.4848668823
 21
11.6623948808
  0
LINE
  5
26F
100
AcDbEntity
  8
0
100
AcDbLine
 62
7
  6
CONTINUOUS
 10
15.5613920784
 20
11.8184933251
 11
15.5610454458
 21
11.8172329994
  0
LINE
  5
270
100
AcDbEntity
  8
0
100
AcDbLine
 62
7
  6
CONTINUOUS
 10
15.484904803
 20
11.6623831624
 11
15.5039941418
 21
11.7241562853
  0
LINE
  5
271
100
AcDbEntity
  8
0
100
AcDbLine
 62
7
  6
CONTINUOUS
 10
15.5613932611
 20
11.8184929602
 11
16.0379017717
 21
13.3604750657
  0
LINE
  5
272
100
AcDbEntity
  8
0
100
AcDbLine
 62
7
  6
CONTINUOUS
 10
16.1104778744
 20
11.7248855118
 11
16.0958262571
 21
11.7547423685
  0
LINE
  5
273
100
AcDbEntity
  8
0
100
AcDbLine
 62
7
  6
CONTINUOUS
 10
15.7746182005
 20
11.6611345552
 11
15.7749648332
 21
11.6623948808
  0
LINE
  5
274
100
AcDbEntity
  8
0
100
AcDbLine
 62
7
  6
CONTINUOUS
 10
15.8514900293
 20
11.8184933251
 11
15.8511433966
 21
11.8172329994
  0
LINE
  5
275
100
AcDbEntity
  8
0
100
AcDbLine
 62
7
  6
CONTINUOUS
 10
15.7750027539
 20
11.6623831624
 11
15.7940920927
 21
11.7241562853
  0
LINE
  5
276
100
AcDbEntity
  8
0
100
AcDbLine
 62
7
  6
CONTINUOUS
 10
15.851491212
 20
11.8184929602
 11
16.3279997226
 21
13.3604750657
  0
LINE
  5
277
100
AcDbEntity
  8
0
100
AcDbLine
 62
7
  6
CONTINUOUS
 10
16.0647161513
 20
11.6611345552
 11
16.065062784
 21
11.6623948808
  0
LINE
  5
278
100
AcDbEntity
  8
0
100
AcDbLine
 62
7
  6
CONTINUOUS
 10
16.0651007048
 20
11.6623831624
 11
16.0841900435
 21
11.7241562853
  0
LINE
  5
279
100
AcDbEntity
  8
0
100
AcDbLine
 62
7
  6
CONTINUOUS
 10
16.5723347678
 20
13.2967244741
 11
16.0958262571
 21
11.7547423685
  0
LINE
  5
27A
100
AcDbEntity
  8
0
100
AcDbLine
 62
7
  6
CONTINUOUS
 10
16.586986385
 20
13.2668676173
 11
16.1104778744
 21
11.7248855118
  0
LINE
  5
27B
100
AcDbEntity
  8
0
100
AcDbLine
 62
7
  6
CONTINUOUS
 10
16.5723347678
 20
13.2967244741
 11
16.5549486488
 21
13.2967244741
  0
LINE
  5
27C
100
AcDbEntity
  8
0
100
AcDbLine
 62
7
  6
CONTINUOUS
 10
14.8491331816
 20
13.2967244741
 11
14.8317470626
 21
13.2967244741
  0
LINE
  5
27D
100
AcDbEntity
  8
0
100
AcDbLine
 62
7
  6
CONTINUOUS
 10
15.1044588945
 20
13.2967244741
 11
15.1392311325
 21
13.2967244741
  0
LINE
  5
27E
100
AcDbEntity
  8
0
100
AcDbLine
 62
7
  6
CONTINUOUS
 10
15.3945568453
 20
13.2967244741
 11
15.4293290833
 21
13.2967244741
  0
LINE
  5
27F
100
AcDbEntity
  8
0
100
AcDbLine
 62
7
  6
CONTINUOUS
 10
15.6846547962
 20
13.2967244741
 11
15.7194270342
 21
13.2967244741
  0
LINE
  5
280
100
AcDbEntity
  8
0
100
AcDbLine
 62
7
  6
CONTINUOUS
 10
15.9747527471
 20
13.2967244741
 11
16.0095249851
 21
13.2967244741
  0
LINE
  5
281
100
AcDbEntity
  8
0
100
AcDbLine
 62
7
  6
CONTINUOUS
 10
16.2648506979
 20
13.2967244741
 11
16.2996229359
 21
13.2967244741
  0
LINE
  5
282
100
AcDbEntity
  8
0
100
AcDbLine
 62
7
  6
CONTINUOUS
 10
16.4003098009
 20
13.3818899343
 11
16.3706755085
 21
13.3818899343
  0
LINE
  5
283
100
AcDbEntity
  8
0
100
AcDbLine
 62
7
  6
CONTINUOUS
 10
16.11021185
 20
13.3818899343
 11
16.0805775577
 21
13.3818899343
  0
LINE
  5
284
100
AcDbEntity
  8
0
100
AcDbLine
 62
7
  6
CONTINUOUS
 10
15.8201138992
 20
13.3818899343
 11
15.7904796068
 21
13.3818899343
  0
LINE
  5
285
100
AcDbEntity
  8
0
100
AcDbLine
 62
7
  6
CONTINUOUS
 10
15.5300159483
 20
13.3818899343
 11
15.5003816559
 21
13.3818899343
  0
LINE
  5
286
100
AcDbEntity
  8
0
100
AcDbLine
 62
7
  6
CONTINUOUS
 10
15.2399179974
 20
13.3818899343
 11
15.2102837051
 21
13.3818899343
  0
LINE
  5
287
100
AcDbEntity
  8
0
100
AcDbLine
 62
7
  6
CONTINUOUS
 10
14.9498200466
 20
13.3818899343
 11
14.9201857542
 21
13.3818899343
  0
LINE
  5
288
100
AcDbEntity
  8
0
100
AcDbLine
 62
7
  6
CONTINUOUS
 10
16.586986385
 20
13.2668676173
 11
16.5723347678
 21
13.2967244741
  0
ARC
  5
289
100
AcDbEntity
  8
0
100
AcDbCircle
 62
7
  6
CONTINUOUS
 10
5.4709184573
 20
5.4961041487
 40
0.2263779528
100
AcDbArc
 50
189.3197114863
 51
206.364596849
  0
ARC
  5
28A
100
AcDbEntity
  8
0
100
AcDbCircle
 62
7
  6
CONTINUOUS
 10
5.2150129455
 20
5.4961041487
 40
0.2263779528
100
AcDbArc
 50
333.635403151
 51
350.6802885137
  0
ARC
  5
28B
100
AcDbEntity
  8
0
100
AcDbCircle
 62
7
  6
CONTINUOUS
 10
5.7858790872
 20
5.4961041487
 40
0.2263779528
100
AcDbArc
 50
189.3197114863
 51
206.364596849
  0
ARC
  5
28C
100
AcDbEntity
  8
0
100
AcDbCircle
 62
7
  6
CONTINUOUS
 10
5.5299735754
 20
5.4961041487
 40
0.2263779528
100
AcDbArc
 50
333.635403151
 51
350.6802885137
  0
ARC
  5
28D
100
AcDbEntity
  8
0
100
AcDbCircle
 62
7
  6
CONTINUOUS
 10
6.1008397171
 20
5.4961041487
 40
0.2263779528
100
AcDbArc
 50
189.3197114863
 51
206.364596849
  0
ARC
  5
28E
100
AcDbEntity
  8
0
100
AcDbCircle
 62
7
  6
CONTINUOUS
 10
5.8449342053
 20
5.4961041487
 40
0.2263779528
100
AcDbArc
 50
333.635403151
 51
350.6802885137
  0
ARC
  5
28F
100
AcDbEntity
  8
0
100
AcDbCircle
 62
7
  6
CONTINUOUS
 10
5.3268786601
 20
5.4247130726
 40
0.0656167979
100
AcDbArc
 50
206.364596849
 51
270.0
  0
ARC
  5
290
100
AcDbEntity
  8
0
100
AcDbCircle
 62
7
  6
CONTINUOUS
 10
5.3590527426
 20
5.4247130726
 40
0.0656167979
100
AcDbArc
 50
270.0
 51
333.635403151
  0
ARC
  5
291
100
AcDbEntity
  8
0
100
AcDbCircle
 62
7
  6
CONTINUOUS
 10
5.64183929
 20
5.4247130726
 40
0.0656167979
100
AcDbArc
 50
206.364596849
 51
270.0
  0
ARC
  5
292
100
AcDbEntity
  8
0
100
AcDbCircle
 62
7
  6
CONTINUOUS
 10
5.6740133725
 20
5.4247130726
 40
0.0656167979
100
AcDbArc
 50
270.0
 51
333.635403151
  0
ARC
  5
293
100
AcDbEntity
  8
0
100
AcDbCircle
 62
7
  6
CONTINUOUS
 10
5.95679992
 20
5.4247130726
 40
0.0656167979
100
AcDbArc
 50
206.364596849
 51
270.0
  0
ARC
  5
294
100
AcDbEntity
  8
0
100
AcDbCircle
 62
7
  6
CONTINUOUS
 10
5.9889740024
 20
5.4247130726
 40
0.0656167979
100
AcDbArc
 50
270.0
 51
333.635403151
  0
ARC
  5
295
100
AcDbEntity
  8
0
100
AcDbCircle
 62
7
  6
CONTINUOUS
 10
5.4815698299
 20
5.4523596168
 40
0.0437445319
100
AcDbArc
 50
90.0
 51
170.6802885137
  0
ARC
  5
296
100
AcDbEntity
  8
0
100
AcDbCircle
 62
7
  6
CONTINUOUS
 10
5.2043615728
 20
5.4523596168
 40
0.0437445319
100
AcDbArc
 50
9.3197114863
 51
90.0
  0
ARC
  5
297
100
AcDbEntity
  8
0
100
AcDbCircle
 62
7
  6
CONTINUOUS
 10
5.7965304599
 20
5.4523596168
 40
0.0437445319
100
AcDbArc
 50
90.0
 51
170.6802885137
  0
ARC
  5
298
100
AcDbEntity
  8
0
100
AcDbCircle
 62
7
  6
CONTINUOUS
 10
5.5193222027
 20
5.4523596168
 40
0.0437445319
100
AcDbArc
 50
9.3197114863
 51
90.0
  0
ARC
  5
299
100
AcDbEntity
  8
0
100
AcDbCircle
 62
7
  6
CONTINUOUS
 10
6.1114910898
 20
5.4523596168
 40
0.0437445319
100
AcDbArc
 50
90.0
 51
170.6802885137
  0
ARC
  5
29A
100
AcDbEntity
  8
0
100
AcDbCircle
 62
7
  6
CONTINUOUS
 10
5.8342828326
 20
5.4523596168
 40
0.0437445319
100
AcDbArc
 50
9.3197114863
 51
90.0
  0
ARC
  5
29B
100
AcDbEntity
  8
0
100
AcDbCircle
 62
7
  6
CONTINUOUS
 10
5.4709184573
 20
5.5441356448
 40
0.2263779528
100
AcDbArc
 50
153.635403151
 51
170.6802885137
  0
ARC
  5
29C
100
AcDbEntity
  8
0
100
AcDbCircle
 62
7
  6
CONTINUOUS
 10
5.2150129455
 20
5.5441356448
 40
0.2263779528
100
AcDbArc
 50
9.3197114863
 51
26.364596849
  0
ARC
  5
29D
100
AcDbEntity
  8
0
100
AcDbCircle
 62
7
  6
CONTINUOUS
 10
5.7858790872
 20
5.5441356448
 40
0.2263779528
100
AcDbArc
 50
153.635403151
 51
170.6802885137
  0
ARC
  5
29E
100
AcDbEntity
  8
0
100
AcDbCircle
 62
7
  6
CONTINUOUS
 10
5.5299735754
 20
5.5441356448
 40
0.2263779528
100
AcDbArc
 50
9.3197114863
 51
26.364596849
  0
ARC
  5
29F
100
AcDbEntity
  8
0
100
AcDbCircle
 62
7
  6
CONTINUOUS
 10
6.1008397171
 20
5.5441356448
 40
0.2263779528
100
AcDbArc
 50
153.635403151
 51
170.6802885137
  0
ARC
  5
2A0
100
AcDbEntity
  8
0
100
AcDbCircle
 62
7
  6
CONTINUOUS
 10
5.8449342053
 20
5.5441356448
 40
0.2263779528
100
AcDbArc
 50
9.3197114863
 51
26.364596849
  0
ARC
  5
2A1
100
AcDbEntity
  8
0
100
AcDbCircle
 62
7
  6
CONTINUOUS
 10
5.3590527426
 20
5.6155267209
 40
0.0656167979
100
AcDbArc
 50
26.364596849
 51
90.0
  0
ARC
  5
2A2
100
AcDbEntity
  8
0
100
AcDbCircle
 62
7
  6
CONTINUOUS
 10
5.3268786601
 20
5.6155267209
 40
0.0656167979
100
AcDbArc
 50
90.0
 51
153.635403151
  0
ARC
  5
2A3
100
AcDbEntity
  8
0
100
AcDbCircle
 62
7
  6
CONTINUOUS
 10
5.64183929
 20
5.6155267209
 40
0.0656167979
100
AcDbArc
 50
90.0
 51
153.635403151
  0
ARC
  5
2A4
100
AcDbEntity
  8
0
100
AcDbCircle
 62
7
  6
CONTINUOUS
 10
5.6740133725
 20
5.6155267209
 40
0.0656167979
100
AcDbArc
 50
26.364596849
 51
90.0
  0
ARC
  5
2A5
100
AcDbEntity
  8
0
100
AcDbCircle
 62
7
  6
CONTINUOUS
 10
5.95679992
 20
5.6155267209
 40
0.0656167979
100
AcDbArc
 50
90.0
 51
153.635403151
  0
ARC
  5
2A6
100
AcDbEntity
  8
0
100
AcDbCircle
 62
7
  6
CONTINUOUS
 10
5.9889740024
 20
5.6155267209
 40
0.0656167979
100
AcDbArc
 50
26.364596849
 51
90.0
  0
ARC
  5
2A7
100
AcDbEntity
  8
0
100
AcDbCircle
 62
7
  6
CONTINUOUS
 10
5.4815698299
 20
5.5878801767
 40
0.0437445319
100
AcDbArc
 50
189.3197114863
 51
270.0
  0
ARC
  5
2A8
100
AcDbEntity
  8
0
100
AcDbCircle
 62
7
  6
CONTINUOUS
 10
5.2043615728
 20
5.5878801767
 40
0.0437445319
100
AcDbArc
 50
270.0
 51
350.6802885137
  0
ARC
  5
2A9
100
AcDbEntity
  8
0
100
AcDbCircle
 62
7
  6
CONTINUOUS
 10
5.7965304599
 20
5.5878801767
 40
0.0437445319
100
AcDbArc
 50
189.3197114863
 51
270.0
  0
ARC
  5
2AA
100
AcDbEntity
  8
0
100
AcDbCircle
 62
7
  6
CONTINUOUS
 10
5.5193222027
 20
5.5878801767
 40
0.0437445319
100
AcDbArc
 50
270.0
 51
350.6802885137
  0
ARC
  5
2AB
100
AcDbEntity
  8
0
100
AcDbCircle
 62
7
  6
CONTINUOUS
 10
6.1114910898
 20
5.5878801767
 40
0.0437445319
100
AcDbArc
 50
189.3197114863
 51
270.0
  0
ARC
  5
2AC
100
AcDbEntity
  8
0
100
AcDbCircle
 62
7
  6
CONTINUOUS
 10
5.8342828326
 20
5.5878801767
 40
0.0437445319
100
AcDbArc
 50
270.0
 51
350.6802885137
  0
ARC
  5
2AD
100
AcDbEntity
  8
0
100
AcDbCircle
 62
7
  6
CONTINUOUS
 10
6.415800347
 20
5.4961041487
 40
0.2263779528
100
AcDbArc
 50
189.3197114863
 51
206.364596849
  0
ARC
  5
2AE
100
AcDbEntity
  8
0
100
AcDbCircle
 62
7
  6
CONTINUOUS
 10
6.1598948352
 20
5.4961041487
 40
0.2263779528
100
AcDbArc
 50
333.635403151
 51
350.6802885137
  0
ARC
  5
2AF
100
AcDbEntity
  8
0
100
AcDbCircle
 62
7
  6
CONTINUOUS
 10
6.730760977
 20
5.4961041487
 40
0.2263779528
100
AcDbArc
 50
189.3197114863
 51
206.364596849
  0
ARC
  5
2B0
100
AcDbEntity
  8
0
100
AcDbCircle
 62
7
  6
CONTINUOUS
 10
6.4748554651
 20
5.4961041487
 40
0.2263779528
100
AcDbArc
 50
333.635403151
 51
350.6802885137
  0
ARC
  5
2B1
100
AcDbEntity
  8
0
100
AcDbCircle
 62
7
  6
CONTINUOUS
 10
6.7898160951
 20
5.4961041487
 40
0.2263779528
100
AcDbArc
 50
333.635403151
 51
350.6802885137
  0
ARC
  5
2B2
100
AcDbEntity
  8
0
100
AcDbCircle
 62
7
  6
CONTINUOUS
 10
7.0457216069
 20
5.4961041487
 40
0.2263779528
100
AcDbArc
 50
189.3197114863
 51
206.364596849
  0
ARC
  5
2B3
100
AcDbEntity
  8
0
100
AcDbCircle
 62
7
  6
CONTINUOUS
 10
6.2717605499
 20
5.4247130726
 40
0.0656167979
100
AcDbArc
 50
206.364596849
 51
270.0
  0
ARC
  5
2B4
100
AcDbEntity
  8
0
100
AcDbCircle
 62
7
  6
CONTINUOUS
 10
6.3039346324
 20
5.4247130726
 40
0.0656167979
100
AcDbArc
 50
270.0
 51
333.635403151
  0
ARC
  5
2B5
100
AcDbEntity
  8
0
100
AcDbCircle
 62
7
  6
CONTINUOUS
 10
6.5867211798
 20
5.4247130726
 40
0.0656167979
100
AcDbArc
 50
206.364596849
 51
270.0
  0
ARC
  5
2B6
100
AcDbEntity
  8
0
100
AcDbCircle
 62
7
  6
CONTINUOUS
 10
6.6188952623
 20
5.4247130726
 40
0.0656167979
100
AcDbArc
 50
270.0
 51
333.635403151
  0
ARC
  5
2B7
100
AcDbEntity
  8
0
100
AcDbCircle
 62
7
  6
CONTINUOUS
 10
6.9338558922
 20
5.4247130726
 40
0.0656167979
100
AcDbArc
 50
270.0
 51
333.635403151
  0
ARC
  5
2B8
100
AcDbEntity
  8
0
100
AcDbCircle
 62
7
  6
CONTINUOUS
 10
6.9016818097
 20
5.4247130726
 40
0.0656167979
100
AcDbArc
 50
206.364596849
 51
270.0
  0
ARC
  5
2B9
100
AcDbEntity
  8
0
100
AcDbCircle
 62
7
  6
CONTINUOUS
 10
6.4264517197
 20
5.4523596168
 40
0.0437445319
100
AcDbArc
 50
90.0
 51
170.6802885137
  0
ARC
  5
2BA
100
AcDbEntity
  8
0
100
AcDbCircle
 62
7
  6
CONTINUOUS
 10
6.1492434626
 20
5.4523596168
 40
0.0437445319
100
AcDbArc
 50
9.3197114863
 51
90.0
  0
ARC
  5
2BB
100
AcDbEntity
  8
0
100
AcDbCircle
 62
7
  6
CONTINUOUS
 10
6.7414123496
 20
5.4523596168
 40
0.0437445319
100
AcDbArc
 50
90.0
 51
170.6802885137
  0
ARC
  5
2BC
100
AcDbEntity
  8
0
100
AcDbCircle
 62
7
  6
CONTINUOUS
 10
6.4642040925
 20
5.4523596168
 40
0.0437445319
100
AcDbArc
 50
9.3197114863
 51
90.0
  0
ARC
  5
2BD
100
AcDbEntity
  8
0
100
AcDbCircle
 62
7
  6
CONTINUOUS
 10
7.0563729795
 20
5.4523596168
 40
0.0437445319
100
AcDbArc
 50
90.0
 51
170.6802885137
  0
ARC
  5
2BE
100
AcDbEntity
  8
0
100
AcDbCircle
 62
7
  6
CONTINUOUS
 10
6.7791647224
 20
5.4523596168
 40
0.0437445319
100
AcDbArc
 50
9.3197114863
 51
90.0
  0
ARC
  5
2BF
100
AcDbEntity
  8
0
100
AcDbCircle
 62
7
  6
CONTINUOUS
 10
6.415800347
 20
5.5441356448
 40
0.2263779528
100
AcDbArc
 50
153.635403151
 51
170.6802885137
  0
ARC
  5
2C0
100
AcDbEntity
  8
0
100
AcDbCircle
 62
7
  6
CONTINUOUS
 10
6.1598948352
 20
5.5441356448
 40
0.2263779528
100
AcDbArc
 50
9.3197114863
 51
26.364596849
  0
ARC
  5
2C1
100
AcDbEntity
  8
0
100
AcDbCircle
 62
7
  6
CONTINUOUS
 10
6.730760977
 20
5.5441356448
 40
0.2263779528
100
AcDbArc
 50
153.635403151
 51
170.6802885137
  0
ARC
  5
2C2
100
AcDbEntity
  8
0
100
AcDbCircle
 62
7
  6
CONTINUOUS
 10
6.4748554651
 20
5.5441356448
 40
0.2263779528
100
AcDbArc
 50
9.3197114863
 51
26.364596849
  0
ARC
  5
2C3
100
AcDbEntity
  8
0
100
AcDbCircle
 62
7
  6
CONTINUOUS
 10
7.0457216069
 20
5.5441356448
 40
0.2263779528
100
AcDbArc
 50
153.635403151
 51
170.6802885137
  0
ARC
  5
2C4
100
AcDbEntity
  8
0
100
AcDbCircle
 62
7
  6
CONTINUOUS
 10
6.7898160951
 20
5.5441356448
 40
0.2263779528
100
AcDbArc
 50
9.3197114863
 51
26.364596849
  0
ARC
  5
2C5
100
AcDbEntity
  8
0
100
AcDbCircle
 62
7
  6
CONTINUOUS
 10
6.2717605499
 20
5.6155267209
 40
0.0656167979
100
AcDbArc
 50
90.0
 51
153.635403151
  0
ARC
  5
2C6
100
AcDbEntity
  8
0
100
AcDbCircle
 62
7
  6
CONTINUOUS
 10
6.3039346324
 20
5.6155267209
 40
0.0656167979
100
AcDbArc
 50
26.364596849
 51
90.0
  0
ARC
  5
2C7
100
AcDbEntity
  8
0
100
AcDbCircle
 62
7
  6
CONTINUOUS
 10
6.5867211798
 20
5.6155267209
 40
0.0656167979
100
AcDbArc
 50
90.0
 51
153.635403151
  0
ARC
  5
2C8
100
AcDbEntity
  8
0
100
AcDbCircle
 62
7
  6
CONTINUOUS
 10
6.6188952623
 20
5.6155267209
 40
0.0656167979
100
AcDbArc
 50
26.364596849
 51
90.0
  0
ARC
  5
2C9
100
AcDbEntity
  8
0
100
AcDbCircle
 62
7
  6
CONTINUOUS
 10
6.9016818097
 20
5.6155267209
 40
0.0656167979
100
AcDbArc
 50
90.0
 51
153.635403151
  0
ARC
  5
2CA
100
AcDbEntity
  8
0
100
AcDbCircle
 62
7
  6
CONTINUOUS
 10
6.9338558922
 20
5.6155267209
 40
0.0656167979
100
AcDbArc
 50
26.364596849
 51
90.0
  0
ARC
  5
2CB
100
AcDbEntity
  8
0
100
AcDbCircle
 62
7
  6
CONTINUOUS
 10
6.4264517197
 20
5.5878801767
 40
0.0437445319
100
AcDbArc
 50
189.3197114863
 51
270.0
  0
ARC
  5
2CC
100
AcDbEntity
  8
0
100
AcDbCircle
 62
7
  6
CONTINUOUS
 10
6.1492434626
 20
5.5878801767
 40
0.0437445319
100
AcDbArc
 50
270.0
 51
350.6802885137
  0
ARC
  5
2CD
100
AcDbEntity
  8
0
100
AcDbCircle
 62
7
  6
CONTINUOUS
 10
6.7414123496
 20
5.5878801767
 40
0.0437445319
100
AcDbArc
 50
189.3197114863
 51
270.0
  0
ARC
  5
2CE
100
AcDbEntity
  8
0
100
AcDbCircle
 62
7
  6
CONTINUOUS
 10
6.4642040925
 20
5.5878801767
 40
0.0437445319
100
AcDbArc
 50
270.0
 51
350.6802885137
  0
ARC
  5
2CF
100
AcDbEntity
  8
0
100
AcDbCircle
 62
7
  6
CONTINUOUS
 10
7.0563729795
 20
5.5878801767
 40
0.0437445319
100
AcDbArc
 50
189.3197114863
 51
270.0
  0
ARC
  5
2D0
100
AcDbEntity
  8
0
100
AcDbCircle
 62
7
  6
CONTINUOUS
 10
6.7791647224
 20
5.5878801767
 40
0.0437445319
100
AcDbArc
 50
270.0
 51
350.6802885137
  0
SPLINE
  5
2D1
100
AcDbEntity
  8
0
100
AcDbSpline
 62
7
  6
CONTINUOUS
 70
0
 71
3
 72
9
 73
5
 74
0
 42
0.0000001
 43
0.0000001
 44
0.0000000001
 40
0.0
 40
0.0
 40
0.0
 40
0.0
 40
0.2362081822
 40
1.0
 40
1.0
 40
1.0
 40
1.0
 10
15.0535164002
 20
13.3195129424
 30
0.0
 10
15.0509387605
 20
13.3230252129
 30
0.0
 10
15.0394676782
 20
13.3374834086
 30
0.0
 10
15.0260114542
 20
13.3503071116
 30
0.0
 10
15.015098028
 20
13.359215105
 30
0.0
  0
SPLINE
  5
2D2
100
AcDbEntity
  8
0
100
AcDbSpline
 62
7
  6
CONTINUOUS
 70
0
 71
3
 72
11
 73
7
 74
0
 42
0.0000001
 43
0.0000001
 44
0.0000000001
 40
0.0
 40
0.0
 40
0.0
 40
0.0
 40
0.2476647843
 40
0.5055532973
 40
0.7605525972
 40
1.0
 40
1.0
 40
1.0
 40
1.0
 10
14.9498200466
 20
13.3818899343
 30
0.0
 10
14.9556213672
 20
13.3818899343
 30
0.0
 10
14.9674793577
 20
13.3807547689
 30
0.0
 10
14.9847805629
 20
13.3762255252
 30
0.0
 10
15.0009949061
 20
13.3691461033
 30
0.0
 10
15.0107528998
 20
13.3627617797
 30
0.0
 10
15.015098028
 20
13.359215105
 30
0.0
  0
SPLINE
  5
2D3
100
AcDbEntity
  8
0
100
AcDbSpline
 62
7
  6
CONTINUOUS
 70
0
 71
3
 72
11
 73
7
 74
0
 42
0.0000001
 43
0.0000001
 44
0.0000000001
 40
0.0
 40
0.0
 40
0.0
 40
0.0
 40
0.2022214589
 40
0.4300656058
 40
0.6961822088
 40
1.0
 40
1.0
 40
1.0
 40
1.0
 10
14.6141515356
 20
11.7106089103
 30
0.0
 10
14.6148246938
 20
11.7127867195
 30
0.0
 10
14.6174551949
 20
11.7170940089
 30
0.0
 10
14.6240619529
 20
11.7216174962
 30
0.0
 10
14.6327276647
 20
11.7243427503
 30
0.0
 10
14.6391773186
 20
11.7248855118
 30
0.0
 10
14.642602001
 20
11.7248855118
 30
0.0
  0
SPLINE
  5
2D4
100
AcDbEntity
  8
0
100
AcDbSpline
 62
7
  6
CONTINUOUS
 70
0
 71
3
 72
11
 73
7
 74
0
 42
0.0000001
 43
0.0000001
 44
0.0000000001
 40
0.0
 40
0.0
 40
0.0
 40
0.0
 40
0.2022214589
 40
0.4300656058
 40
0.6961822088
 40
1.0
 40
1.0
 40
1.0
 40
1.0
 10
14.9042494865
 20
11.7106089103
 30
0.0
 10
14.9049226447
 20
11.7127867195
 30
0.0
 10
14.9075531458
 20
11.7170940089
 30
0.0
 10
14.9141599038
 20
11.7216174962
 30
0.0
 10
14.9228256156
 20
11.7243427503
 30
0.0
 10
14.9292752695
 20
11.7248855118
 30
0.0
 10
14.9326999519
 20
11.7248855118
 30
0.0
  0
SPLINE
  5
2D5
100
AcDbEntity
  8
0
100
AcDbSpline
 62
7
  6
CONTINUOUS
 70
0
 71
3
 72
11
 73
7
 74
0
 42
0.0000001
 43
0.0000001
 44
0.0000000001
 40
0.0
 40
0.0
 40
0.0
 40
0.0
 40
0.2022214589
 40
0.4300656058
 40
0.6961822088
 40
1.0
 40
1.0
 40
1.0
 40
1.0
 10
15.1943474374
 20
11.7106089103
 30
0.0
 10
15.1950205955
 20
11.7127867195
 30
0.0
 10
15.1976510967
 20
11.7170940089
 30
0.0
 10
15.2042578547
 20
11.7216174962
 30
0.0
 10
15.2129235665
 20
11.7243427503
 30
0.0
 10
15.2193732203
 20
11.7248855118
 30
0.0
 10
15.2227979028
 20
11.7248855118
 30
0.0
  0
SPLINE
  5
2D6
100
AcDbEntity
  8
0
100
AcDbSpline
 62
7
  6
CONTINUOUS
 70
0
 71
3
 72
11
 73
7
 74
0
 42
0.0000001
 43
0.0000001
 44
0.0000000001
 40
0.0
 40
0.0
 40
0.0
 40
0.0
 40
0.2022214589
 40
0.4300656058
 40
0.6961822088
 40
1.0
 40
1.0
 40
1.0
 40
1.0
 10
15.4844453882
 20
11.7106089103
 30
0.0
 10
15.4851185464
 20
11.7127867195
 30
0.0
 10
15.4877490475
 20
11.7170940089
 30
0.0
 10
15.4943558055
 20
11.7216174962
 30
0.0
 10
15.5030215173
 20
11.7243427503
 30
0.0
 10
15.5094711712
 20
11.7248855118
 30
0.0
 10
15.5128958536
 20
11.7248855118
 30
0.0
  0
SPLINE
  5
2D7
100
AcDbEntity
  8
0
100
AcDbSpline
 62
7
  6
CONTINUOUS
 70
0
 71
3
 72
11
 73
7
 74
0
 42
0.0000001
 43
0.0000001
 44
0.0000000001
 40
0.0
 40
0.0
 40
0.0
 40
0.0
 40
0.2022214589
 40
0.4300656058
 40
0.6961822088
 40
1.0
 40
1.0
 40
1.0
 40
1.0
 10
15.7745433391
 20
11.7106089103
 30
0.0
 10
15.7752164973
 20
11.7127867195
 30
0.0
 10
15.7778469984
 20
11.7170940089
 30
0.0
 10
15.7844537564
 20
11.7216174962
 30
0.0
 10
15.7931194682
 20
11.7243427503
 30
0.0
 10
15.7995691221
 20
11.7248855118
 30
0.0
 10
15.8029938045
 20
11.7248855118
 30
0.0
  0
SPLINE
  5
2D8
100
AcDbEntity
  8
0
100
AcDbSpline
 62
7
  6
CONTINUOUS
 70
0
 71
3
 72
11
 73
7
 74
0
 42
0.0000001
 43
0.0000001
 44
0.0000000001
 40
0.0
 40
0.0
 40
0.0
 40
0.0
 40
0.2022214589
 40
0.4300656058
 40
0.6961822088
 40
1.0
 40
1.0
 40
1.0
 40
1.0
 10
16.06464129
 20
11.7106089103
 30
0.0
 10
16.0653144481
 20
11.7127867195
 30
0.0
 10
16.0679449493
 20
11.7170940089
 30
0.0
 10
16.0745517073
 20
11.7216174962
 30
0.0
 10
16.0832174191
 20
11.7243427503
 30
0.0
 10
16.0896670729
 20
11.7248855118
 30
0.0
 10
16.0930917554
 20
11.7248855118
 30
0.0
  0
SPLINE
  5
2D9
100
AcDbEntity
  8
0
100
AcDbSpline
 62
7
  6
CONTINUOUS
 70
0
 71
3
 72
11
 73
7
 74
0
 42
0.0000001
 43
0.0000001
 44
0.0000000001
 40
0.0
 40
0.0
 40
0.0
 40
0.0
 40
0.2022733114
 40
0.4300965572
 40
0.696194992
 40
1.0
 40
1.0
 40
1.0
 40
1.0
 10
14.8775101906
 20
13.3604749963
 30
0.0
 10
14.8785209276
 20
13.3637423282
 30
0.0
 10
14.8824652554
 20
13.3702047158
 30
0.0
 10
14.8923776441
 20
13.3769878854
 30
0.0
 10
14.9053747804
 20
13.3810760719
 30
0.0
 10
14.9150489329
 20
13.3818899343
 30
0.0
 10
14.9201857542
 20
13.3818899343
 30
0.0
  0
SPLINE
  5
2DA
100
AcDbEntity
  8
0
100
AcDbSpline
 62
7
  6
CONTINUOUS
 70
0
 71
3
 72
9
 73
5
 74
0
 42
0.0000001
 43
0.0000001
 44
0.0000000001
 40
0.0
 40
0.0
 40
0.0
 40
0.0
 40
0.2362787927
 40
1.0
 40
1.0
 40
1.0
 40
1.0
 10
16.5040061545
 20
13.3195129424
 30
0.0
 10
16.5014277422
 20
13.3230262658
 30
0.0
 10
16.4899569838
 20
13.337484755
 30
0.0
 10
16.4765002086
 20
13.3503079277
 30
0.0
 10
16.4655877823
 20
13.359215105
 30
0.0
  0
SPLINE
  5
2DB
100
AcDbEntity
  8
0
100
AcDbSpline
 62
7
  6
CONTINUOUS
 70
0
 71
3
 72
11
 73
7
 74
0
 42
0.0000001
 43
0.0000001
 44
0.0000000001
 40
0.0
 40
0.0
 40
0.0
 40
0.0
 40
0.2476647843
 40
0.5055532973
 40
0.7605525972
 40
1.0
 40
1.0
 40
1.0
 40
1.0
 10
16.4003098009
 20
13.3818899343
 30
0.0
 10
16.4061111215
 20
13.3818899343
 30
0.0
 10
16.417969112
 20
13.3807547689
 30
0.0
 10
16.4352703173
 20
13.3762255252
 30
0.0
 10
16.4514846604
 20
13.3691461033
 30
0.0
 10
16.4612426541
 20
13.3627617797
 30
0.0
 10
16.4655877823
 20
13.359215105
 30
0.0
  0
SPLINE
  5
2DC
100
AcDbEntity
  8
0
100
AcDbSpline
 62
7
  6
CONTINUOUS
 70
0
 71
3
 72
9
 73
5
 74
0
 42
0.0000001
 43
0.0000001
 44
0.0000000001
 40
0.0
 40
0.0
 40
0.0
 40
0.0
 40
0.2362081822
 40
1.0
 40
1.0
 40
1.0
 40
1.0
 10
16.2139082036
 20
13.3195129424
 30
0.0
 10
16.211330564
 20
13.3230252129
 30
0.0
 10
16.1998594817
 20
13.3374834086
 30
0.0
 10
16.1864032576
 20
13.3503071116
 30
0.0
 10
16.1754898314
 20
13.359215105
 30
0.0
  0
SPLINE
  5
2DD
100
AcDbEntity
  8
0
100
AcDbSpline
 62
7
  6
CONTINUOUS
 70
0
 71
3
 72
11
 73
7
 74
0
 42
0.0000001
 43
0.0000001
 44
0.0000000001
 40
0.0
 40
0.0
 40
0.0
 40
0.0
 40
0.2476647843
 40
0.5055532973
 40
0.7605525972
 40
1.0
 40
1.0
 40
1.0
 40
1.0
 10
16.11021185
 20
13.3818899343
 30
0.0
 10
16.1160131706
 20
13.3818899343
 30
0.0
 10
16.1278711611
 20
13.3807547689
 30
0.0
 10
16.1451723664
 20
13.3762255252
 30
0.0
 10
16.1613867096
 20
13.3691461033
 30
0.0
 10
16.1711447032
 20
13.3627617797
 30
0.0
 10
16.1754898314
 20
13.359215105
 30
0.0
  0
SPLINE
  5
2DE
100
AcDbEntity
  8
0
100
AcDbSpline
 62
7
  6
CONTINUOUS
 70
0
 71
3
 72
11
 73
7
 74
0
 42
0.0000001
 43
0.0000001
 44
0.0000000001
 40
0.0
 40
0.0
 40
0.0
 40
0.0
 40
0.2022733114
 40
0.4300965572
 40
0.696194992
 40
1.0
 40
1.0
 40
1.0
 40
1.0
 10
15.1676081415
 20
13.3604749963
 30
0.0
 10
15.1686188785
 20
13.3637423282
 30
0.0
 10
15.1725632063
 20
13.3702047158
 30
0.0
 10
15.182475595
 20
13.3769878854
 30
0.0
 10
15.1954727312
 20
13.3810760719
 30
0.0
 10
15.2051468837
 20
13.3818899343
 30
0.0
 10
15.2102837051
 20
13.3818899343
 30
0.0
  0
SPLINE
  5
2DF
100
AcDbEntity
  8
0
100
AcDbSpline
 62
7
  6
CONTINUOUS
 70
0
 71
3
 72
9
 73
5
 74
0
 42
0.0000001
 43
0.0000001
 44
0.0000000001
 40
0.0
 40
0.0
 40
0.0
 40
0.0
 40
0.2362081822
 40
1.0
 40
1.0
 40
1.0
 40
1.0
 10
15.9238102528
 20
13.3195129424
 30
0.0
 10
15.9212326131
 20
13.3230252129
 30
0.0
 10
15.9097615308
 20
13.3374834086
 30
0.0
 10
15.8963053068
 20
13.3503071116
 30
0.0
 10
15.8853918806
 20
13.359215105
 30
0.0
  0
SPLINE
  5
2E0
100
AcDbEntity
  8
0
100
AcDbSpline
 62
7
  6
CONTINUOUS
 70
0
 71
3
 72
11
 73
7
 74
0
 42
0.0000001
 43
0.0000001
 44
0.0000000001
 40
0.0
 40
0.0
 40
0.0
 40
0.0
 40
0.2476647843
 40
0.5055532973
 40
0.7605525972
 40
1.0
 40
1.0
 40
1.0
 40
1.0
 10
15.8201138992
 20
13.3818899343
 30
0.0
 10
15.8259152198
 20
13.3818899343
 30
0.0
 10
15.8377732103
 20
13.3807547689
 30
0.0
 10
15.8550744155
 20
13.3762255252
 30
0.0
 10
15.8712887587
 20
13.3691461033
 30
0.0
 10
15.8810467524
 20
13.3627617797
 30
0.0
 10
15.8853918806
 20
13.359215105
 30
0.0
  0
SPLINE
  5
2E1
100
AcDbEntity
  8
0
100
AcDbSpline
 62
7
  6
CONTINUOUS
 70
0
 71
3
 72
9
 73
5
 74
0
 42
0.0000001
 43
0.0000001
 44
0.0000000001
 40
0.0
 40
0.0
 40
0.0
 40
0.0
 40
0.2362081822
 40
1.0
 40
1.0
 40
1.0
 40
1.0
 10
15.6337123019
 20
13.3195129424
 30
0.0
 10
15.6311346623
 20
13.3230252129
 30
0.0
 10
15.61966358
 20
13.3374834086
 30
0.0
 10
15.6062073559
 20
13.3503071116
 30
0.0
 10
15.5952939297
 20
13.359215105
 30
0.0
  0
SPLINE
  5
2E2
100
AcDbEntity
  8
0
100
AcDbSpline
 62
7
  6
CONTINUOUS
 70
0
 71
3
 72
11
 73
7
 74
0
 42
0.0000001
 43
0.0000001
 44
0.0000000001
 40
0.0
 40
0.0
 40
0.0
 40
0.0
 40
0.2476647843
 40
0.5055532973
 40
0.7605525972
 40
1.0
 40
1.0
 40
1.0
 40
1.0
 10
15.5300159483
 20
13.3818899343
 30
0.0
 10
15.5358172689
 20
13.3818899343
 30
0.0
 10
15.5476752594
 20
13.3807547689
 30
0.0
 10
15.5649764647
 20
13.3762255252
 30
0.0
 10
15.5811908078
 20
13.3691461033
 30
0.0
 10
15.5909488015
 20
13.3627617797
 30
0.0
 10
15.5952939297
 20
13.359215105
 30
0.0
  0
SPLINE
  5
2E3
100
AcDbEntity
  8
0
100
AcDbSpline
 62
7
  6
CONTINUOUS
 70
0
 71
3
 72
11
 73
7
 74
0
 42
0.0000001
 43
0.0000001
 44
0.0000000001
 40
0.0
 40
0.0
 40
0.0
 40
0.0
 40
0.2022733114
 40
0.4300965572
 40
0.696194992
 40
1.0
 40
1.0
 40
1.0
 40
1.0
 10
15.4577060923
 20
13.3604749963
 30
0.0
 10
15.4587168293
 20
13.3637423282
 30
0.0
 10
15.4626611572
 20
13.3702047158
 30
0.0
 10
15.4725735459
 20
13.3769878854
 30
0.0
 10
15.4855706821
 20
13.3810760719
 30
0.0
 10
15.4952448346
 20
13.3818899343
 30
0.0
 10
15.5003816559
 20
13.3818899343
 30
0.0
  0
SPLINE
  5
2E4
100
AcDbEntity
  8
0
100
AcDbSpline
 62
7
  6
CONTINUOUS
 70
0
 71
3
 72
9
 73
5
 74
0
 42
0.0000001
 43
0.0000001
 44
0.0000000001
 40
0.0
 40
0.0
 40
0.0
 40
0.0
 40
0.2362081822
 40
1.0
 40
1.0
 40
1.0
 40
1.0
 10
15.343614351
 20
13.3195129424
 30
0.0
 10
15.3410367114
 20
13.3230252129
 30
0.0
 10
15.3295656291
 20
13.3374834086
 30
0.0
 10
15.316109405
 20
13.3503071116
 30
0.0
 10
15.3051959788
 20
13.359215105
 30
0.0
  0
SPLINE
  5
2E5
100
AcDbEntity
  8
0
100
AcDbSpline
 62
7
  6
CONTINUOUS
 70
0
 71
3
 72
11
 73
7
 74
0
 42
0.0000001
 43
0.0000001
 44
0.0000000001
 40
0.0
 40
0.0
 40
0.0
 40
0.0
 40
0.2476647843
 40
0.5055532973
 40
0.7605525972
 40
1.0
 40
1.0
 40
1.0
 40
1.0
 10
15.2399179974
 20
13.3818899343
 30
0.0
 10
15.245719318
 20
13.3818899343
 30
0.0
 10
15.2575773085
 20
13.3807547689
 30
0.0
 10
15.2748785138
 20
13.3762255252
 30
0.0
 10
15.291092857
 20
13.3691461033
 30
0.0
 10
15.3008508506
 20
13.3627617797
 30
0.0
 10
15.3051959788
 20
13.359215105
 30
0.0
  0
SPLINE
  5
2E6
100
AcDbEntity
  8
0
100
AcDbSpline
 62
7
  6
CONTINUOUS
 70
0
 71
3
 72
9
 73
5
 74
0
 42
0.0000001
 43
0.0000001
 44
0.0000000001
 40
0.0
 40
0.0
 40
0.0
 40
0.0
 40
0.4873570824
 40
1.0
 40
1.0
 40
1.0
 40
1.0
 10
14.6907515932
 20
11.8172329994
 30
0.0
 10
14.6892132284
 20
11.8109196845
 30
0.0
 10
14.6877754808
 20
11.7974967064
 30
0.0
 10
14.6896566585
 20
11.7841657247
 30
0.0
 10
14.6912992041
 20
11.7775308368
 30
0.0
  0
SPLINE
  5
2E7
100
AcDbEntity
  8
0
100
AcDbSpline
 62
7
  6
CONTINUOUS
 70
0
 71
3
 72
9
 73
5
 74
0
 42
0.0000001
 43
0.0000001
 44
0.0000000001
 40
0.0
 40
0.0
 40
0.0
 40
0.0
 40
0.4873570824
 40
1.0
 40
1.0
 40
1.0
 40
1.0
 10
14.980849544
 20
11.8172329994
 30
0.0
 10
14.9793111793
 20
11.8109196845
 30
0.0
 10
14.9778734317
 20
11.7974967064
 30
0.0
 10
14.9797546094
 20
11.7841657247
 30
0.0
 10
14.981397155
 20
11.7775308368
 30
0.0
  0
SPLINE
  5
2E8
100
AcDbEntity
  8
0
100
AcDbSpline
 62
7
  6
CONTINUOUS
 70
0
 71
3
 72
9
 73
5
 74
0
 42
0.0000001
 43
0.0000001
 44
0.0000000001
 40
0.0
 40
0.0
 40
0.0
 40
0.0
 40
0.4873570824
 40
1.0
 40
1.0
 40
1.0
 40
1.0
 10
15.2709474949
 20
11.8172329994
 30
0.0
 10
15.2694091302
 20
11.8109196845
 30
0.0
 10
15.2679713826
 20
11.7974967064
 30
0.0
 10
15.2698525603
 20
11.7841657247
 30
0.0
 10
15.2714951058
 20
11.7775308368
 30
0.0
  0
SPLINE
  5
2E9
100
AcDbEntity
  8
0
100
AcDbSpline
 62
7
  6
CONTINUOUS
 70
0
 71
3
 72
9
 73
5
 74
0
 42
0.0000001
 43
0.0000001
 44
0.0000000001
 40
0.0
 40
0.0
 40
0.0
 40
0.0
 40
0.4873570824
 40
1.0
 40
1.0
 40
1.0
 40
1.0
 10
15.5610454458
 20
11.8172329994
 30
0.0
 10
15.559507081
 20
11.8109196845
 30
0.0
 10
15.5580693334
 20
11.7974967064
 30
0.0
 10
15.5599505111
 20
11.7841657247
 30
0.0
 10
15.5615930567
 20
11.7775308368
 30
0.0
  0
SPLINE
  5
2EA
100
AcDbEntity
  8
0
100
AcDbSpline
 62
7
  6
CONTINUOUS
 70
0
 71
3
 72
9
 73
5
 74
0
 42
0.0000001
 43
0.0000001
 44
0.0000000001
 40
0.0
 40
0.0
 40
0.0
 40
0.0
 40
0.4873559464
 40
1.0
 40
1.0
 40
1.0
 40
1.0
 10
15.8511433966
 20
11.8172329994
 30
0.0
 10
15.849605035
 20
11.8109196972
 30
0.0
 10
15.848167175
 20
11.7974967217
 30
0.0
 10
15.8500484578
 20
11.7841657416
 30
0.0
 10
15.8516910076
 20
11.7775308368
 30
0.0
  0
SPLINE
  5
2EB
100
AcDbEntity
  8
0
100
AcDbSpline
 62
7
  6
CONTINUOUS
 70
0
 71
3
 72
11
 73
7
 74
0
 42
0.0000001
 43
0.0000001
 44
0.0000000001
 40
0.0
 40
0.0
 40
0.0
 40
0.0
 40
0.303805008
 40
0.5699034428
 40
0.7977266886
 40
1.0
 40
1.0
 40
1.0
 40
1.0
 10
16.0220391828
 20
11.6397200515
 30
0.0
 10
16.0271760041
 20
11.6397200515
 30
0.0
 10
16.0368501566
 20
11.6405339139
 30
0.0
 10
16.0498472928
 20
11.6446221004
 30
0.0
 10
16.0597596815
 20
11.65140527
 30
0.0
 10
16.0637040093
 20
11.6578676576
 30
0.0
 10
16.0647147463
 20
11.6611349895
 30
0.0
  0
SPLINE
  5
2EC
100
AcDbEntity
  8
0
100
AcDbSpline
 62
7
  6
CONTINUOUS
 70
0
 71
3
 72
11
 73
7
 74
0
 42
0.0000001
 43
0.0000001
 44
0.0000000001
 40
0.0
 40
0.0
 40
0.0
 40
0.0
 40
0.2394474028
 40
0.4944467027
 40
0.7523352157
 40
1.0
 40
1.0
 40
1.0
 40
1.0
 10
15.927126909
 20
11.6623948808
 30
0.0
 10
15.9314720372
 20
11.6588482061
 30
0.0
 10
15.9412300308
 20
11.6524638825
 30
0.0
 10
15.957444374
 20
11.6453844606
 30
0.0
 10
15.9747455793
 20
11.6408552169
 30
0.0
 10
15.9866035698
 20
11.6397200515
 30
0.0
 10
15.9924048904
 20
11.6397200515
 30
0.0
  0
SPLINE
  5
2ED
100
AcDbEntity
  8
0
100
AcDbSpline
 62
7
  6
CONTINUOUS
 70
0
 71
3
 72
9
 73
5
 74
0
 42
0.0000001
 43
0.0000001
 44
0.0000000001
 40
0.0
 40
0.0
 40
0.0
 40
0.0
 40
0.2362787927
 40
1.0
 40
1.0
 40
1.0
 40
1.0
 10
15.8887085368
 20
11.7020970434
 30
0.0
 10
15.8912869491
 20
11.69858372
 30
0.0
 10
15.9027577075
 20
11.6841252308
 30
0.0
 10
15.9162144826
 20
11.6713020581
 30
0.0
 10
15.927126909
 20
11.6623948808
 30
0.0
  0
SPLINE
  5
2EE
100
AcDbEntity
  8
0
100
AcDbSpline
 62
7
  6
CONTINUOUS
 70
0
 71
3
 72
11
 73
7
 74
0
 42
0.0000001
 43
0.0000001
 44
0.0000000001
 40
0.0
 40
0.0
 40
0.0
 40
0.0
 40
0.303805008
 40
0.5699034428
 40
0.7977266886
 40
1.0
 40
1.0
 40
1.0
 40
1.0
 10
15.7319412319
 20
11.6397200515
 30
0.0
 10
15.7370780532
 20
11.6397200515
 30
0.0
 10
15.7467522057
 20
11.6405339139
 30
0.0
 10
15.759749342
 20
11.6446221004
 30
0.0
 10
15.7696617307
 20
11.65140527
 30
0.0
 10
15.7736060585
 20
11.6578676576
 30
0.0
 10
15.7746167955
 20
11.6611349895
 30
0.0
  0
SPLINE
  5
2EF
100
AcDbEntity
  8
0
100
AcDbSpline
 62
7
  6
CONTINUOUS
 70
0
 71
3
 72
11
 73
7
 74
0
 42
0.0000001
 43
0.0000001
 44
0.0000000001
 40
0.0
 40
0.0
 40
0.0
 40
0.0
 40
0.2394474028
 40
0.4944467027
 40
0.7523352157
 40
1.0
 40
1.0
 40
1.0
 40
1.0
 10
15.6370289581
 20
11.6623948808
 30
0.0
 10
15.6413740863
 20
11.6588482061
 30
0.0
 10
15.65113208
 20
11.6524638825
 30
0.0
 10
15.6673464232
 20
11.6453844606
 30
0.0
 10
15.6846476284
 20
11.6408552169
 30
0.0
 10
15.6965056189
 20
11.6397200515
 30
0.0
 10
15.7023069395
 20
11.6397200515
 30
0.0
  0
SPLINE
  5
2F0
100
AcDbEntity
  8
0
100
AcDbSpline
 62
7
  6
CONTINUOUS
 70
0
 71
3
 72
9
 73
5
 74
0
 42
0.0000001
 43
0.0000001
 44
0.0000000001
 40
0.0
 40
0.0
 40
0.0
 40
0.0
 40
0.2362081822
 40
1.0
 40
1.0
 40
1.0
 40
1.0
 10
15.5986105859
 20
11.7020970434
 30
0.0
 10
15.6011882256
 20
11.6985847729
 30
0.0
 10
15.6126593078
 20
11.6841265772
 30
0.0
 10
15.6261155319
 20
11.6713028742
 30
0.0
 10
15.6370289581
 20
11.6623948808
 30
0.0
  0
SPLINE
  5
2F1
100
AcDbEntity
  8
0
100
AcDbSpline
 62
7
  6
CONTINUOUS
 70
0
 71
3
 72
11
 73
7
 74
0
 42
0.0000001
 43
0.0000001
 44
0.0000000001
 40
0.0
 40
0.0
 40
0.0
 40
0.0
 40
0.303805008
 40
0.5699034428
 40
0.7977266886
 40
1.0
 40
1.0
 40
1.0
 40
1.0
 10
15.441843281
 20
11.6397200515
 30
0.0
 10
15.4469801024
 20
11.6397200515
 30
0.0
 10
15.4566542548
 20
11.6405339139
 30
0.0
 10
15.4696513911
 20
11.6446221004
 30
0.0
 10
15.4795637798
 20
11.65140527
 30
0.0
 10
15.4835081076
 20
11.6578676576
 30
0.0
 10
15.4845188446
 20
11.6611349895
 30
0.0
  0
SPLINE
  5
2F2
100
AcDbEntity
  8
0
100
AcDbSpline
 62
7
  6
CONTINUOUS
 70
0
 71
3
 72
11
 73
7
 74
0
 42
0.0000001
 43
0.0000001
 44
0.0000000001
 40
0.0
 40
0.0
 40
0.0
 40
0.0
 40
0.2394474028
 40
0.4944467027
 40
0.7523352157
 40
1.0
 40
1.0
 40
1.0
 40
1.0
 10
15.3469310073
 20
11.6623948808
 30
0.0
 10
15.3512761354
 20
11.6588482061
 30
0.0
 10
15.3610341291
 20
11.6524638825
 30
0.0
 10
15.3772484723
 20
11.6453844606
 30
0.0
 10
15.3945496776
 20
11.6408552169
 30
0.0
 10
15.406407668
 20
11.6397200515
 30
0.0
 10
15.4122089886
 20
11.6397200515
 30
0.0
  0
SPLINE
  5
2F3
100
AcDbEntity
  8
0
100
AcDbSpline
 62
7
  6
CONTINUOUS
 70
0
 71
3
 72
9
 73
5
 74
0
 42
0.0000001
 43
0.0000001
 44
0.0000000001
 40
0.0
 40
0.0
 40
0.0
 40
0.0
 40
0.2362081822
 40
1.0
 40
1.0
 40
1.0
 40
1.0
 10
15.3085126351
 20
11.7020970434
 30
0.0
 10
15.3110902747
 20
11.6985847729
 30
0.0
 10
15.322561357
 20
11.6841265772
 30
0.0
 10
15.3360175811
 20
11.6713028742
 30
0.0
 10
15.3469310073
 20
11.6623948808
 30
0.0
  0
SPLINE
  5
2F4
100
AcDbEntity
  8
0
100
AcDbSpline
 62
7
  6
CONTINUOUS
 70
0
 71
3
 72
11
 73
7
 74
0
 42
0.0000001
 43
0.0000001
 44
0.0000000001
 40
0.0
 40
0.0
 40
0.0
 40
0.0
 40
0.303805008
 40
0.5699034428
 40
0.7977266886
 40
1.0
 40
1.0
 40
1.0
 40
1.0
 10
15.1517453302
 20
11.6397200515
 30
0.0
 10
15.1568821515
 20
11.6397200515
 30
0.0
 10
15.166556304
 20
11.6405339139
 30
0.0
 10
15.1795534402
 20
11.6446221004
 30
0.0
 10
15.1894658289
 20
11.65140527
 30
0.0
 10
15.1934101567
 20
11.6578676576
 30
0.0
 10
15.1944208937
 20
11.6611349895
 30
0.0
  0
SPLINE
  5
2F5
100
AcDbEntity
  8
0
100
AcDbSpline
 62
7
  6
CONTINUOUS
 70
0
 71
3
 72
11
 73
7
 74
0
 42
0.0000001
 43
0.0000001
 44
0.0000000001
 40
0.0
 40
0.0
 40
0.0
 40
0.0
 40
0.2394474028
 40
0.4944467027
 40
0.7523352157
 40
1.0
 40
1.0
 40
1.0
 40
1.0
 10
15.0568330564
 20
11.6623948808
 30
0.0
 10
15.0611781846
 20
11.6588482061
 30
0.0
 10
15.0709361782
 20
11.6524638825
 30
0.0
 10
15.0871505214
 20
11.6453844606
 30
0.0
 10
15.1044517267
 20
11.6408552169
 30
0.0
 10
15.1163097172
 20
11.6397200515
 30
0.0
 10
15.1221110378
 20
11.6397200515
 30
0.0
  0
SPLINE
  5
2F6
100
AcDbEntity
  8
0
100
AcDbSpline
 62
7
  6
CONTINUOUS
 70
0
 71
3
 72
9
 73
5
 74
0
 42
0.0000001
 43
0.0000001
 44
0.0000000001
 40
0.0
 40
0.0
 40
0.0
 40
0.0
 40
0.2362081822
 40
1.0
 40
1.0
 40
1.0
 40
1.0
 10
15.0184146842
 20
11.7020970434
 30
0.0
 10
15.0209923238
 20
11.6985847729
 30
0.0
 10
15.0324634061
 20
11.6841265772
 30
0.0
 10
15.0459196302
 20
11.6713028742
 30
0.0
 10
15.0568330564
 20
11.6623948808
 30
0.0
  0
SPLINE
  5
2F7
100
AcDbEntity
  8
0
100
AcDbSpline
 62
7
  6
CONTINUOUS
 70
0
 71
3
 72
11
 73
7
 74
0
 42
0.0000001
 43
0.0000001
 44
0.0000000001
 40
0.0
 40
0.0
 40
0.0
 40
0.0
 40
0.303805008
 40
0.5699034428
 40
0.7977266886
 40
1.0
 40
1.0
 40
1.0
 40
1.0
 10
14.8616473793
 20
11.6397200515
 30
0.0
 10
14.8667842006
 20
11.6397200515
 30
0.0
 10
14.8764583531
 20
11.6405339139
 30
0.0
 10
14.8894554894
 20
11.6446221004
 30
0.0
 10
14.8993678781
 20
11.65140527
 30
0.0
 10
14.9033122059
 20
11.6578676576
 30
0.0
 10
14.9043229429
 20
11.6611349895
 30
0.0
  0
SPLINE
  5
2F8
100
AcDbEntity
  8
0
100
AcDbSpline
 62
7
  6
CONTINUOUS
 70
0
 71
3
 72
11
 73
7
 74
0
 42
0.0000001
 43
0.0000001
 44
0.0000000001
 40
0.0
 40
0.0
 40
0.0
 40
0.0
 40
0.2394474028
 40
0.4944467027
 40
0.7523352157
 40
1.0
 40
1.0
 40
1.0
 40
1.0
 10
14.7667351055
 20
11.6623948808
 30
0.0
 10
14.7710802337
 20
11.6588482061
 30
0.0
 10
14.7808382274
 20
11.6524638825
 30
0.0
 10
14.7970525706
 20
11.6453844606
 30
0.0
 10
14.8143537758
 20
11.6408552169
 30
0.0
 10
14.8262117663
 20
11.6397200515
 30
0.0
 10
14.8320130869
 20
11.6397200515
 30
0.0
  0
SPLINE
  5
2F9
100
AcDbEntity
  8
0
100
AcDbSpline
 62
7
  6
CONTINUOUS
 70
0
 71
3
 72
9
 73
5
 74
0
 42
0.0000001
 43
0.0000001
 44
0.0000000001
 40
0.0
 40
0.0
 40
0.0
 40
0.0
 40
0.2362081822
 40
1.0
 40
1.0
 40
1.0
 40
1.0
 10
14.7283167333
 20
11.7020970434
 30
0.0
 10
14.730894373
 20
11.6985847729
 30
0.0
 10
14.7423654552
 20
11.6841265772
 30
0.0
 10
14.7558216793
 20
11.6713028742
 30
0.0
 10
14.7667351055
 20
11.6623948808
 30
0.0
  0
SPLINE
  5
2FA
100
AcDbEntity
  8
0
100
AcDbSpline
 62
7
  6
CONTINUOUS
 70
0
 71
3
 72
11
 73
7
 74
0
 42
0.0000001
 43
0.0000001
 44
0.0000000001
 40
0.0
 40
0.0
 40
0.0
 40
0.0
 40
0.303805008
 40
0.5699034428
 40
0.7977266886
 40
1.0
 40
1.0
 40
1.0
 40
1.0
 10
14.5715494284
 20
11.6397200515
 30
0.0
 10
14.5766862498
 20
11.6397200515
 30
0.0
 10
14.5863604022
 20
11.6405339139
 30
0.0
 10
14.5993575385
 20
11.6446221004
 30
0.0
 10
14.6092699272
 20
11.65140527
 30
0.0
 10
14.613214255
 20
11.6578676576
 30
0.0
 10
14.614224992
 20
11.6611349895
 30
0.0
  0
SPLINE
  5
2FB
100
AcDbEntity
  8
0
100
AcDbSpline
 62
7
  6
CONTINUOUS
 70
0
 71
3
 72
11
 73
7
 74
0
 42
0.0000001
 43
0.0000001
 44
0.0000000001
 40
0.0
 40
0.0
 40
0.0
 40
0.0
 40
0.2394474028
 40
0.4944467027
 40
0.7523352157
 40
1.0
 40
1.0
 40
1.0
 40
1.0
 10
14.4766371547
 20
11.6623948808
 30
0.0
 10
14.4809822828
 20
11.6588482061
 30
0.0
 10
14.4907402765
 20
11.6524638825
 30
0.0
 10
14.5069546197
 20
11.6453844606
 30
0.0
 10
14.524255825
 20
11.6408552169
 30
0.0
 10
14.5361138154
 20
11.6397200515
 30
0.0
 10
14.541915136
 20
11.6397200515
 30
0.0
  0
SPLINE
  5
2FC
100
AcDbEntity
  8
0
100
AcDbSpline
 62
7
  6
CONTINUOUS
 70
0
 71
3
 72
9
 73
5
 74
0
 42
0.0000001
 43
0.0000001
 44
0.0000000001
 40
0.0
 40
0.0
 40
0.0
 40
0.0
 40
0.2362081822
 40
1.0
 40
1.0
 40
1.0
 40
1.0
 10
14.4382187825
 20
11.7020970434
 30
0.0
 10
14.4407964221
 20
11.6985847729
 30
0.0
 10
14.4522675044
 20
11.6841265772
 30
0.0
 10
14.4657237285
 20
11.6713028742
 30
0.0
 10
14.4766371547
 20
11.6623948808
 30
0.0
  0
SPLINE
  5
2FD
100
AcDbEntity
  8
0
100
AcDbSpline
 62
7
  6
CONTINUOUS
 70
0
 71
3
 72
9
 73
5
 74
0
 42
0.0000001
 43
0.0000001
 44
0.0000000001
 40
0.0
 40
0.0
 40
0.0
 40
0.0
 40
0.4873570824
 40
1.0
 40
1.0
 40
1.0
 40
1.0
 10
14.4006536423
 20
11.8172329994
 30
0.0
 10
14.3991152776
 20
11.8109196845
 30
0.0
 10
14.39767753
 20
11.7974967064
 30
0.0
 10
14.3995587077
 20
11.7841657247
 30
0.0
 10
14.4012012532
 20
11.7775308368
 30
0.0
  0
SPLINE
  5
2FE
100
AcDbEntity
  8
0
100
AcDbSpline
 62
7
  6
CONTINUOUS
 70
0
 71
3
 72
11
 73
7
 74
0
 42
0.0000001
 43
0.0000001
 44
0.0000000001
 40
0.0
 40
0.0
 40
0.0
 40
0.0
 40
0.2022733114
 40
0.4300965572
 40
0.696194992
 40
1.0
 40
1.0
 40
1.0
 40
1.0
 10
15.7478040432
 20
13.3604749963
 30
0.0
 10
15.7488147802
 20
13.3637423282
 30
0.0
 10
15.752759108
 20
13.3702047158
 30
0.0
 10
15.7626714967
 20
13.3769878854
 30
0.0
 10
15.775668633
 20
13.3810760719
 30
0.0
 10
15.7853427855
 20
13.3818899343
 30
0.0
 10
15.7904796068
 20
13.3818899343
 30
0.0
  0
SPLINE
  5
2FF
100
AcDbEntity
  8
0
100
AcDbSpline
 62
7
  6
CONTINUOUS
 70
0
 71
3
 72
11
 73
7
 74
0
 42
0.0000001
 43
0.0000001
 44
0.0000000001
 40
0.0
 40
0.0
 40
0.0
 40
0.0
 40
0.2022733114
 40
0.4300965572
 40
0.696194992
 40
1.0
 40
1.0
 40
1.0
 40
1.0
 10
16.0379019941
 20
13.3604749963
 30
0.0
 10
16.0389127311
 20
13.3637423282
 30
0.0
 10
16.0428570589
 20
13.3702047158
 30
0.0
 10
16.0527694476
 20
13.3769878854
 30
0.0
 10
16.0657665838
 20
13.3810760719
 30
0.0
 10
16.0754407363
 20
13.3818899343
 30
0.0
 10
16.0805775577
 20
13.3818899343
 30
0.0
  0
SPLINE
  5
300
100
AcDbEntity
  8
0
100
AcDbSpline
 62
7
  6
CONTINUOUS
 70
0
 71
3
 72
11
 73
7
 74
0
 42
0.0000001
 43
0.0000001
 44
0.0000000001
 40
0.0
 40
0.0
 40
0.0
 40
0.0
 40
0.2022733114
 40
0.4300965572
 40
0.696194992
 40
1.0
 40
1.0
 40
1.0
 40
1.0
 10
16.3279999449
 20
13.3604749963
 30
0.0
 10
16.3290106819
 20
13.3637423282
 30
0.0
 10
16.3329550098
 20
13.3702047158
 30
0.0
 10
16.3428673985
 20
13.3769878854
 30
0.0
 10
16.3558645347
 20
13.3810760719
 30
0.0
 10
16.3655386872
 20
13.3818899343
 30
0.0
 10
16.3706755085
 20
13.3818899343
 30
0.0
  0
SPLINE
  5
301
100
AcDbEntity
  8
0
100
AcDbSpline
 62
7
  6
CONTINUOUS
 70
0
 71
3
 72
11
 73
7
 74
0
 42
0.0000001
 43
0.0000001
 44
0.0000000001
 40
0.0
 40
0.0
 40
0.0
 40
0.0
 40
0.2575921969
 40
0.5240195683
 40
0.7775851277
 40
1.0
 40
1.0
 40
1.0
 40
1.0
 10
14.3872762882
 20
11.7248855118
 30
0.0
 10
14.3922116332
 20
11.7248855118
 30
0.0
 10
14.4022695686
 20
11.7236662794
 30
0.0
 10
14.4165072448
 20
11.7189762474
 30
0.0
 10
14.4289486291
 20
11.7118931293
 30
0.0
 10
14.4356975108
 20
11.7055325074
 30
0.0
 10
14.4382187825
 20
11.7020970434
 30
0.0
  0
SPLINE
  5
302
100
AcDbEntity
  8
0
100
AcDbSpline
 62
7
  6
CONTINUOUS
 70
0
 71
3
 72
11
 73
7
 74
0
 42
0.0000001
 43
0.0000001
 44
0.0000000001
 40
0.0
 40
0.0
 40
0.0
 40
0.0
 40
0.2224148723
 40
0.4759804317
 40
0.7424078031
 40
1.0
 40
1.0
 40
1.0
 40
1.0
 10
15.0535164002
 20
13.3195129424
 30
0.0
 10
15.0560376718
 20
13.3160774784
 30
0.0
 10
15.0627865535
 20
13.3097168565
 30
0.0
 10
15.0752279379
 20
13.3026337385
 30
0.0
 10
15.089465614
 20
13.2979437064
 30
0.0
 10
15.0995235495
 20
13.2967244741
 30
0.0
 10
15.1044588945
 20
13.2967244741
 30
0.0
  0
SPLINE
  5
303
100
AcDbEntity
  8
0
100
AcDbSpline
 62
7
  6
CONTINUOUS
 70
0
 71
3
 72
9
 73
5
 74
0
 42
0.0000001
 43
0.0000001
 44
0.0000000001
 40
0.0
 40
0.0
 40
0.0
 40
0.0
 40
0.2619866527
 40
1.0
 40
1.0
 40
1.0
 40
1.0
 10
14.4012012532
 20
11.7775308368
 30
0.0
 10
14.4013811273
 20
11.7768042548
 30
0.0
 10
14.4019090497
 20
11.7739960921
 30
0.0
 10
14.4016978221
 20
11.77103349
 30
0.0
 10
14.4010751363
 20
11.7690189699
 30
0.0
  0
SPLINE
  5
304
100
AcDbEntity
  8
0
100
AcDbSpline
 62
7
  6
CONTINUOUS
 70
0
 71
3
 72
9
 73
5
 74
0
 42
0.0000001
 43
0.0000001
 44
0.0000000001
 40
0.0
 40
0.0
 40
0.0
 40
0.0
 40
0.2583566189
 40
1.0
 40
1.0
 40
1.0
 40
1.0
 10
14.8491331816
 20
13.2967244741
 30
0.0
 10
14.849902953
 20
13.2967244741
 30
0.0
 10
14.8528818471
 20
13.2967827202
 30
0.0
 10
14.8558585637
 20
13.2970761202
 30
0.0
 10
14.8580360174
 20
13.2974523632
 30
0.0
  0
SPLINE
  5
305
100
AcDbEntity
  8
0
100
AcDbSpline
 62
7
  6
CONTINUOUS
 70
0
 71
3
 72
11
 73
7
 74
0
 42
0.0000001
 43
0.0000001
 44
0.0000000001
 40
0.0
 40
0.0
 40
0.0
 40
0.0
 40
0.2575921969
 40
0.5240195683
 40
0.7775851277
 40
1.0
 40
1.0
 40
1.0
 40
1.0
 10
14.677374239
 20
11.7248855118
 30
0.0
 10
14.682309584
 20
11.7248855118
 30
0.0
 10
14.6923675195
 20
11.7236662794
 30
0.0
 10
14.7066051956
 20
11.7189762474
 30
0.0
 10
14.7190465799
 20
11.7118931293
 30
0.0
 10
14.7257954617
 20
11.7055325074
 30
0.0
 10
14.7283167333
 20
11.7020970434
 30
0.0
  0
SPLINE
  5
306
100
AcDbEntity
  8
0
100
AcDbSpline
 62
7
  6
CONTINUOUS
 70
0
 71
3
 72
11
 73
7
 74
0
 42
0.0000001
 43
0.0000001
 44
0.0000000001
 40
0.0
 40
0.0
 40
0.0
 40
0.0
 40
0.2224148723
 40
0.4759804317
 40
0.7424078031
 40
1.0
 40
1.0
 40
1.0
 40
1.0
 10
15.343614351
 20
13.3195129424
 30
0.0
 10
15.3461356227
 20
13.3160774784
 30
0.0
 10
15.3528845044
 20
13.3097168565
 30
0.0
 10
15.3653258887
 20
13.3026337385
 30
0.0
 10
15.3795635649
 20
13.2979437064
 30
0.0
 10
15.3896215003
 20
13.2967244741
 30
0.0
 10
15.3945568453
 20
13.2967244741
 30
0.0
  0
SPLINE
  5
307
100
AcDbEntity
  8
0
100
AcDbSpline
 62
7
  6
CONTINUOUS
 70
0
 71
3
 72
9
 73
5
 74
0
 42
0.0000001
 43
0.0000001
 44
0.0000000001
 40
0.0
 40
0.0
 40
0.0
 40
0.0
 40
0.2619866527
 40
1.0
 40
1.0
 40
1.0
 40
1.0
 10
14.6912992041
 20
11.7775308368
 30
0.0
 10
14.6914790782
 20
11.7768042548
 30
0.0
 10
14.6920070005
 20
11.7739960921
 30
0.0
 10
14.6917957729
 20
11.77103349
 30
0.0
 10
14.6911730872
 20
11.7690189699
 30
0.0
  0
SPLINE
  5
308
100
AcDbEntity
  8
0
100
AcDbSpline
 62
7
  6
CONTINUOUS
 70
0
 71
3
 72
9
 73
5
 74
0
 42
0.0000001
 43
0.0000001
 44
0.0000000001
 40
0.0
 40
0.0
 40
0.0
 40
0.0
 40
0.2583566189
 40
1.0
 40
1.0
 40
1.0
 40
1.0
 10
15.1392311325
 20
13.2967244741
 30
0.0
 10
15.1400009038
 20
13.2967244741
 30
0.0
 10
15.142979798
 20
13.2967827202
 30
0.0
 10
15.1459565145
 20
13.2970761202
 30
0.0
 10
15.1481339682
 20
13.2974523632
 30
0.0
  0
SPLINE
  5
309
100
AcDbEntity
  8
0
100
AcDbSpline
 62
7
  6
CONTINUOUS
 70
0
 71
3
 72
11
 73
7
 74
0
 42
0.0000001
 43
0.0000001
 44
0.0000000001
 40
0.0
 40
0.0
 40
0.0
 40
0.0
 40
0.2575921969
 40
0.5240195683
 40
0.7775851277
 40
1.0
 40
1.0
 40
1.0
 40
1.0
 10
14.9674721899
 20
11.7248855118
 30
0.0
 10
14.9724075349
 20
11.7248855118
 30
0.0
 10
14.9824654704
 20
11.7236662794
 30
0.0
 10
14.9967031465
 20
11.7189762474
 30
0.0
 10
15.0091445308
 20
11.7118931293
 30
0.0
 10
15.0158934125
 20
11.7055325074
 30
0.0
 10
15.0184146842
 20
11.7020970434
 30
0.0
  0
SPLINE
  5
30A
100
AcDbEntity
  8
0
100
AcDbSpline
 62
7
  6
CONTINUOUS
 70
0
 71
3
 72
11
 73
7
 74
0
 42
0.0000001
 43
0.0000001
 44
0.0000000001
 40
0.0
 40
0.0
 40
0.0
 40
0.0
 40
0.2224148723
 40
0.4759804317
 40
0.7424078031
 40
1.0
 40
1.0
 40
1.0
 40
1.0
 10
15.6337123019
 20
13.3195129424
 30
0.0
 10
15.6362335736
 20
13.3160774784
 30
0.0
 10
15.6429824553
 20
13.3097168565
 30
0.0
 10
15.6554238396
 20
13.3026337385
 30
0.0
 10
15.6696615157
 20
13.2979437064
 30
0.0
 10
15.6797194512
 20
13.2967244741
 30
0.0
 10
15.6846547962
 20
13.2967244741
 30
0.0
  0
SPLINE
  5
30B
100
AcDbEntity
  8
0
100
AcDbSpline
 62
7
  6
CONTINUOUS
 70
0
 71
3
 72
9
 73
5
 74
0
 42
0.0000001
 43
0.0000001
 44
0.0000000001
 40
0.0
 40
0.0
 40
0.0
 40
0.0
 40
0.2619866527
 40
1.0
 40
1.0
 40
1.0
 40
1.0
 10
14.981397155
 20
11.7775308368
 30
0.0
 10
14.981577029
 20
11.7768042548
 30
0.0
 10
14.9821049514
 20
11.7739960921
 30
0.0
 10
14.9818937238
 20
11.77103349
 30
0.0
 10
14.9812710381
 20
11.7690189699
 30
0.0
  0
SPLINE
  5
30C
100
AcDbEntity
  8
0
100
AcDbSpline
 62
7
  6
CONTINUOUS
 70
0
 71
3
 72
9
 73
5
 74
0
 42
0.0000001
 43
0.0000001
 44
0.0000000001
 40
0.0
 40
0.0
 40
0.0
 40
0.0
 40
0.2583566189
 40
1.0
 40
1.0
 40
1.0
 40
1.0
 10
15.4293290833
 20
13.2967244741
 30
0.0
 10
15.4300988547
 20
13.2967244741
 30
0.0
 10
15.4330777488
 20
13.2967827202
 30
0.0
 10
15.4360544654
 20
13.2970761202
 30
0.0
 10
15.4382319191
 20
13.2974523632
 30
0.0
  0
SPLINE
  5
30D
100
AcDbEntity
  8
0
100
AcDbSpline
 62
7
  6
CONTINUOUS
 70
0
 71
3
 72
11
 73
7
 74
0
 42
0.0000001
 43
0.0000001
 44
0.0000000001
 40
0.0
 40
0.0
 40
0.0
 40
0.0
 40
0.2575921969
 40
0.5240195683
 40
0.7775851277
 40
1.0
 40
1.0
 40
1.0
 40
1.0
 10
15.2575701408
 20
11.7248855118
 30
0.0
 10
15.2625054858
 20
11.7248855118
 30
0.0
 10
15.2725634212
 20
11.7236662794
 30
0.0
 10
15.2868010974
 20
11.7189762474
 30
0.0
 10
15.2992424817
 20
11.7118931293
 30
0.0
 10
15.3059913634
 20
11.7055325074
 30
0.0
 10
15.3085126351
 20
11.7020970434
 30
0.0
  0
SPLINE
  5
30E
100
AcDbEntity
  8
0
100
AcDbSpline
 62
7
  6
CONTINUOUS
 70
0
 71
3
 72
11
 73
7
 74
0
 42
0.0000001
 43
0.0000001
 44
0.0000000001
 40
0.0
 40
0.0
 40
0.0
 40
0.0
 40
0.2224148723
 40
0.4759804317
 40
0.7424078031
 40
1.0
 40
1.0
 40
1.0
 40
1.0
 10
15.9238102528
 20
13.3195129424
 30
0.0
 10
15.9263315244
 20
13.3160774784
 30
0.0
 10
15.9330804061
 20
13.3097168565
 30
0.0
 10
15.9455217905
 20
13.3026337385
 30
0.0
 10
15.9597594666
 20
13.2979437064
 30
0.0
 10
15.9698174021
 20
13.2967244741
 30
0.0
 10
15.9747527471
 20
13.2967244741
 30
0.0
  0
SPLINE
  5
30F
100
AcDbEntity
  8
0
100
AcDbSpline
 62
7
  6
CONTINUOUS
 70
0
 71
3
 72
9
 73
5
 74
0
 42
0.0000001
 43
0.0000001
 44
0.0000000001
 40
0.0
 40
0.0
 40
0.0
 40
0.0
 40
0.2619866527
 40
1.0
 40
1.0
 40
1.0
 40
1.0
 10
15.2714951058
 20
11.7775308368
 30
0.0
 10
15.2716749799
 20
11.7768042548
 30
0.0
 10
15.2722029023
 20
11.7739960921
 30
0.0
 10
15.2719916747
 20
11.77103349
 30
0.0
 10
15.2713689889
 20
11.7690189699
 30
0.0
  0
SPLINE
  5
310
100
AcDbEntity
  8
0
100
AcDbSpline
 62
7
  6
CONTINUOUS
 70
0
 71
3
 72
9
 73
5
 74
0
 42
0.0000001
 43
0.0000001
 44
0.0000000001
 40
0.0
 40
0.0
 40
0.0
 40
0.0
 40
0.2583566189
 40
1.0
 40
1.0
 40
1.0
 40
1.0
 10
15.7194270342
 20
13.2967244741
 30
0.0
 10
15.7201968056
 20
13.2967244741
 30
0.0
 10
15.7231756997
 20
13.2967827202
 30
0.0
 10
15.7261524163
 20
13.2970761202
 30
0.0
 10
15.72832987
 20
13.2974523632
 30
0.0
  0
SPLINE
  5
311
100
AcDbEntity
  8
0
100
AcDbSpline
 62
7
  6
CONTINUOUS
 70
0
 71
3
 72
11
 73
7
 74
0
 42
0.0000001
 43
0.0000001
 44
0.0000000001
 40
0.0
 40
0.0
 40
0.0
 40
0.0
 40
0.2575921969
 40
0.5240195683
 40
0.7775851277
 40
1.0
 40
1.0
 40
1.0
 40
1.0
 10
15.5476680916
 20
11.7248855118
 30
0.0
 10
15.5526034366
 20
11.7248855118
 30
0.0
 10
15.5626613721
 20
11.7236662794
 30
0.0
 10
15.5768990482
 20
11.7189762474
 30
0.0
 10
15.5893404325
 20
11.7118931293
 30
0.0
 10
15.5960893143
 20
11.7055325074
 30
0.0
 10
15.5986105859
 20
11.7020970434
 30
0.0
  0
SPLINE
  5
312
100
AcDbEntity
  8
0
100
AcDbSpline
 62
7
  6
CONTINUOUS
 70
0
 71
3
 72
11
 73
7
 74
0
 42
0.0000001
 43
0.0000001
 44
0.0000000001
 40
0.0
 40
0.0
 40
0.0
 40
0.0
 40
0.2224148723
 40
0.4759804317
 40
0.7424078031
 40
1.0
 40
1.0
 40
1.0
 40
1.0
 10
16.2139082036
 20
13.3195129424
 30
0.0
 10
16.2164294753
 20
13.3160774784
 30
0.0
 10
16.223178357
 20
13.3097168565
 30
0.0
 10
16.2356197413
 20
13.3026337385
 30
0.0
 10
16.2498574175
 20
13.2979437064
 30
0.0
 10
16.2599153529
 20
13.2967244741
 30
0.0
 10
16.2648506979
 20
13.2967244741
 30
0.0
  0
SPLINE
  5
313
100
AcDbEntity
  8
0
100
AcDbSpline
 62
7
  6
CONTINUOUS
 70
0
 71
3
 72
9
 73
5
 74
0
 42
0.0000001
 43
0.0000001
 44
0.0000000001
 40
0.0
 40
0.0
 40
0.0
 40
0.0
 40
0.2619866527
 40
1.0
 40
1.0
 40
1.0
 40
1.0
 10
15.5615930567
 20
11.7775308368
 30
0.0
 10
15.5617729308
 20
11.7768042548
 30
0.0
 10
15.5623008531
 20
11.7739960921
 30
0.0
 10
15.5620896255
 20
11.77103349
 30
0.0
 10
15.5614669398
 20
11.7690189699
 30
0.0
  0
SPLINE
  5
314
100
AcDbEntity
  8
0
100
AcDbSpline
 62
7
  6
CONTINUOUS
 70
0
 71
3
 72
9
 73
5
 74
0
 42
0.0000001
 43
0.0000001
 44
0.0000000001
 40
0.0
 40
0.0
 40
0.0
 40
0.0
 40
0.2583566189
 40
1.0
 40
1.0
 40
1.0
 40
1.0
 10
16.0095249851
 20
13.2967244741
 30
0.0
 10
16.0102947564
 20
13.2967244741
 30
0.0
 10
16.0132736506
 20
13.2967827202
 30
0.0
 10
16.0162503671
 20
13.2970761202
 30
0.0
 10
16.0184278208
 20
13.2974523632
 30
0.0
  0
SPLINE
  5
315
100
AcDbEntity
  8
0
100
AcDbSpline
 62
7
  6
CONTINUOUS
 70
0
 71
3
 72
11
 73
7
 74
0
 42
0.0000001
 43
0.0000001
 44
0.0000000001
 40
0.0
 40
0.0
 40
0.0
 40
0.0
 40
0.2575921969
 40
0.5240195683
 40
0.7775851277
 40
1.0
 40
1.0
 40
1.0
 40
1.0
 10
15.8377660425
 20
11.7248855118
 30
0.0
 10
15.8427013875
 20
11.7248855118
 30
0.0
 10
15.852759323
 20
11.7236662794
 30
0.0
 10
15.8669969991
 20
11.7189762474
 30
0.0
 10
15.8794383834
 20
11.7118931293
 30
0.0
 10
15.8861872651
 20
11.7055325074
 30
0.0
 10
15.8887085368
 20
11.7020970434
 30
0.0
  0
SPLINE
  5
316
100
AcDbEntity
  8
0
100
AcDbSpline
 62
7
  6
CONTINUOUS
 70
0
 71
3
 72
11
 73
7
 74
0
 42
0.0000001
 43
0.0000001
 44
0.0000000001
 40
0.0
 40
0.0
 40
0.0
 40
0.0
 40
0.2224148723
 40
0.4759804317
 40
0.7424078031
 40
1.0
 40
1.0
 40
1.0
 40
1.0
 10
16.5040061545
 20
13.3195129424
 30
0.0
 10
16.5065274262
 20
13.3160774784
 30
0.0
 10
16.5132763079
 20
13.3097168565
 30
0.0
 10
16.5257176922
 20
13.3026337385
 30
0.0
 10
16.5399553683
 20
13.2979437064
 30
0.0
 10
16.5500133038
 20
13.2967244741
 30
0.0
 10
16.5549486488
 20
13.2967244741
 30
0.0
  0
SPLINE
  5
317
100
AcDbEntity
  8
0
100
AcDbSpline
 62
7
  6
CONTINUOUS
 70
0
 71
3
 72
9
 73
5
 74
0
 42
0.0000001
 43
0.0000001
 44
0.0000000001
 40
0.0
 40
0.0
 40
0.0
 40
0.0
 40
0.2619866527
 40
1.0
 40
1.0
 40
1.0
 40
1.0
 10
15.8516910076
 20
11.7775308368
 30
0.0
 10
15.8518708816
 20
11.7768042548
 30
0.0
 10
15.852398804
 20
11.7739960921
 30
0.0
 10
15.8521875764
 20
11.77103349
 30
0.0
 10
15.8515648907
 20
11.7690189699
 30
0.0
  0
SPLINE
  5
318
100
AcDbEntity
  8
0
100
AcDbSpline
 62
7
  6
CONTINUOUS
 70
0
 71
3
 72
9
 73
5
 74
0
 42
0.0000001
 43
0.0000001
 44
0.0000000001
 40
0.0
 40
0.0
 40
0.0
 40
0.0
 40
0.2583566189
 40
1.0
 40
1.0
 40
1.0
 40
1.0
 10
16.2996229359
 20
13.2967244741
 30
0.0
 10
16.3003927073
 20
13.2967244741
 30
0.0
 10
16.3033716014
 20
13.2967827202
 30
0.0
 10
16.306348318
 20
13.2970761202
 30
0.0
 10
16.3085257717
 20
13.2974523632
 30
0.0
  0
SPLINE
  5
319
100
AcDbEntity
  8
0
100
AcDbSpline
 62
7
  6
CONTINUOUS
 70
0
 71
3
 72
9
 73
5
 74
0
 42
0.0000001
 43
0.0000001
 44
0.0000000001
 40
0.0
 40
0.0
 40
0.0
 40
0.0
 40
0.4873559464
 40
1.0
 40
1.0
 40
1.0
 40
1.0
 10
16.065062784
 20
11.6623948808
 30
0.0
 10
16.0666011457
 20
11.6687081831
 30
0.0
 10
16.0680390057
 20
11.6821311586
 30
0.0
 10
16.0661577228
 20
11.6954621386
 30
0.0
 10
16.0645151731
 20
11.7020970434
 30
0.0
  0
SPLINE
  5
31A
100
AcDbEntity
  8
0
100
AcDbSpline
 62
7
  6
CONTINUOUS
 70
0
 71
3
 72
11
 73
7
 74
0
 42
0.0000001
 43
0.0000001
 44
0.0000000001
 40
0.0
 40
0.0
 40
0.0
 40
0.0
 40
0.2022214589
 40
0.4300656058
 40
0.6961822088
 40
1.0
 40
1.0
 40
1.0
 40
1.0
 10
15.5614669398
 20
11.7690189699
 30
0.0
 10
15.5607937816
 20
11.7668411608
 30
0.0
 10
15.5581632805
 20
11.7625338714
 30
0.0
 10
15.5515565225
 20
11.7580103841
 30
0.0
 10
15.5428908107
 20
11.75528513
 30
0.0
 10
15.5364411568
 20
11.7547423685
 30
0.0
 10
15.5330164744
 20
11.7547423685
 30
0.0
  0
SPLINE
  5
31B
100
AcDbEntity
  8
0
100
AcDbSpline
 62
7
  6
CONTINUOUS
 70
0
 71
3
 72
11
 73
7
 74
0
 42
0.0000001
 43
0.0000001
 44
0.0000000001
 40
0.0
 40
0.0
 40
0.0
 40
0.0
 40
0.2022214589
 40
0.4300656058
 40
0.6961822088
 40
1.0
 40
1.0
 40
1.0
 40
1.0
 10
14.6911730872
 20
11.7690189699
 30
0.0
 10
14.690499929
 20
11.7668411608
 30
0.0
 10
14.6878694279
 20
11.7625338714
 30
0.0
 10
14.6812626699
 20
11.7580103841
 30
0.0
 10
14.6725969581
 20
11.75528513
 30
0.0
 10
14.6661473042
 20
11.7547423685
 30
0.0
 10
14.6627226218
 20
11.7547423685
 30
0.0
  0
SPLINE
  5
31C
100
AcDbEntity
  8
0
100
AcDbSpline
 62
7
  6
CONTINUOUS
 70
0
 71
3
 72
9
 73
5
 74
0
 42
0.0000001
 43
0.0000001
 44
0.0000000001
 40
0.0
 40
0.0
 40
0.0
 40
0.0
 40
0.2362081822
 40
1.0
 40
1.0
 40
1.0
 40
1.0
 10
14.5770078895
 20
11.7775308368
 30
0.0
 10
14.5744302499
 20
11.7810431074
 30
0.0
 10
14.5629591676
 20
11.795501303
 30
0.0
 10
14.5495029435
 20
11.808325006
 30
0.0
 10
14.5385895173
 20
11.8172329994
 30
0.0
  0
SPLINE
  5
31D
100
AcDbEntity
  8
0
100
AcDbSpline
 62
7
  6
CONTINUOUS
 70
0
 71
3
 72
9
 73
5
 74
0
 42
0.0000001
 43
0.0000001
 44
0.0000000001
 40
0.0
 40
0.0
 40
0.0
 40
0.0
 40
0.4873570824
 40
1.0
 40
1.0
 40
1.0
 40
1.0
 10
15.7749648332
 20
11.6623948808
 30
0.0
 10
15.7765031979
 20
11.6687081957
 30
0.0
 10
15.7779409455
 20
11.6821311739
 30
0.0
 10
15.7760597678
 20
11.6954621555
 30
0.0
 10
15.7744172222
 20
11.7020970434
 30
0.0
  0
SPLINE
  5
31E
100
AcDbEntity
  8
0
100
AcDbSpline
 62
7
  6
CONTINUOUS
 70
0
 71
3
 72
11
 73
7
 74
0
 42
0.0000001
 43
0.0000001
 44
0.0000000001
 40
0.0
 40
0.0
 40
0.0
 40
0.0
 40
0.2022214589
 40
0.4300656058
 40
0.6961822088
 40
1.0
 40
1.0
 40
1.0
 40
1.0
 10
14.9812710381
 20
11.7690189699
 30
0.0
 10
14.9805978799
 20
11.7668411608
 30
0.0
 10
14.9779673788
 20
11.7625338714
 30
0.0
 10
14.9713606208
 20
11.7580103841
 30
0.0
 10
14.962694909
 20
11.75528513
 30
0.0
 10
14.9562452551
 20
11.7547423685
 30
0.0
 10
14.9528205727
 20
11.7547423685
 30
0.0
  0
SPLINE
  5
31F
100
AcDbEntity
  8
0
100
AcDbSpline
 62
7
  6
CONTINUOUS
 70
0
 71
3
 72
11
 73
7
 74
0
 42
0.0000001
 43
0.0000001
 44
0.0000000001
 40
0.0
 40
0.0
 40
0.0
 40
0.0
 40
0.303805008
 40
0.5699034428
 40
0.7977266886
 40
1.0
 40
1.0
 40
1.0
 40
1.0
 10
14.7337751944
 20
11.8399078287
 30
0.0
 10
14.7286383731
 20
11.8399078287
 30
0.0
 10
14.7189642206
 20
11.8390939663
 30
0.0
 10
14.7059670844
 20
11.8350057799
 30
0.0
 10
14.6960546957
 20
11.8282226103
 30
0.0
 10
14.6921103678
 20
11.8217602226
 30
0.0
 10
14.6910996308
 20
11.8184928908
 30
0.0
  0
SPLINE
  5
320
100
AcDbEntity
  8
0
100
AcDbSpline
 62
7
  6
CONTINUOUS
 70
0
 71
3
 72
11
 73
7
 74
0
 42
0.0000001
 43
0.0000001
 44
0.0000000001
 40
0.0
 40
0.0
 40
0.0
 40
0.0
 40
0.2394474028
 40
0.4944467027
 40
0.7523352157
 40
1.0
 40
1.0
 40
1.0
 40
1.0
 10
14.8286874682
 20
11.8172329994
 30
0.0
 10
14.82434234
 20
11.8207796742
 30
0.0
 10
14.8145843463
 20
11.8271639977
 30
0.0
 10
14.7983700032
 20
11.8342434197
 30
0.0
 10
14.7810687979
 20
11.8387726634
 30
0.0
 10
14.7692108074
 20
11.8399078287
 30
0.0
 10
14.7634094868
 20
11.8399078287
 30
0.0
  0
SPLINE
  5
321
100
AcDbEntity
  8
0
100
AcDbSpline
 62
7
  6
CONTINUOUS
 70
0
 71
3
 72
9
 73
5
 74
0
 42
0.0000001
 43
0.0000001
 44
0.0000000001
 40
0.0
 40
0.0
 40
0.0
 40
0.0
 40
0.4873570824
 40
1.0
 40
1.0
 40
1.0
 40
1.0
 10
15.4848668823
 20
11.6623948808
 30
0.0
 10
15.486405247
 20
11.6687081957
 30
0.0
 10
15.4878429946
 20
11.6821311739
 30
0.0
 10
15.4859618169
 20
11.6954621555
 30
0.0
 10
15.4843192713
 20
11.7020970434
 30
0.0
  0
SPLINE
  5
322
100
AcDbEntity
  8
0
100
AcDbSpline
 62
7
  6
CONTINUOUS
 70
0
 71
3
 72
9
 73
5
 74
0
 42
0.0000001
 43
0.0000001
 44
0.0000000001
 40
0.0
 40
0.0
 40
0.0
 40
0.0
 40
0.2619866527
 40
1.0
 40
1.0
 40
1.0
 40
1.0
 10
14.6140254187
 20
11.7020970434
 30
0.0
 10
14.6138455447
 20
11.7028236255
 30
0.0
 10
14.6133176223
 20
11.7056317882
 30
0.0
 10
14.6135288499
 20
11.7085943902
 30
0.0
 10
14.6141515356
 20
11.7106089103
 30
0.0
  0
SPLINE
  5
323
100
AcDbEntity
  8
0
100
AcDbSpline
 62
7
  6
CONTINUOUS
 70
0
 71
3
 72
9
 73
5
 74
0
 42
0.0000001
 43
0.0000001
 44
0.0000000001
 40
0.0
 40
0.0
 40
0.0
 40
0.0
 40
0.2362081822
 40
1.0
 40
1.0
 40
1.0
 40
1.0
 10
14.8671058404
 20
11.7775308368
 30
0.0
 10
14.8645282008
 20
11.7810431074
 30
0.0
 10
14.8530571185
 20
11.795501303
 30
0.0
 10
14.8396008944
 20
11.808325006
 30
0.0
 10
14.8286874682
 20
11.8172329994
 30
0.0
  0
SPLINE
  5
324
100
AcDbEntity
  8
0
100
AcDbSpline
 62
7
  6
CONTINUOUS
 70
0
 71
3
 72
11
 73
7
 74
0
 42
0.0000001
 43
0.0000001
 44
0.0000000001
 40
0.0
 40
0.0
 40
0.0
 40
0.0
 40
0.2575921969
 40
0.5240195683
 40
0.7775851277
 40
1.0
 40
1.0
 40
1.0
 40
1.0
 10
14.6279503838
 20
11.7547423685
 30
0.0
 10
14.6230150388
 20
11.7547423685
 30
0.0
 10
14.6129571033
 20
11.7559616008
 30
0.0
 10
14.5987194272
 20
11.7606516329
 30
0.0
 10
14.5862780429
 20
11.7677347509
 30
0.0
 10
14.5795291612
 20
11.7740953729
 30
0.0
 10
14.5770078895
 20
11.7775308368
 30
0.0
  0
SPLINE
  5
325
100
AcDbEntity
  8
0
100
AcDbSpline
 62
7
  6
CONTINUOUS
 70
0
 71
3
 72
11
 73
7
 74
0
 42
0.0000001
 43
0.0000001
 44
0.0000000001
 40
0.0
 40
0.0
 40
0.0
 40
0.0
 40
0.2022214589
 40
0.4300656058
 40
0.6961822088
 40
1.0
 40
1.0
 40
1.0
 40
1.0
 10
14.4010751363
 20
11.7690189699
 30
0.0
 10
14.4004019782
 20
11.7668411608
 30
0.0
 10
14.397771477
 20
11.7625338714
 30
0.0
 10
14.391164719
 20
11.7580103841
 30
0.0
 10
14.3824990072
 20
11.75528513
 30
0.0
 10
14.3760493534
 20
11.7547423685
 30
0.0
 10
14.3726246709
 20
11.7547423685
 30
0.0
  0
SPLINE
  5
326
100
AcDbEntity
  8
0
100
AcDbSpline
 62
7
  6
CONTINUOUS
 70
0
 71
3
 72
11
 73
7
 74
0
 42
0.0000001
 43
0.0000001
 44
0.0000000001
 40
0.0
 40
0.0
 40
0.0
 40
0.0
 40
0.303805008
 40
0.5699034428
 40
0.7977266886
 40
1.0
 40
1.0
 40
1.0
 40
1.0
 10
15.0238731453
 20
11.8399078287
 30
0.0
 10
15.0187363239
 20
11.8399078287
 30
0.0
 10
15.0090621715
 20
11.8390939663
 30
0.0
 10
14.9960650352
 20
11.8350057799
 30
0.0
 10
14.9861526465
 20
11.8282226103
 30
0.0
 10
14.9822083187
 20
11.8217602226
 30
0.0
 10
14.9811975817
 20
11.8184928908
 30
0.0
  0
SPLINE
  5
327
100
AcDbEntity
  8
0
100
AcDbSpline
 62
7
  6
CONTINUOUS
 70
0
 71
3
 72
9
 73
5
 74
0
 42
0.0000001
 43
0.0000001
 44
0.0000000001
 40
0.0
 40
0.0
 40
0.0
 40
0.0
 40
0.4873570824
 40
1.0
 40
1.0
 40
1.0
 40
1.0
 10
15.1947689314
 20
11.6623948808
 30
0.0
 10
15.1963072961
 20
11.6687081957
 30
0.0
 10
15.1977450437
 20
11.6821311739
 30
0.0
 10
15.195863866
 20
11.6954621555
 30
0.0
 10
15.1942213205
 20
11.7020970434
 30
0.0
  0
SPLINE
  5
328
100
AcDbEntity
  8
0
100
AcDbSpline
 62
7
  6
CONTINUOUS
 70
0
 71
3
 72
11
 73
7
 74
0
 42
0.0000001
 43
0.0000001
 44
0.0000000001
 40
0.0
 40
0.0
 40
0.0
 40
0.0
 40
0.2394474028
 40
0.4944467027
 40
0.7523352157
 40
1.0
 40
1.0
 40
1.0
 40
1.0
 10
15.118785419
 20
11.8172329994
 30
0.0
 10
15.1144402909
 20
11.8207796742
 30
0.0
 10
15.1046822972
 20
11.8271639977
 30
0.0
 10
15.088467954
 20
11.8342434197
 30
0.0
 10
15.0711667488
 20
11.8387726634
 30
0.0
 10
15.0593087583
 20
11.8399078287
 30
0.0
 10
15.0535074377
 20
11.8399078287
 30
0.0
  0
SPLINE
  5
329
100
AcDbEntity
  8
0
100
AcDbSpline
 62
7
  6
CONTINUOUS
 70
0
 71
3
 72
9
 73
5
 74
0
 42
0.0000001
 43
0.0000001
 44
0.0000000001
 40
0.0
 40
0.0
 40
0.0
 40
0.0
 40
0.2619866527
 40
1.0
 40
1.0
 40
1.0
 40
1.0
 10
14.9041233696
 20
11.7020970434
 30
0.0
 10
14.9039434955
 20
11.7028236255
 30
0.0
 10
14.9034155732
 20
11.7056317882
 30
0.0
 10
14.9036268008
 20
11.7085943902
 30
0.0
 10
14.9042494865
 20
11.7106089103
 30
0.0
  0
SPLINE
  5
32A
100
AcDbEntity
  8
0
100
AcDbSpline
 62
7
  6
CONTINUOUS
 70
0
 71
3
 72
9
 73
5
 74
0
 42
0.0000001
 43
0.0000001
 44
0.0000000001
 40
0.0
 40
0.0
 40
0.0
 40
0.0
 40
0.2362081822
 40
1.0
 40
1.0
 40
1.0
 40
1.0
 10
15.1572037913
 20
11.7775308368
 30
0.0
 10
15.1546261516
 20
11.7810431074
 30
0.0
 10
15.1431550693
 20
11.795501303
 30
0.0
 10
15.1296988453
 20
11.808325006
 30
0.0
 10
15.118785419
 20
11.8172329994
 30
0.0
  0
SPLINE
  5
32B
100
AcDbEntity
  8
0
100
AcDbSpline
 62
7
  6
CONTINUOUS
 70
0
 71
3
 72
11
 73
7
 74
0
 42
0.0000001
 43
0.0000001
 44
0.0000000001
 40
0.0
 40
0.0
 40
0.0
 40
0.0
 40
0.2575921969
 40
0.5240195683
 40
0.7775851277
 40
1.0
 40
1.0
 40
1.0
 40
1.0
 10
14.9180483347
 20
11.7547423685
 30
0.0
 10
14.9131129897
 20
11.7547423685
 30
0.0
 10
14.9030550542
 20
11.7559616008
 30
0.0
 10
14.8888173781
 20
11.7606516329
 30
0.0
 10
14.8763759938
 20
11.7677347509
 30
0.0
 10
14.869627112
 20
11.7740953729
 30
0.0
 10
14.8671058404
 20
11.7775308368
 30
0.0
  0
SPLINE
  5
32C
100
AcDbEntity
  8
0
100
AcDbSpline
 62
7
  6
CONTINUOUS
 70
0
 71
3
 72
11
 73
7
 74
0
 42
0.0000001
 43
0.0000001
 44
0.0000000001
 40
0.0
 40
0.0
 40
0.0
 40
0.0
 40
0.2022214589
 40
0.4300656058
 40
0.6961822088
 40
1.0
 40
1.0
 40
1.0
 40
1.0
 10
15.2713689889
 20
11.7690189699
 30
0.0
 10
15.2706958308
 20
11.7668411608
 30
0.0
 10
15.2680653296
 20
11.7625338714
 30
0.0
 10
15.2614585716
 20
11.7580103841
 30
0.0
 10
15.2527928599
 20
11.75528513
 30
0.0
 10
15.246343206
 20
11.7547423685
 30
0.0
 10
15.2429185235
 20
11.7547423685
 30
0.0
  0
SPLINE
  5
32D
100
AcDbEntity
  8
0
100
AcDbSpline
 62
7
  6
CONTINUOUS
 70
0
 71
3
 72
11
 73
7
 74
0
 42
0.0000001
 43
0.0000001
 44
0.0000000001
 40
0.0
 40
0.0
 40
0.0
 40
0.0
 40
0.303805008
 40
0.5699034428
 40
0.7977266886
 40
1.0
 40
1.0
 40
1.0
 40
1.0
 10
15.3139710962
 20
11.8399078287
 30
0.0
 10
15.3088342748
 20
11.8399078287
 30
0.0
 10
15.2991601223
 20
11.8390939663
 30
0.0
 10
15.2861629861
 20
11.8350057799
 30
0.0
 10
15.2762505974
 20
11.8282226103
 30
0.0
 10
15.2723062696
 20
11.8217602226
 30
0.0
 10
15.2712955326
 20
11.8184928908
 30
0.0
  0
SPLINE
  5
32E
100
AcDbEntity
  8
0
100
AcDbSpline
 62
7
  6
CONTINUOUS
 70
0
 71
3
 72
9
 73
5
 74
0
 42
0.0000001
 43
0.0000001
 44
0.0000000001
 40
0.0
 40
0.0
 40
0.0
 40
0.0
 40
0.4873570824
 40
1.0
 40
1.0
 40
1.0
 40
1.0
 10
14.9046709806
 20
11.6623948808
 30
0.0
 10
14.9062093453
 20
11.6687081957
 30
0.0
 10
14.9076470929
 20
11.6821311739
 30
0.0
 10
14.9057659152
 20
11.6954621555
 30
0.0
 10
14.9041233696
 20
11.7020970434
 30
0.0
  0
SPLINE
  5
32F
100
AcDbEntity
  8
0
100
AcDbSpline
 62
7
  6
CONTINUOUS
 70
0
 71
3
 72
9
 73
5
 74
0
 42
0.0000001
 43
0.0000001
 44
0.0000000001
 40
0.0
 40
0.0
 40
0.0
 40
0.0
 40
0.2619866527
 40
1.0
 40
1.0
 40
1.0
 40
1.0
 10
15.1942213205
 20
11.7020970434
 30
0.0
 10
15.1940414464
 20
11.7028236255
 30
0.0
 10
15.193513524
 20
11.7056317882
 30
0.0
 10
15.1937247516
 20
11.7085943902
 30
0.0
 10
15.1943474374
 20
11.7106089103
 30
0.0
  0
SPLINE
  5
330
100
AcDbEntity
  8
0
100
AcDbSpline
 62
7
  6
CONTINUOUS
 70
0
 71
3
 72
11
 73
7
 74
0
 42
0.0000001
 43
0.0000001
 44
0.0000000001
 40
0.0
 40
0.0
 40
0.0
 40
0.0
 40
0.2394474028
 40
0.4944467027
 40
0.7523352157
 40
1.0
 40
1.0
 40
1.0
 40
1.0
 10
15.4088833699
 20
11.8172329994
 30
0.0
 10
15.4045382417
 20
11.8207796742
 30
0.0
 10
15.3947802481
 20
11.8271639977
 30
0.0
 10
15.3785659049
 20
11.8342434197
 30
0.0
 10
15.3612646996
 20
11.8387726634
 30
0.0
 10
15.3494067091
 20
11.8399078287
 30
0.0
 10
15.3436053885
 20
11.8399078287
 30
0.0
  0
SPLINE
  5
331
100
AcDbEntity
  8
0
100
AcDbSpline
 62
7
  6
CONTINUOUS
 70
0
 71
3
 72
11
 73
7
 74
0
 42
0.0000001
 43
0.0000001
 44
0.0000000001
 40
0.0
 40
0.0
 40
0.0
 40
0.0
 40
0.2575921969
 40
0.5240195683
 40
0.7775851277
 40
1.0
 40
1.0
 40
1.0
 40
1.0
 10
15.2081462855
 20
11.7547423685
 30
0.0
 10
15.2032109406
 20
11.7547423685
 30
0.0
 10
15.1931530051
 20
11.7559616008
 30
0.0
 10
15.178915329
 20
11.7606516329
 30
0.0
 10
15.1664739446
 20
11.7677347509
 30
0.0
 10
15.1597250629
 20
11.7740953729
 30
0.0
 10
15.1572037913
 20
11.7775308368
 30
0.0
  0
SPLINE
  5
332
100
AcDbEntity
  8
0
100
AcDbSpline
 62
7
  6
CONTINUOUS
 70
0
 71
3
 72
9
 73
5
 74
0
 42
0.0000001
 43
0.0000001
 44
0.0000000001
 40
0.0
 40
0.0
 40
0.0
 40
0.0
 40
0.2362081822
 40
1.0
 40
1.0
 40
1.0
 40
1.0
 10
15.4473017421
 20
11.7775308368
 30
0.0
 10
15.4447241025
 20
11.7810431074
 30
0.0
 10
15.4332530202
 20
11.795501303
 30
0.0
 10
15.4197967961
 20
11.808325006
 30
0.0
 10
15.4088833699
 20
11.8172329994
 30
0.0
  0
SPLINE
  5
333
100
AcDbEntity
  8
0
100
AcDbSpline
 62
7
  6
CONTINUOUS
 70
0
 71
3
 72
11
 73
7
 74
0
 42
0.0000001
 43
0.0000001
 44
0.0000000001
 40
0.0
 40
0.0
 40
0.0
 40
0.0
 40
0.2022214589
 40
0.4300656058
 40
0.6961822088
 40
1.0
 40
1.0
 40
1.0
 40
1.0
 10
15.8515648907
 20
11.7690189699
 30
0.0
 10
15.8508917325
 20
11.7668411608
 30
0.0
 10
15.8482612314
 20
11.7625338714
 30
0.0
 10
15.8416544734
 20
11.7580103841
 30
0.0
 10
15.8329887616
 20
11.75528513
 30
0.0
 10
15.8265391077
 20
11.7547423685
 30
0.0
 10
15.8231144253
 20
11.7547423685
 30
0.0
  0
SPLINE
  5
334
100
AcDbEntity
  8
0
100
AcDbSpline
 62
7
  6
CONTINUOUS
 70
0
 71
3
 72
9
 73
5
 74
0
 42
0.0000001
 43
0.0000001
 44
0.0000000001
 40
0.0
 40
0.0
 40
0.0
 40
0.0
 40
0.4873570824
 40
1.0
 40
1.0
 40
1.0
 40
1.0
 10
14.6145730297
 20
11.6623948808
 30
0.0
 10
14.6161113944
 20
11.6687081957
 30
0.0
 10
14.617549142
 20
11.6821311739
 30
0.0
 10
14.6156679643
 20
11.6954621555
 30
0.0
 10
14.6140254187
 20
11.7020970434
 30
0.0
  0
SPLINE
  5
335
100
AcDbEntity
  8
0
100
AcDbSpline
 62
7
  6
CONTINUOUS
 70
0
 71
3
 72
11
 73
7
 74
0
 42
0.0000001
 43
0.0000001
 44
0.0000000001
 40
0.0
 40
0.0
 40
0.0
 40
0.0
 40
0.303805008
 40
0.5699034428
 40
0.7977266886
 40
1.0
 40
1.0
 40
1.0
 40
1.0
 10
15.604069047
 20
11.8399078287
 30
0.0
 10
15.5989322257
 20
11.8399078287
 30
0.0
 10
15.5892580732
 20
11.8390939663
 30
0.0
 10
15.576260937
 20
11.8350057799
 30
0.0
 10
15.5663485483
 20
11.8282226103
 30
0.0
 10
15.5624042204
 20
11.8217602226
 30
0.0
 10
15.5613934834
 20
11.8184928908
 30
0.0
  0
SPLINE
  5
336
100
AcDbEntity
  8
0
100
AcDbSpline
 62
7
  6
CONTINUOUS
 70
0
 71
3
 72
9
 73
5
 74
0
 42
0.0000001
 43
0.0000001
 44
0.0000000001
 40
0.0
 40
0.0
 40
0.0
 40
0.0
 40
0.2619866527
 40
1.0
 40
1.0
 40
1.0
 40
1.0
 10
15.4843192713
 20
11.7020970434
 30
0.0
 10
15.4841393973
 20
11.7028236255
 30
0.0
 10
15.4836114749
 20
11.7056317882
 30
0.0
 10
15.4838227025
 20
11.7085943902
 30
0.0
 10
15.4844453882
 20
11.7106089103
 30
0.0
  0
SPLINE
  5
337
100
AcDbEntity
  8
0
100
AcDbSpline
 62
7
  6
CONTINUOUS
 70
0
 71
3
 72
11
 73
7
 74
0
 42
0.0000001
 43
0.0000001
 44
0.0000000001
 40
0.0
 40
0.0
 40
0.0
 40
0.0
 40
0.2575921969
 40
0.5240195683
 40
0.7775851277
 40
1.0
 40
1.0
 40
1.0
 40
1.0
 10
15.4982442364
 20
11.7547423685
 30
0.0
 10
15.4933088914
 20
11.7547423685
 30
0.0
 10
15.4832509559
 20
11.7559616008
 30
0.0
 10
15.4690132798
 20
11.7606516329
 30
0.0
 10
15.4565718955
 20
11.7677347509
 30
0.0
 10
15.4498230138
 20
11.7740953729
 30
0.0
 10
15.4473017421
 20
11.7775308368
 30
0.0
  0
SPLINE
  5
338
100
AcDbEntity
  8
0
100
AcDbSpline
 62
7
  6
CONTINUOUS
 70
0
 71
3
 72
11
 73
7
 74
0
 42
0.0000001
 43
0.0000001
 44
0.0000000001
 40
0.0
 40
0.0
 40
0.0
 40
0.0
 40
0.2394474028
 40
0.4944467027
 40
0.7523352157
 40
1.0
 40
1.0
 40
1.0
 40
1.0
 10
15.6989813208
 20
11.8172329994
 30
0.0
 10
15.6946361926
 20
11.8207796742
 30
0.0
 10
15.6848781989
 20
11.8271639977
 30
0.0
 10
15.6686638558
 20
11.8342434197
 30
0.0
 10
15.6513626505
 20
11.8387726634
 30
0.0
 10
15.63950466
 20
11.8399078287
 30
0.0
 10
15.6337033394
 20
11.8399078287
 30
0.0
  0
SPLINE
  5
339
100
AcDbEntity
  8
0
100
AcDbSpline
 62
7
  6
CONTINUOUS
 70
0
 71
3
 72
9
 73
5
 74
0
 42
0.0000001
 43
0.0000001
 44
0.0000000001
 40
0.0
 40
0.0
 40
0.0
 40
0.0
 40
0.2362081822
 40
1.0
 40
1.0
 40
1.0
 40
1.0
 10
15.737399693
 20
11.7775308368
 30
0.0
 10
15.7348220534
 20
11.7810431074
 30
0.0
 10
15.7233509711
 20
11.795501303
 30
0.0
 10
15.709894747
 20
11.808325006
 30
0.0
 10
15.6989813208
 20
11.8172329994
 30
0.0
  0
SPLINE
  5
33A
100
AcDbEntity
  8
0
100
AcDbSpline
 62
7
  6
CONTINUOUS
 70
0
 71
3
 72
11
 73
7
 74
0
 42
0.0000001
 43
0.0000001
 44
0.0000000001
 40
0.0
 40
0.0
 40
0.0
 40
0.0
 40
0.303805008
 40
0.5699034428
 40
0.7977266886
 40
1.0
 40
1.0
 40
1.0
 40
1.0
 10
15.8941669979
 20
11.8399078287
 30
0.0
 10
15.8890301765
 20
11.8399078287
 30
0.0
 10
15.8793560241
 20
11.8390939663
 30
0.0
 10
15.8663588878
 20
11.8350057799
 30
0.0
 10
15.8564464991
 20
11.8282226103
 30
0.0
 10
15.8525021713
 20
11.8217602226
 30
0.0
 10
15.8514914343
 20
11.8184928908
 30
0.0
  0
SPLINE
  5
33B
100
AcDbEntity
  8
0
100
AcDbSpline
 62
7
  6
CONTINUOUS
 70
0
 71
3
 72
9
 73
5
 74
0
 42
0.0000001
 43
0.0000001
 44
0.0000000001
 40
0.0
 40
0.0
 40
0.0
 40
0.0
 40
0.2619866527
 40
1.0
 40
1.0
 40
1.0
 40
1.0
 10
15.7744172222
 20
11.7020970434
 30
0.0
 10
15.7742373481
 20
11.7028236255
 30
0.0
 10
15.7737094258
 20
11.7056317882
 30
0.0
 10
15.7739206534
 20
11.7085943902
 30
0.0
 10
15.7745433391
 20
11.7106089103
 30
0.0
  0
SPLINE
  5
33C
100
AcDbEntity
  8
0
100
AcDbSpline
 62
7
  6
CONTINUOUS
 70
0
 71
3
 72
11
 73
7
 74
0
 42
0.0000001
 43
0.0000001
 44
0.0000000001
 40
0.0
 40
0.0
 40
0.0
 40
0.0
 40
0.2575921969
 40
0.5240195683
 40
0.7775851277
 40
1.0
 40
1.0
 40
1.0
 40
1.0
 10
15.7883421873
 20
11.7547423685
 30
0.0
 10
15.7834068423
 20
11.7547423685
 30
0.0
 10
15.7733489068
 20
11.7559616008
 30
0.0
 10
15.7591112307
 20
11.7606516329
 30
0.0
 10
15.7466698464
 20
11.7677347509
 30
0.0
 10
15.7399209646
 20
11.7740953729
 30
0.0
 10
15.737399693
 20
11.7775308368
 30
0.0
  0
SPLINE
  5
33D
100
AcDbEntity
  8
0
100
AcDbSpline
 62
7
  6
CONTINUOUS
 70
0
 71
3
 72
11
 73
7
 74
0
 42
0.0000001
 43
0.0000001
 44
0.0000000001
 40
0.0
 40
0.0
 40
0.0
 40
0.0
 40
0.303805008
 40
0.5699034428
 40
0.7977266886
 40
1.0
 40
1.0
 40
1.0
 40
1.0
 10
14.4436772435
 20
11.8399078287
 30
0.0
 10
14.4385404222
 20
11.8399078287
 30
0.0
 10
14.4288662697
 20
11.8390939663
 30
0.0
 10
14.4158691335
 20
11.8350057799
 30
0.0
 10
14.4059567448
 20
11.8282226103
 30
0.0
 10
14.402012417
 20
11.8217602226
 30
0.0
 10
14.40100168
 20
11.8184928908
 30
0.0
  0
SPLINE
  5
33E
100
AcDbEntity
  8
0
100
AcDbSpline
 62
7
  6
CONTINUOUS
 70
0
 71
3
 72
11
 73
7
 74
0
 42
0.0000001
 43
0.0000001
 44
0.0000000001
 40
0.0
 40
0.0
 40
0.0
 40
0.0
 40
0.2394474028
 40
0.4944467027
 40
0.7523352157
 40
1.0
 40
1.0
 40
1.0
 40
1.0
 10
14.5385895173
 20
11.8172329994
 30
0.0
 10
14.5342443891
 20
11.8207796742
 30
0.0
 10
14.5244863955
 20
11.8271639977
 30
0.0
 10
14.5082720523
 20
11.8342434197
 30
0.0
 10
14.490970847
 20
11.8387726634
 30
0.0
 10
14.4791128565
 20
11.8399078287
 30
0.0
 10
14.4733115359
 20
11.8399078287
 30
0.0
  0
SPLINE
  5
33F
100
AcDbEntity
  8
0
100
AcDbSpline
 62
7
  6
CONTINUOUS
 70
0
 71
3
 72
9
 73
5
 74
0
 42
0.0000001
 43
0.0000001
 44
0.0000000001
 40
0.0
 40
0.0
 40
0.0
 40
0.0
 40
0.2619866527
 40
1.0
 40
1.0
 40
1.0
 40
1.0
 10
16.0645151731
 20
11.7020970434
 30
0.0
 10
16.064335299
 20
11.7028236255
 30
0.0
 10
16.0638073766
 20
11.7056317882
 30
0.0
 10
16.0640186042
 20
11.7085943902
 30
0.0
 10
16.06464129
 20
11.7106089103
 30
0.0
  0
SPLINE
  5
340
100
AcDbEntity
  8
0
100
AcDbSpline
 62
7
  6
CONTINUOUS
 70
0
 71
3
 72
11
 73
7
 74
0
 42
0.0000001
 43
0.0000001
 44
0.0000000001
 40
0.0
 40
0.0
 40
0.0
 40
0.0
 40
0.2394474028
 40
0.4944467027
 40
0.7523352157
 40
1.0
 40
1.0
 40
1.0
 40
1.0
 10
15.9890792717
 20
11.8172329994
 30
0.0
 10
15.9847341435
 20
11.8207796742
 30
0.0
 10
15.9749761498
 20
11.8271639977
 30
0.0
 10
15.9587618066
 20
11.8342434197
 30
0.0
 10
15.9414606014
 20
11.8387726634
 30
0.0
 10
15.9296026109
 20
11.8399078287
 30
0.0
 10
15.9238012903
 20
11.8399078287
 30
0.0
  0
SPLINE
  5
341
100
AcDbEntity
  8
0
100
AcDbSpline
 62
7
  6
CONTINUOUS
 70
0
 71
3
 72
11
 73
7
 74
0
 42
0.0000001
 43
0.0000001
 44
0.0000000001
 40
0.0
 40
0.0
 40
0.0
 40
0.0
 40
0.2575921969
 40
0.5240195683
 40
0.7775851277
 40
1.0
 40
1.0
 40
1.0
 40
1.0
 10
16.0784401381
 20
11.7547423685
 30
0.0
 10
16.0735047932
 20
11.7547423685
 30
0.0
 10
16.0634468577
 20
11.7559616008
 30
0.0
 10
16.0492091816
 20
11.7606516329
 30
0.0
 10
16.0367677972
 20
11.7677347509
 30
0.0
 10
16.0300189155
 20
11.7740953729
 30
0.0
 10
16.0274976439
 20
11.7775308368
 30
0.0
  0
SPLINE
  5
342
100
AcDbEntity
  8
0
100
AcDbSpline
 62
7
  6
CONTINUOUS
 70
0
 71
3
 72
9
 73
5
 74
0
 42
0.0000001
 43
0.0000001
 44
0.0000000001
 40
0.0
 40
0.0
 40
0.0
 40
0.0
 40
0.2362787927
 40
1.0
 40
1.0
 40
1.0
 40
1.0
 10
16.0274976439
 20
11.7775308368
 30
0.0
 10
16.0249192315
 20
11.7810441602
 30
0.0
 10
16.0134484731
 20
11.7955026494
 30
0.0
 10
15.999991698
 20
11.8083258222
 30
0.0
 10
15.9890792717
 20
11.8172329994
 30
0.0
  0
ENDSEC
  0
SECTION
  2
OBJECTS
  0
DICTIONARY
  5
C
100
AcDbDictionary
280
0
281
1
  3
ACAD_GROUP
350
D
  3
ACAD_MLINESTYLE
350
17
  3
ACAD_LAYOUT
350
1A
  3
ACAD_PLOTSETTINGS
350
19
  3
ACAD_PLOTSTYLENAME
350
E
  0
DICTIONARY
  5
D
102
{ACAD_REACTORS
330
C
102
}
100
AcDbDictionary
280
0
281
1
  0
ACDBDICTIONARYWDFLT
  5
E
102
{ACAD_REACTORS
330
C
102
}
100
AcDbDictionary
281
1
  3
Normal
350
F
100
AcDbDictionaryWithDefault
340
F
  0
DICTIONARY
  5
17
102
{ACAD_REACTORS
330
C
102
}
100
AcDbDictionary
280
0
281
1
  3
Standard
350
18
  0
DICTIONARY
  5
19
102
{ACAD_REACTORS
330
C
102
}
100
AcDbDictionary
281
1
  0
DICTIONARY
  5
1A
102
{ACAD_REACTORS
330
C
102
}
100
AcDbDictionary
281
1
  3
Model
350
343
  3
Layout1
350
344
  0
ACDBPLACEHOLDER
  5
F
102
{ACAD_REACTORS
330
E
102
}
  0
MLINESTYLE
  5
18
102
{ACAD_REACTORS
330
17
102
}
100
AcDbMlineStyle
  2
STANDARD
 70
0
  3

 62
256
 51
90.0
 52
90.0
 71
2
 49
0.5
 62
256
  6
BYLAYER
 49
-0.5
 62
256
  6
BYLAYER
  0
LAYOUT
  5
343
102
{ACAD_REACTORS
330
1A
102
}
100
AcDbPlotSettings
  1

  2
none_device
  4
ANSI_C_(22.00_x_17.00_Inches)
  6

 40
0.0
 41
0.0
 42
0.0
 43
0.0
 44
558.8
 45
431.8
 46
0.0
 47
0.0
 48
0.0
 49
0.0
140
0.0
141
0.0
142
1.0
143
1.0
 70
1024
 72
0
 73
0
 74
0
  7

 75
0
147
1.0
148
0.0
149
0.0
100
AcDbLayout
  1
Model
 70
0
 71
0
 10
0.0
 20
0.0
 11
22.0
 21
17.0
 12
0.0
 22
0.0
 32
0.0
 14
0.0
 24
0.0
 34
0.0
 15
0.0
 25
0.0
 35
0.0
146
0.0
 13
0.0
 23
0.0
 33
0.0
 16
1.0
 26
0.0
 36
0.0
 17
0.0
 27
1.0
 37
0.0
 76
0
330
216
345
0
346
0
  0
LAYOUT
  5
344
102
{ACAD_REACTORS
330
1A
102
}
100
AcDbPlotSettings
  1

  2
none_device
  4
ANSI_C_(22.00_x_17.00_Inches)
  6

 40
0.0
 41
0.0
 42
0.0
 43
0.0
 44
558.8
 45
431.8
 46
0.0
 47
0.0
 48
0.0
 49
0.0
140
0.0
141
0.0
142
1.0
143
1.0
 70
0
 72
0
 73
0
 74
0
  7

 75
0
147
1.0
148
0.0
149
0.0
100
AcDbLayout
  1
Layout1
 70
0
 71
1
 10
0.0
 20
0.0
 11
22.0
 21
17.0
 12
0.0
 22
0.0
 32
0.0
 14
0.0
 24
0.0
 34
0.0
 15
0.0
 25
0.0
 35
0.0
146
0.0
 13
0.0
 23
0.0
 33
0.0
 16
1.0
 26
0.0
 36
0.0
 17
0.0
 27
1.0
 37
0.0
 76
0
330
217
345
0
346
0
  0
ENDSEC
  0
EOF