999
DXF file: _cgs_temp_output.dxf
999
Pro/ENGINEER 2016360 by Parametric Technology Corporation
  0
SECTION
  2
HEADER
  9
$ACADVER
  1
AC1021
  9
$DWGCODEPAGE
  3
ANSI_1252
  9
$EXTMAX
 10
22.0
 20
17.0
 30
0.0
  9
$EXTMIN
 10
0.0
 20
0.0
 30
0.0
  9
$LIMMIN
 10
0.0
 20
0.0
  9
$LIMMAX
 10
22.0
 20
17.0
  9
$VIEWCTR
 10
11.0
 20
8.5
  9
$VIEWSIZE
 40
17.0
  9
$CLAYER
  8
0
  9
$LTSCALE
 40
1.21
  9
$CELTYPE
  6
BYLAYER
  9
$DIMSCALE
 40
1.0
  9
$DIMASZ
 40
0.1875
  9
$DIMEXO
 40
0.0625
  9
$DIMDLI
 40
0.836
  9
$DIMEXE
 40
0.125
  9
$DIMCEN
 40
0.198
  9
$DIMLFAC
 40
1.0
  9
$DIMBLK
  1
_CLOSED
  9
$DIMALT
 70
0
  9
$DIMALTF
 40
25.4
  9
$DIMTXT
 40
0.15625
  9
$DIMTOL
 70
0
  9
$DIMLIM
 70
0
  9
$DIMTFAC
 40
1.0
  9
$DIMGAP
 40
0.09
  9
$DIMDSEP
 70
46
  9
$AUNITS
 70
0
  9
$PDMODE
 70
3
  9
$PDSIZE
 40
0.3125
  9
$HANDSEED
  5
392
  9
$TILEMODE
 70
1
  9
$MEASUREMENT
 70
0
  9
$INSUNITS
 70
1
  0
ENDSEC
  0
SECTION
  2
CLASSES
  0
CLASS
  1
ACDBDICTIONARYWDFLT
  2
AcDbDictionaryWithDefault
  3
AutoCAD 2000
 90
0
 91
1
280
0
281
0
  0
CLASS
  1
ACDBPLACEHOLDER
  2
AcDbPlaceHolder
  3
AutoCAD 2000
 90
0
 91
1
280
0
281
0
  0
CLASS
  1
LAYOUT
  2
AcDbLayout
  3
AutoCAD 2000
 90
0
 91
0
280
0
281
0
  0
ENDSEC
  0
SECTION
  2
TABLES
  0
TABLE
  2
VPORT
  5
8
100
AcDbSymbolTable
 70
2
  0
VPORT
  5
1F4
100
AcDbSymbolTableRecord
100
AcDbViewportTableRecord
  2
*ACTIVE
 70
0
 10
0.0
 20
0.0
 11
1.0
 21
1.0
 12
11.0
 22
8.5
 13
0.0
 23
0.0
 14
1.0
 24
1.0
 15
0.0
 25
0.0
 16
0.0
 26
0.0
 36
1.0
 17
0.0
 27
0.0
 37
0.0
 40
17.0
 41
1.2941176471
 42
50.0
 43
0.0
 44
0.0
 50
0.0
 51
0.0
 71
0
 72
100
 73
1
 74
1
 75
0
 76
0
 77
0
 78
0
  0
ENDTAB
  0
TABLE
  2
LTYPE
  5
5
100
AcDbSymbolTable
 70
6
  0
LTYPE
  5
14
100
AcDbSymbolTableRecord
100
AcDbLinetypeTableRecord
  2
BYBLOCK
 70
0
  3

 72
65
 73
0
 40
0.0
  0
LTYPE
  5
15
100
AcDbSymbolTableRecord
100
AcDbLinetypeTableRecord
  2
BYLAYER
 70
0
  3

 72
65
 73
0
 40
0.0
  0
LTYPE
  5
16
100
AcDbSymbolTableRecord
100
AcDbLinetypeTableRecord
  2
CONTINUOUS
 70
64
  3
Solid line
 72
65
 73
0
 40
0.0
  0
LTYPE
  5
1F5
100
AcDbSymbolTableRecord
100
AcDbLinetypeTableRecord
  2
CENTER
 70
64
  3
____ _ ____ _ ____ _ ____ _ ____ _ ____ _ ____
 72
65
 73
4
 40
0.6
 49
0.375
 74
0
 49
-0.075
 74
0
 49
0.075
 74
0
 49
-0.075
 74
0
  0
LTYPE
  5
1F6
100
AcDbSymbolTableRecord
100
AcDbLinetypeTableRecord
  2
HIDDEN
 70
64
  3
- - - - - - - - - - - - - - - - - - - -
 72
65
 73
2
 40
0.2
 49
0.1
 74
0
 49
-0.1
 74
0
  0
LTYPE
  5
1F7
100
AcDbSymbolTableRecord
100
AcDbLinetypeTableRecord
  2
PHANTOM
 70
64
  3
_____ _ _ _____ _ _ _____ _ _ _____
 72
65
 73
6
 40
0.8
 49
0.45
 74
0
 49
-0.05
 74
0
 49
0.1
 74
0
 49
-0.05
 74
0
 49
0.1
 74
0
 49
-0.05
 74
0
  0
LTYPE
  5
1F8
100
AcDbSymbolTableRecord
100
AcDbLinetypeTableRecord
  2
DOT
 70
64
  3
. . . . . . . . . . . . . . . . . . . .
 72
65
 73
2
 40
0.2
 49
0.1
 74
0
 49
-0.1
 74
0
  0
LTYPE
  5
1F9
100
AcDbSymbolTableRecord
100
AcDbLinetypeTableRecord
  2
DASHED
 70
64
  3
- - - - - - - - - - - - - - - - - - - -
 72
65
 73
2
 40
0.2
 49
0.1
 74
0
 49
-0.1
 74
0
  0
ENDTAB
  0
TABLE
  2
LAYER
  5
2
100
AcDbSymbolTable
 70
36
  0
LAYER
  5
10
100
AcDbSymbolTableRecord
100
AcDbLayerTableRecord
  2
0
 70
0
 62
7
  6
CONTINUOUS
370
-3
390
F
  0
LAYER
  5
1FA
100
AcDbSymbolTableRecord
100
AcDbLayerTableRecord
  2
DEFAULT_1
 70
0
 62
7
  6
CENTER
370
-3
390
F
  0
LAYER
  5
1FB
100
AcDbSymbolTableRecord
100
AcDbLayerTableRecord
  2
DEFAULT_2
 70
0
 62
8
  6
HIDDEN
370
-3
390
F
  0
LAYER
  5
1FC
100
AcDbSymbolTableRecord
100
AcDbLayerTableRecord
  2
DEFAULT_3
 70
0
 62
7
  6
PHANTOM
370
-3
390
F
  0
LAYER
  5
1FD
100
AcDbSymbolTableRecord
100
AcDbLayerTableRecord
  2
01_ALL_DTM_PLN
 70
0
 62
7
  6
CONTINUOUS
370
-3
390
F
  0
LAYER
  5
1FE
100
AcDbSymbolTableRecord
100
AcDbLayerTableRecord
  2
01__ASM_ALL_DTM_PLN
 70
0
 62
7
  6
CONTINUOUS
370
-3
390
F
  0
LAYER
  5
1FF
100
AcDbSymbolTableRecord
100
AcDbLayerTableRecord
  2
01__ASM_DEF_DTM_PLN
 70
0
 62
7
  6
CONTINUOUS
370
-3
390
F
  0
LAYER
  5
200
100
AcDbSymbolTableRecord
100
AcDbLayerTableRecord
  2
01___PRT_ALL_DTM_PLN
 70
0
 62
7
  6
CONTINUOUS
370
-3
390
F
  0
LAYER
  5
201
100
AcDbSymbolTableRecord
100
AcDbLayerTableRecord
  2
01___PRT_DEF_DTM_PLN
 70
0
 62
7
  6
CONTINUOUS
370
-3
390
F
  0
LAYER
  5
202
100
AcDbSymbolTableRecord
100
AcDbLayerTableRecord
  2
02_ALL_AXES
 70
0
 62
7
  6
CONTINUOUS
370
-3
390
F
  0
LAYER
  5
203
100
AcDbSymbolTableRecord
100
AcDbLayerTableRecord
  2
02__ASM_ALL_AXES
 70
0
 62
7
  6
CONTINUOUS
370
-3
390
F
  0
LAYER
  5
204
100
AcDbSymbolTableRecord
100
AcDbLayerTableRecord
  2
02___PRT_ALL_AXES
 70
0
 62
7
  6
CONTINUOUS
370
-3
390
F
  0
LAYER
  5
205
100
AcDbSymbolTableRecord
100
AcDbLayerTableRecord
  2
03_ALL_CURVES
 70
0
 62
7
  6
CONTINUOUS
370
-3
390
F
  0
LAYER
  5
206
100
AcDbSymbolTableRecord
100
AcDbLayerTableRecord
  2
03__ASM_ALL_CURVES
 70
0
 62
7
  6
CONTINUOUS
370
-3
390
F
  0
LAYER
  5
207
100
AcDbSymbolTableRecord
100
AcDbLayerTableRecord
  2
03___PRT_ALL_CURVES
 70
0
 62
7
  6
CONTINUOUS
370
-3
390
F
  0
LAYER
  5
208
100
AcDbSymbolTableRecord
100
AcDbLayerTableRecord
  2
04_ALL_DTM_PNT
 70
0
 62
7
  6
CONTINUOUS
370
-3
390
F
  0
LAYER
  5
209
100
AcDbSymbolTableRecord
100
AcDbLayerTableRecord
  2
04__ASM_ALL_DTM_PNT
 70
0
 62
7
  6
CONTINUOUS
370
-3
390
F
  0
LAYER
  5
20A
100
AcDbSymbolTableRecord
100
AcDbLayerTableRecord
  2
04___PRT_ALL_DTM_PNT
 70
0
 62
7
  6
CONTINUOUS
370
-3
390
F
  0
LAYER
  5
20B
100
AcDbSymbolTableRecord
100
AcDbLayerTableRecord
  2
05_ALL_DTM_CSYS
 70
0
 62
7
  6
CONTINUOUS
370
-3
390
F
  0
LAYER
  5
20C
100
AcDbSymbolTableRecord
100
AcDbLayerTableRecord
  2
05__ASM_ALL_DTM_CSYS
 70
0
 62
7
  6
CONTINUOUS
370
-3
390
F
  0
LAYER
  5
20D
100
AcDbSymbolTableRecord
100
AcDbLayerTableRecord
  2
05__ASM_DEF_DTM_CSYS
 70
0
 62
7
  6
CONTINUOUS
370
-3
390
F
  0
LAYER
  5
20E
100
AcDbSymbolTableRecord
100
AcDbLayerTableRecord
  2
05___PRT_ALL_DTM_CSYS
 70
0
 62
7
  6
CONTINUOUS
370
-3
390
F
  0
LAYER
  5
20F
100
AcDbSymbolTableRecord
100
AcDbLayerTableRecord
  2
05___PRT_DEF_DTM_CSYS
 70
0
 62
7
  6
CONTINUOUS
370
-3
390
F
  0
LAYER
  5
210
100
AcDbSymbolTableRecord
100
AcDbLayerTableRecord
  2
06_ALL_SURFS
 70
0
 62
7
  6
CONTINUOUS
370
-3
390
F
  0
LAYER
  5
211
100
AcDbSymbolTableRecord
100
AcDbLayerTableRecord
  2
06__ASM_ALL_SURFS
 70
0
 62
7
  6
CONTINUOUS
370
-3
390
F
  0
LAYER
  5
212
100
AcDbSymbolTableRecord
100
AcDbLayerTableRecord
  2
06___PRT_ALL_SURFS
 70
0
 62
7
  6
CONTINUOUS
370
-3
390
F
  0
LAYER
  5
213
100
AcDbSymbolTableRecord
100
AcDbLayerTableRecord
  2
07__ASM_ALL_SKELETONS
 70
0
 62
7
  6
CONTINUOUS
370
-3
390
F
  0
ENDTAB
  0
TABLE
  2
STYLE
  5
3
100
AcDbSymbolTable
 70
1
  0
STYLE
  5
11
100
AcDbSymbolTableRecord
100
AcDbTextStyleTableRecord
  2
STANDARD
 70
0
 40
0.0
 41
0.8
 50
0.0
 71
0
 42
0.2
  3
txt
  4

  0
STYLE
  5
214
100
AcDbSymbolTableRecord
100
AcDbTextStyleTableRecord
  2
TEXTSTYLE_1
 70
0
 40
0.0
 41
0.8
 50
0.0
 71
0
 42
0.2
  3
gdt
  4

  0
ENDTAB
  0
TABLE
  2
VIEW
  5
6
100
AcDbSymbolTable
 70
0
  0
ENDTAB
  0
TABLE
  2
UCS
  5
7
100
AcDbSymbolTable
 70
0
  0
ENDTAB
  0
TABLE
  2
APPID
  5
9
100
AcDbSymbolTable
 70
1
  0
APPID
  5
215
100
AcDbSymbolTableRecord
100
AcDbRegAppTableRecord
  2
ACAD
 70
0
  0
ENDTAB
  0
TABLE
  2
BLOCK_RECORD
  5
1
100
AcDbSymbolTable
 70
0
  0
BLOCK_RECORD
  5
216
100
AcDbSymbolTableRecord
100
AcDbBlockTableRecord
  2
*Model_Space
  0
BLOCK_RECORD
  5
217
100
AcDbSymbolTableRecord
100
AcDbBlockTableRecord
  2
*Paper_Space
  0
ENDTAB
  0
TABLE
  2
DIMSTYLE
  5
A
100
AcDbSymbolTable
 70
1
100
AcDbDimStyleTable
 71
0
  0
DIMSTYLE
105
218
100
AcDbSymbolTableRecord
100
AcDbDimStyleTableRecord
  2
STANDARD
 70
0
  3

  4

 40
1.0
 41
0.1875
 42
0.0625
 43
0.38
 44
0.125
 45
0.0
 46
0.0
 47
0.0001
 48
0.0001
140
0.15625
141
0.09
142
0.0
143
25.4
144
1.0
145
0.0
146
1.0
147
0.09
 71
0.0
 72
0.0
 73
1
 74
1
 75
0
 76
0
 77
0
 78
4
 79
1
170
0
171
3
172
0
173
0
174
0
175
0
176
0
177
0
178
0
270
2
179
4
271
4
272
4
273
2
274
2
275
0
280
0
281
0
282
0
283
1
284
4
285
0
286
0
287
3
288
0
340
11
278
46
  0
ENDTAB
  0
ENDSEC
  0
SECTION
  2
BLOCKS
  0
BLOCK
  5
20
100
AcDbEntity
  8
0
100
AcDbBlockBegin
  2
*Model_Space
 70
0
 10
0.0
 20
0.0
 30
0.0
  3
*Model_Space
  1

  0
ENDBLK
  5
21
100
AcDbEntity
  8
0
100
AcDbBlockEnd
  0
BLOCK
  5
1C
100
AcDbEntity
  8
0
100
AcDbBlockBegin
  2
*Paper_Space
 70
0
 10
0.0
 20
0.0
 30
0.0
  3
*Paper_Space
  1

  0
ENDBLK
  5
1D
100
AcDbEntity
  8
0
100
AcDbBlockEnd
  0
ENDSEC
  0
SECTION
  2
ENTITIES
  0
MTEXT
  5
219
100
AcDbEntity
  8
0
100
AcDbMText
 62
7
  6
CONTINUOUS
  7
STANDARD
 71
1
 72
1
 10
15.9560215477
 20
0.9479130325
 30
0.0
 11
1.0
 21
0.0
 31
0.0
 44
0.9
  1
SCALE: 1:1.000
 40
0.3
 41
3.36
  0
LINE
  5
21A
100
AcDbEntity
  8
0
100
AcDbLine
 62
7
  6
CONTINUOUS
 10
0.0
 20
0.0
 11
0.0
 21
17.0
  0
LINE
  5
21B
100
AcDbEntity
  8
0
100
AcDbLine
 62
7
  6
CONTINUOUS
 10
0.0
 20
0.0
 11
22.0
 21
0.0
  0
LINE
  5
21C
100
AcDbEntity
  8
0
100
AcDbLine
 62
7
  6
CONTINUOUS
 10
0.0
 20
17.0
 11
22.0
 21
17.0
  0
LINE
  5
21D
100
AcDbEntity
  8
0
100
AcDbLine
 62
7
  6
CONTINUOUS
 10
22.0
 20
0.0
 11
22.0
 21
17.0
  0
LINE
  5
21E
100
AcDbEntity
  8
0
100
AcDbLine
 62
7
  6
CONTINUOUS
 10
5.6278672762
 20
7.4025775945
 11
5.6852455615
 21
7.4201198968
  0
LINE
  5
21F
100
AcDbEntity
  8
0
100
AcDbLine
 62
7
  6
CONTINUOUS
 10
5.6852455615
 20
3.6201198968
 11
5.6278672762
 21
3.637662199
  0
LINE
  5
220
100
AcDbEntity
  8
0
100
AcDbLine
 62
7
  6
CONTINUOUS
 10
5.7178672762
 20
3.7462007673
 11
6.5428672762
 21
3.7462007673
  0
LINE
  5
221
100
AcDbEntity
  8
0
100
AcDbLine
 62
7
  6
CONTINUOUS
 10
5.7178672762
 20
3.8045226256
 11
6.5428672762
 21
3.8045226256
  0
LINE
  5
222
100
AcDbEntity
  8
0
100
AcDbLine
 62
7
  6
CONTINUOUS
 10
5.7178672762
 20
3.9374017968
 11
6.5428672762
 21
3.9374017968
  0
LINE
  5
223
100
AcDbEntity
  8
0
100
AcDbLine
 62
7
  6
CONTINUOUS
 10
5.7178672762
 20
4.1390162957
 11
6.5428672762
 21
4.1390162957
  0
LINE
  5
224
100
AcDbEntity
  8
0
100
AcDbLine
 62
7
  6
CONTINUOUS
 10
5.7178672762
 20
4.4005546013
 11
6.5428672762
 21
4.4005546013
  0
LINE
  5
225
100
AcDbEntity
  8
0
100
AcDbLine
 62
7
  6
CONTINUOUS
 10
5.7178672762
 20
4.7105862346
 11
6.5428672762
 21
4.7105862346
  0
LINE
  5
226
100
AcDbEntity
  8
0
100
AcDbLine
 62
7
  6
CONTINUOUS
 10
5.6278672762
 20
7.4025775945
 11
5.6278672762
 21
3.637662199
  0
LINE
  5
227
100
AcDbEntity
  8
0
100
AcDbLine
 62
7
  6
CONTINUOUS
 10
5.6852455615
 20
7.4201198968
 11
5.6852455615
 21
3.6201198968
  0
LINE
  5
228
100
AcDbEntity
  8
0
100
AcDbLine
 62
7
  6
CONTINUOUS
 10
5.7178672762
 20
7.313419076
 11
5.7178672762
 21
3.7268207175
  0
LINE
  5
229
100
AcDbEntity
  8
0
100
AcDbLine
 62
7
  6
CONTINUOUS
 10
5.7563672762
 20
5.5822990307
 11
5.7563672762
 21
5.2722990307
  0
LINE
  5
22A
100
AcDbEntity
  8
0
100
AcDbLine
 62
6
  6
CONTINUOUS
 10
5.7563672762
 20
5.2397990307
 11
5.7563672762
 21
5.2722990307
  0
LINE
  5
22B
100
AcDbEntity
  8
0
100
AcDbLine
 62
6
  6
CONTINUOUS
 10
5.7563672762
 20
5.5822990307
 11
5.7563672762
 21
5.6147990307
  0
LINE
  5
22C
100
AcDbEntity
  8
0
100
AcDbLine
 62
6
  6
CONTINUOUS
 10
5.7563672762
 20
5.2397990307
 11
6.6303672762
 21
5.2397990307
  0
LINE
  5
22D
100
AcDbEntity
  8
0
100
AcDbLine
 62
7
  6
CONTINUOUS
 10
6.5754889908
 20
7.4201198968
 11
6.5428672762
 21
7.313419076
  0
LINE
  5
22E
100
AcDbEntity
  8
0
100
AcDbLine
 62
7
  6
CONTINUOUS
 10
6.5428672762
 20
3.7268207175
 11
6.5754889908
 21
3.6201198968
  0
LINE
  5
22F
100
AcDbEntity
  8
0
100
AcDbLine
 62
7
  6
CONTINUOUS
 10
5.6852455615
 20
3.6201198968
 11
5.7178672762
 21
3.7268207175
  0
LINE
  5
230
100
AcDbEntity
  8
0
100
AcDbLine
 62
6
  6
CONTINUOUS
 10
5.7563672762
 20
5.6147990307
 11
6.6303672762
 21
5.6147990307
  0
LINE
  5
231
100
AcDbEntity
  8
0
100
AcDbLine
 62
7
  6
CONTINUOUS
 10
5.7178672762
 20
7.313419076
 11
5.6852455615
 21
7.4201198968
  0
LINE
  5
232
100
AcDbEntity
  8
0
100
AcDbLine
 62
7
  6
CONTINUOUS
 10
6.5428672762
 20
3.7268207175
 11
6.5428672762
 21
7.313419076
  0
LINE
  5
233
100
AcDbEntity
  8
0
100
AcDbLine
 62
7
  6
CONTINUOUS
 10
6.5754889908
 20
3.6201198968
 11
6.5754889908
 21
7.4201198968
  0
LINE
  5
234
100
AcDbEntity
  8
0
100
AcDbLine
 62
7
  6
CONTINUOUS
 10
6.6303672762
 20
5.6147990307
 11
6.6303672762
 21
5.2397990307
  0
LINE
  5
235
100
AcDbEntity
  8
0
100
AcDbLine
 62
7
  6
CONTINUOUS
 10
6.6328672762
 20
3.637662199
 11
6.6328672762
 21
7.4025775945
  0
LINE
  5
236
100
AcDbEntity
  8
0
100
AcDbLine
 62
7
  6
CONTINUOUS
 10
6.5428672762
 20
6.3296535589
 11
5.7178672762
 21
6.3296535589
  0
LINE
  5
237
100
AcDbEntity
  8
0
100
AcDbLine
 62
7
  6
CONTINUOUS
 10
6.5428672762
 20
6.6396851922
 11
5.7178672762
 21
6.6396851922
  0
LINE
  5
238
100
AcDbEntity
  8
0
100
AcDbLine
 62
7
  6
CONTINUOUS
 10
6.5428672762
 20
6.9012234978
 11
5.7178672762
 21
6.9012234978
  0
LINE
  5
239
100
AcDbEntity
  8
0
100
AcDbLine
 62
7
  6
CONTINUOUS
 10
6.5428672762
 20
7.1028379967
 11
5.7178672762
 21
7.1028379967
  0
LINE
  5
23A
100
AcDbEntity
  8
0
100
AcDbLine
 62
7
  6
CONTINUOUS
 10
6.5428672762
 20
7.2357171679
 11
5.7178672762
 21
7.2357171679
  0
LINE
  5
23B
100
AcDbEntity
  8
0
100
AcDbLine
 62
7
  6
CONTINUOUS
 10
6.6328672762
 20
3.637662199
 11
6.5754889908
 21
3.6201198968
  0
LINE
  5
23C
100
AcDbEntity
  8
0
100
AcDbLine
 62
7
  6
CONTINUOUS
 10
6.5428672762
 20
7.2940390262
 11
5.7178672762
 21
7.2940390262
  0
LINE
  5
23D
100
AcDbEntity
  8
0
100
AcDbLine
 62
7
  6
CONTINUOUS
 10
6.5754889908
 20
7.4201198968
 11
6.6328672762
 21
7.4025775945
  0
LINE
  5
23E
100
AcDbEntity
  8
0
100
AcDbLine
 62
7
  6
CONTINUOUS
 10
5.5683720839
 20
14.4825054791
 11
5.6257503692
 21
14.5000477814
  0
LINE
  5
23F
100
AcDbEntity
  8
0
100
AcDbLine
 62
7
  6
CONTINUOUS
 10
5.5683720839
 20
10.7175900837
 11
5.6257503692
 21
10.7000477814
  0
LINE
  5
240
100
AcDbEntity
  8
0
100
AcDbLine
 62
7
  6
CONTINUOUS
 10
6.4833720839
 20
10.8235477814
 11
5.6583720839
 21
10.8235477814
  0
LINE
  5
241
100
AcDbEntity
  8
0
100
AcDbLine
 62
7
  6
CONTINUOUS
 10
5.6583720839
 20
10.845726744
 11
6.4833720839
 21
10.845726744
  0
LINE
  5
242
100
AcDbEntity
  8
0
100
AcDbLine
 62
7
  6
CONTINUOUS
 10
5.6583720839
 20
10.941861157
 11
6.4833720839
 21
10.941861157
  0
LINE
  5
243
100
AcDbEntity
  8
0
100
AcDbLine
 62
7
  6
CONTINUOUS
 10
5.6583720839
 20
11.1100292344
 11
6.4833720839
 21
11.1100292344
  0
LINE
  5
244
100
AcDbEntity
  8
0
100
AcDbLine
 62
7
  6
CONTINUOUS
 10
5.6583720839
 20
11.3428812243
 11
6.4833720839
 21
11.3428812243
  0
LINE
  5
245
100
AcDbEntity
  8
0
100
AcDbLine
 62
6
  6
CONTINUOUS
 10
5.6968720839
 20
11.3516004279
 11
6.5708720839
 21
11.3516004279
  0
LINE
  5
246
100
AcDbEntity
  8
0
100
AcDbLine
 62
7
  6
CONTINUOUS
 10
5.6583720839
 20
11.6302403772
 11
6.4833720839
 21
11.6302403772
  0
LINE
  5
247
100
AcDbEntity
  8
0
100
AcDbLine
 62
6
  6
CONTINUOUS
 10
5.6968720839
 20
11.7266004279
 11
6.5708720839
 21
11.7266004279
  0
LINE
  5
248
100
AcDbEntity
  8
0
100
AcDbLine
 62
7
  6
CONTINUOUS
 10
5.6583720839
 20
11.9595477194
 11
6.4833720839
 21
11.9595477194
  0
LINE
  5
249
100
AcDbEntity
  8
0
100
AcDbLine
 62
7
  6
CONTINUOUS
 10
5.5683720839
 20
14.4825054791
 11
5.5683720839
 21
10.7175900837
  0
LINE
  5
24A
100
AcDbEntity
  8
0
100
AcDbLine
 62
7
  6
CONTINUOUS
 10
5.6257503692
 20
14.5000477814
 11
5.6257503692
 21
10.7000477814
  0
LINE
  5
24B
100
AcDbEntity
  8
0
100
AcDbLine
 62
7
  6
CONTINUOUS
 10
5.6583720839
 20
14.3933317606
 11
5.6583720839
 21
10.8067638021
  0
LINE
  5
24C
100
AcDbEntity
  8
0
100
AcDbLine
 62
6
  6
CONTINUOUS
 10
5.6968720839
 20
11.3516004279
 11
5.6968720839
 21
11.3841020193
  0
LINE
  5
24D
100
AcDbEntity
  8
0
100
AcDbLine
 62
7
  6
CONTINUOUS
 10
5.6968720839
 20
11.3841020193
 11
5.6968720839
 21
11.6940988365
  0
LINE
  5
24E
100
AcDbEntity
  8
0
100
AcDbLine
 62
6
  6
CONTINUOUS
 10
5.6968720839
 20
11.6940988365
 11
5.6968720839
 21
11.7266004279
  0
LINE
  5
24F
100
AcDbEntity
  8
0
100
AcDbLine
 62
6
  6
CONTINUOUS
 10
5.6968720839
 20
13.4734951348
 11
5.6968720839
 21
13.5059967262
  0
LINE
  5
250
100
AcDbEntity
  8
0
100
AcDbLine
 62
7
  6
CONTINUOUS
 10
5.6968720839
 20
13.5059967262
 11
5.6968720839
 21
13.8159935434
  0
LINE
  5
251
100
AcDbEntity
  8
0
100
AcDbLine
 62
6
  6
CONTINUOUS
 10
5.6968720839
 20
13.8159935434
 11
5.6968720839
 21
13.8484951348
  0
LINE
  5
252
100
AcDbEntity
  8
0
100
AcDbLine
 62
7
  6
CONTINUOUS
 10
6.5159937985
 20
14.5000477814
 11
6.4833720839
 21
14.3933469606
  0
LINE
  5
253
100
AcDbEntity
  8
0
100
AcDbLine
 62
7
  6
CONTINUOUS
 10
6.5159937985
 20
10.7000477814
 11
6.4833720839
 21
10.8067486021
  0
LINE
  5
254
100
AcDbEntity
  8
0
100
AcDbLine
 62
7
  6
CONTINUOUS
 10
5.6257503692
 20
10.7000477814
 11
5.6583720839
 21
10.8067486021
  0
LINE
  5
255
100
AcDbEntity
  8
0
100
AcDbLine
 62
7
  6
CONTINUOUS
 10
5.6257503692
 20
14.5000477814
 11
5.6583720839
 21
14.3933469606
  0
LINE
  5
256
100
AcDbEntity
  8
0
100
AcDbLine
 62
7
  6
CONTINUOUS
 10
6.4833720839
 20
10.8067638021
 11
6.4833720839
 21
14.3933317606
  0
LINE
  5
257
100
AcDbEntity
  8
0
100
AcDbLine
 62
7
  6
CONTINUOUS
 10
6.5159937985
 20
10.7000477814
 11
6.5159937985
 21
14.5000477814
  0
LINE
  5
258
100
AcDbEntity
  8
0
100
AcDbLine
 62
7
  6
CONTINUOUS
 10
6.5708720839
 20
11.3516004279
 11
6.5708720839
 21
11.7266004279
  0
LINE
  5
259
100
AcDbEntity
  8
0
100
AcDbLine
 62
7
  6
CONTINUOUS
 10
6.5708720839
 20
13.4734951348
 11
6.5708720839
 21
13.8484951348
  0
LINE
  5
25A
100
AcDbEntity
  8
0
100
AcDbLine
 62
7
  6
CONTINUOUS
 10
6.5733720839
 20
10.7175900837
 11
6.5733720839
 21
14.4825054791
  0
LINE
  5
25B
100
AcDbEntity
  8
0
100
AcDbLine
 62
7
  6
CONTINUOUS
 10
6.4833720839
 20
13.2405478433
 11
5.6583720839
 21
13.2405478433
  0
LINE
  5
25C
100
AcDbEntity
  8
0
100
AcDbLine
 62
6
  6
CONTINUOUS
 10
5.6968720839
 20
13.4734951348
 11
6.5708720839
 21
13.4734951348
  0
LINE
  5
25D
100
AcDbEntity
  8
0
100
AcDbLine
 62
7
  6
CONTINUOUS
 10
6.4833720839
 20
13.5698551855
 11
5.6583720839
 21
13.5698551855
  0
LINE
  5
25E
100
AcDbEntity
  8
0
100
AcDbLine
 62
6
  6
CONTINUOUS
 10
5.6968720839
 20
13.8484951348
 11
6.5708720839
 21
13.8484951348
  0
LINE
  5
25F
100
AcDbEntity
  8
0
100
AcDbLine
 62
7
  6
CONTINUOUS
 10
6.4833720839
 20
13.8572143385
 11
5.6583720839
 21
13.8572143385
  0
LINE
  5
260
100
AcDbEntity
  8
0
100
AcDbLine
 62
7
  6
CONTINUOUS
 10
6.4833720839
 20
14.0900663283
 11
5.6583720839
 21
14.0900663283
  0
LINE
  5
261
100
AcDbEntity
  8
0
100
AcDbLine
 62
7
  6
CONTINUOUS
 10
6.4833720839
 20
14.2582344057
 11
5.6583720839
 21
14.2582344057
  0
LINE
  5
262
100
AcDbEntity
  8
0
100
AcDbLine
 62
7
  6
CONTINUOUS
 10
6.5733720839
 20
10.7175900837
 11
6.5159937985
 21
10.7000477814
  0
LINE
  5
263
100
AcDbEntity
  8
0
100
AcDbLine
 62
7
  6
CONTINUOUS
 10
6.4833720839
 20
14.3543688188
 11
5.6583720839
 21
14.3543688188
  0
LINE
  5
264
100
AcDbEntity
  8
0
100
AcDbLine
 62
7
  6
CONTINUOUS
 10
6.4833720839
 20
14.3765477814
 11
5.6583720839
 21
14.3765477814
  0
LINE
  5
265
100
AcDbEntity
  8
0
100
AcDbLine
 62
7
  6
CONTINUOUS
 10
6.5733720839
 20
14.4825054791
 11
6.5159937985
 21
14.5000477814
  0
LINE
  5
266
100
AcDbEntity
  8
0
100
AcDbLine
 62
7
  6
CONTINUOUS
 10
14.9135228941
 20
14.3774700459
 11
14.9654887757
 21
14.3948651792
  0
LINE
  5
267
100
AcDbEntity
  8
0
100
AcDbLine
 62
7
  6
CONTINUOUS
 10
14.9135228941
 20
10.6441399399
 11
14.9654887757
 21
10.6267448066
  0
LINE
  5
268
100
AcDbEntity
  8
0
100
AcDbLine
 62
7
  6
CONTINUOUS
 10
14.8698888326
 20
14.1939707892
 11
14.8711344695
 21
14.1944923041
  0
LINE
  5
269
100
AcDbEntity
  8
0
100
AcDbLine
 62
7
  6
CONTINUOUS
 10
15.621973789
 20
10.7343049929
 11
15.0911748084
 21
10.7343049929
  0
LINE
  5
26A
100
AcDbEntity
  8
0
100
AcDbLine
 62
7
  6
CONTINUOUS
 10
14.9537621857
 20
10.7699179452
 11
14.9529842867
 21
10.7701086253
  0
LINE
  5
26B
100
AcDbEntity
  8
0
100
AcDbLine
 62
7
  6
CONTINUOUS
 10
14.9537621674
 20
10.7699070851
 11
15.588962748
 21
10.7699070851
  0
LINE
  5
26C
100
AcDbEntity
  8
0
100
AcDbLine
 62
7
  6
CONTINUOUS
 10
14.8166234616
 20
10.8810964031
 11
15.5040943103
 21
10.8810964031
  0
LINE
  5
26D
100
AcDbEntity
  8
0
100
AcDbLine
 62
7
  6
CONTINUOUS
 10
15.8562586808
 20
10.731109537
 11
15.8575297874
 21
10.7308767424
  0
LINE
  5
26E
100
AcDbEntity
  8
0
100
AcDbLine
 62
7
  6
CONTINUOUS
 10
14.8166234621
 20
10.8810969218
 11
14.8150692508
 21
10.8819273762
  0
LINE
  5
26F
100
AcDbEntity
  8
0
100
AcDbLine
 62
7
  6
CONTINUOUS
 10
15.9063137889
 20
10.9790549929
 11
15.8926915686
 21
10.9790549929
  0
LINE
  5
270
100
AcDbEntity
  8
0
100
AcDbLine
 62
7
  6
CONTINUOUS
 10
15.8563058505
 20
10.7327862503
 11
15.857570978
 21
10.7323792878
  0
LINE
  5
271
100
AcDbEntity
  8
0
100
AcDbLine
 62
7
  6
CONTINUOUS
 10
14.6165187838
 20
13.82396221
 11
14.6150317562
 21
13.8207810739
  0
LINE
  5
272
100
AcDbEntity
  8
0
100
AcDbLine
 62
7
  6
CONTINUOUS
 10
14.7327204585
 20
14.0452549637
 11
14.731536914
 21
14.0433596023
  0
LINE
  5
273
100
AcDbEntity
  8
0
100
AcDbLine
 62
7
  6
CONTINUOUS
 10
14.7319330586
 20
14.0486254845
 11
14.7307351841
 21
14.0467759572
  0
LINE
  5
274
100
AcDbEntity
  8
0
100
AcDbLine
 62
7
  6
CONTINUOUS
 10
14.6914839671
 20
11.0630747587
 11
15.4040264212
 21
11.0630747587
  0
LINE
  5
275
100
AcDbEntity
  8
0
100
AcDbLine
 62
7
  6
CONTINUOUS
 10
14.7519704309
 20
11.0542704349
 11
14.7465749144
 21
11.0630747587
  0
LINE
  5
276
100
AcDbEntity
  8
0
100
AcDbLine
 62
7
  6
CONTINUOUS
 10
14.616085598
 20
13.8251606225
 11
14.6146698698
 21
13.8217766853
  0
LINE
  5
277
100
AcDbEntity
  8
0
100
AcDbLine
 62
7
  6
CONTINUOUS
 10
14.6710000537
 20
13.8199719357
 11
14.6841700162
 21
13.8479163337
  0
LINE
  5
278
100
AcDbEntity
  8
0
100
AcDbLine
 62
7
  6
CONTINUOUS
 10
14.5838128802
 20
11.3078888245
 11
15.3089281373
 21
11.3078888245
  0
LINE
  5
279
100
AcDbEntity
  8
0
100
AcDbLine
 62
7
  6
CONTINUOUS
 10
14.6414550846
 20
11.267201505
 11
14.6252944092
 21
11.3078888245
  0
LINE
  5
27A
100
AcDbEntity
  8
0
100
AcDbLine
 62
7
  6
CONTINUOUS
 10
14.4426900865
 20
12.1835123619
 11
14.4367367242
 21
12.274224846
  0
LINE
  5
27B
100
AcDbEntity
  8
0
100
AcDbLine
 62
7
  6
CONTINUOUS
 10
14.4303619081
 20
12.5368925456
 11
14.4318831434
 21
12.6288012633
  0
LINE
  5
27C
100
AcDbEntity
  8
0
100
AcDbLine
 62
7
  6
CONTINUOUS
 10
14.4469144244
 20
12.889132578
 11
14.455843772
 21
12.9782206774
  0
LINE
  5
27D
100
AcDbEntity
  8
0
100
AcDbLine
 62
7
  6
CONTINUOUS
 10
14.4916242109
 20
13.2248378795
 11
14.5075714156
 21
13.3072117831
  0
LINE
  5
27E
100
AcDbEntity
  8
0
100
AcDbLine
 62
7
  6
CONTINUOUS
 10
14.5666737486
 20
13.5427222787
 11
14.5848053278
 21
13.6013960905
  0
LINE
  5
27F
100
AcDbEntity
  8
0
100
AcDbLine
 62
6
  6
CONTINUOUS
 10
14.8981302818
 20
11.4345380057
 11
15.7031375905
 21
11.4345380057
  0
LINE
  5
280
100
AcDbEntity
  8
0
100
AcDbLine
 62
7
  6
CONTINUOUS
 10
14.5505946483
 20
11.5344840151
 11
14.5324150519
 21
11.6048390511
  0
LINE
  5
281
100
AcDbEntity
  8
0
100
AcDbLine
 62
7
  6
CONTINUOUS
 10
14.483360159
 20
11.8444364367
 11
14.4701923896
 21
11.9299881164
  0
LINE
  5
282
100
AcDbEntity
  8
0
100
AcDbLine
 62
7
  6
CONTINUOUS
 10
14.4983159443
 20
11.6048390511
 11
15.232665787
 21
11.6048390511
  0
LINE
  5
283
100
AcDbEntity
  8
0
100
AcDbLine
 62
7
  6
CONTINUOUS
 10
15.5039520436
 20
14.0354038217
 11
15.5051928972
 21
14.0373949992
  0
LINE
  5
284
100
AcDbEntity
  8
0
100
AcDbLine
 62
7
  6
CONTINUOUS
 10
15.5229931488
 20
13.9948900033
 11
15.5221150178
 21
13.9934837576
  0
LINE
  5
285
100
AcDbEntity
  8
0
100
AcDbLine
 62
7
  6
CONTINUOUS
 10
15.5714004596
 20
10.8746826992
 11
15.5706744772
 21
10.8757449508
  0
LINE
  5
286
100
AcDbEntity
  8
0
100
AcDbLine
 62
7
  6
CONTINUOUS
 10
15.5721938603
 20
10.8782631171
 11
15.5714761977
 21
10.8793533453
  0
LINE
  5
287
100
AcDbEntity
  8
0
100
AcDbLine
 62
7
  6
CONTINUOUS
 10
15.023279428
 20
10.7499809875
 11
15.021691383
 21
10.7699070851
  0
LINE
  5
288
100
AcDbEntity
  8
0
100
AcDbLine
 62
7
  6
CONTINUOUS
 10
14.8054390762
 20
14.0563613627
 11
14.8022909256
 21
14.1172237539
  0
LINE
  5
289
100
AcDbEntity
  8
0
100
AcDbLine
 62
7
  6
CONTINUOUS
 10
14.8821986479
 20
10.8247087762
 11
14.8823649026
 21
10.8810964031
  0
LINE
  5
28A
100
AcDbEntity
  8
0
100
AcDbLine
 62
7
  6
CONTINUOUS
 10
14.9374028699
 20
14.1944961717
 11
14.9386668257
 21
14.2363556731
  0
LINE
  5
28B
100
AcDbEntity
  8
0
100
AcDbLine
 62
7
  6
CONTINUOUS
 10
14.7502511289
 20
10.9731270603
 11
14.7553990309
 21
11.0330839725
  0
LINE
  5
28C
100
AcDbEntity
  8
0
100
AcDbLine
 62
7
  6
CONTINUOUS
 10
15.0811715945
 20
14.2754022445
 11
15.0817080565
 21
14.2800727474
  0
LINE
  5
28D
100
AcDbEntity
  8
0
100
AcDbLine
 62
7
  6
CONTINUOUS
 10
14.6332036105
 20
11.1887492487
 11
14.6430934076
 21
11.2446474772
  0
LINE
  5
28E
100
AcDbEntity
  8
0
100
AcDbLine
 62
7
  6
CONTINUOUS
 10
14.5361716311
 20
11.462151617
 11
14.5503710915
 21
11.511548141
  0
LINE
  5
28F
100
AcDbEntity
  8
0
100
AcDbLine
 62
7
  6
CONTINUOUS
 10
14.4633959538
 20
11.7813851698
 11
14.481284493
 21
11.8221211242
  0
LINE
  5
290
100
AcDbEntity
  8
0
100
AcDbLine
 62
7
  6
CONTINUOUS
 10
15.4991605521
 20
13.9567243004
 11
15.4971465744
 21
13.9524158758
  0
LINE
  5
291
100
AcDbEntity
  8
0
100
AcDbLine
 62
7
  6
CONTINUOUS
 10
15.4991605521
 20
13.9567243004
 11
15.4970437459
 21
13.9527781781
  0
LINE
  5
292
100
AcDbEntity
  8
0
100
AcDbLine
 62
7
  6
CONTINUOUS
 10
15.5039520436
 20
14.0354038217
 11
15.5051353535
 21
14.0375998935
  0
LINE
  5
293
100
AcDbEntity
  8
0
100
AcDbLine
 62
7
  6
CONTINUOUS
 10
15.5222446808
 20
13.9977879576
 11
15.5213813547
 21
13.996315217
  0
LINE
  5
294
100
AcDbEntity
  8
0
100
AcDbLine
 62
7
  6
CONTINUOUS
 10
14.4180572248
 20
12.1324978691
 11
14.4388530278
 21
12.1627928972
  0
LINE
  5
295
100
AcDbEntity
  8
0
100
AcDbLine
 62
7
  6
CONTINUOUS
 10
14.4021369642
 20
12.5001444049
 11
14.4249311547
 21
12.5186744687
  0
LINE
  5
296
100
AcDbEntity
  8
0
100
AcDbLine
 62
6
  6
CONTINUOUS
 10
14.8981302818
 20
11.8095380057
 11
15.7031375905
 21
11.8095380057
  0
LINE
  5
297
100
AcDbEntity
  8
0
100
AcDbLine
 62
7
  6
CONTINUOUS
 10
14.4304671284
 20
12.2905704006
 11
14.4069533711
 21
12.3016893464
  0
LINE
  5
298
100
AcDbEntity
  8
0
100
AcDbLine
 62
7
  6
CONTINUOUS
 10
14.4270739651
 20
12.6481369854
 11
14.404974281
 21
12.6715670254
  0
LINE
  5
299
100
AcDbEntity
  8
0
100
AcDbLine
 62
7
  6
CONTINUOUS
 10
14.4527051953
 20
12.9997015031
 11
14.4329854467
 21
13.0344186321
  0
LINE
  5
29A
100
AcDbEntity
  8
0
100
AcDbLine
 62
7
  6
CONTINUOUS
 10
15.4786160834
 20
11.1045432243
 11
15.4793375639
 21
11.1030981884
  0
LINE
  5
29B
100
AcDbEntity
  8
0
100
AcDbLine
 62
7
  6
CONTINUOUS
 10
15.4796018178
 20
11.1077842609
 11
15.4803170372
 21
11.106327389
  0
LINE
  5
29C
100
AcDbEntity
  8
0
100
AcDbLine
 62
7
  6
CONTINUOUS
 10
14.5062406113
 20
13.3298988974
 11
14.4897626459
 21
13.3743858103
  0
LINE
  5
29D
100
AcDbEntity
  8
0
100
AcDbLine
 62
7
  6
CONTINUOUS
 10
14.5853404585
 20
13.6242979576
 11
14.5728244425
 21
13.6766103627
  0
LINE
  5
29E
100
AcDbEntity
  8
0
100
AcDbLine
 62
7
  6
CONTINUOUS
 10
14.6865476941
 20
13.8700320321
 11
14.6785406374
 21
13.9278836264
  0
LINE
  5
29F
100
AcDbEntity
  8
0
100
AcDbLine
 62
7
  6
CONTINUOUS
 10
14.4388362212
 20
11.9409510246
 11
15.1761552035
 21
11.9409510246
  0
LINE
  5
2A0
100
AcDbEntity
  8
0
100
AcDbLine
 62
7
  6
CONTINUOUS
 10
15.3621342862
 20
11.3328718057
 11
15.3618530517
 21
11.3337726658
  0
LINE
  5
2A1
100
AcDbEntity
  8
0
100
AcDbLine
 62
7
  6
CONTINUOUS
 10
15.3627742181
 20
11.3341900175
 11
15.3625104654
 21
11.3351251873
  0
LINE
  5
2A2
100
AcDbEntity
  8
0
100
AcDbLine
 62
7
  6
CONTINUOUS
 10
14.4163309638
 20
12.8682568597
 11
14.4401273262
 21
12.8742121063
  0
LINE
  5
2A3
100
AcDbEntity
  8
0
100
AcDbLine
 62
6
  6
CONTINUOUS
 10
15.4117695321
 20
13.096675229
 11
16.2167768409
 21
13.096675229
  0
LINE
  5
2A4
100
AcDbEntity
  8
0
100
AcDbLine
 62
7
  6
CONTINUOUS
 10
15.195500891
 20
13.2208099327
 11
14.4595825144
 21
13.2208099327
  0
LINE
  5
2A5
100
AcDbEntity
  8
0
100
AcDbLine
 62
7
  6
CONTINUOUS
 10
15.6401548848
 20
13.347967638
 11
15.5718619768
 21
13.345318059
  0
LINE
  5
2A6
100
AcDbEntity
  8
0
100
AcDbLine
 62
6
  6
CONTINUOUS
 10
15.4117695321
 20
13.471675229
 11
16.2167768409
 21
13.471675229
  0
LINE
  5
2A7
100
AcDbEntity
  8
0
100
AcDbLine
 62
7
  6
CONTINUOUS
 10
15.2615699428
 20
13.5427222787
 11
14.5300599595
 21
13.5427222787
  0
LINE
  5
2A8
100
AcDbEntity
  8
0
100
AcDbLine
 62
7
  6
CONTINUOUS
 10
15.3469860098
 20
13.8199719357
 11
14.625060816
 21
13.8199719357
  0
LINE
  5
2A9
100
AcDbEntity
  8
0
100
AcDbLine
 62
7
  6
CONTINUOUS
 10
15.1755015338
 20
10.734183684
 11
15.1758183117
 21
10.7343049929
  0
LINE
  5
2AA
100
AcDbEntity
  8
0
100
AcDbLine
 62
7
  6
CONTINUOUS
 10
15.1756677805
 20
10.7306816411
 11
15.1759862155
 21
10.7307815143
  0
LINE
  5
2AB
100
AcDbEntity
  8
0
100
AcDbLine
 62
7
  6
CONTINUOUS
 10
15.442814432
 20
14.0404417631
 11
14.7404330907
 21
14.0404417631
  0
LINE
  5
2AC
100
AcDbEntity
  8
0
100
AcDbLine
 62
7
  6
CONTINUOUS
 10
15.9063137874
 20
14.0425549929
 11
15.8794374657
 21
14.0425549929
  0
LINE
  5
2AD
100
AcDbEntity
  8
0
100
AcDbLine
 62
7
  6
CONTINUOUS
 10
15.850985212
 20
14.2894709305
 11
15.8503104486
 21
14.2893316692
  0
LINE
  5
2AE
100
AcDbEntity
  8
0
100
AcDbLine
 62
7
  6
CONTINUOUS
 10
15.0110013513
 20
14.2753348641
 11
15.011452641
 21
14.2753901929
  0
LWPOLYLINE
  5
2AF
100
AcDbEntity
  8
0
100
AcDbPolyline
 62
7
  6
CONTINUOUS
 90
3
 70
0
 10
15.8509856495
 20
14.2894568679
 10
15.8509049222
 20
14.2894544491
 10
15.8503137112
 20
14.2892280596
  0
LINE
  5
2B0
100
AcDbEntity
  8
0
100
AcDbLine
 62
7
  6
CONTINUOUS
 10
15.5392080398
 20
14.1944961717
 11
14.8711344615
 21
14.1944961717
  0
LINE
  5
2B1
100
AcDbEntity
  8
0
100
AcDbLine
 62
7
  6
CONTINUOUS
 10
15.6093949834
 20
14.2754022445
 11
15.0114526513
 21
14.2754022445
  0
LINE
  5
2B2
100
AcDbEntity
  8
0
100
AcDbLine
 62
7
  6
CONTINUOUS
 10
15.0854107054
 20
14.2872433273
 11
15.6196672582
 21
14.2872433273
  0
LINE
  5
2B3
100
AcDbEntity
  8
0
100
AcDbLine
 62
7
  6
CONTINUOUS
 10
16.0287020428
 20
10.6441399399
 11
15.9767361613
 21
10.6267448066
  0
LINE
  5
2B4
100
AcDbEntity
  8
0
100
AcDbLine
 62
7
  6
CONTINUOUS
 10
15.9750759189
 20
14.3902973271
 11
15.975613934
 21
14.3902191774
  0
LINE
  5
2B5
100
AcDbEntity
  8
0
100
AcDbLine
 62
7
  6
CONTINUOUS
 10
15.9750759189
 20
14.3902973271
 11
15.9756128193
 21
14.3901689014
  0
LINE
  5
2B6
100
AcDbEntity
  8
0
100
AcDbLine
 62
7
  6
CONTINUOUS
 10
16.0287020428
 20
14.3774700459
 11
15.9767361613
 21
14.3948651792
  0
CIRCLE
  5
2B7
100
AcDbEntity
  8
0
100
AcDbCircle
 62
7
  6
CONTINUOUS
 10
15.5603552569
 20
5.4606247044
 40
1.9
  0
CIRCLE
  5
2B8
100
AcDbEntity
  8
0
100
AcDbCircle
 62
7
  6
CONTINUOUS
 10
15.5603552569
 20
5.4606247044
 40
1.8824576977
  0
CIRCLE
  5
2B9
100
AcDbEntity
  8
0
100
AcDbCircle
 62
7
  6
CONTINUOUS
 10
15.5603552569
 20
5.4606247044
 40
1.7843321192
  0
CIRCLE
  5
2BA
100
AcDbEntity
  8
0
100
AcDbCircle
 62
7
  6
CONTINUOUS
 10
15.5603552569
 20
5.4606247044
 40
1.5335
  0
CIRCLE
  5
2BB
100
AcDbEntity
  8
0
100
AcDbCircle
 62
7
  6
CONTINUOUS
 10
15.5603552569
 20
5.4606247044
 40
1.53175
  0
ARC
  5
2BC
100
AcDbEntity
  8
0
100
AcDbCircle
 62
7
  6
CONTINUOUS
 10
15.5603552569
 20
5.4606247044
 40
1.123
100
AcDbArc
 50
2.5361011651
 51
80.2342788336
  0
ARC
  5
2BD
100
AcDbEntity
  8
0
100
AcDbCircle
 62
7
  6
CONTINUOUS
 10
15.5603552569
 20
5.4606247044
 40
1.123
100
AcDbArc
 50
192.5361011651
 51
347.4638988349
  0
ARC
  5
2BE
100
AcDbEntity
  8
0
100
AcDbCircle
 62
7
  6
CONTINUOUS
 10
15.5603552569
 20
5.4606247044
 40
1.123
100
AcDbArc
 50
99.7657211664
 51
177.4638988349
  0
ARC
  5
2BF
100
AcDbEntity
  8
0
100
AcDbCircle
 62
7
  6
CONTINUOUS
 10
15.5603552569
 20
5.4606247044
 40
1.0922
100
AcDbArc
 50
79.7282013185
 51
100.2717986815
  0
CIRCLE
  5
2C0
100
AcDbEntity
  8
0
100
AcDbCircle
 62
7
  6
CONTINUOUS
 10
15.5603552569
 20
5.4606247044
 40
1.053
  0
ARC
  5
2C1
100
AcDbEntity
  8
0
100
AcDbCircle
 62
7
  6
CONTINUOUS
 10
15.5603552569
 20
6.5256247044
 40
0.195
100
AcDbArc
 50
2.8496811263
 51
177.1498849653
  0
CIRCLE
  5
2C2
100
AcDbEntity
  8
0
100
AcDbCircle
 62
7
  6
CONTINUOUS
 10
14.4994079035
 20
5.3678038384
 40
0.1875
  0
CIRCLE
  5
2C3
100
AcDbEntity
  8
0
100
AcDbCircle
 62
7
  6
CONTINUOUS
 10
16.6213026104
 20
5.3678038384
 40
0.1875
  0
ARC
  5
2C4
100
AcDbEntity
  8
0
100
AcDbCircle
 62
7
  6
CONTINUOUS
 10
14.4994079035
 20
5.3678038384
 40
0.155
100
AcDbArc
 50
89.621602634
 51
280.3762789924
  0
ARC
  5
2C5
100
AcDbEntity
  8
0
100
AcDbCircle
 62
7
  6
CONTINUOUS
 10
16.6213026104
 20
5.3678038384
 40
0.155
100
AcDbArc
 50
259.6216024606
 51
90.3762790764
  0
ARC
  5
2C6
100
AcDbEntity
  8
0
100
AcDbCircle
 62
7
  6
CONTINUOUS
 10
13.9144031305
 20
44.9069657322
 40
31.776542144
100
AcDbArc
 50
272.9159831456
 51
274.2536908146
  0
ARC
  5
2C7
100
AcDbEntity
  8
0
100
AcDbCircle
 62
7
  6
CONTINUOUS
 10
13.7661663353
 20
12.3483074639
 40
2.7490876874
100
AcDbArc
 50
346.6164295589
 51
348.365889243
  0
ARC
  5
2C8
100
AcDbEntity
  8
0
100
AcDbCircle
 62
7
  6
CONTINUOUS
 10
13.8941559162
 20
12.3180797938
 40
2.6175772522
100
AcDbArc
 50
346.1283394419
 51
346.6116390039
  0
ARC
  5
2C9
100
AcDbEntity
  8
0
100
AcDbCircle
 62
7
  6
CONTINUOUS
 10
14.1247689333
 20
12.2591215349
 40
2.3795557026
100
AcDbArc
 50
342.880291793
 51
346.1752866965
  0
ARC
  5
2CA
100
AcDbEntity
  8
0
100
AcDbCircle
 62
7
  6
CONTINUOUS
 10
14.150889244
 20
12.7707728272
 40
2.3521727743
100
AcDbArc
 50
15.555173837
 51
15.8195097287
  0
ARC
  5
2CB
100
AcDbEntity
  8
0
100
AcDbCircle
 62
7
  6
CONTINUOUS
 10
14.2693930284
 20
12.8047145305
 40
2.2289045463
100
AcDbArc
 50
15.810484318
 51
17.8768088124
  0
ARC
  5
2CC
100
AcDbEntity
  8
0
100
AcDbCircle
 62
7
  6
CONTINUOUS
 10
14.4369669258
 20
12.8576646351
 40
2.0531674269
100
AcDbArc
 50
17.9060206174
 51
18.5092489396
  0
ARC
  5
2CD
100
AcDbEntity
  8
0
100
AcDbCircle
 62
7
  6
CONTINUOUS
 10
16.2612090338
 20
11.8862752821
 40
1.7838958666
100
AcDbArc
 50
203.2179644886
 51
203.5853281642
  0
ARC
  5
2CE
100
AcDbEntity
  8
0
100
AcDbCircle
 62
7
  6
CONTINUOUS
 10
15.9497631643
 20
13.2821110522
 40
1.4395342959
100
AcDbArc
 50
152.6051392763
 51
153.0219629422
  0
ARC
  5
2CF
100
AcDbEntity
  8
0
100
AcDbCircle
 62
7
  6
CONTINUOUS
 10
15.5837897935
 20
11.5255436736
 40
1.0153705882
100
AcDbArc
 50
213.675132093
 51
214.2419056315
  0
ARC
  5
2D0
100
AcDbEntity
  8
0
100
AcDbCircle
 62
7
  6
CONTINUOUS
 10
15.391062453
 20
13.6391578427
 40
0.7752324305
100
AcDbArc
 50
140.0217239853
 51
140.7270171265
  0
ARC
  5
2D1
100
AcDbEntity
  8
0
100
AcDbCircle
 62
7
  6
CONTINUOUS
 10
15.0962873728
 20
14.0229758697
 40
0.3945232297
100
AcDbArc
 50
117.247521328
 51
119.536591605
  0
ARC
  5
2D2
100
AcDbEntity
  8
0
100
AcDbCircle
 62
7
  6
CONTINUOUS
 10
15.9085130263
 20
14.0090458707
 40
0.2862650326
100
AcDbArc
 50
101.731001696
 51
102.7707312139
  0
ARC
  5
2D3
100
AcDbEntity
  8
0
100
AcDbCircle
 62
7
  6
CONTINUOUS
 10
15.9080410684
 20
11.010207142
 40
0.2838606855
100
AcDbArc
 50
258.4133584347
 51
259.4891431624
  0
ARC
  5
2D4
100
AcDbEntity
  8
0
100
AcDbCircle
 62
7
  6
CONTINUOUS
 10
15.9063932333
 20
14.0210963412
 40
0.2740346128
100
AcDbArc
 50
88.1672324511
 51
101.6652591458
  0
ARC
  5
2D5
100
AcDbEntity
  8
0
100
AcDbCircle
 62
7
  6
CONTINUOUS
 10
15.9090675295
 20
11.2270036771
 40
0.2499441571
100
AcDbArc
 50
255.616226824
 51
256.7308172873
  0
ARC
  5
2D6
100
AcDbEntity
  8
0
100
AcDbCircle
 62
7
  6
CONTINUOUS
 10
15.9062035328
 20
13.8096615889
 40
0.2346443147
100
AcDbArc
 50
83.8142852451
 51
86.6419348
  0
ARC
  5
2D7
100
AcDbEntity
  8
0
100
AcDbCircle
 62
7
  6
CONTINUOUS
 10
15.9062907351
 20
11.2110729004
 40
0.2337661391
100
AcDbArc
 50
270.0056504325
 51
276.2309413987
  0
ARC
  5
2D8
100
AcDbEntity
  8
0
100
AcDbCircle
 62
7
  6
CONTINUOUS
 10
15.9316960078
 20
11.212821031
 40
0.2337642796
100
AcDbArc
 50
263.9151176891
 51
269.9869994611
  0
ARC
  5
2D9
100
AcDbEntity
  8
0
100
AcDbCircle
 62
7
  6
CONTINUOUS
 10
15.9316382591
 20
13.8095730641
 40
0.2329801643
100
AcDbArc
 50
89.998842746
 51
96.198627035
  0
ARC
  5
2DA
100
AcDbEntity
  8
0
100
AcDbCircle
 62
7
  6
CONTINUOUS
 10
15.9062994773
 20
13.8113739366
 40
0.2329292873
100
AcDbArc
 50
86.6408223934
 51
89.996479985
  0
ARC
  5
2DB
100
AcDbEntity
  8
0
100
AcDbCircle
 62
7
  6
CONTINUOUS
 10
17.7530411638
 20
-26.35901739
 40
39.8103017921
100
AcDbArc
 50
92.2529296675
 51
93.0069043238
  0
ARC
  5
2DC
100
AcDbEntity
  8
0
100
AcDbCircle
 62
7
  6
CONTINUOUS
 10
18.9843755209
 20
12.5108788282
 40
4.5915446526
100
AcDbArc
 50
177.9886764396
 51
180.2707759051
  0
ARC
  5
2DD
100
AcDbEntity
  8
0
100
AcDbCircle
 62
7
  6
CONTINUOUS
 10
18.9791516837
 20
12.5106627214
 40
4.5863198564
100
AcDbArc
 50
180.2683845788
 51
182.5093369295
  0
ARC
  5
2DE
100
AcDbEntity
  8
0
100
AcDbCircle
 62
7
  6
CONTINUOUS
 10
18.9483103904
 20
12.512031257
 40
4.5554612961
100
AcDbArc
 50
177.8597413129
 51
177.9872418705
  0
ARC
  5
2DF
100
AcDbEntity
  8
0
100
AcDbCircle
 62
7
  6
CONTINUOUS
 10
18.9296973747
 20
12.5103407486
 40
4.5303225082
100
AcDbArc
 50
180.2509757653
 51
182.5295592887
  0
ARC
  5
2E0
100
AcDbEntity
  8
0
100
AcDbCircle
 62
7
  6
CONTINUOUS
 10
18.8567147191
 20
12.5162240001
 40
4.4637730066
100
AcDbArc
 50
175.5641997747
 51
177.8696132438
  0
ARC
  5
2E1
100
AcDbEntity
  8
0
100
AcDbCircle
 62
7
  6
CONTINUOUS
 10
18.8498453052
 20
12.5049455694
 40
4.4568865025
100
AcDbArc
 50
182.6216449551
 51
184.81362468
  0
ARC
  5
2E2
100
AcDbEntity
  8
0
100
AcDbCircle
 62
7
  6
CONTINUOUS
 10
18.848183007
 20
12.5146348188
 40
4.4487395194
100
AcDbArc
 50
175.5440228391
 51
177.8469081326
  0
ARC
  5
2E3
100
AcDbEntity
  8
0
100
AcDbCircle
 62
7
  6
CONTINUOUS
 10
18.7340340689
 20
12.4960190265
 40
4.3407347492
100
AcDbArc
 50
184.8244908023
 51
184.96591009
  0
ARC
  5
2E4
100
AcDbEntity
  8
0
100
AcDbCircle
 62
7
  6
CONTINUOUS
 10
18.6187912986
 20
12.5359849264
 40
4.2250313011
100
AcDbArc
 50
173.1967988426
 51
175.4701817166
  0
ARC
  5
2E5
100
AcDbEntity
  8
0
100
AcDbCircle
 62
7
  6
CONTINUOUS
 10
18.6092838999
 20
12.4846861322
 40
4.2154718644
100
AcDbArc
 50
184.9592283048
 51
187.3419996923
  0
ARC
  5
2E6
100
AcDbEntity
  8
0
100
AcDbCircle
 62
7
  6
CONTINUOUS
 10
18.5235048994
 20
12.4792333651
 40
4.1228654944
100
AcDbArc
 50
184.9761840755
 51
187.4062846748
  0
ARC
  5
2E7
100
AcDbEntity
  8
0
100
AcDbCircle
 62
7
  6
CONTINUOUS
 10
18.4954250454
 20
12.550270039
 40
4.1008414991
100
AcDbArc
 50
173.0362324907
 51
173.1907998299
  0
ARC
  5
2E8
100
AcDbEntity
  8
0
100
AcDbCircle
 62
7
  6
CONTINUOUS
 10
18.2986273769
 20
12.575993262
 40
3.9023772356
100
AcDbArc
 50
170.7250086566
 51
173.0608016356
  0
ARC
  5
2E9
100
AcDbEntity
  8
0
100
AcDbCircle
 62
7
  6
CONTINUOUS
 10
18.3031259729
 20
12.5702862691
 40
3.9007289124
100
AcDbArc
 50
170.4898674137
 51
172.9998266609
  0
ARC
  5
2EA
100
AcDbEntity
  8
0
100
AcDbCircle
 62
7
  6
CONTINUOUS
 10
18.266115554
 20
12.4409808142
 40
3.8695304244
100
AcDbArc
 50
187.4586977805
 51
190.0144408552
  0
ARC
  5
2EB
100
AcDbEntity
  8
0
100
AcDbCircle
 62
7
  6
CONTINUOUS
 10
18.1340319227
 20
12.6022797921
 40
3.7356970415
100
AcDbArc
 50
170.5384522194
 51
170.7160287981
  0
ARC
  5
2EC
100
AcDbEntity
  8
0
100
AcDbCircle
 62
7
  6
CONTINUOUS
 10
17.881681559
 20
12.6469972682
 40
3.4794250207
100
AcDbArc
 50
167.8802292102
 51
170.4706511249
  0
ARC
  5
2ED
100
AcDbEntity
  8
0
100
AcDbCircle
 62
7
  6
CONTINUOUS
 10
17.8620882537
 20
12.3708936471
 40
3.4594712192
100
AcDbArc
 50
190.0349706295
 51
192.7555266893
  0
ARC
  5
2EE
100
AcDbEntity
  8
0
100
AcDbCircle
 62
7
  6
CONTINUOUS
 10
17.7489646448
 20
12.3545633696
 40
3.3381535186
100
AcDbArc
 50
190.0900727913
 51
192.892131702
  0
ARC
  5
2EF
100
AcDbEntity
  8
0
100
AcDbCircle
 62
7
  6
CONTINUOUS
 10
17.6925989056
 20
12.6868402382
 40
3.2861916753
100
AcDbArc
 50
167.6704086121
 51
167.8672551732
  0
ARC
  5
2F0
100
AcDbEntity
  8
0
100
AcDbCircle
 62
7
  6
CONTINUOUS
 10
17.4532884844
 20
12.733540521
 40
3.0350975872
100
AcDbArc
 50
164.6200104088
 51
167.5821743847
  0
ARC
  5
2F1
100
AcDbEntity
  8
0
100
AcDbCircle
 62
7
  6
CONTINUOUS
 10
17.4191431354
 20
12.749536899
 40
3.0056564768
100
AcDbArc
 50
164.7055592842
 51
167.7248938529
  0
ARC
  5
2F2
100
AcDbEntity
  8
0
100
AcDbCircle
 62
7
  6
CONTINUOUS
 10
17.4109240261
 20
12.2698913086
 40
2.9971390826
100
AcDbArc
 50
192.8799356774
 51
195.73280299
  0
ARC
  5
2F3
100
AcDbEntity
  8
0
100
AcDbCircle
 62
7
  6
CONTINUOUS
 10
18.1473680178
 20
12.8221613577
 40
2.9169386731
100
AcDbArc
 50
162.8773821459
 51
166.0840082996
  0
ARC
  5
2F4
100
AcDbEntity
  8
0
100
AcDbCircle
 62
7
  6
CONTINUOUS
 10
17.1490459189
 20
12.1988042207
 40
2.7257976533
100
AcDbArc
 50
195.7871335478
 51
196.0279672405
  0
ARC
  5
2F5
100
AcDbEntity
  8
0
100
AcDbCircle
 62
7
  6
CONTINUOUS
 10
17.068712841
 20
12.8457571032
 40
2.6422543681
100
AcDbArc
 50
162.8353024756
 51
164.6081584296
  0
ARC
  5
2F6
100
AcDbEntity
  8
0
100
AcDbCircle
 62
7
  6
CONTINUOUS
 10
17.7501022243
 20
12.9430214936
 40
2.5016980178
100
AcDbArc
 50
160.1240727318
 51
162.8439714093
  0
ARC
  5
2F7
100
AcDbEntity
  8
0
100
AcDbCircle
 62
7
  6
CONTINUOUS
 10
16.8980745973
 20
12.1243524957
 40
2.4640267618
100
AcDbArc
 50
195.9753518603
 51
199.3860561415
  0
ARC
  5
2F8
100
AcDbEntity
  8
0
100
AcDbCircle
 62
7
  6
CONTINUOUS
 10
16.8604262628
 20
12.9103245325
 40
2.4241897038
100
AcDbArc
 50
161.4325020468
 51
162.8405544051
  0
ARC
  5
2F9
100
AcDbEntity
  8
0
100
AcDbCircle
 62
7
  6
CONTINUOUS
 10
16.8622152053
 20
12.1219318939
 40
2.4210748435
100
AcDbArc
 50
196.1071342866
 51
199.5659070041
  0
ARC
  5
2FA
100
AcDbEntity
  8
0
100
AcDbCircle
 62
7
  6
CONTINUOUS
 10
16.7681747359
 20
12.9411440392
 40
2.3269263516
100
AcDbArc
 50
161.1450409059
 51
161.4285733538
  0
ARC
  5
2FB
100
AcDbEntity
  8
0
100
AcDbCircle
 62
7
  6
CONTINUOUS
 10
16.5369036261
 20
13.0226594879
 40
2.0817230625
100
AcDbArc
 50
157.4262098482
 51
161.2111129778
  0
ARC
  5
2FC
100
AcDbEntity
  8
0
100
AcDbCircle
 62
7
  6
CONTINUOUS
 10
16.4984477579
 20
13.0272483548
 40
2.0356068557
100
AcDbArc
 50
157.1618697962
 51
161.0447293934
  0
ARC
  5
2FD
100
AcDbEntity
  8
0
100
AcDbCircle
 62
7
  6
CONTINUOUS
 10
16.4670369012
 20
11.9720207217
 40
2.0068588992
100
AcDbArc
 50
199.4861412409
 51
203.1510870934
  0
ARC
  5
2FE
100
AcDbEntity
  8
0
100
AcDbCircle
 62
7
  6
CONTINUOUS
 10
16.7457002255
 20
13.2857863626
 40
1.4156345171
100
AcDbArc
 50
151.8903121496
 51
153.5185257894
  0
ARC
  5
2FF
100
AcDbEntity
  8
0
100
AcDbCircle
 62
7
  6
CONTINUOUS
 10
16.616059646
 20
13.3558846624
 40
1.2682554383
100
AcDbArc
 50
149.6706597067
 51
151.7218202686
  0
SPLINE
  5
300
100
AcDbEntity
  8
0
100
AcDbSpline
 62
7
  6
CONTINUOUS
 70
0
 71
3
 72
29
 73
25
 74
0
 42
0.0000001
 43
0.0000001
 44
0.0000000001
 40
0.0
 40
0.0
 40
0.0
 40
0.0
 40
0.0617358167
 40
0.1234742502
 40
0.1852237319
 40
0.2469994896
 40
0.3088343393
 40
0.3397973604
 40
0.3708195235
 40
0.4019540055
 40
0.4333391972
 40
0.4654500346
 40
0.4999994771
 40
0.5345498163
 40
0.5666607358
 40
0.5980459576
 40
0.6291804436
 40
0.6602025978
 40
0.6911656297
 40
0.7530004811
 40
0.8147762455
 40
0.8765257337
 40
0.9382641729
 40
1.0
 40
1.0
 40
1.0
 40
1.0
 10
14.5273267167
 20
5.2153389577
 30
0.0
 10
14.5261192949
 20
5.2215828632
 30
0.0
 10
14.5238156535
 20
5.2340927594
 30
0.0
 10
14.5206983627
 20
5.2529177913
 30
0.0
 10
14.5179187588
 20
5.2717998634
 30
0.0
 10
14.515477123
 20
5.2907385718
 30
0.0
 10
14.513723958
 20
5.306565748
 30
0.0
 10
14.5124884036
 20
5.3192609406
 30
0.0
 10
14.5116428534
 20
5.3288162513
 30
0.0
 10
14.5108758363
 20
5.3384217628
 30
0.0
 10
14.5101771021
 20
5.3481450318
 30
0.0
 10
14.5095205786
 20
5.3582232582
 30
0.0
 10
14.5088173593
 20
5.3686269894
 30
0.0
 10
14.5077033156
 20
5.3789947868
 30
0.0
 10
14.5065997777
 20
5.3890340086
 30
0.0
 10
14.5055994711
 20
5.3987309056
 30
0.0
 10
14.5046868549
 20
5.4083236813
 30
0.0
 10
14.5038602961
 20
5.4178806542
 30
0.0
 10
14.5028725837
 20
5.4305975306
 30
0.0
 10
14.5018507492
 20
5.4464886922
 30
0.0
 10
14.5009666351
 20
5.465563666
 30
0.0
 10
14.5004251121
 20
5.4846415528
 30
0.0
 10
14.5002263401
 20
5.5037219019
 30
0.0
 10
14.500322193
 20
5.5164417767
 30
0.0
 10
14.5004273185
 20
5.5228004861
 30
0.0
  0
SPLINE
  5
301
100
AcDbEntity
  8
0
100
AcDbSpline
 62
7
  6
CONTINUOUS
 70
0
 71
3
 72
32
 73
28
 74
0
 42
0.0000001
 43
0.0000001
 44
0.0000000001
 40
0.0
 40
0.0
 40
0.0
 40
0.0
 40
0.0617106247
 40
0.1234238496
 40
0.1851481013
 40
0.2468985185
 40
0.308707752
 40
0.3706665874
 40
0.4017870257
 40
0.4331548738
 40
0.4490085774
 40
0.4652791063
 40
0.4822103779
 40
0.499854943
 40
0.5177609915
 40
0.5348412479
 40
0.5509730759
 40
0.5668172304
 40
0.5825744521
 40
0.5982194143
 40
0.6293320249
 40
0.6912920675
 40
0.7531015743
 40
0.8148520222
 40
0.8765762302
 40
0.9382894146
 40
1.0
 40
1.0
 40
1.0
 40
1.0
 10
16.6202831954
 20
5.5228004861
 30
0.0
 10
16.6203879886
 20
5.5164443678
 30
0.0
 10
16.6204842726
 20
5.5037296956
 30
0.0
 10
16.6202856419
 20
5.4846571327
 30
0.0
 10
16.6197446468
 20
5.4655870544
 30
0.0
 10
16.6188615313
 20
5.4465198639
 30
0.0
 10
16.6176355272
 20
5.4274474566
 30
0.0
 10
16.6163297643
 20
5.4115446065
 30
0.0
 10
16.6151172247
 20
5.3987823089
 30
0.0
 10
16.6142877415
 20
5.390754753
 30
0.0
 10
16.6135896495
 20
5.3842516145
 30
0.0
 10
16.6130383941
 20
5.3792284366
 30
0.0
 10
16.6124673257
 20
5.374021795
 30
0.0
 10
16.6119521721
 20
5.3686398205
 30
0.0
 10
16.611526977
 20
5.3632346886
 30
0.0
 10
16.6111646965
 20
5.3579813104
 30
0.0
 10
16.6108447076
 20
5.3529380271
 30
0.0
 10
16.610518888
 20
5.348031693
 30
0.0
 10
16.6101763137
 20
5.3431767767
 30
0.0
 10
16.6097019418
 20
5.3367544377
 30
0.0
 10
16.6088097275
 20
5.3255906205
 30
0.0
 10
16.6073345543
 20
5.3097032399
 30
0.0
 10
16.6052295668
 20
5.2907075889
 30
0.0
 10
16.6027885364
 20
5.2717766631
 30
0.0
 10
16.6000097383
 20
5.2529023743
 30
0.0
 10
16.5968933064
 20
5.2340851148
 30
0.0
 10
16.59459101
 20
5.2215802562
 30
0.0
 10
16.5933837972
 20
5.2153389577
 30
0.0
  0
SPLINE
  5
302
100
AcDbEntity
  8
0
100
AcDbSpline
 62
7
  6
CONTINUOUS
 70
0
 71
3
 72
20
 73
16
 74
0
 42
0.0000001
 43
0.0000001
 44
0.0000000001
 40
0.0
 40
0.0
 40
0.0
 40
0.0
 40
0.077302621
 40
0.1543251432
 40
0.2311563158
 40
0.3072415721
 40
0.3837808898
 40
0.460502544
 40
0.5370955559
 40
0.6137223577
 40
0.6904138465
 40
0.7671010723
 40
0.8447116951
 40
0.9224262989
 40
1.0
 40
1.0
 40
1.0
 40
1.0
 10
14.4994079035
 20
5.5228038384
 30
0.0
 10
14.5119246664
 20
5.5227499387
 30
0.0
 10
14.5370191531
 20
5.5197718114
 30
0.0
 10
14.5723225576
 20
5.5062896649
 30
0.0
 10
14.6032385103
 20
5.484898633
 30
0.0
 10
14.6281124257
 20
5.4568235579
 30
0.0
 10
14.6456054543
 20
5.4236588525
 30
0.0
 10
14.6547064921
 20
5.3871970704
 30
0.0
 10
14.6548489646
 20
5.3496042921
 30
0.0
 10
14.6460281794
 20
5.3130652106
 30
0.0
 10
14.6287391213
 20
5.2796706359
 30
0.0
 10
14.603878082
 20
5.2512429957
 30
0.0
 10
14.572769628
 20
5.2295192483
 30
0.0
 10
14.5372200796
 20
5.215872626
 30
0.0
 10
14.5119686155
 20
5.2128427622
 30
0.0
 10
14.4994079035
 20
5.2128038384
 30
0.0
  0
SPLINE
  5
303
100
AcDbEntity
  8
0
100
AcDbSpline
 62
7
  6
CONTINUOUS
 70
0
 71
3
 72
20
 73
16
 74
0
 42
0.0000001
 43
0.0000001
 44
0.0000000001
 40
0.0
 40
0.0
 40
0.0
 40
0.0
 40
0.077302621
 40
0.1543251432
 40
0.2311563158
 40
0.3072415721
 40
0.3837808898
 40
0.460502544
 40
0.5370955559
 40
0.6137223577
 40
0.6904138465
 40
0.7671010723
 40
0.8447116951
 40
0.9224262989
 40
1.0
 40
1.0
 40
1.0
 40
1.0
 10
14.4994079035
 20
5.2128038384
 30
0.0
 10
14.4868911406
 20
5.2128577381
 30
0.0
 10
14.4617966538
 20
5.2158358655
 30
0.0
 10
14.4264932493
 20
5.2293180119
 30
0.0
 10
14.3955772966
 20
5.2507090438
 30
0.0
 10
14.3707033813
 20
5.2787841189
 30
0.0
 10
14.3532103527
 20
5.3119488243
 30
0.0
 10
14.3441093148
 20
5.3484106064
 30
0.0
 10
14.3439668423
 20
5.3860033848
 30
0.0
 10
14.3527876276
 20
5.4225424663
 30
0.0
 10
14.3700766857
 20
5.4559370409
 30
0.0
 10
14.3949377249
 20
5.4843646812
 30
0.0
 10
14.4260461789
 20
5.5060884286
 30
0.0
 10
14.4615957273
 20
5.5197350508
 30
0.0
 10
14.4868471914
 20
5.5227649147
 30
0.0
 10
14.4994079035
 20
5.5228038384
 30
0.0
  0
SPLINE
  5
304
100
AcDbEntity
  8
0
100
AcDbSpline
 62
7
  6
CONTINUOUS
 70
0
 71
3
 72
20
 73
16
 74
0
 42
0.0000001
 43
0.0000001
 44
0.0000000001
 40
0.0
 40
0.0
 40
0.0
 40
0.0
 40
0.077302621
 40
0.1543251432
 40
0.2311563158
 40
0.3072415721
 40
0.3837808898
 40
0.460502544
 40
0.5370955559
 40
0.6137223577
 40
0.6904138465
 40
0.7671010723
 40
0.8447116951
 40
0.9224262989
 40
1.0
 40
1.0
 40
1.0
 40
1.0
 10
16.6213026104
 20
5.5228038384
 30
0.0
 10
16.6338193733
 20
5.5227499387
 30
0.0
 10
16.6589138601
 20
5.5197718114
 30
0.0
 10
16.6942172646
 20
5.5062896649
 30
0.0
 10
16.7251332173
 20
5.484898633
 30
0.0
 10
16.7500071326
 20
5.4568235579
 30
0.0
 10
16.7675001612
 20
5.4236588525
 30
0.0
 10
16.776601199
 20
5.3871970704
 30
0.0
 10
16.7767436716
 20
5.3496042921
 30
0.0
 10
16.7679228863
 20
5.3130652106
 30
0.0
 10
16.7506338282
 20
5.2796706359
 30
0.0
 10
16.725772789
 20
5.2512429957
 30
0.0
 10
16.6946643349
 20
5.2295192483
 30
0.0
 10
16.6591147865
 20
5.215872626
 30
0.0
 10
16.6338633225
 20
5.2128427622
 30
0.0
 10
16.6213026104
 20
5.2128038384
 30
0.0
  0
SPLINE
  5
305
100
AcDbEntity
  8
0
100
AcDbSpline
 62
7
  6
CONTINUOUS
 70
0
 71
3
 72
20
 73
16
 74
0
 42
0.0000001
 43
0.0000001
 44
0.0000000001
 40
0.0
 40
0.0
 40
0.0
 40
0.0
 40
0.077302621
 40
0.1543251432
 40
0.2311563158
 40
0.3072415721
 40
0.3837808898
 40
0.460502544
 40
0.5370955559
 40
0.6137223577
 40
0.6904138465
 40
0.7671010723
 40
0.8447116951
 40
0.9224262989
 40
1.0
 40
1.0
 40
1.0
 40
1.0
 10
16.6213026104
 20
5.2128038384
 30
0.0
 10
16.6087858475
 20
5.2128577381
 30
0.0
 10
16.5836913607
 20
5.2158358655
 30
0.0
 10
16.5483879562
 20
5.2293180119
 30
0.0
 10
16.5174720036
 20
5.2507090438
 30
0.0
 10
16.4925980882
 20
5.2787841189
 30
0.0
 10
16.4751050596
 20
5.3119488243
 30
0.0
 10
16.4660040218
 20
5.3484106064
 30
0.0
 10
16.4658615492
 20
5.3860033848
 30
0.0
 10
16.4746823345
 20
5.4225424663
 30
0.0
 10
16.4919713926
 20
5.4559370409
 30
0.0
 10
16.5168324318
 20
5.4843646812
 30
0.0
 10
16.5479408859
 20
5.5060884286
 30
0.0
 10
16.5834904343
 20
5.5197350508
 30
0.0
 10
16.6087418983
 20
5.5227649147
 30
0.0
 10
16.6213026104
 20
5.5228038384
 30
0.0
  0
SPLINE
  5
306
100
AcDbEntity
  8
0
100
AcDbSpline
 62
7
  6
CONTINUOUS
 70
0
 71
3
 72
23
 73
19
 74
0
 42
0.0000001
 43
0.0000001
 44
0.0000000001
 40
0.0
 40
0.0
 40
0.0
 40
0.0
 40
0.0598395284
 40
0.1212128141
 40
0.1838876845
 40
0.2476143857
 40
0.312138142
 40
0.3771999021
 40
0.4425371318
 40
0.5078837294
 40
0.5729742874
 40
0.6375451038
 40
0.7013361466
 40
0.7640932963
 40
0.8255691123
 40
0.8855271629
 40
0.9437408304
 40
1.0
 40
1.0
 40
1.0
 40
1.0
 10
16.4587750203
 20
11.7939234974
 30
0.0
 10
16.4653084594
 20
11.825603863
 30
0.0
 10
16.4774685988
 20
11.8900024847
 30
0.0
 10
16.4928511868
 20
11.9882226547
 30
0.0
 10
16.5055596959
 20
12.0889429696
 30
0.0
 10
16.5155312852
 20
12.1916811318
 30
0.0
 10
16.5227165379
 20
12.295944621
 30
0.0
 10
16.5270827748
 20
12.4012351577
 30
0.0
 10
16.5286071297
 20
12.5070498405
 30
0.0
 10
16.52728488
 20
12.612882814
 30
0.0
 10
16.5231188204
 20
12.7182275476
 30
0.0
 10
16.516133203
 20
12.8225805205
 30
0.0
 10
16.5063569042
 20
12.9254426228
 30
0.0
 10
16.4938423601
 20
13.0263226761
 30
0.0
 10
16.4786437697
 20
13.124738148
 30
0.0
 10
16.4608407532
 20
13.220220314
 30
0.0
 10
16.4405119781
 20
13.3123110727
 30
0.0
 10
16.4250636488
 20
13.3722483318
 30
0.0
 10
16.4169081987
 20
13.401546049
 30
0.0
  0
SPLINE
  5
307
100
AcDbEntity
  8
0
100
AcDbSpline
 62
7
  6
CONTINUOUS
 70
0
 71
3
 72
10
 73
6
 74
0
 42
0.0000001
 43
0.0000001
 44
0.0000000001
 40
0.0
 40
0.0
 40
0.0
 40
0.0
 40
0.5152850301
 40
0.7615755658
 40
1.0
 40
1.0
 40
1.0
 40
1.0
 10
16.3839289748
 20
13.5094585158
 30
0.0
 10
16.3735556217
 20
13.5404399002
 30
0.0
 10
16.3571086826
 20
13.585873301
 30
0.0
 10
16.3330000377
 20
13.6445232969
 30
0.0
 10
16.3204685743
 20
13.6725927664
 30
0.0
 10
16.3140821361
 20
13.6862949432
 30
0.0
  0
SPLINE
  5
308
100
AcDbEntity
  8
0
100
AcDbSpline
 62
7
  6
CONTINUOUS
 70
0
 71
3
 72
23
 73
19
 74
0
 42
0.0000001
 43
0.0000001
 44
0.0000000001
 40
0.0
 40
0.0
 40
0.0
 40
0.0
 40
0.0841675125
 40
0.1651680482
 40
0.2429686404
 40
0.3175518218
 40
0.3889233248
 40
0.4571227248
 40
0.522216171
 40
0.5843016797
 40
0.6435237848
 40
0.7000699865
 40
0.7541729568
 40
0.8061223399
 40
0.8562629624
 40
0.9049888894
 40
0.9527420013
 40
1.0
 40
1.0
 40
1.0
 40
1.0
 10
16.3140821361
 20
13.6862949432
 30
0.0
 10
16.3075664792
 20
13.7002743602
 30
0.0
 10
16.2943235532
 20
13.7274977271
 30
0.0
 10
16.2733970852
 20
13.7668076873
 30
0.0
 10
16.2518256514
 20
13.8037492803
 30
0.0
 10
16.2296484514
 20
13.8382522714
 30
0.0
 10
16.206903472
 20
13.8702503146
 30
0.0
 10
16.1836355541
 20
13.8996860847
 30
0.0
 10
16.1598868292
 20
13.9265050576
 30
0.0
 10
16.1356960705
 20
13.9506531309
 30
0.0
 10
16.1111084163
 20
13.97208629
 30
0.0
 10
16.0861680029
 20
13.9907646955
 30
0.0
 10
16.0609154218
 20
14.0066459194
 30
0.0
 10
16.035396077
 20
14.0196952005
 30
0.0
 10
16.0096587958
 20
14.0298856374
 30
0.0
 10
15.9837503055
 20
14.0371868988
 30
0.0
 10
15.9577283547
 20
14.0415741027
 30
0.0
 10
15.9403027649
 20
14.0425527597
 30
0.0
 10
15.9316429648
 20
14.0425532284
 30
0.0
  0
SPLINE
  5
309
100
AcDbEntity
  8
0
100
AcDbSpline
 62
7
  6
CONTINUOUS
 70
0
 71
3
 72
14
 73
10
 74
0
 42
0.0000001
 43
0.0000001
 44
0.0000000001
 40
0.0
 40
0.0
 40
0.0
 40
0.0
 40
0.2964277792
 40
0.4307528627
 40
0.5565132901
 40
0.6746854694
 40
0.7867373305
 40
0.8944839975
 40
1.0
 40
1.0
 40
1.0
 40
1.0
 10
16.1880592098
 20
13.4205082195
 30
0.0
 10
16.1901108807
 20
13.4233577115
 30
0.0
 10
16.1933732373
 20
13.4273198054
 30
0.0
 10
16.1982364316
 20
13.4317829932
 30
0.0
 10
16.2018421042
 20
13.4344589076
 30
0.0
 10
16.2055137393
 20
13.4365552275
 30
0.0
 10
16.2092372065
 20
13.4380620473
 30
0.0
 10
16.2129963812
 20
13.4389715159
 30
0.0
 10
16.2155269776
 20
13.4391752013
 30
0.0
 10
16.2167768412
 20
13.4391749847
 30
0.0
  0
SPLINE
  5
30A
100
AcDbEntity
  8
0
100
AcDbSpline
 62
7
  6
CONTINUOUS
 70
0
 71
3
 72
23
 73
19
 74
0
 42
0.0000001
 43
0.0000001
 44
0.0000000001
 40
0.0
 40
0.0
 40
0.0
 40
0.0
 40
0.0840710629
 40
0.1651410228
 40
0.2431306727
 40
0.3179758122
 40
0.3896582979
 40
0.4582039777
 40
0.5236610386
 40
0.5861061576
 40
0.6456526115
 40
0.7024493849
 40
0.7566874548
 40
0.8086145739
 40
0.8585326237
 40
0.9067932194
 40
0.9537997018
 40
1.0
 40
1.0
 40
1.0
 40
1.0
 10
15.6401543861
 20
13.3479682646
 30
0.0
 10
15.6448219728
 20
13.3586851338
 30
0.0
 10
15.6543251099
 20
13.3795928888
 30
0.0
 10
15.6693703568
 20
13.4098728052
 30
0.0
 10
15.684918952
 20
13.4384465238
 30
0.0
 10
15.7009404951
 20
13.4652490434
 30
0.0
 10
15.7174036054
 20
13.4902255451
 30
0.0
 10
15.7342755543
 20
13.5133315929
 30
0.0
 10
15.7515272948
 20
13.5345256279
 30
0.0
 10
15.7691301057
 20
13.5537671768
 30
0.0
 10
15.7870501426
 20
13.5710220904
 30
0.0
 10
15.8052550427
 20
13.5862571331
 30
0.0
 10
15.8237150937
 20
13.5994375513
 30
0.0
 10
15.8423965455
 20
13.6105359735
 30
0.0
 10
15.8612641188
 20
13.6195303088
 30
0.0
 10
15.8802847062
 20
13.6263962611
 30
0.0
 10
15.8994177027
 20
13.6311111737
 30
0.0
 10
15.9122952095
 20
13.6328236403
 30
0.0
 10
15.9187003699
 20
13.6333109764
 30
0.0
  0
SPLINE
  5
30B
100
AcDbEntity
  8
0
100
AcDbSpline
 62
7
  6
CONTINUOUS
 70
0
 71
3
 72
18
 73
14
 74
0
 42
0.0000001
 43
0.0000001
 44
0.0000000001
 40
0.0
 40
0.0
 40
0.0
 40
0.0
 40
0.1725816942
 40
0.3317207901
 40
0.4761442037
 40
0.6055481251
 40
0.7203888231
 40
0.7728242652
 40
0.8222802325
 40
0.8691579056
 40
0.913980081
 40
0.9573635288
 40
1.0
 40
1.0
 40
1.0
 40
1.0
 10
15.5472902135
 20
13.2940335529
 30
0.0
 10
15.5489951794
 20
13.2995508245
 30
0.0
 10
15.5526067467
 20
13.3100573827
 30
0.0
 10
15.5588996166
 20
13.3247123114
 30
0.0
 10
15.5657990517
 20
13.3374789395
 30
0.0
 10
15.5732134678
 20
13.3481995227
 30
0.0
 10
15.579965803
 20
13.3555406887
 30
0.0
 10
15.5855649172
 20
13.3601655931
 30
0.0
 10
15.5897103098
 20
13.3629389065
 30
0.0
 10
15.5939180887
 20
13.3651087707
 30
0.0
 10
15.5981746872
 20
13.3666673541
 30
0.0
 10
15.6024643223
 20
13.3676077988
 30
0.0
 10
15.6053467317
 20
13.3678188754
 30
0.0
 10
15.6067733775
 20
13.3678191385
 30
0.0
  0
SPLINE
  5
30C
100
AcDbEntity
  8
0
100
AcDbSpline
 62
7
  6
CONTINUOUS
 70
0
 71
3
 72
17
 73
13
 74
0
 42
0.0000001
 43
0.0000001
 44
0.0000000001
 40
0.0
 40
0.0
 40
0.0
 40
0.0
 40
0.0555670598
 40
0.1138210864
 40
0.2368651089
 40
0.3662612947
 40
0.499020243
 40
0.6319087423
 40
0.7616878022
 40
0.8853520873
 40
0.9439963674
 40
1.0
 40
1.0
 40
1.0
 40
1.0
 10
15.5479352646
 20
13.0495470779
 30
0.0
 10
15.5465463924
 20
13.0539185306
 30
0.0
 10
15.5439306998
 20
13.0629469117
 30
0.0
 10
15.5393348976
 20
13.0819562518
 30
0.0
 10
15.5348799871
 20
13.1072418466
 30
0.0
 10
15.5316321813
 20
13.1388958756
 30
0.0
 10
15.5304801332
 20
13.1715082404
 30
0.0
 10
15.5314620823
 20
13.204157707
 30
0.0
 10
15.5345447795
 20
13.2359220093
 30
0.0
 10
15.5388657563
 20
13.2613470308
 30
0.0
 10
15.543358741
 20
13.280503534
 30
0.0
 10
15.5459253386
 20
13.2896168159
 30
0.0
 10
15.5472902135
 20
13.2940335529
 30
0.0
  0
SPLINE
  5
30D
100
AcDbEntity
  8
0
100
AcDbSpline
 62
7
  6
CONTINUOUS
 70
0
 71
3
 72
23
 73
19
 74
0
 42
0.0000001
 43
0.0000001
 44
0.0000000001
 40
0.0
 40
0.0
 40
0.0
 40
0.0
 40
0.0501583031
 40
0.1035023266
 40
0.1597626826
 40
0.2186716542
 40
0.2799248647
 40
0.3431776434
 40
0.4080643553
 40
0.47420372
 40
0.5411983712
 40
0.6086430749
 40
0.6761283697
 40
0.7432427062
 40
0.8095742909
 40
0.8747340295
 40
0.938348144
 40
1.0
 40
1.0
 40
1.0
 40
1.0
 10
15.6449107616
 20
11.6628791967
 30
0.0
 10
15.635269889
 20
11.6843789033
 30
0.0
 10
15.6168314675
 20
11.7294057184
 30
0.0
 10
15.5922866478
 20
11.8003622873
 30
0.0
 10
15.5701615234
 20
11.8763998153
 30
0.0
 10
15.5506112176
 20
11.956963191
 30
0.0
 10
15.5337731504
 20
12.0414862231
 30
0.0
 10
15.5197717178
 20
12.1293676621
 30
0.0
 10
15.5087051918
 20
12.2199780289
 30
0.0
 10
15.5006580497
 20
12.3126697289
 30
0.0
 10
15.4956822395
 20
12.4067795919
 30
0.0
 10
15.4938198926
 20
12.5016345656
 30
0.0
 10
15.4950799828
 20
12.5965556182
 30
0.0
 10
15.4994562981
 20
12.6908609818
 30
0.0
 10
15.5069144268
 20
12.7838773095
 30
0.0
 10
15.5174026261
 20
12.8749474679
 30
0.0
 10
15.5308488741
 20
12.9634048181
 30
0.0
 10
15.541904001
 20
13.0212205019
 30
0.0
 10
15.5479352646
 20
13.0495470779
 30
0.0
  0
SPLINE
  5
30E
100
AcDbEntity
  8
0
100
AcDbSpline
 62
7
  6
CONTINUOUS
 70
0
 71
3
 72
12
 73
8
 74
0
 42
0.0000001
 43
0.0000001
 44
0.0000000001
 40
0.0
 40
0.0
 40
0.0
 40
0.0
 40
0.1081878034
 40
0.2266803087
 40
0.4833394666
 40
0.7487615778
 40
1.0
 40
1.0
 40
1.0
 40
1.0
 10
14.4897626459
 20
13.3743858103
 30
0.0
 10
14.4896127823
 20
13.3747904093
 30
0.0
 10
14.4893454502
 20
13.3756556927
 30
0.0
 10
14.4889293648
 20
13.3775393486
 30
0.0
 10
14.4886537576
 20
13.3800879175
 30
0.0
 10
14.4886986024
 20
13.3831777572
 30
0.0
 10
14.4889799468
 20
13.3852269511
 30
0.0
 10
14.4891957197
 20
13.3862054017
 30
0.0
  0
SPLINE
  5
30F
100
AcDbEntity
  8
0
100
AcDbSpline
 62
7
  6
CONTINUOUS
 70
0
 71
3
 72
13
 73
9
 74
0
 42
0.0000001
 43
0.0000001
 44
0.0000000001
 40
0.0
 40
0.0
 40
0.0
 40
0.0
 40
0.1243379989
 40
0.2544072945
 40
0.5195611988
 40
0.7745117432
 40
0.8922144013
 40
1.0
 40
1.0
 40
1.0
 40
1.0
 10
14.5075714156
 20
13.3072117831
 30
0.0
 10
14.5077522929
 20
13.3081460891
 30
0.0
 10
14.5080511968
 20
13.3100720203
 30
0.0
 10
14.5084133547
 20
13.3140340729
 30
0.0
 10
14.5084207304
 20
13.3190222272
 30
0.0
 10
14.5078536321
 20
13.3238857287
 30
0.0
 10
14.507041488
 20
13.3274749088
 30
0.0
 10
14.5065271539
 20
13.3291252948
 30
0.0
 10
14.5062406113
 20
13.3298988974
 30
0.0
  0
SPLINE
  5
310
100
AcDbEntity
  8
0
100
AcDbSpline
 62
7
  6
CONTINUOUS
 70
0
 71
3
 72
14
 73
10
 74
0
 42
0.0000001
 43
0.0000001
 44
0.0000000001
 40
0.0
 40
0.0
 40
0.0
 40
0.0
 40
0.3397171176
 40
0.4896095485
 40
0.6226865568
 40
0.7384293318
 40
0.837589048
 40
0.9229383908
 40
1.0
 40
1.0
 40
1.0
 40
1.0
 10
14.4560071264
 20
13.2147725986
 30
0.0
 10
14.4561470258
 20
13.2156049733
 30
0.0
 10
14.456421325
 20
13.2167963329
 30
0.0
 10
14.4569595827
 20
13.2182488524
 30
0.0
 10
14.4574021151
 20
13.219137839
 30
0.0
 10
14.4578901267
 20
13.2198555558
 30
0.0
 10
14.4584186519
 20
13.2203902771
 30
0.0
 10
14.4589852498
 20
13.220726578
 30
0.0
 10
14.4593910573
 20
13.2208079592
 30
0.0
 10
14.4595825205
 20
13.2208086992
 30
0.0
  0
SPLINE
  5
311
100
AcDbEntity
  8
0
100
AcDbSpline
 62
7
  6
CONTINUOUS
 70
0
 71
3
 72
12
 73
8
 74
0
 42
0.0000001
 43
0.0000001
 44
0.0000000001
 40
0.0
 40
0.0
 40
0.0
 40
0.0
 40
0.0963838181
 40
0.2056948488
 40
0.4542105672
 40
0.7268111954
 40
1.0
 40
1.0
 40
1.0
 40
1.0
 10
14.4329854467
 20
13.0344186321
 30
0.0
 10
14.4328027926
 20
13.0347401995
 30
0.0
 10
14.4324668465
 20
13.0354572617
 30
0.0
 10
14.4319001673
 20
13.0371076167
 30
0.0
 10
14.4314282439
 20
13.0394915039
 30
0.0
 10
14.4312320414
 20
13.0425390627
 30
0.0
 10
14.4313460232
 20
13.0446368707
 30
0.0
 10
14.4314739405
 20
13.0456772535
 30
0.0
  0
SPLINE
  5
312
100
AcDbEntity
  8
0
100
AcDbSpline
 62
7
  6
CONTINUOUS
 70
0
 71
3
 72
12
 73
8
 74
0
 42
0.0000001
 43
0.0000001
 44
0.0000000001
 40
0.0
 40
0.0
 40
0.0
 40
0.0
 40
0.2754939567
 40
0.5475384516
 40
0.794675812
 40
0.903568357
 40
1.0
 40
1.0
 40
1.0
 40
1.0
 10
14.455843772
 20
12.9782206774
 30
0.0
 10
14.4560450823
 20
12.98022915
 30
0.0
 10
14.456192667
 20
12.9842498049
 30
0.0
 10
14.4557405883
 20
12.9900659822
 30
0.0
 10
14.4547977255
 20
12.9945909104
 30
0.0
 10
14.4536991419
 20
12.9977229067
 30
0.0
 10
14.4530541597
 20
12.9990871422
 30
0.0
 10
14.4527051953
 20
12.9997015031
 30
0.0
  0
SPLINE
  5
313
100
AcDbEntity
  8
0
100
AcDbSpline
 62
7
  6
CONTINUOUS
 70
0
 71
3
 72
15
 73
11
 74
0
 42
0.0000001
 43
0.0000001
 44
0.0000000001
 40
0.0
 40
0.0
 40
0.0
 40
0.0
 40
0.0748004968
 40
0.1620106656
 40
0.2647212474
 40
0.3839151201
 40
0.5190550154
 40
0.668790819
 40
0.8303421706
 40
1.0
 40
1.0
 40
1.0
 40
1.0
 10
14.4401273262
 20
12.8742121063
 30
0.0
 10
14.4405413549
 20
12.8743157206
 30
0.0
 10
14.4413936099
 20
12.8747248604
 30
0.0
 10
14.4425228861
 20
12.8757470864
 30
0.0
 10
14.443569542
 20
12.8771782147
 30
0.0
 10
14.4445122251
 20
12.8789904954
 30
0.0
 10
14.4453399324
 20
12.8811465227
 30
0.0
 10
14.4460300502
 20
12.8836015989
 30
0.0
 10
14.4465703247
 20
12.8862942633
 30
0.0
 10
14.4468178815
 20
12.8881693698
 30
0.0
 10
14.4469144244
 20
12.889132578
 30
0.0
  0
SPLINE
  5
314
100
AcDbEntity
  8
0
100
AcDbSpline
 62
7
  6
CONTINUOUS
 70
0
 71
3
 72
13
 73
9
 74
0
 42
0.0000001
 43
0.0000001
 44
0.0000000001
 40
0.0
 40
0.0
 40
0.0
 40
0.0
 40
0.3312439076
 40
0.4819052768
 40
0.6180232695
 40
0.7379756844
 40
0.8409783522
 40
1.0
 40
1.0
 40
1.0
 40
1.0
 10
14.4128905902
 20
12.8602711729
 30
0.0
 10
14.4129685756
 20
12.8612693021
 30
0.0
 10
14.4131702101
 20
12.8627180432
 30
0.0
 10
14.4136397263
 20
12.8645282278
 30
0.0
 10
14.4140571463
 20
12.8656857932
 30
0.0
 10
14.4145423902
 20
12.8666633938
 30
0.0
 10
14.4151987827
 20
12.8676055843
 30
0.0
 10
14.4158647064
 20
12.8681401747
 30
0.0
 10
14.4163309638
 20
12.8682568597
 30
0.0
  0
SPLINE
  5
315
100
AcDbEntity
  8
0
100
AcDbSpline
 62
7
  6
CONTINUOUS
 70
0
 71
3
 72
13
 73
9
 74
0
 42
0.0000001
 43
0.0000001
 44
0.0000000001
 40
0.0
 40
0.0
 40
0.0
 40
0.0
 40
0.0849807245
 40
0.1847510688
 40
0.2983432485
 40
0.4241443675
 40
0.7035237888
 40
1.0
 40
1.0
 40
1.0
 40
1.0
 10
14.404974281
 20
12.6715670254
 30
0.0
 10
14.4047666033
 20
12.6717872048
 30
0.0
 10
14.4043736728
 20
12.6723210454
 30
0.0
 10
14.403881039
 20
12.6732652974
 30
0.0
 10
14.4034509348
 20
12.6743967279
 30
0.0
 10
14.4029618287
 20
12.6761806833
 30
0.0
 10
14.4025945666
 20
12.6786615749
 30
0.0
 10
14.4025445249
 20
12.6807174303
 30
0.0
 10
14.4025842547
 20
12.6817726208
 30
0.0
  0
SPLINE
  5
316
100
AcDbEntity
  8
0
100
AcDbSpline
 62
7
  6
CONTINUOUS
 70
0
 71
3
 72
13
 73
9
 74
0
 42
0.0000001
 43
0.0000001
 44
0.0000000001
 40
0.0
 40
0.0
 40
0.0
 40
0.0
 40
0.2980572547
 40
0.5765906879
 40
0.7017569499
 40
0.8148945624
 40
0.9145841541
 40
1.0
 40
1.0
 40
1.0
 40
1.0
 10
14.4318831434
 20
12.6288012633
 30
0.0
 10
14.4319165137
 20
12.630817402
 30
0.0
 10
14.4317518989
 20
12.6347242988
 30
0.0
 10
14.4309840172
 20
12.639425864
 30
0.0
 10
14.4300141876
 20
12.6427892227
 30
0.0
 10
14.4291754164
 20
12.644921196
 30
0.0
 10
14.4282233769
 20
12.6467052708
 30
0.0
 10
14.4274704616
 20
12.6477166206
 30
0.0
 10
14.4270739651
 20
12.6481369854
 30
0.0
  0
SPLINE
  5
317
100
AcDbEntity
  8
0
100
AcDbSpline
 62
7
  6
CONTINUOUS
 70
0
 71
3
 72
13
 73
9
 74
0
 42
0.0000001
 43
0.0000001
 44
0.0000000001
 40
0.0
 40
0.0
 40
0.0
 40
0.0
 40
0.0813694744
 40
0.1772769622
 40
0.2876230017
 40
0.4114288928
 40
0.6923492771
 40
1.0
 40
1.0
 40
1.0
 40
1.0
 10
14.4249311547
 20
12.5186744687
 30
0.0
 10
14.4253404195
 20
12.519007172
 30
0.0
 10
14.4261297019
 20
12.5198578253
 30
0.0
 10
14.4271378578
 20
12.5214329137
 30
0.0
 10
14.4280434747
 20
12.523377214
 30
0.0
 10
14.4291263778
 20
12.5265402746
 30
0.0
 10
14.4300439302
 20
12.5310847225
 30
0.0
 10
14.4303289056
 20
12.5348986284
 30
0.0
 10
14.4303619081
 20
12.5368925456
 30
0.0
  0
SPLINE
  5
318
100
AcDbEntity
  8
0
100
AcDbSpline
 62
7
  6
CONTINUOUS
 70
0
 71
3
 72
13
 73
9
 74
0
 42
0.0000001
 43
0.0000001
 44
0.0000000001
 40
0.0
 40
0.0
 40
0.0
 40
0.0
 40
0.3063665365
 40
0.5882525948
 40
0.7126625365
 40
0.8233709127
 40
0.9192192862
 40
1.0
 40
1.0
 40
1.0
 40
1.0
 10
14.3994183292
 20
12.4904963983
 30
0.0
 10
14.3994136641
 20
12.4915442689
 30
0.0
 10
14.3995273606
 20
12.4935584095
 30
0.0
 10
14.3999733945
 20
12.4959649956
 30
0.0
 10
14.4005224185
 20
12.4976485557
 30
0.0
 10
14.4009879896
 20
12.4986836684
 30
0.0
 10
14.4015102669
 20
12.4995198353
 30
0.0
 10
14.4019225702
 20
12.4999701178
 30
0.0
 10
14.4021369642
 20
12.5001444049
 30
0.0
  0
SPLINE
  5
319
100
AcDbEntity
  8
0
100
AcDbSpline
 62
7
  6
CONTINUOUS
 70
0
 71
3
 72
13
 73
9
 74
0
 42
0.0000001
 43
0.0000001
 44
0.0000000001
 40
0.0
 40
0.0
 40
0.0
 40
0.0
 40
0.0757744051
 40
0.1660165623
 40
0.2721815997
 40
0.3940973029
 40
0.6789709938
 40
1.0
 40
1.0
 40
1.0
 40
1.0
 10
14.4069533711
 20
12.3016893464
 30
0.0
 10
14.406734735
 20
12.3017927328
 30
0.0
 10
14.4062989422
 20
12.3021105386
 30
0.0
 10
14.4057375966
 20
12.3027797682
 30
0.0
 10
14.4052253151
 20
12.303661818
 30
0.0
 10
14.4045938072
 20
12.3051758942
 30
0.0
 10
14.4040370456
 20
12.3074438647
 30
0.0
 10
14.4038345378
 20
12.3093722589
 30
0.0
 10
14.4037892804
 20
12.3103958825
 30
0.0
  0
SPLINE
  5
31A
100
AcDbEntity
  8
0
100
AcDbSpline
 62
7
  6
CONTINUOUS
 70
0
 71
3
 72
15
 73
11
 74
0
 42
0.0000001
 43
0.0000001
 44
0.0000000001
 40
0.0
 40
0.0
 40
0.0
 40
0.0
 40
0.1639309795
 40
0.3218685964
 40
0.4700982075
 40
0.6057080284
 40
0.7270162887
 40
0.8329253766
 40
0.9234211679
 40
1.0
 40
1.0
 40
1.0
 40
1.0
 10
14.4367367242
 20
12.274224846
 30
0.0
 10
14.4366719861
 20
12.2752112725
 30
0.0
 10
14.4364855118
 20
12.2771447378
 30
0.0
 10
14.4360350257
 20
12.2799455206
 30
0.0
 10
14.435427174
 20
12.2825419853
 30
0.0
 10
14.4346725579
 20
12.2848691726
 30
0.0
 10
14.4337925541
 20
12.2868771987
 30
0.0
 10
14.4327992943
 20
12.288524159
 30
0.0
 10
14.4317173406
 20
12.2897765919
 30
0.0
 10
14.4308845981
 20
12.2903729918
 30
0.0
 10
14.4304671284
 20
12.2905704006
 30
0.0
  0
SPLINE
  5
31B
100
AcDbEntity
  8
0
100
AcDbSpline
 62
7
  6
CONTINUOUS
 70
0
 71
3
 72
13
 73
9
 74
0
 42
0.0000001
 43
0.0000001
 44
0.0000000001
 40
0.0
 40
0.0
 40
0.0
 40
0.0
 40
0.0918620284
 40
0.1970522122
 40
0.3140104825
 40
0.440863592
 40
0.7155756515
 40
1.0
 40
1.0
 40
1.0
 40
1.0
 10
14.4388530278
 20
12.1627928972
 30
0.0
 10
14.4392234865
 20
12.163332576
 30
0.0
 10
14.4399151423
 20
12.1645612565
 30
0.0
 10
14.4407746101
 20
12.1666309032
 30
0.0
 10
14.4415053786
 20
12.1690116416
 30
0.0
 10
14.4423003446
 20
12.1726232622
 30
0.0
 10
14.4428415804
 20
12.1774955949
 30
0.0
 10
14.4428228151
 20
12.1814899517
 30
0.0
 10
14.4426900865
 20
12.1835123619
 30
0.0
  0
SPLINE
  5
31C
100
AcDbEntity
  8
0
100
AcDbSpline
 62
7
  6
CONTINUOUS
 70
0
 71
3
 72
12
 73
8
 74
0
 42
0.0000001
 43
0.0000001
 44
0.0000000001
 40
0.0
 40
0.0
 40
0.0
 40
0.0
 40
0.2824732027
 40
0.5579165906
 40
0.8028331275
 40
0.9083272658
 40
1.0
 40
1.0
 40
1.0
 40
1.0
 10
14.4161791458
 20
12.1216092066
 30
0.0
 10
14.4160871556
 20
12.1226612692
 30
0.0
 10
14.416040462
 20
12.1247531537
 30
0.0
 10
14.4163323764
 20
12.1277466691
 30
0.0
 10
14.4168798143
 20
12.1300348547
 30
0.0
 10
14.4175026488
 20
12.1315685941
 30
0.0
 10
14.4178632585
 20
12.1322153017
 30
0.0
 10
14.4180572248
 20
12.1324978691
 30
0.0
  0
SPLINE
  5
31D
100
AcDbEntity
  8
0
100
AcDbSpline
 62
7
  6
CONTINUOUS
 70
0
 71
3
 72
15
 73
11
 74
0
 42
0.0000001
 43
0.0000001
 44
0.0000000001
 40
0.0
 40
0.0
 40
0.0
 40
0.0
 40
0.074522294
 40
0.1574887331
 40
0.2552625718
 40
0.37093777
 40
0.5050183916
 40
0.6566253346
 40
0.8229610459
 40
1.0
 40
1.0
 40
1.0
 40
1.0
 10
14.4388362212
 20
11.9409510246
 30
0.0
 10
14.4386290318
 20
11.9409364773
 30
0.0
 10
14.4381807335
 20
11.941003849
 30
0.0
 10
14.4375563272
 20
11.9413690675
 30
0.0
 10
14.4369775747
 20
11.9419687437
 30
0.0
 10
14.4364509927
 20
11.9427867409
 30
0.0
 10
14.4359807292
 20
11.9438047111
 30
0.0
 10
14.4355797406
 20
11.9450011233
 30
0.0
 10
14.4352556163
 20
11.9463434514
 30
0.0
 10
14.4351000226
 20
11.9472886876
 30
0.0
 10
14.435036352
 20
11.9477779839
 30
0.0
  0
SPLINE
  5
31E
100
AcDbEntity
  8
0
100
AcDbSpline
 62
7
  6
CONTINUOUS
 70
0
 71
3
 72
11
 73
7
 74
0
 42
0.0000001
 43
0.0000001
 44
0.0000000001
 40
0.0
 40
0.0
 40
0.0
 40
0.0
 40
0.2989962208
 40
0.5703301138
 40
0.8050166443
 40
1.0
 40
1.0
 40
1.0
 40
1.0
 10
14.4701923896
 20
11.9299881164
 30
0.0
 10
14.4700112644
 20
11.9311648962
 30
0.0
 10
14.4695702731
 20
11.9333963248
 30
0.0
 10
14.468641658
 20
11.936471947
 30
0.0
 10
14.467498805
 20
11.9390270238
 30
0.0
 10
14.4665303807
 20
11.9404583913
 30
0.0
 10
14.4660064426
 20
11.9410314161
 30
0.0
  0
SPLINE
  5
31F
100
AcDbEntity
  8
0
100
AcDbSpline
 62
7
  6
CONTINUOUS
 70
0
 71
3
 72
13
 73
9
 74
0
 42
0.0000001
 43
0.0000001
 44
0.0000000001
 40
0.0
 40
0.0
 40
0.0
 40
0.0
 40
0.1031616756
 40
0.2173210885
 40
0.4691910087
 40
0.7371464885
 40
0.8707880883
 40
1.0
 40
1.0
 40
1.0
 40
1.0
 10
14.481284493
 20
11.8221211242
 30
0.0
 10
14.4815977698
 20
11.8228345211
 30
0.0
 10
14.4821675178
 20
11.8243774496
 30
0.0
 10
14.4830995797
 20
11.8277996144
 30
0.0
 10
14.4838218922
 20
11.8325497213
 30
0.0
 10
14.4839722258
 20
11.8374944122
 30
0.0
 10
14.4837422501
 20
11.8414987405
 30
0.0
 10
14.4835086177
 20
11.8434718928
 30
0.0
 10
14.483360159
 20
11.8444364367
 30
0.0
  0
SPLINE
  5
320
100
AcDbEntity
  8
0
100
AcDbSpline
 62
7
  6
CONTINUOUS
 70
0
 71
3
 72
12
 73
8
 74
0
 42
0.0000001
 43
0.0000001
 44
0.0000000001
 40
0.0
 40
0.0
 40
0.0
 40
0.0
 40
0.2600059918
 40
0.528363313
 40
0.7818205337
 40
0.8966214167
 40
1.0
 40
1.0
 40
1.0
 40
1.0
 10
14.4624405118
 20
11.7697317384
 30
0.0
 10
14.4622601195
 20
11.7707409709
 30
0.0
 10
14.4620466048
 20
11.772820726
 30
0.0
 10
14.4620999476
 20
11.7759091594
 30
0.0
 10
14.462456599
 20
11.7784035582
 30
0.0
 10
14.4629356478
 20
11.7802022567
 30
0.0
 10
14.4632320558
 20
11.7810119397
 30
0.0
 10
14.4633959538
 20
11.7813851698
 30
0.0
  0
SPLINE
  5
321
100
AcDbEntity
  8
0
100
AcDbSpline
 62
7
  6
CONTINUOUS
 70
0
 71
3
 72
23
 73
19
 74
0
 42
0.0000001
 43
0.0000001
 44
0.0000000001
 40
0.0
 40
0.0
 40
0.0
 40
0.0
 40
0.0429976001
 40
0.0877407916
 40
0.1345833998
 40
0.1838118583
 40
0.2356558054
 40
0.2902901172
 40
0.3478367025
 40
0.408379887
 40
0.4719630694
 40
0.5385929943
 40
0.6082546585
 40
0.6809115014
 40
0.7565095075
 40
0.834976629
 40
0.9161896558
 40
1.0
 40
1.0
 40
1.0
 40
1.0
 10
14.9135229662
 20
14.3774686255
 30
0.0
 10
14.901658531
 20
14.3734966877
 30
0.0
 10
14.877897574
 20
14.3639907298
 30
0.0
 10
14.843215039
 20
14.3456694904
 30
0.0
 10
14.8089516338
 20
14.3230911099
 30
0.0
 10
14.7751814355
 20
14.2963266162
 30
0.0
 10
14.7419759476
 20
14.2654381861
 30
0.0
 10
14.7094075311
 20
14.2304985451
 30
0.0
 10
14.6775403272
 20
14.1915927312
 30
0.0
 10
14.646448455
 20
14.1488058329
 30
0.0
 10
14.6162002384
 20
14.1022372719
 30
0.0
 10
14.5868595508
 20
14.0519970287
 30
0.0
 10
14.558497386
 20
13.9981969546
 30
0.0
 10
14.5311752969
 20
13.9409577611
 30
0.0
 10
14.5049522699
 20
13.8804057961
 30
0.0
 10
14.4798949957
 20
13.8166804725
 30
0.0
 10
14.4560606922
 20
13.7499465004
 30
0.0
 10
14.4412512598
 20
13.7042598064
 30
0.0
 10
14.434050909
 20
13.6809594627
 30
0.0
  0
SPLINE
  5
322
100
AcDbEntity
  8
0
100
AcDbSpline
 62
7
  6
CONTINUOUS
 70
0
 71
3
 72
13
 73
9
 74
0
 42
0.0000001
 43
0.0000001
 44
0.0000000001
 40
0.0
 40
0.0
 40
0.0
 40
0.0
 40
0.1146012885
 40
0.2374459187
 40
0.4967345563
 40
0.7577259543
 40
0.8826347427
 40
1.0
 40
1.0
 40
1.0
 40
1.0
 10
14.5503710915
 20
11.511548141
 30
0.0
 10
14.5506155661
 20
11.5123986095
 30
0.0
 10
14.5510435796
 20
11.5141837674
 30
0.0
 10
14.5516726388
 20
11.5179697982
 30
0.0
 10
14.5520077519
 20
11.5229376925
 30
0.0
 10
14.5517666902
 20
11.5279265196
 30
0.0
 10
14.5512132065
 20
11.5317751612
 30
0.0
 10
14.550821375
 20
11.533606583
 30
0.0
 10
14.5505946483
 20
11.5344840151
 30
0.0
  0
SPLINE
  5
323
100
AcDbEntity
  8
0
100
AcDbSpline
 62
7
  6
CONTINUOUS
 70
0
 71
3
 72
11
 73
7
 74
0
 42
0.0000001
 43
0.0000001
 44
0.0000000001
 40
0.0
 40
0.0
 40
0.0
 40
0.0
 40
0.2386476978
 40
0.4997356221
 40
0.7609621175
 40
1.0
 40
1.0
 40
1.0
 40
1.0
 10
14.5361805835
 20
11.4502427275
 30
0.0
 10
14.5359141152
 20
11.4511622557
 30
0.0
 10
14.5355347785
 20
11.4531400953
 30
0.0
 10
14.5353464517
 20
11.4561938747
 30
0.0
 10
14.5355303797
 20
11.4592494958
 30
0.0
 10
14.5359067082
 20
11.4612300135
 30
0.0
 10
14.5361716311
 20
11.462151617
 30
0.0
  0
SPLINE
  5
324
100
AcDbEntity
  8
0
100
AcDbSpline
 62
7
  6
CONTINUOUS
 70
0
 71
3
 72
21
 73
17
 74
0
 42
0.0000001
 43
0.0000001
 44
0.0000000001
 40
0.0
 40
0.0
 40
0.0
 40
0.0
 40
0.0597428904
 40
0.1185390154
 40
0.1766699354
 40
0.2344308768
 40
0.2921237098
 40
0.3500509564
 40
0.4085112181
 40
0.4677938625
 40
0.5281718238
 40
0.5898992497
 40
0.7182530461
 40
0.7853448167
 40
0.8545828644
 40
1.0
 40
1.0
 40
1.0
 40
1.0
 10
14.9654888617
 20
10.6267465001
 30
0.0
 10
14.9729201228
 20
10.6242590272
 30
0.0
 10
14.9878473048
 20
10.6198479018
 30
0.0
 10
15.0105205982
 20
10.6149547866
 30
0.0
 10
15.0332475728
 20
10.6118552655
 30
0.0
 10
15.0560030603
 20
10.6105531546
 30
0.0
 10
15.078763819
 20
10.6110474729
 30
0.0
 10
15.1015063668
 20
10.6133374885
 30
0.0
 10
15.1242074193
 20
10.6174220147
 30
0.0
 10
15.1468430612
 20
10.623297816
 30
0.0
 10
15.1693924282
 20
10.6309552944
 30
0.0
 10
15.1997010352
 20
10.6436888471
 30
0.0
 10
15.2294033775
 20
10.6599093328
 30
0.0
 10
15.2582881561
 20
10.6791957565
 30
0.0
 10
15.2878323452
 20
10.7014256678
 30
0.0
 10
15.3089426752
 20
10.7201499676
 30
0.0
 10
15.32263257
 20
10.7334324031
 30
0.0
  0
SPLINE
  5
325
100
AcDbEntity
  8
0
100
AcDbSpline
 62
7
  6
CONTINUOUS
 70
0
 71
3
 72
13
 73
9
 74
0
 42
0.0000001
 43
0.0000001
 44
0.0000000001
 40
0.0
 40
0.0
 40
0.0
 40
0.0
 40
0.1263270721
 40
0.2578575259
 40
0.5241654933
 40
0.7778644424
 40
0.8941161514
 40
1.0
 40
1.0
 40
1.0
 40
1.0
 10
14.6430934076
 20
11.2446474772
 30
0.0
 10
14.6432610591
 20
11.2455950619
 30
0.0
 10
14.643533292
 20
11.2475421145
 30
0.0
 10
14.6438412275
 20
11.251525005
 30
0.0
 10
14.6437835344
 20
11.2564994979
 30
0.0
 10
14.6431522671
 20
11.2613204888
 30
0.0
 10
14.6422902975
 20
11.2648441845
 30
0.0
 10
14.6417528233
 20
11.2664518959
 30
0.0
 10
14.6414550846
 20
11.267201505
 30
0.0
  0
SPLINE
  5
326
100
AcDbEntity
  8
0
100
AcDbSpline
 62
7
  6
CONTINUOUS
 70
0
 71
3
 72
12
 73
8
 74
0
 42
0.0000001
 43
0.0000001
 44
0.0000000001
 40
0.0
 40
0.0
 40
0.0
 40
0.0
 40
0.1031604126
 40
0.2177920742
 40
0.4711000428
 40
0.7395908509
 40
1.0
 40
1.0
 40
1.0
 40
1.0
 10
14.6341765661
 20
11.1771053767
 30
0.0
 10
14.6340120528
 20
11.1774771042
 30
0.0
 10
14.6337143619
 20
11.1782841066
 30
0.0
 10
14.6332325087
 20
11.1800786172
 30
0.0
 10
14.6328722137
 20
11.1825701362
 30
0.0
 10
14.6328144136
 20
11.1856579968
 30
0.0
 10
14.6330248363
 20
11.187738797
 30
0.0
 10
14.6332036105
 20
11.1887492487
 30
0.0
  0
SPLINE
  5
327
100
AcDbEntity
  8
0
100
AcDbSpline
 62
7
  6
CONTINUOUS
 70
0
 71
3
 72
9
 73
5
 74
0
 42
0.0000001
 43
0.0000001
 44
0.0000000001
 40
0.0
 40
0.0
 40
0.0
 40
0.0
 40
0.4890581043
 40
1.0
 40
1.0
 40
1.0
 40
1.0
 10
14.6892213526
 20
11.0649358952
 30
0.0
 10
14.6794651125
 20
11.0828212049
 30
0.0
 10
14.6603571655
 20
11.1198553073
 30
0.0
 10
14.642790599
 20
11.1576414606
 30
0.0
 10
14.6341765661
 20
11.1771053767
 30
0.0
  0
SPLINE
  5
328
100
AcDbEntity
  8
0
100
AcDbSpline
 62
7
  6
CONTINUOUS
 70
0
 71
3
 72
9
 73
5
 74
0
 42
0.0000001
 43
0.0000001
 44
0.0000000001
 40
0.0
 40
0.0
 40
0.0
 40
0.0
 40
0.4971170947
 40
1.0
 40
1.0
 40
1.0
 40
1.0
 10
15.9063137888
 20
10.9773067624
 30
0.0
 10
15.8971859848
 20
10.9773072515
 30
0.0
 10
15.878808813
 20
10.9783938007
 30
0.0
 10
15.8606859563
 20
10.9816131247
 30
0.0
 10
15.8516987802
 20
10.9837324123
 30
0.0
  0
SPLINE
  5
329
100
AcDbEntity
  8
0
100
AcDbSpline
 62
7
  6
CONTINUOUS
 70
0
 71
3
 72
38
 73
34
 74
0
 42
0.0000001
 43
0.0000001
 44
0.0000000001
 40
0.0
 40
0.0
 40
0.0
 40
0.0
 40
0.0077902653
 40
0.0157568218
 40
0.0323545942
 40
0.0500608052
 40
0.0690667777
 40
0.0895081921
 40
0.1114695916
 40
0.1349958414
 40
0.1600973067
 40
0.1867570765
 40
0.2149357098
 40
0.244573925
 40
0.2755976744
 40
0.3079175992
 40
0.3414345912
 40
0.3760375313
 40
0.4116087796
 40
0.4480216273
 40
0.4851449085
 40
0.5609633142
 40
0.63793595
 40
0.6764942894
 40
0.7149027956
 40
0.7530164687
 40
0.7906922061
 40
0.8277890193
 40
0.8641685203
 40
0.8996997686
 40
0.934264013
 40
0.9677411041
 40
1.0
 40
1.0
 40
1.0
 40
1.0
 10
15.846977511
 20
10.984894381
 30
0.0
 10
15.8402856643
 20
10.9866103346
 30
0.0
 10
15.8268876466
 20
10.9906411951
 30
0.0
 10
15.8001214691
 20
11.0010401828
 30
0.0
 10
15.7668166058
 20
11.0185443941
 30
0.0
 10
15.7281512372
 20
11.0459444664
 30
0.0
 10
15.6903577284
 20
11.0798613977
 30
0.0
 10
15.6535919132
 20
11.1201378756
 30
0.0
 10
15.6179848734
 20
11.1665879518
 30
0.0
 10
15.5836854775
 20
11.2190129329
 30
0.0
 10
15.5508329687
 20
11.2771829326
 30
0.0
 10
15.5195691569
 20
11.3408454264
 30
0.0
 10
15.4900308624
 20
11.4097213899
 30
0.0
 10
15.4623456322
 20
11.4835070147
 30
0.0
 10
15.4366405559
 20
11.5618768801
 30
0.0
 10
15.4130247258
 20
11.6444823834
 30
0.0
 10
15.3916104882
 20
11.7309572905
 30
0.0
 10
15.3724863881
 20
11.820915582
 30
0.0
 10
15.3557462928
 20
11.9139568596
 30
0.0
 10
15.3414569954
 20
12.0096658724
 30
0.0
 10
15.3256598535
 20
12.1411821553
 30
0.0
 10
15.31254278
 20
12.3091729814
 30
0.0
 10
15.3082363451
 20
12.4788867966
 30
0.0
 10
15.31008562
 20
12.6153995539
 30
0.0
 10
15.3141354096
 20
12.7173839983
 30
0.0
 10
15.3208271093
 20
12.8184444326
 30
0.0
 10
15.3301309449
 20
12.9181303606
 30
0.0
 10
15.3420063334
 20
13.0159942842
 30
0.0
 10
15.3563952823
 20
13.1115984653
 30
0.0
 10
15.3732392672
 20
13.2045200857
 30
0.0
 10
15.3924604716
 20
13.2943505288
 30
0.0
 10
15.413974777
 20
13.3806718879
 30
0.0
 10
15.4300859576
 20
13.4367121989
 30
0.0
 10
15.4385320857
 20
13.4640438792
 30
0.0
  0
SPLINE
  5
32A
100
AcDbEntity
  8
0
100
AcDbSpline
 62
7
  6
CONTINUOUS
 70
0
 71
3
 72
13
 73
9
 74
0
 42
0.0000001
 43
0.0000001
 44
0.0000000001
 40
0.0
 40
0.0
 40
0.0
 40
0.0
 40
0.2791031372
 40
0.5522216394
 40
0.6796774333
 40
0.7980956888
 40
0.9054638144
 40
1.0
 40
1.0
 40
1.0
 40
1.0
 10
14.7553990309
 20
11.0330839725
 30
0.0
 10
14.7555721243
 20
11.0350999667
 30
0.0
 10
14.7556663639
 20
11.0391126552
 30
0.0
 10
14.7552180075
 20
11.0440330916
 30
0.0
 10
14.7544959784
 20
11.0477287029
 30
0.0
 10
14.7538118101
 20
11.0501997816
 30
0.0
 10
14.7529930989
 20
11.052376234
 30
0.0
 10
14.7523285401
 20
11.0536860775
 30
0.0
 10
14.7519704309
 20
11.0542704349
 30
0.0
  0
SPLINE
  5
32B
100
AcDbEntity
  8
0
100
AcDbSpline
 62
7
  6
CONTINUOUS
 70
0
 71
3
 72
12
 73
8
 74
0
 42
0.0000001
 43
0.0000001
 44
0.0000000001
 40
0.0
 40
0.0
 40
0.0
 40
0.0
 40
0.0914604616
 40
0.1967790997
 40
0.4415257905
 40
0.7170977961
 40
1.0
 40
1.0
 40
1.0
 40
1.0
 10
14.7521455648
 20
10.9622570989
 30
0.0
 10
14.7519511184
 20
10.9625378229
 30
0.0
 10
14.7515894356
 20
10.9631811979
 30
0.0
 10
14.7509641262
 20
10.9647093481
 30
0.0
 10
14.7504133276
 20
10.9669928083
 30
0.0
 10
14.7501171129
 20
10.9699833751
 30
0.0
 10
14.7501607687
 20
10.9720746482
 30
0.0
 10
14.7502511289
 20
10.9731270603
 30
0.0
  0
SPLINE
  5
32C
100
AcDbEntity
  8
0
100
AcDbSpline
 62
7
  6
CONTINUOUS
 70
0
 71
3
 72
9
 73
5
 74
0
 42
0.0000001
 43
0.0000001
 44
0.0000000001
 40
0.0
 40
0.0
 40
0.0
 40
0.0
 40
0.4865762855
 40
1.0
 40
1.0
 40
1.0
 40
1.0
 10
14.8150692508
 20
10.8819273762
 30
0.0
 10
14.8040291005
 20
10.8942677658
 30
0.0
 10
14.7822319064
 20
10.9204367562
 30
0.0
 10
14.7620940514
 20
10.9478943777
 30
0.0
 10
14.7521455648
 20
10.9622570989
 30
0.0
  0
SPLINE
  5
32D
100
AcDbEntity
  8
0
100
AcDbSpline
 62
7
  6
CONTINUOUS
 70
0
 71
3
 72
40
 73
36
 74
0
 42
0.0000001
 43
0.0000001
 44
0.0000000001
 40
0.0
 40
0.0
 40
0.0
 40
0.0
 40
0.0078889405
 40
0.0159831679
 40
0.0329073976
 40
0.051002454
 40
0.0704310897
 40
0.0913021254
 40
0.1136828438
 40
0.137601993
 40
0.1630608061
 40
0.1900339032
 40
0.2184773998
 40
0.2483286556
 40
0.2795118791
 40
0.3119378161
 40
0.3455073741
 40
0.3801118375
 40
0.4156349513
 40
0.4519538315
 40
0.4889399232
 40
0.5264604832
 40
0.5643788482
 40
0.6025562443
 40
0.640851824
 40
0.6791243107
 40
0.7172322152
 40
0.7550354007
 40
0.7923961189
 40
0.8291785916
 40
0.8652500236
 40
0.9004834518
 40
0.9347643816
 40
0.9679784002
 40
1.0
 40
1.0
 40
1.0
 40
1.0
 10
16.0287019577
 20
14.377468368
 30
0.0
 10
16.0367888273
 20
14.3747614426
 30
0.0
 10
16.0529644205
 20
14.3686323852
 30
0.0
 10
16.0852302511
 20
14.3535930018
 30
0.0
 10
16.125265951
 20
14.3294403118
 30
0.0
 10
16.1716441394
 20
14.2930014058
 30
0.0
 10
16.2169056438
 20
14.248849504
 30
0.0
 10
16.2608873241
 20
14.1971981732
 30
0.0
 10
16.3034133225
 20
14.1382593414
 30
0.0
 10
16.3443249798
 20
14.0722895299
 30
0.0
 10
16.383444589
 20
13.999562132
 30
0.0
 10
16.4206175581
 20
13.9203902292
 30
0.0
 10
16.4556773327
 20
13.8351086656
 30
0.0
 10
16.4884807036
 20
13.7440855498
 30
0.0
 10
16.518879489
 20
13.6477109309
 30
0.0
 10
16.5467470408
 20
13.5464020127
 30
0.0
 10
16.5719577493
 20
13.4405960269
 30
0.0
 10
16.5944050053
 20
13.3307518759
 30
0.0
 10
16.6139884569
 20
13.2173453906
 30
0.0
 10
16.630624005
 20
13.1008690084
 30
0.0
 10
16.644238377
 20
12.9818282452
 30
0.0
 10
16.6547717747
 20
12.8607403879
 30
0.0
 10
16.6621792654
 20
12.7381314516
 30
0.0
 10
16.6664265493
 20
12.6145344103
 30
0.0
 10
16.667497671
 20
12.4904863513
 30
0.0
 10
16.6653845543
 20
12.3665267836
 30
0.0
 10
16.6601007381
 20
12.2431944286
 30
0.0
 10
16.6516644197
 20
12.1210251664
 30
0.0
 10
16.6401175237
 20
12.0005493123
 30
0.0
 10
16.6255045621
 20
11.8822921558
 30
0.0
 10
16.6078977288
 20
11.7667682042
 30
0.0
 10
16.5873656816
 20
11.654474981
 30
0.0
 10
16.5640013726
 20
11.5458922181
 30
0.0
 10
16.537903265
 20
11.4415091373
 30
0.0
 10
16.5183940532
 20
11.3737225371
 30
0.0
 10
16.5081740279
 20
11.3406505232
 30
0.0
  0
SPLINE
  5
32E
100
AcDbEntity
  8
0
100
AcDbSpline
 62
7
  6
CONTINUOUS
 70
0
 71
3
 72
13
 73
9
 74
0
 42
0.0000001
 43
0.0000001
 44
0.0000000001
 40
0.0
 40
0.0
 40
0.0
 40
0.0
 40
0.0806007429
 40
0.176270858
 40
0.2868436094
 40
0.4111848398
 40
0.6931789691
 40
1.0
 40
1.0
 40
1.0
 40
1.0
 10
14.8849317682
 20
10.8150877949
 30
0.0
 10
14.8847171339
 20
10.815259939
 30
0.0
 10
14.8843040082
 20
10.8157062936
 30
0.0
 10
14.8837804498
 20
10.8165374212
 30
0.0
 10
14.8833133395
 20
10.8175679862
 30
0.0
 10
14.8827616567
 20
10.8192466807
 30
0.0
 10
14.8823120994
 20
10.8216494951
 30
0.0
 10
14.8821955599
 20
10.8236614151
 30
0.0
 10
14.8821986479
 20
10.8247087762
 30
0.0
  0
SPLINE
  5
32F
100
AcDbEntity
  8
0
100
AcDbSpline
 62
7
  6
CONTINUOUS
 70
0
 71
3
 72
9
 73
5
 74
0
 42
0.0000001
 43
0.0000001
 44
0.0000000001
 40
0.0
 40
0.0
 40
0.0
 40
0.0
 40
0.4872977557
 40
1.0
 40
1.0
 40
1.0
 40
1.0
 10
14.9529842867
 20
10.7701086253
 30
0.0
 10
14.941231593
 20
10.7762612418
 30
0.0
 10
14.9177911309
 20
10.790211423
 30
0.0
 10
14.8958198159
 20
10.8063552046
 30
0.0
 10
14.8849317682
 20
10.8150877949
 30
0.0
  0
SPLINE
  5
330
100
AcDbEntity
  8
0
100
AcDbSpline
 62
7
  6
CONTINUOUS
 70
0
 71
3
 72
46
 73
42
 74
0
 42
0.0000001
 43
0.0000001
 44
0.0000000001
 40
0.0
 40
0.0
 40
0.0
 40
0.0
 40
0.0083711681
 40
0.016604663
 40
0.024744568
 40
0.0328369021
 40
0.040928547
 40
0.0490664606
 40
0.0572967302
 40
0.06566334
 40
0.0742075932
 40
0.0829677644
 40
0.1012613404
 40
0.1108616444
 40
0.1207933257
 40
0.1417207543
 40
0.1527519806
 40
0.1641741644
 40
0.1882174532
 40
0.2138904533
 40
0.2411983917
 40
0.2701195448
 40
0.300611583
 40
0.3326138333
 40
0.3660502021
 40
0.4008320578
 40
0.4368586222
 40
0.474020608
 40
0.5121990521
 40
0.5512693307
 40
0.591099416
 40
0.631553642
 40
0.672491259
 40
0.7137693637
 40
0.7552424346
 40
0.7967639887
 40
0.838187211
 40
0.8793655519
 40
0.9201548683
 40
0.9604128656
 40
1.0
 40
1.0
 40
1.0
 40
1.0
 10
15.9767360885
 20
10.6267462402
 30
0.0
 10
15.9689182797
 20
10.6241290191
 30
0.0
 10
15.9532089204
 20
10.6195176993
 30
0.0
 10
15.9293329395
 20
10.614514868
 30
0.0
 10
15.9053998872
 20
10.6115002507
 30
0.0
 10
15.8814392626
 20
10.6104756164
 30
0.0
 10
15.8574780417
 20
10.6114421334
 30
0.0
 10
15.8335440862
 20
10.6144006538
 30
0.0
 10
15.8096653346
 20
10.6193487523
 30
0.0
 10
15.7858683737
 20
10.6262755456
 30
0.0
 10
15.7621777331
 20
10.6351718837
 30
0.0
 10
15.7303141398
 20
10.6498534991
 30
0.0
 10
15.6991840284
 20
10.668367838
 30
0.0
 10
15.6689887604
 20
10.6902074998
 30
0.0
 10
15.6380654306
 20
10.7153673625
 30
0.0
 10
15.6082155196
 20
10.743961132
 30
0.0
 10
15.5794277184
 20
10.7755406123
 30
0.0
 10
15.5500522812
 20
10.810686124
 30
0.0
 10
15.5142939879
 20
10.859207324
 30
0.0
 10
15.4736286686
 20
10.9233039982
 30
0.0
 10
15.4346653773
 20
10.9939817586
 30
0.0
 10
15.3975568149
 20
11.0709470045
 30
0.0
 10
15.3624568006
 20
11.1538877325
 30
0.0
 10
15.329508094
 20
11.2424623381
 30
0.0
 10
15.2988468187
 20
11.3363061988
 30
0.0
 10
15.2706020435
 20
11.4350316853
 30
0.0
 10
15.2448882719
 20
11.5382297344
 30
0.0
 10
15.2218172403
 20
11.6454728912
 30
0.0
 10
15.201479805
 20
11.756315478
 30
0.0
 10
15.1839674543
 20
11.8702974683
 30
0.0
 10
15.1693462867
 20
11.9869445697
 30
0.0
 10
15.1576851616
 20
12.1057720093
 30
0.0
 10
15.1490249254
 20
12.2262850739
 30
0.0
 10
15.1434098216
 20
12.3479825123
 30
0.0
 10
15.1408555735
 20
12.4703576661
 30
0.0
 10
15.1413803192
 20
12.5929012254
 30
0.0
 10
15.1449749574
 20
12.7151028883
 30
0.0
 10
15.1516303232
 20
12.8364540748
 30
0.0
 10
15.161313853
 20
12.956450616
 30
0.0
 10
15.173989029
 20
13.0745917242
 30
0.0
 10
15.1844970303
 20
13.1525332328
 30
0.0
 10
15.1902546607
 20
13.1910927768
 30
0.0
  0
SPLINE
  5
331
100
AcDbEntity
  8
0
100
AcDbSpline
 62
7
  6
CONTINUOUS
 70
0
 71
3
 72
11
 73
7
 74
0
 42
0.0000001
 43
0.0000001
 44
0.0000000001
 40
0.0
 40
0.0
 40
0.0
 40
0.0
 40
0.2625971683
 40
0.5175509595
 40
0.7637533041
 40
1.0
 40
1.0
 40
1.0
 40
1.0
 10
15.1902546607
 20
13.1910927768
 30
0.0
 10
15.1968917634
 20
13.2355422524
 30
0.0
 10
15.211411217
 20
13.3229407954
 30
0.0
 10
15.2373369081
 20
13.4510851201
 30
0.0
 10
15.2669758624
 20
13.5737889377
 30
0.0
 10
15.2895795802
 20
13.6532338751
 30
0.0
 10
15.3015171708
 20
13.6918639326
 30
0.0
  0
SPLINE
  5
332
100
AcDbEntity
  8
0
100
AcDbSpline
 62
7
  6
CONTINUOUS
 70
0
 71
3
 72
13
 73
9
 74
0
 42
0.0000001
 43
0.0000001
 44
0.0000000001
 40
0.0
 40
0.0
 40
0.0
 40
0.0
 40
0.1588037908
 40
0.2616540518
 40
0.3815008648
 40
0.5175907288
 40
0.6683192073
 40
1.0
 40
1.0
 40
1.0
 40
1.0
 10
15.0267317822
 20
10.7420294694
 30
0.0
 10
15.0262662602
 20
10.7421413128
 30
0.0
 10
15.025598447
 20
10.7426694622
 30
0.0
 10
15.024940714
 20
10.743605455
 30
0.0
 10
15.0244539545
 20
10.7445783187
 30
0.0
 10
15.024034843
 20
10.745731783
 30
0.0
 10
15.0235625054
 20
10.747537867
 30
0.0
 10
15.0233588702
 20
10.7489841817
 30
0.0
 10
15.023279428
 20
10.7499809875
 30
0.0
  0
SPLINE
  5
333
100
AcDbEntity
  8
0
100
AcDbSpline
 62
7
  6
CONTINUOUS
 70
0
 71
3
 72
26
 73
22
 74
0
 42
0.0000001
 43
0.0000001
 44
0.0000000001
 40
0.0
 40
0.0
 40
0.0
 40
0.0
 40
0.0159134934
 40
0.0321154462
 40
0.0488776047
 40
0.0664353044
 40
0.1046330463
 40
0.1256003307
 40
0.1479134586
 40
0.1967265784
 40
0.2512479666
 40
0.3112946224
 40
0.3764971903
 40
0.4463124549
 40
0.5200872506
 40
0.5970662226
 40
0.6764125538
 40
0.757276523
 40
0.8388038135
 40
0.9200701751
 40
1.0
 40
1.0
 40
1.0
 40
1.0
 10
15.7031375879
 20
11.4670403198
 30
0.0
 10
15.7019797912
 20
11.4670399397
 30
0.0
 10
15.6996395534
 20
11.4672127259
 30
0.0
 10
15.696158018
 20
11.4679916731
 30
0.0
 10
15.6927055431
 20
11.4692853495
 30
0.0
 10
15.688028195
 20
11.4717514599
 30
0.0
 10
15.683583165
 20
11.4752046857
 30
0.0
 10
15.6794132606
 20
11.4794222794
 30
0.0
 10
15.6750889089
 20
11.4845493785
 30
0.0
 10
15.6699601515
 20
11.4921483961
 30
0.0
 10
15.6644225344
 20
11.5026866714
 30
0.0
 10
15.6593839982
 20
11.5147724486
 30
0.0
 10
15.6549161794
 20
11.5282546799
 30
0.0
 10
15.6510711238
 20
11.5429603726
 30
0.0
 10
15.6479037583
 20
11.5587003729
 30
0.0
 10
15.6454540125
 20
11.5752682185
 30
0.0
 10
15.643753451
 20
11.5924474677
 30
0.0
 10
15.6428274785
 20
11.610016833
 30
0.0
 10
15.6426865629
 20
11.6277497361
 30
0.0
 10
15.6433362586
 20
11.6454028512
 30
0.0
 10
15.6442954085
 20
11.6570964977
 30
0.0
 10
15.6449107616
 20
11.6628791967
 30
0.0
  0
SPLINE
  5
334
100
AcDbEntity
  8
0
100
AcDbSpline
 62
7
  6
CONTINUOUS
 70
0
 71
3
 72
15
 73
11
 74
0
 42
0.0000001
 43
0.0000001
 44
0.0000000001
 40
0.0
 40
0.0
 40
0.0
 40
0.0
 40
0.1076160552
 40
0.2177576485
 40
0.3318945941
 40
0.4513160183
 40
0.5771023168
 40
0.7101218464
 40
0.8509604143
 40
1.0
 40
1.0
 40
1.0
 40
1.0
 10
15.9187003612
 20
11.3882982727
 30
0.0
 10
15.9109595371
 20
11.3888875309
 30
0.0
 10
15.8953589857
 20
11.3911514784
 30
0.0
 10
15.8722590835
 20
11.3976768608
 30
0.0
 10
15.8493571312
 20
11.4073296839
 30
0.0
 10
15.8267217149
 20
11.4200661232
 30
0.0
 10
15.8044059505
 20
11.43583996
 30
0.0
 10
15.7824715784
 20
11.4546054529
 30
0.0
 10
15.7609740434
 20
11.4762924118
 30
0.0
 10
15.747364801
 20
11.4921947763
 30
0.0
 10
15.7406380165
 20
11.5005818935
 30
0.0
  0
LINE
  5
335
100
AcDbEntity
  8
0
100
AcDbLine
 62
7
  6
CONTINUOUS
 10
14.4905050127
 20
13.2205578101
 11
14.4916242109
 21
13.2248378795
  0
SPLINE
  5
336
100
AcDbEntity
  8
0
100
AcDbSpline
 62
7
  6
CONTINUOUS
 70
0
 71
3
 72
13
 73
9
 74
0
 42
0.0000001
 43
0.0000001
 44
0.0000000001
 40
0.0
 40
0.0
 40
0.0
 40
0.0
 40
0.0809910229
 40
0.1688983351
 40
0.2689605452
 40
0.3841108681
 40
0.6630989184
 40
1.0
 40
1.0
 40
1.0
 40
1.0
 10
14.498315925
 20
11.6048413741
 30
0.0
 10
14.4981452288
 20
11.6048413589
 30
0.0
 10
14.4977869476
 20
11.6049026942
 30
0.0
 10
14.497278984
 20
11.6051699075
 30
0.0
 10
14.4967987316
 20
11.6055983082
 30
0.0
 10
14.4961567189
 20
11.6064237871
 30
0.0
 10
14.4954846303
 20
11.6078261351
 30
0.0
 10
14.4951184387
 20
11.6090749595
 30
0.0
 10
14.4949598228
 20
11.6097670673
 30
0.0
  0
SPLINE
  5
337
100
AcDbEntity
  8
0
100
AcDbSpline
 62
7
  6
CONTINUOUS
 70
0
 71
3
 72
13
 73
9
 74
0
 42
0.0000001
 43
0.0000001
 44
0.0000000001
 40
0.0
 40
0.0
 40
0.0
 40
0.0
 40
0.0888360699
 40
0.1826839097
 40
0.2857508362
 40
0.4010265972
 40
0.6732308926
 40
1.0
 40
1.0
 40
1.0
 40
1.0
 10
14.5838128803
 20
11.307888827
 30
0.0
 10
14.583677341
 20
11.3078885179
 30
0.0
 10
14.5833972947
 20
11.3079267643
 30
0.0
 10
14.5829909385
 20
11.3080950545
 30
0.0
 10
14.5825974363
 20
11.3083688174
 30
0.0
 10
14.5820650643
 20
11.3088991071
 30
0.0
 10
14.5814679999
 20
11.3098231403
 30
0.0
 10
14.581108188
 20
11.3106662287
 30
0.0
 10
14.5809407493
 20
11.3111358317
 30
0.0
  0
SPLINE
  5
338
100
AcDbEntity
  8
0
100
AcDbSpline
 62
7
  6
CONTINUOUS
 70
0
 71
3
 72
11
 73
7
 74
0
 42
0.0000001
 43
0.0000001
 44
0.0000000001
 40
0.0
 40
0.0
 40
0.0
 40
0.0
 40
0.2003248564
 40
0.425458212
 40
0.6903099082
 40
1.0
 40
1.0
 40
1.0
 40
1.0
 10
14.6914839652
 20
11.0630742929
 30
0.0
 10
14.69127966
 20
11.0630742975
 30
0.0
 10
14.6908424183
 20
11.0631673139
 30
0.0
 10
14.6902429607
 20
11.0635564261
 30
0.0
 10
14.689687012
 20
11.0641608835
 30
0.0
 10
14.6893726023
 20
11.0646586216
 30
0.0
 10
14.6892213526
 20
11.0649358952
 30
0.0
  0
SPLINE
  5
339
100
AcDbEntity
  8
0
100
AcDbSpline
 62
7
  6
CONTINUOUS
 70
0
 71
3
 72
9
 73
5
 74
0
 42
0.0000001
 43
0.0000001
 44
0.0000000001
 40
0.0
 40
0.0
 40
0.0
 40
0.0
 40
0.4970091396
 40
1.0
 40
1.0
 40
1.0
 40
1.0
 10
15.0911748084
 20
10.7343050009
 30
0.0
 10
15.0804033141
 20
10.7343050222
 30
0.0
 10
15.0587113281
 20
10.7356113022
 30
0.0
 10
15.0373312955
 20
10.7394828952
 30
0.0
 10
15.0267317822
 20
10.7420294694
 30
0.0
  0
SPLINE
  5
33A
100
AcDbEntity
  8
0
100
AcDbSpline
 62
7
  6
CONTINUOUS
 70
0
 71
3
 72
16
 73
12
 74
0
 42
0.0000001
 43
0.0000001
 44
0.0000000001
 40
0.0
 40
0.0
 40
0.0
 40
0.0
 40
0.1748770806
 40
0.3400621167
 40
0.4914905589
 40
0.5610729377
 40
0.6263051313
 40
0.7432547778
 40
0.8424602278
 40
0.9262579488
 40
1.0
 40
1.0
 40
1.0
 40
1.0
 10
15.0817080565
 20
14.2800727474
 30
0.0
 10
15.0817650397
 20
14.2805688502
 30
0.0
 10
15.0819079572
 20
14.281530275
 30
0.0
 10
15.0822135279
 20
14.2829012985
 30
0.0
 10
15.0825424384
 20
14.2839558076
 30
0.0
 10
15.0828480373
 20
14.2847144004
 30
0.0
 10
15.0831557882
 20
14.2853643891
 30
0.0
 10
15.0835685174
 20
14.2860575754
 30
0.0
 10
15.0841366086
 20
14.2867071224
 30
0.0
 10
15.0847500602
 20
14.2871271369
 30
0.0
 10
15.0852001819
 20
14.2872388228
 30
0.0
 10
15.0854107054
 20
14.2872433273
 30
0.0
  0
SPLINE
  5
33B
100
AcDbEntity
  8
0
100
AcDbSpline
 62
7
  6
CONTINUOUS
 70
0
 71
3
 72
9
 73
5
 74
0
 42
0.0000001
 43
0.0000001
 44
0.0000000001
 40
0.0
 40
0.0
 40
0.0
 40
0.0
 40
0.5100568359
 40
1.0
 40
1.0
 40
1.0
 40
1.0
 10
14.9417079996
 20
14.2453464146
 30
0.0
 10
14.9528869001
 20
14.2516986469
 30
0.0
 10
14.9754528023
 20
14.2630548856
 30
0.0
 10
14.99917038
 20
14.2717900849
 30
0.0
 10
15.0110013513
 20
14.2753348641
 30
0.0
  0
SPLINE
  5
33C
100
AcDbEntity
  8
0
100
AcDbSpline
 62
7
  6
CONTINUOUS
 70
0
 71
3
 72
13
 73
9
 74
0
 42
0.0000001
 43
0.0000001
 44
0.0000000001
 40
0.0
 40
0.0
 40
0.0
 40
0.0
 40
0.3168384294
 40
0.6009740964
 40
0.723672103
 40
0.831178942
 40
0.922989676
 40
1.0
 40
1.0
 40
1.0
 40
1.0
 10
14.9386668257
 20
14.2363556731
 30
0.0
 10
14.9386979928
 20
14.2373878586
 30
0.0
 10
14.9388756706
 20
14.2393437204
 30
0.0
 10
14.9394013538
 20
14.2416548956
 30
0.0
 10
14.9400099106
 20
14.2432201466
 30
0.0
 10
14.9405094375
 20
14.2441473722
 30
0.0
 10
14.9410599924
 20
14.2448653543
 30
0.0
 10
14.9414897744
 20
14.2452224116
 30
0.0
 10
14.9417079996
 20
14.2453464146
 30
0.0
  0
SPLINE
  5
33D
100
AcDbEntity
  8
0
100
AcDbSpline
 62
7
  6
CONTINUOUS
 70
0
 71
3
 72
9
 73
5
 74
0
 42
0.0000001
 43
0.0000001
 44
0.0000000001
 40
0.0
 40
0.0
 40
0.0
 40
0.0
 40
0.5138186405
 40
1.0
 40
1.0
 40
1.0
 40
1.0
 10
14.8045377105
 20
14.1276417186
 30
0.0
 10
14.81491147
 20
14.1397691716
 30
0.0
 10
14.8358702064
 20
14.1627286997
 30
0.0
 10
14.8584790706
 20
14.1840790929
 30
0.0
 10
14.8698888326
 20
14.1939707892
 30
0.0
  0
SPLINE
  5
33E
100
AcDbEntity
  8
0
100
AcDbSpline
 62
7
  6
CONTINUOUS
 70
0
 71
3
 72
12
 73
8
 74
0
 42
0.0000001
 43
0.0000001
 44
0.0000000001
 40
0.0
 40
0.0
 40
0.0
 40
0.0
 40
0.2924647371
 40
0.5707993268
 40
0.8116886218
 40
0.9131292535
 40
1.0
 40
1.0
 40
1.0
 40
1.0
 10
14.8022909256
 20
14.1172237539
 30
0.0
 10
14.8022363041
 20
14.1182797385
 30
0.0
 10
14.8022587604
 20
14.1203498249
 30
0.0
 10
14.8026482359
 20
14.1232647493
 30
0.0
 10
14.8032713184
 20
14.1254364047
 30
0.0
 10
14.803949339
 20
14.12683574
 30
0.0
 10
14.8043335517
 20
14.1274030466
 30
0.0
 10
14.8045377105
 20
14.1276417186
 30
0.0
  0
SPLINE
  5
33F
100
AcDbEntity
  8
0
100
AcDbSpline
 62
7
  6
CONTINUOUS
 70
0
 71
3
 72
11
 73
7
 74
0
 42
0.0000001
 43
0.0000001
 44
0.0000000001
 40
0.0
 40
0.0
 40
0.0
 40
0.0
 40
0.2240854499
 40
0.4717056772
 40
0.7343020596
 40
1.0
 40
1.0
 40
1.0
 40
1.0
 10
14.8034945595
 20
14.0403141612
 30
0.0
 10
14.8038988145
 20
14.0414588951
 30
0.0
 10
14.8045766798
 20
14.043930539
 30
0.0
 10
14.8052272218
 20
14.0478606371
 30
0.0
 10
14.8055367428
 20
14.0520579376
 30
0.0
 10
14.8055134339
 20
14.0549238253
 30
0.0
 10
14.8054390762
 20
14.0563613627
 30
0.0
  0
SPLINE
  5
340
100
AcDbEntity
  8
0
100
AcDbSpline
 62
7
  6
CONTINUOUS
 70
0
 71
3
 72
11
 73
7
 74
0
 42
0.0000001
 43
0.0000001
 44
0.0000000001
 40
0.0
 40
0.0
 40
0.0
 40
0.0
 40
0.3003753975
 40
0.5618992394
 40
0.7908800075
 40
1.0
 40
1.0
 40
1.0
 40
1.0
 10
14.7384475729
 20
14.0390442922
 30
0.0
 10
14.7385862177
 20
14.0392553097
 30
0.0
 10
14.7388722711
 20
14.0396340302
 30
0.0
 10
14.7393652423
 20
14.0400868229
 30
0.0
 10
14.7398866947
 20
14.0403743237
 30
0.0
 10
14.7402573043
 20
14.0404420959
 30
0.0
 10
14.7404330861
 20
14.0404421738
 30
0.0
  0
SPLINE
  5
341
100
AcDbEntity
  8
0
100
AcDbSpline
 62
7
  6
CONTINUOUS
 70
0
 71
3
 72
9
 73
5
 74
0
 42
0.0000001
 43
0.0000001
 44
0.0000000001
 40
0.0
 40
0.0
 40
0.0
 40
0.0
 40
0.5120753641
 40
1.0
 40
1.0
 40
1.0
 40
1.0
 10
14.679894838
 20
13.9392734991
 30
0.0
 10
14.6890995256
 20
13.9567495432
 30
0.0
 10
14.7078061731
 20
13.990498793
 30
0.0
 10
14.7281130809
 20
14.0233151892
 30
0.0
 10
14.7384475729
 20
14.0390442922
 30
0.0
  0
SPLINE
  5
342
100
AcDbEntity
  8
0
100
AcDbSpline
 62
7
  6
CONTINUOUS
 70
0
 71
3
 72
12
 73
8
 74
0
 42
0.0000001
 43
0.0000001
 44
0.0000000001
 40
0.0
 40
0.0
 40
0.0
 40
0.0
 40
0.2693635675
 40
0.5407553953
 40
0.7907234427
 40
0.9016196597
 40
1.0
 40
1.0
 40
1.0
 40
1.0
 10
14.6785406374
 20
13.9278836264
 30
0.0
 10
14.6783976412
 20
13.9289167846
 30
0.0
 10
14.678255199
 20
13.9310126699
 30
0.0
 10
14.678410707
 20
13.9340766283
 30
0.0
 10
14.6788501111
 20
13.9364958728
 30
0.0
 10
14.6793922991
 20
13.9381915439
 30
0.0
 10
14.6797173143
 20
13.9389364521
 30
0.0
 10
14.679894838
 20
13.9392734991
 30
0.0
  0
SPLINE
  5
343
100
AcDbEntity
  8
0
100
AcDbSpline
 62
7
  6
CONTINUOUS
 70
0
 71
3
 72
12
 73
8
 74
0
 42
0.0000001
 43
0.0000001
 44
0.0000000001
 40
0.0
 40
0.0
 40
0.0
 40
0.0
 40
0.101278927
 40
0.2139837123
 40
0.4645826776
 40
0.733714804
 40
1.0
 40
1.0
 40
1.0
 40
1.0
 10
14.6841700162
 20
13.8479163337
 30
0.0
 10
14.6844937473
 20
13.8486032355
 30
0.0
 10
14.6850853467
 20
13.850098549
 30
0.0
 10
14.6860652365
 20
13.8534446245
 30
0.0
 10
14.6868506839
 20
13.8581390502
 30
0.0
 10
14.6871061424
 20
13.864037921
 30
0.0
 10
14.68682142
 20
13.8680543415
 30
0.0
 10
14.6865476941
 20
13.8700320321
 30
0.0
  0
SPLINE
  5
344
100
AcDbEntity
  8
0
100
AcDbSpline
 62
7
  6
CONTINUOUS
 70
0
 71
3
 72
13
 73
9
 74
0
 42
0.0000001
 43
0.0000001
 44
0.0000000001
 40
0.0
 40
0.0
 40
0.0
 40
0.0
 40
0.1667127526
 40
0.3209231425
 40
0.5278924681
 40
0.7061217549
 40
0.860060048
 40
1.0
 40
1.0
 40
1.0
 40
1.0
 10
14.622422186
 20
13.8173264046
 30
0.0
 10
14.6225072519
 20
13.8175276611
 30
0.0
 10
14.6226838324
 20
13.8179099231
 30
0.0
 10
14.6230222143
 20
13.818514073
 30
0.0
 10
14.6234347332
 20
13.8190916043
 30
0.0
 10
14.6239453142
 20
13.8195877316
 30
0.0
 10
14.6244896908
 20
13.8198990201
 30
0.0
 10
14.6248774135
 20
13.8199724286
 30
0.0
 10
14.6250608205
 20
13.8199723394
 30
0.0
  0
SPLINE
  5
345
100
AcDbEntity
  8
0
100
AcDbSpline
 62
7
  6
CONTINUOUS
 70
0
 71
3
 72
12
 73
8
 74
0
 42
0.0000001
 43
0.0000001
 44
0.0000000001
 40
0.0
 40
0.0
 40
0.0
 40
0.0
 40
0.2475974399
 40
0.5117749426
 40
0.7697485476
 40
0.8897836959
 40
1.0
 40
1.0
 40
1.0
 40
1.0
 10
14.5728244425
 20
13.6766103627
 30
0.0
 10
14.5725939833
 20
13.6775735986
 30
0.0
 10
14.572284326
 20
13.6796055703
 30
0.0
 10
14.5721983128
 20
13.6826895717
 30
0.0
 10
14.5724394922
 20
13.6852556073
 30
0.0
 10
14.5728284902
 20
13.6871708503
 30
0.0
 10
14.5730831607
 20
13.6880575528
 30
0.0
 10
14.5732268738
 20
13.6884743515
 30
0.0
  0
SPLINE
  5
346
100
AcDbEntity
  8
0
100
AcDbSpline
 62
7
  6
CONTINUOUS
 70
0
 71
3
 72
13
 73
9
 74
0
 42
0.0000001
 43
0.0000001
 44
0.0000000001
 40
0.0
 40
0.0
 40
0.0
 40
0.0
 40
0.1126830856
 40
0.2340886168
 40
0.4921774542
 40
0.7543451511
 40
0.8806955326
 40
1.0
 40
1.0
 40
1.0
 40
1.0
 10
14.5848053278
 20
13.6013960905
 30
0.0
 10
14.5850619127
 20
13.6022263996
 30
0.0
 10
14.585514689
 20
13.6039765662
 30
0.0
 10
14.5861958515
 20
13.6077132645
 30
0.0
 10
14.5865963839
 20
13.6126593881
 30
0.0
 10
14.5864209754
 20
13.6176556174
 30
0.0
 10
14.5859207236
 20
13.6215421856
 30
0.0
 10
14.5855545587
 20
13.6234030965
 30
0.0
 10
14.5853404585
 20
13.6242979576
 30
0.0
  0
SPLINE
  5
347
100
AcDbEntity
  8
0
100
AcDbSpline
 62
7
  6
CONTINUOUS
 70
0
 71
3
 72
13
 73
9
 74
0
 42
0.0000001
 43
0.0000001
 44
0.0000000001
 40
0.0
 40
0.0
 40
0.0
 40
0.0
 40
0.3336280064
 40
0.6099746529
 40
0.7249751656
 40
0.8259992394
 40
0.9160519129
 40
1.0
 40
1.0
 40
1.0
 40
1.0
 10
14.5268835381
 20
13.5385072619
 30
0.0
 10
14.5270490211
 20
13.5391064413
 30
0.0
 10
14.5274177371
 20
13.5401847154
 30
0.0
 10
14.5280643628
 20
13.5413851853
 30
0.0
 10
14.5286643837
 20
13.5420840747
 30
0.0
 10
14.5291104551
 20
13.5424456917
 30
0.0
 10
14.5295772538
 20
13.5426705574
 30
0.0
 10
14.5299035418
 20
13.5427210694
 30
0.0
 10
14.5300599519
 20
13.542720555
 30
0.0
  0
SPLINE
  5
348
100
AcDbEntity
  8
0
100
AcDbSpline
 62
7
  6
CONTINUOUS
 70
0
 71
3
 72
26
 73
22
 74
0
 42
0.0000001
 43
0.0000001
 44
0.0000000001
 40
0.0
 40
0.0
 40
0.0
 40
0.0
 40
0.0212795174
 40
0.0426528281
 40
0.0642124072
 40
0.0860473838
 40
0.1308545453
 40
0.1777176919
 40
0.202094327
 40
0.227168149
 40
0.2795787759
 40
0.335279433
 40
0.3944870722
 40
0.4573483628
 40
0.5239373488
 40
0.5942699576
 40
0.6683242806
 40
0.7460417565
 40
0.8273369633
 40
0.9120591568
 40
1.0
 40
1.0
 40
1.0
 40
1.0
 10
15.9316429661
 20
10.9790567574
 30
0.0
 10
15.9372379449
 20
10.9790564546
 30
0.0
 10
15.948456812
 20
10.979461579
 30
0.0
 10
15.9652548718
 20
10.9812864563
 30
0.0
 10
15.9820253621
 20
10.9843274248
 30
0.0
 10
16.0045169595
 20
10.9900433071
 30
0.0
 10
16.0326269047
 20
11.0003391345
 30
0.0
 10
16.0598071083
 20
11.0143663144
 30
0.0
 10
16.0812707974
 20
11.027823548
 30
0.0
 10
16.1031796068
 20
11.0432476551
 30
0.0
 10
16.1302299354
 20
11.065578311
 30
0.0
 10
16.1615549181
 20
11.0965373146
 30
0.0
 10
16.1921368764
 20
11.1319418768
 30
0.0
 10
16.2218784509
 20
11.1716845456
 30
0.0
 10
16.2506957711
 20
11.2156386393
 30
0.0
 10
16.2785040935
 20
11.2636658465
 30
0.0
 10
16.3052132624
 20
11.3156220011
 30
0.0
 10
16.3307488179
 20
11.37134874
 30
0.0
 10
16.3550251973
 20
11.4306754392
 30
0.0
 10
16.3779643398
 20
11.493399145
 30
0.0
 10
16.3920641052
 20
11.536562587
 30
0.0
 10
16.3988908447
 20
11.558653924
 30
0.0
  0
SPLINE
  5
349
100
AcDbEntity
  8
0
100
AcDbSpline
 62
7
  6
CONTINUOUS
 70
0
 71
3
 72
40
 73
36
 74
0
 42
0.0000001
 43
0.0000001
 44
0.0000000001
 40
0.0
 40
0.0
 40
0.0
 40
0.0
 40
0.0320215998
 40
0.0652356184
 40
0.0995165482
 40
0.1347499764
 40
0.1708214084
 40
0.2076038811
 40
0.2449645993
 40
0.2827677848
 40
0.3208756893
 40
0.359148176
 40
0.3974437557
 40
0.4356211518
 40
0.4735395168
 40
0.5110600768
 40
0.5480461685
 40
0.5843650487
 40
0.6198881625
 40
0.6544926259
 40
0.6880621839
 40
0.7204881209
 40
0.7516713444
 40
0.7815226002
 40
0.8099660968
 40
0.8369391939
 40
0.862398007
 40
0.8863171562
 40
0.9086978746
 40
0.9295689103
 40
0.948997546
 40
0.9670926024
 40
0.9840168321
 40
0.9921110595
 40
1.0
 40
1.0
 40
1.0
 40
1.0
 10
14.434050909
 20
13.6809594627
 30
0.0
 10
14.4238308837
 20
13.6478874488
 30
0.0
 10
14.4043216719
 20
13.5801008485
 30
0.0
 10
14.3782235643
 20
13.4757177677
 30
0.0
 10
14.3548592553
 20
13.3671350048
 30
0.0
 10
14.3343272082
 20
13.2548417816
 30
0.0
 10
14.3167203749
 20
13.13931783
 30
0.0
 10
14.3021074132
 20
13.0210606735
 30
0.0
 10
14.2905605173
 20
12.9005848194
 30
0.0
 10
14.2821241989
 20
12.7784155573
 30
0.0
 10
14.2768403827
 20
12.6550832022
 30
0.0
 10
14.2747272659
 20
12.5311236345
 30
0.0
 10
14.2757983877
 20
12.4070755755
 30
0.0
 10
14.2800456716
 20
12.2834785342
 30
0.0
 10
14.2874531622
 20
12.1608695979
 30
0.0
 10
14.29798656
 20
12.0397817406
 30
0.0
 10
14.311600932
 20
11.9207409774
 30
0.0
 10
14.32823648
 20
11.8042645952
 30
0.0
 10
14.3478199316
 20
11.69085811
 30
0.0
 10
14.3702671877
 20
11.5810139589
 30
0.0
 10
14.3954778962
 20
11.4752079731
 30
0.0
 10
14.423345448
 20
11.3738990549
 30
0.0
 10
14.4537442333
 20
11.277524436
 30
0.0
 10
14.4865476042
 20
11.1865013202
 30
0.0
 10
14.5216073788
 20
11.1012197566
 30
0.0
 10
14.558780348
 20
11.0220478538
 30
0.0
 10
14.5978999571
 20
10.9493204559
 30
0.0
 10
14.6388116144
 20
10.8833506444
 30
0.0
 10
14.6813376128
 20
10.8244118126
 30
0.0
 10
14.7253192932
 20
10.7727604818
 30
0.0
 10
14.7705807975
 20
10.72860858
 30
0.0
 10
14.8169589859
 20
10.692169674
 30
0.0
 10
14.8569946858
 20
10.668016984
 30
0.0
 10
14.8892605164
 20
10.6529776006
 30
0.0
 10
14.9054361096
 20
10.6468485432
 30
0.0
 10
14.9135229793
 20
10.6441416178
 30
0.0
  0
SPLINE
  5
34A
100
AcDbEntity
  8
0
100
AcDbSpline
 62
7
  6
CONTINUOUS
 70
0
 71
3
 72
20
 73
16
 74
0
 42
0.0000001
 43
0.0000001
 44
0.0000000001
 40
0.0
 40
0.0
 40
0.0
 40
0.0
 40
0.1451779182
 40
0.281294717
 40
0.4095785282
 40
0.471300185
 40
0.5316912652
 40
0.5910049941
 40
0.6495119858
 40
0.7074980467
 40
0.765259495
 40
0.8230959569
 40
0.8813055445
 40
0.9401803693
 40
1.0
 40
1.0
 40
1.0
 40
1.0
 10
15.3206567436
 20
14.2900855089
 30
0.0
 10
15.307028868
 20
14.3031943158
 30
0.0
 10
15.2794610598
 20
14.3274339338
 30
0.0
 10
15.2358244819
 20
14.3583022986
 30
0.0
 10
15.1983495605
 20
14.3785718525
 30
0.0
 10
15.1682122566
 20
14.3910972363
 30
0.0
 10
15.1457896523
 20
14.3986213874
 30
0.0
 10
15.1232828105
 20
14.4043849947
 30
0.0
 10
15.1007126892
 20
14.4083803298
 30
0.0
 10
15.0781019495
 20
14.4105996471
 30
0.0
 10
15.0554740036
 20
14.4110431901
 30
0.0
 10
15.0328519491
 20
14.4097113881
 30
0.0
 10
15.0102582802
 20
14.406605432
 30
0.0
 10
14.9877176798
 20
14.4017267331
 30
0.0
 10
14.972877248
 20
14.3973372105
 30
0.0
 10
14.9654888485
 20
14.3948637456
 30
0.0
  0
SPLINE
  5
34B
100
AcDbEntity
  8
0
100
AcDbSpline
 62
7
  6
CONTINUOUS
 70
0
 71
3
 72
23
 73
19
 74
0
 42
0.0000001
 43
0.0000001
 44
0.0000000001
 40
0.0
 40
0.0
 40
0.0
 40
0.0
 40
0.0851551635
 40
0.1675253714
 40
0.2469443691
 40
0.3232763287
 40
0.3964442192
 40
0.4663922542
 40
0.5330867096
 40
0.5965208485
 40
0.6567157217
 40
0.7137390513
 40
0.7677091119
 40
0.8187930352
 40
0.8672253822
 40
0.9133085497
 40
0.9574160537
 40
1.0
 40
1.0
 40
1.0
 40
1.0
 10
15.4385320857
 20
13.4640438792
 30
0.0
 10
15.4447014324
 20
13.4840078925
 30
0.0
 10
15.4574074242
 20
13.5231103634
 30
0.0
 10
15.4779268657
 20
13.58013672
 30
0.0
 10
15.4995447477
 20
13.6344339815
 30
0.0
 10
15.5222066042
 20
13.6858468119
 30
0.0
 10
15.5458484784
 20
13.7342445445
 30
0.0
 10
15.5704142851
 20
13.7795088888
 30
0.0
 10
15.5958448769
 20
13.8215275036
 30
0.0
 10
15.6220723236
 20
13.8601971209
 30
0.0
 10
15.6490364037
 20
13.8954161485
 30
0.0
 10
15.6766715974
 20
13.9270942994
 30
0.0
 10
15.70490816
 20
13.9551548785
 30
0.0
 10
15.7336862051
 20
13.9795200312
 30
0.0
 10
15.7629362722
 20
14.0001253831
 30
0.0
 10
15.7925912363
 20
14.0169140669
 30
0.0
 10
15.8225778599
 20
14.0298205329
 30
0.0
 10
15.8430299151
 20
14.0358937976
 30
0.0
 10
15.8532149357
 20
14.038229104
 30
0.0
  0
SPLINE
  5
34C
100
AcDbEntity
  8
0
100
AcDbSpline
 62
7
  6
CONTINUOUS
 70
0
 71
3
 72
9
 73
5
 74
0
 42
0.0000001
 43
0.0000001
 44
0.0000000001
 40
0.0
 40
0.0
 40
0.0
 40
0.0
 40
0.5027316686
 40
1.0
 40
1.0
 40
1.0
 40
1.0
 10
15.8532149357
 20
14.038229104
 30
0.0
 10
15.8619585563
 20
14.0402339142
 30
0.0
 10
15.8795825208
 20
14.0432793215
 30
0.0
 10
15.8974407564
 20
14.0443036988
 30
0.0
 10
15.9063137875
 20
14.0443032234
 30
0.0
  0
SPLINE
  5
34D
100
AcDbEntity
  8
0
100
AcDbSpline
 62
7
  6
CONTINUOUS
 70
0
 71
3
 72
23
 73
19
 74
0
 42
0.0000001
 43
0.0000001
 44
0.0000000001
 40
0.0
 40
0.0
 40
0.0
 40
0.0
 40
0.0838103442
 40
0.165023371
 40
0.2434904925
 40
0.3190884986
 40
0.3917453415
 40
0.4614070057
 40
0.5280369306
 40
0.591620113
 40
0.6521632975
 40
0.7097098828
 40
0.7643441946
 40
0.8161881417
 40
0.8654166002
 40
0.9122592084
 40
0.9570023999
 40
1.0
 40
1.0
 40
1.0
 40
1.0
 10
16.5081740279
 20
11.3406505232
 30
0.0
 10
16.5009736771
 20
11.3173501794
 30
0.0
 10
16.4861642447
 20
11.2716634854
 30
0.0
 10
16.4623299412
 20
11.2049295133
 30
0.0
 10
16.4372726671
 20
11.1412041897
 30
0.0
 10
16.4110496401
 20
11.0806522247
 30
0.0
 10
16.383727551
 20
11.0234130312
 30
0.0
 10
16.3553653861
 20
10.9696129571
 30
0.0
 10
16.3260246985
 20
10.9193727139
 30
0.0
 10
16.2957764819
 20
10.8728041529
 30
0.0
 10
16.2646846097
 20
10.8300172546
 30
0.0
 10
16.2328174058
 20
10.7911114407
 30
0.0
 10
16.2002489893
 20
10.7561717997
 30
0.0
 10
16.1670435014
 20
10.7252833696
 30
0.0
 10
16.1332733031
 20
10.6985188759
 30
0.0
 10
16.099009898
 20
10.6759404954
 30
0.0
 10
16.0643273629
 20
10.657619256
 30
0.0
 10
16.040566406
 20
10.6481132981
 30
0.0
 10
16.0287019707
 20
10.6441413603
 30
0.0
  0
SPLINE
  5
34E
100
AcDbEntity
  8
0
100
AcDbSpline
 62
7
  6
CONTINUOUS
 70
0
 71
3
 72
31
 73
27
 74
0
 42
0.0000001
 43
0.0000001
 44
0.0000000001
 40
0.0
 40
0.0
 40
0.0
 40
0.0
 40
0.0912662175
 40
0.1786585231
 40
0.2619088269
 40
0.3408559906
 40
0.4154004316
 40
0.4854922843
 40
0.5511396863
 40
0.5823307078
 40
0.6124571592
 40
0.6415471688
 40
0.6696364326
 40
0.6967707999
 40
0.7230046177
 40
0.77300632
 40
0.7969578389
 40
0.8203240537
 40
0.8432087616
 40
0.8657242849
 40
0.8879907693
 40
0.910133424
 40
0.932279691
 40
0.9545571265
 40
0.9770908015
 40
1.0
 40
1.0
 40
1.0
 40
1.0
 10
15.3015171708
 20
13.6918639326
 30
0.0
 10
15.3111800025
 20
13.7231328674
 30
0.0
 10
15.3312158093
 20
13.7840056915
 30
0.0
 10
15.364158316
 20
13.8719875216
 30
0.0
 10
15.3992386997
 20
13.9543640446
 30
0.0
 10
15.4363000003
 20
14.0307840904
 30
0.0
 10
15.475200714
 20
14.1009434068
 30
0.0
 10
15.5157783875
 20
14.1645628758
 30
0.0
 10
15.551453413
 20
14.2127102593
 30
0.0
 10
15.5807494213
 20
14.2475777514
 30
0.0
 10
15.6026593774
 20
14.2714883146
 30
0.0
 10
15.6248603127
 20
14.2935799604
 30
0.0
 10
15.647331331
 20
14.3138275123
 30
0.0
 10
15.670051153
 20
14.3322129714
 30
0.0
 10
15.7001525513
 20
14.3538672341
 30
0.0
 10
15.7311828972
 20
14.3722126075
 30
0.0
 10
15.7629362064
 20
14.3867507625
 30
0.0
 10
15.7865455538
 20
14.395557257
 30
0.0
 10
15.810259849
 20
14.4024077234
 30
0.0
 10
15.834055172
 20
14.4072906126
 30
0.0
 10
15.8579043144
 20
14.4101988951
 30
0.0
 10
15.8817799528
 20
14.4111314314
 30
0.0
 10
15.9056548167
 20
14.41008701
 30
0.0
 10
15.9295019287
 20
14.407064636
 30
0.0
 10
15.95329189
 20
14.4020676472
 30
0.0
 10
15.9689457234
 20
14.3974711574
 30
0.0
 10
15.9767360753
 20
14.3948634857
 30
0.0
  0
LINE
  5
34F
100
AcDbEntity
  8
0
100
AcDbLine
 62
7
  6
CONTINUOUS
 10
15.664419767
 20
11.5047371763
 11
15.7406355045
 21
11.5005767794
  0
SPLINE
  5
350
100
AcDbEntity
  8
0
100
AcDbSpline
 62
7
  6
CONTINUOUS
 70
0
 71
3
 72
9
 73
5
 74
0
 42
0.0000001
 43
0.0000001
 44
0.0000000001
 40
0.0
 40
0.0
 40
0.0
 40
0.0
 40
0.4933281669
 40
1.0
 40
1.0
 40
1.0
 40
1.0
 10
14.9654888485
 20
14.3948637456
 30
0.0
 10
14.9570421862
 20
14.392035999
 30
0.0
 10
14.9401471175
 20
14.3856071826
 30
0.0
 10
14.923794233
 20
14.377909351
 30
0.0
 10
14.9156606504
 20
14.373721598
 30
0.0
  0
SPLINE
  5
351
100
AcDbEntity
  8
0
100
AcDbSpline
 62
7
  6
CONTINUOUS
 70
0
 71
3
 72
22
 73
18
 74
0
 42
0.0000001
 43
0.0000001
 44
0.0000000001
 40
0.0
 40
0.0
 40
0.0
 40
0.0
 40
0.091085043
 40
0.139806976
 40
0.1908395582
 40
0.2442966429
 40
0.3002607889
 40
0.3587908676
 40
0.419916903
 40
0.4836443993
 40
0.5499643054
 40
0.6188533363
 40
0.6902746486
 40
0.7641824437
 40
0.8405100671
 40
0.9191537499
 40
1.0
 40
1.0
 40
1.0
 40
1.0
 10
14.9017955844
 20
14.3662272688
 30
0.0
 10
14.8803654797
 20
14.3540918476
 30
0.0
 10
14.8491155696
 20
14.332450367
 30
0.0
 10
14.8100668808
 20
14.2986932137
 30
0.0
 10
14.7805815693
 20
14.269548225
 30
0.0
 10
14.7516220033
 20
14.2372148334
 30
0.0
 10
14.7232291706
 20
14.2017473991
 30
0.0
 10
14.6954581615
 20
14.1632081599
 30
0.0
 10
14.6683561361
 20
14.1216678998
 30
0.0
 10
14.6419688897
 20
14.0772044857
 30
0.0
 10
14.6163461144
 20
14.0298965349
 30
0.0
 10
14.5915339344
 20
13.9798272204
 30
0.0
 10
14.5675727946
 20
13.9270843765
 30
0.0
 10
14.5445071552
 20
13.8717592127
 30
0.0
 10
14.5223823473
 20
13.8139560006
 30
0.0
 10
14.5012384416
 20
13.7537957954
 30
0.0
 10
14.4880025493
 20
13.7127486842
 30
0.0
 10
14.4815486729
 20
13.6918639326
 30
0.0
  0
SPLINE
  5
352
100
AcDbEntity
  8
0
100
AcDbSpline
 62
7
  6
CONTINUOUS
 70
0
 71
3
 72
42
 73
38
 74
0
 42
0.0000001
 43
0.0000001
 44
0.0000000001
 40
0.0
 40
0.0
 40
0.0
 40
0.0
 40
0.0327176036
 40
0.0666997198
 40
0.1018066305
 40
0.1379105182
 40
0.1748835442
 40
0.2125840135
 40
0.250863603
 40
0.2895710284
 40
0.3285529943
 40
0.3676537807
 40
0.4067162913
 40
0.4455842458
 40
0.4841023386
 40
0.5221181773
 40
0.5594824541
 40
0.596050914
 40
0.631685097
 40
0.6662536254
 40
0.6996340668
 40
0.7317133937
 40
0.7623915289
 40
0.7915808947
 40
0.8192121653
 40
0.8452333618
 40
0.8696183265
 40
0.8923665605
 40
0.9135150155
 40
0.9331403355
 40
0.9424247426
 40
0.9513823144
 40
0.9684134933
 40
0.9765628948
 40
0.984514842
 40
0.9923118258
 40
1.0
 40
1.0
 40
1.0
 40
1.0
 10
15.4643950863
 20
13.4629560618
 30
0.0
 10
15.4557253698
 20
13.4349008491
 30
0.0
 10
15.4392114495
 20
13.3773422091
 30
0.0
 10
15.4172369858
 20
13.2886335429
 30
0.0
 10
15.3976840589
 20
13.1962511556
 30
0.0
 10
15.3806418277
 20
13.1006468163
 30
0.0
 10
15.366194292
 20
13.0022637792
 30
0.0
 10
15.3544021655
 20
12.9015618306
 30
0.0
 10
15.345329061
 20
12.7990163688
 30
0.0
 10
15.3390127545
 20
12.6951124094
 30
0.0
 10
15.3354875815
 20
12.5903391604
 30
0.0
 10
15.3347660384
 20
12.4851905331
 30
0.0
 10
15.3368551203
 20
12.380162482
 30
0.0
 10
15.3417423826
 20
12.2757507685
 30
0.0
 10
15.3494062766
 20
12.1724476687
 30
0.0
 10
15.3598095483
 20
12.0707403953
 30
0.0
 10
15.372902815
 20
11.9711081738
 30
0.0
 10
15.3886248755
 20
11.8740206742
 30
0.0
 10
15.4068993436
 20
11.7799346889
 30
0.0
 10
15.4276423836
 20
11.6892933306
 30
0.0
 10
15.4507520469
 20
11.6025219191
 30
0.0
 10
15.4761239126
 20
11.5200285892
 30
0.0
 10
15.5036325361
 20
11.442198308
 30
0.0
 10
15.5331557689
 20
11.3693962698
 30
0.0
 10
15.5645479977
 20
11.3019585798
 30
0.0
 10
15.5976735825
 20
11.2402004382
 30
0.0
 10
15.6323720462
 20
11.1844019451
 30
0.0
 10
15.6685019358
 20
11.1348227212
 30
0.0
 10
15.7058938653
 20
11.0916871911
 30
0.0
 10
15.7385787131
 20
11.0607255539
 30
0.0
 10
15.7652088308
 20
11.0395766505
 30
0.0
 10
15.7911734867
 20
11.0214411642
 30
0.0
 10
15.8179893013
 20
11.0063687024
 30
0.0
 10
15.8454258495
 20
10.9948365184
 30
0.0
 10
15.8658174521
 20
10.98810622
 30
0.0
 10
15.8862929456
 20
10.9831855154
 30
0.0
 10
15.9000552247
 20
10.981104626
 30
0.0
 10
15.9069165948
 20
10.9803737916
 30
0.0
  0
SPLINE
  5
353
100
AcDbEntity
  8
0
100
AcDbSpline
 62
7
  6
CONTINUOUS
 70
0
 71
3
 72
23
 73
19
 74
0
 42
0.0000001
 43
0.0000001
 44
0.0000000001
 40
0.0
 40
0.0
 40
0.0
 40
0.0
 40
0.0556794546
 40
0.1139798523
 40
0.1745520792
 40
0.2370703295
 40
0.3011843613
 40
0.3665136322
 40
0.4326677019
 40
0.4992495725
 40
0.5658562778
 40
0.6320846373
 40
0.697536882
 40
0.7618212408
 40
0.8245551712
 40
0.8853862454
 40
0.9439859464
 40
1.0
 40
1.0
 40
1.0
 40
1.0
 10
16.2713573192
 20
13.2179901867
 30
0.0
 10
16.2793098357
 20
13.1927969916
 30
0.0
 10
16.2942835728
 20
13.1408057751
 30
0.0
 10
16.3136369442
 20
13.060253825
 30
0.0
 10
16.3302805882
 20
12.9757893134
 30
0.0
 10
16.3440992145
 20
12.8880261964
 30
0.0
 10
16.3549963555
 20
12.7975800755
 30
0.0
 10
16.3628908751
 20
12.7050921704
 30
0.0
 10
16.3677288164
 20
12.6112222342
 30
0.0
 10
16.3694710493
 20
12.5166379927
 30
0.0
 10
16.3681110807
 20
12.4220122489
 30
0.0
 10
16.3636526445
 20
12.3280180815
 30
0.0
 10
16.3561321816
 20
12.2353241235
 30
0.0
 10
16.3456009729
 20
12.1445916912
 30
0.0
 10
16.3321373389
 20
12.0564640882
 30
0.0
 10
16.3158353244
 20
11.9715593836
 30
0.0
 10
16.2968086499
 20
11.8904948432
 30
0.0
 10
16.2820518613
 20
11.8381295102
 30
0.0
 10
16.2742049817
 20
11.8127369985
 30
0.0
  0
SPLINE
  5
354
100
AcDbEntity
  8
0
100
AcDbSpline
 62
7
  6
CONTINUOUS
 70
0
 71
3
 72
9
 73
5
 74
0
 42
0.0000001
 43
0.0000001
 44
0.0000000001
 40
0.0
 40
0.0
 40
0.0
 40
0.0
 40
0.5044407787
 40
1.0
 40
1.0
 40
1.0
 40
1.0
 10
16.0287019707
 20
10.6441413603
 30
0.0
 10
16.0201411216
 20
10.6412753865
 30
0.0
 10
16.0029256791
 20
10.6362956448
 30
0.0
 10
15.9853376165
 20
10.6328434954
 30
0.0
 10
15.9765662082
 20
10.6315321457
 30
0.0
  0
SPLINE
  5
355
100
AcDbEntity
  8
0
100
AcDbSpline
 62
7
  6
CONTINUOUS
 70
0
 71
3
 72
21
 73
17
 74
0
 42
0.0000001
 43
0.0000001
 44
0.0000000001
 40
0.0
 40
0.0
 40
0.0
 40
0.0
 40
0.0531237341
 40
0.1060120921
 40
0.159046411
 40
0.2126052655
 40
0.2670530037
 40
0.3227310426
 40
0.3799540578
 40
0.4390059586
 40
0.5001327215
 40
0.5635461963
 40
0.6978730038
 40
0.7691079992
 40
0.8431695676
 40
1.0
 40
1.0
 40
1.0
 40
1.0
 10
15.9765662082
 20
10.6315321457
 30
0.0
 10
15.9678349689
 20
10.6302268014
 30
0.0
 10
15.9502823431
 20
10.6284086759
 30
0.0
 10
15.9238170731
 20
10.6281206131
 30
0.0
 10
15.8973642193
 20
10.6302837562
 30
0.0
 10
15.8709660096
 20
10.6348990395
 30
0.0
 10
15.8446594346
 20
10.6419541476
 30
0.0
 10
15.818480301
 20
10.651434261
 30
0.0
 10
15.7924633396
 20
10.6633250752
 30
0.0
 10
15.7666440063
 20
10.6776109104
 30
0.0
 10
15.7410519869
 20
10.6942670384
 30
0.0
 10
15.7066175548
 20
10.720096303
 30
0.0
 10
15.6734583705
 20
10.7502460888
 30
0.0
 10
15.6415942247
 20
10.784085655
 30
0.0
 10
15.6089902042
 20
10.8222902524
 30
0.0
 10
15.5861195316
 20
10.8531743797
 30
0.0
 10
15.5714004596
 20
10.8746826992
 30
0.0
  0
SPLINE
  5
356
100
AcDbEntity
  8
0
100
AcDbSpline
 62
7
  6
CONTINUOUS
 70
0
 71
3
 72
11
 73
7
 74
0
 42
0.0000001
 43
0.0000001
 44
0.0000000001
 40
0.0
 40
0.0
 40
0.0
 40
0.0
 40
0.2344478846
 40
0.4793051669
 40
0.7345331507
 40
1.0
 40
1.0
 40
1.0
 40
1.0
 10
15.5706744772
 20
10.8757449508
 30
0.0
 10
15.5609849063
 20
10.8899414309
 30
0.0
 10
15.5418877508
 20
10.9194559242
 30
0.0
 10
15.5146468163
 20
10.9659257838
 30
0.0
 10
15.4882432508
 20
11.0154676281
 30
0.0
 10
15.4715547259
 20
11.0498106376
 30
0.0
 10
15.4633468534
 20
11.0674572841
 30
0.0
  0
SPLINE
  5
357
100
AcDbEntity
  8
0
100
AcDbSpline
 62
7
  6
CONTINUOUS
 70
0
 71
3
 72
11
 73
7
 74
0
 42
0.0000001
 43
0.0000001
 44
0.0000000001
 40
0.0
 40
0.0
 40
0.0
 40
0.0
 40
0.236406098
 40
0.4820963169
 40
0.7367475469
 40
1.0
 40
1.0
 40
1.0
 40
1.0
 10
15.4633468534
 20
11.0674572841
 30
0.0
 10
15.4539001495
 20
11.0877673758
 30
0.0
 10
15.4354435761
 20
11.1295649119
 30
0.0
 10
15.409519233
 20
11.1943934142
 30
0.0
 10
15.3848686001
 20
11.2624279179
 30
0.0
 10
15.3695716494
 20
11.3090631598
 30
0.0
 10
15.3621342862
 20
11.3328718057
 30
0.0
  0
SPLINE
  5
358
100
AcDbEntity
  8
0
100
AcDbSpline
 62
7
  6
CONTINUOUS
 70
0
 71
3
 72
10
 73
6
 74
0
 42
0.0000001
 43
0.0000001
 44
0.0000000001
 40
0.0
 40
0.0
 40
0.0
 40
0.0
 40
0.2408492685
 40
0.4880478837
 40
1.0
 40
1.0
 40
1.0
 40
1.0
 10
15.3618530517
 20
11.3337726658
 30
0.0
 10
15.3548078411
 20
11.356354319
 30
0.0
 10
15.3411450629
 20
11.4023068024
 30
0.0
 10
15.3155191512
 20
11.4971273273
 30
0.0
 10
15.2986725369
 20
11.5697953979
 30
0.0
 10
15.2883632648
 20
11.6190088637
 30
0.0
  0
SPLINE
  5
359
100
AcDbEntity
  8
0
100
AcDbSpline
 62
7
  6
CONTINUOUS
 70
0
 71
3
 72
23
 73
19
 74
0
 42
0.0000001
 43
0.0000001
 44
0.0000000001
 40
0.0
 40
0.0
 40
0.0
 40
0.0
 40
0.0593673369
 40
0.1202289175
 40
0.182369002
 40
0.2455647949
 40
0.3095850396
 40
0.3741939283
 40
0.439151405
 40
0.5042152398
 40
0.5691426363
 40
0.6336910638
 40
0.6976218369
 40
0.7606995348
 40
0.8226933399
 40
0.8833775515
 40
0.942544078
 40
1.0
 40
1.0
 40
1.0
 40
1.0
 10
15.2883632648
 20
11.6190088637
 30
0.0
 10
15.2805754969
 20
11.6561854021
 30
0.0
 10
15.2660176167
 20
11.7317332319
 30
0.0
 10
15.2474083425
 20
11.8469362474
 30
0.0
 10
15.2318035748
 20
11.9650560015
 30
0.0
 10
15.2192802979
 20
12.0855729609
 30
0.0
 10
15.209886489
 20
12.207957917
 30
0.0
 10
15.203670473
 20
12.3316735243
 30
0.0
 10
15.2006534409
 20
12.4561761113
 30
0.0
 10
15.2008545793
 20
12.5809188068
 30
0.0
 10
15.2042676249
 20
12.705353233
 30
0.0
 10
15.2108820939
 20
12.8289328834
 30
0.0
 10
15.2206648462
 20
12.9511153691
 30
0.0
 10
15.2335766855
 20
13.0713638145
 30
0.0
 10
15.2495565981
 20
13.1891479299
 30
0.0
 10
15.2685352036
 20
13.3039520486
 30
0.0
 10
15.2904302027
 20
13.4152781975
 30
0.0
 10
15.3071744017
 20
13.4880074446
 30
0.0
 10
15.3160432617
 20
13.5236820974
 30
0.0
  0
SPLINE
  5
35A
100
AcDbEntity
  8
0
100
AcDbSpline
 62
7
  6
CONTINUOUS
 70
0
 71
3
 72
23
 73
19
 74
0
 42
0.0000001
 43
0.0000001
 44
0.0000000001
 40
0.0
 40
0.0
 40
0.0
 40
0.0
 40
0.0424306641
 40
0.0860248395
 40
0.1313593784
 40
0.1789303053
 40
0.229139612
 40
0.2823066992
 40
0.3386667738
 40
0.3983836026
 40
0.4615642236
 40
0.5282524794
 40
0.5984518643
 40
0.672133917
 40
0.7492405887
 40
0.8296906495
 40
0.9133398029
 40
1.0
 40
1.0
 40
1.0
 40
1.0
 10
15.9064821017
 20
14.041191122
 30
0.0
 10
15.8957456143
 20
14.0400271533
 30
0.0
 10
15.8741158668
 20
14.0361567349
 30
0.0
 10
15.8421806904
 20
14.0259751127
 30
0.0
 10
15.8105488474
 20
14.0114117831
 30
0.0
 10
15.7793206968
 20
13.9925276705
 30
0.0
 10
15.7485701162
 20
13.9693995936
 30
0.0
 10
15.7183812409
 20
13.9420951395
 30
0.0
 10
15.6888279418
 20
13.9106999545
 30
0.0
 10
15.6599846044
 20
13.8753050146
 30
0.0
 10
15.6319342715
 20
13.8360067025
 30
0.0
 10
15.6047465241
 20
13.7929218806
 30
0.0
 10
15.5784991922
 20
13.7461707477
 30
0.0
 10
15.5532668701
 20
13.6958819186
 30
0.0
 10
15.5291141901
 20
13.6421939386
 30
0.0
 10
15.5061164076
 20
13.5852574307
 30
0.0
 10
15.4843394175
 20
13.52525185
 30
0.0
 10
15.4709072514
 20
13.4840294359
 30
0.0
 10
15.4643950863
 20
13.4629560618
 30
0.0
  0
SPLINE
  5
35B
100
AcDbEntity
  8
0
100
AcDbSpline
 62
7
  6
CONTINUOUS
 70
0
 71
3
 72
14
 73
10
 74
0
 42
0.0000001
 43
0.0000001
 44
0.0000000001
 40
0.0
 40
0.0
 40
0.0
 40
0.0
 40
0.1077899238
 40
0.217503621
 40
0.330952474
 40
0.4497499022
 40
0.5752481723
 40
0.708411104
 40
1.0
 40
1.0
 40
1.0
 40
1.0
 10
15.6067733775
 20
13.3678191385
 30
0.0
 10
15.6082162346
 20
13.3678194047
 30
0.0
 10
15.6111320595
 20
13.3676043776
 30
0.0
 10
15.6154707668
 20
13.3666426745
 30
0.0
 10
15.6197755946
 20
13.3650475508
 30
0.0
 10
15.6240307938
 20
13.3628261519
 30
0.0
 10
15.6282222121
 20
13.3599866994
 30
0.0
 10
15.6338794695
 20
13.3552555472
 30
0.0
 10
15.6377241781
 20
13.351022562
 30
0.0
 10
15.6401543861
 20
13.3479682646
 30
0.0
  0
SPLINE
  5
35C
100
AcDbEntity
  8
0
100
AcDbSpline
 62
7
  6
CONTINUOUS
 70
0
 71
3
 72
37
 73
33
 74
0
 42
0.0000001
 43
0.0000001
 44
0.0000000001
 40
0.0
 40
0.0
 40
0.0
 40
0.0
 40
0.0314945413
 40
0.0641289516
 40
0.0977870866
 40
0.1323628488
 40
0.1677515185
 40
0.2038375976
 40
0.2404990173
 40
0.2776111544
 40
0.3150473013
 40
0.3526789073
 40
0.4280011213
 40
0.5025425754
 40
0.5392029772
 40
0.5752876246
 40
0.6106764542
 40
0.6452526184
 40
0.6789060513
 40
0.7115314959
 40
0.7430326076
 40
0.7733202639
 40
0.8023164475
 40
0.829953937
 40
0.856179392
 40
0.8809554956
 40
0.9042631718
 40
0.9261070638
 40
0.946517544
 40
0.9655598699
 40
0.9833368785
 40
1.0
 40
1.0
 40
1.0
 40
1.0
 10
14.4815486729
 20
13.6918639326
 30
0.0
 10
14.4715691875
 20
13.659570306
 30
0.0
 10
14.4524875712
 20
13.5934261856
 30
0.0
 10
14.4268576479
 20
13.4916388591
 30
0.0
 10
14.4038069304
 20
13.3858497671
 30
0.0
 10
14.3834276579
 20
13.276507351
 30
0.0
 10
14.3658053041
 20
13.1640495994
 30
0.0
 10
14.3510055468
 20
13.0489294679
 30
0.0
 10
14.3390938687
 20
12.9316160137
 30
0.0
 10
14.3301176662
 20
12.8125891348
 30
0.0
 10
14.3241134047
 20
12.6923324798
 30
0.0
 10
14.3201047838
 20
12.5309674694
 30
0.0
 10
14.3225976494
 20
12.3296725168
 30
0.0
 10
14.3350517307
 20
12.1297874344
 30
0.0
 10
14.3510241249
 20
11.9725106405
 30
0.0
 10
14.3658291267
 20
11.8573931265
 30
0.0
 10
14.3834558262
 20
11.7449371589
 30
0.0
 10
14.4038404774
 20
11.6356001291
 30
0.0
 10
14.4268918671
 20
11.5298261516
 30
0.0
 10
14.4525227666
 20
11.4280456405
 30
0.0
 10
14.4806225332
 20
11.3306709481
 30
0.0
 10
14.5110812714
 20
11.2380972687
 30
0.0
 10
14.543772098
 20
11.1506985484
 30
0.0
 10
14.5785639643
 20
11.0688273144
 30
0.0
 10
14.615317651
 20
10.992813147
 30
0.0
 10
14.6538840339
 20
10.9229588478
 30
0.0
 10
14.6941165743
 20
10.859545206
 30
0.0
 10
14.7358541941
 20
10.8028196643
 30
0.0
 10
14.7789488682
 20
10.7530139976
 30
0.0
 10
14.8232401254
 20
10.710319482
 30
0.0
 10
14.8685724462
 20
10.6749332249
 30
0.0
 10
14.9003119341
 20
10.6557592158
 30
0.0
 10
14.9162243774
 20
10.6475983357
 30
0.0
  0
SPLINE
  5
35D
100
AcDbEntity
  8
0
100
AcDbSpline
 62
7
  6
CONTINUOUS
 70
0
 71
3
 72
9
 73
5
 74
0
 42
0.0000001
 43
0.0000001
 44
0.0000000001
 40
0.0
 40
0.0
 40
0.0
 40
0.0
 40
0.5065887558
 40
1.0
 40
1.0
 40
1.0
 40
1.0
 10
14.9162243774
 20
10.6475983357
 30
0.0
 10
14.9242680809
 20
10.6434730296
 30
0.0
 10
14.9404391704
 20
10.6358861654
 30
0.0
 10
14.9571394722
 20
10.629541299
 30
0.0
 10
14.9654888617
 20
10.6267465001
 30
0.0
  0
LINE
  5
35E
100
AcDbEntity
  8
0
100
AcDbLine
 62
7
  6
CONTINUOUS
 10
14.5212276624
 20
13.5470611815
 11
14.5199379432
 21
13.5423673409
  0
LINE
  5
35F
100
AcDbEntity
  8
0
100
AcDbLine
 62
7
  6
CONTINUOUS
 10
14.4502693709
 20
13.2230258009
 11
14.4491547591
 21
13.2163747967
  0
LINE
  5
360
100
AcDbEntity
  8
0
100
AcDbLine
 62
7
  6
CONTINUOUS
 10
14.4069574468
 20
12.8696690598
 11
14.4063124039
 21
12.8614611471
  0
LINE
  5
361
100
AcDbEntity
  8
0
100
AcDbLine
 62
7
  6
CONTINUOUS
 10
14.3972296489
 20
12.3098635856
 11
14.3976235518
 21
12.301085924
  0
LINE
  5
362
100
AcDbEntity
  8
0
100
AcDbLine
 62
7
  6
CONTINUOUS
 10
14.4283745478
 20
11.945983961
 11
14.4293264074
 21
11.9386713982
  0
LINE
  5
363
100
AcDbEntity
  8
0
100
AcDbLine
 62
7
  6
CONTINUOUS
 10
14.4879932287
 20
11.6070717574
 11
14.4891950187
 21
11.6018027756
  0
LINE
  5
364
100
AcDbEntity
  8
0
100
AcDbLine
 62
7
  6
CONTINUOUS
 10
14.5737496106
 20
11.3064642155
 11
14.5751264546
 21
11.3025750532
  0
SPLINE
  5
365
100
AcDbEntity
  8
0
100
AcDbSpline
 62
7
  6
CONTINUOUS
 70
0
 71
3
 72
9
 73
5
 74
0
 42
0.0000001
 43
0.0000001
 44
0.0000000001
 40
0.0
 40
0.0
 40
0.0
 40
0.0
 40
0.5107487506
 40
1.0
 40
1.0
 40
1.0
 40
1.0
 10
14.6263305202
 20
11.1725129207
 30
0.0
 10
14.6349065595
 20
11.1528703083
 30
0.0
 10
14.6523991815
 20
11.1147132701
 30
0.0
 10
14.6714158223
 20
11.0772891183
 30
0.0
 10
14.6811265414
 20
11.0591997397
 30
0.0
  0
SPLINE
  5
366
100
AcDbEntity
  8
0
100
AcDbSpline
 62
7
  6
CONTINUOUS
 70
0
 71
3
 72
9
 73
5
 74
0
 42
0.0000001
 43
0.0000001
 44
0.0000000001
 40
0.0
 40
0.0
 40
0.0
 40
0.0
 40
0.5118207412
 40
1.0
 40
1.0
 40
1.0
 40
1.0
 10
14.6811265414
 20
11.0591997397
 30
0.0
 10
14.6902120883
 20
11.0422749483
 30
0.0
 10
14.7086640286
 20
11.0095769116
 30
0.0
 10
14.7286442066
 20
10.9777849843
 30
0.0
 10
14.7388036078
 20
10.9625376546
 30
0.0
  0
SPLINE
  5
367
100
AcDbEntity
  8
0
100
AcDbSpline
 62
7
  6
CONTINUOUS
 70
0
 71
3
 72
9
 73
5
 74
0
 42
0.0000001
 43
0.0000001
 44
0.0000000001
 40
0.0
 40
0.0
 40
0.0
 40
0.0
 40
0.5133422129
 40
1.0
 40
1.0
 40
1.0
 40
1.0
 10
14.7444141506
 20
10.9542066789
 30
0.0
 10
14.7543959264
 20
10.9395431274
 30
0.0
 10
14.7746036664
 20
10.9114874987
 30
0.0
 10
14.7964799631
 20
10.884703675
 30
0.0
 10
14.807562766
 20
10.8720559635
 30
0.0
  0
SPLINE
  5
368
100
AcDbEntity
  8
0
100
AcDbSpline
 62
7
  6
CONTINUOUS
 70
0
 71
3
 72
9
 73
5
 74
0
 42
0.0000001
 43
0.0000001
 44
0.0000000001
 40
0.0
 40
0.0
 40
0.0
 40
0.0
 40
0.514650406
 40
1.0
 40
1.0
 40
1.0
 40
1.0
 10
14.807562766
 20
10.8720559635
 30
0.0
 10
14.8186943792
 20
10.8593525495
 30
0.0
 10
14.8411921143
 20
10.8354109602
 30
0.0
 10
14.8655560763
 20
10.8133523126
 30
0.0
 10
14.8778506873
 20
10.8032245389
 30
0.0
  0
SPLINE
  5
369
100
AcDbEntity
  8
0
100
AcDbSpline
 62
7
  6
CONTINUOUS
 70
0
 71
3
 72
9
 73
5
 74
0
 42
0.0000001
 43
0.0000001
 44
0.0000000001
 40
0.0
 40
0.0
 40
0.0
 40
0.0
 40
0.2598077652
 40
1.0
 40
1.0
 40
1.0
 40
1.0
 10
14.8778506873
 20
10.8032245389
 30
0.0
 10
14.8833104886
 20
10.7987269885
 30
0.0
 10
14.9046795624
 20
10.7818560447
 30
0.0
 10
14.9275319684
 20
10.7668212547
 30
0.0
 10
14.9451981221
 20
10.7571232936
 30
0.0
  0
SPLINE
  5
36A
100
AcDbEntity
  8
0
100
AcDbSpline
 62
7
  6
CONTINUOUS
 70
0
 71
3
 72
9
 73
5
 74
0
 42
0.0000001
 43
0.0000001
 44
0.0000000001
 40
0.0
 40
0.0
 40
0.0
 40
0.0
 40
0.5104970037
 40
1.0
 40
1.0
 40
1.0
 40
1.0
 10
14.9451981221
 20
10.7571232936
 30
0.0
 10
14.9576620638
 20
10.7502811238
 30
0.0
 10
14.982863671
 20
10.7382461344
 30
0.0
 10
15.0094110206
 20
10.729515708
 30
0.0
 10
15.0226272775
 20
10.7261676258
 30
0.0
  0
SPLINE
  5
36B
100
AcDbEntity
  8
0
100
AcDbSpline
 62
7
  6
CONTINUOUS
 70
0
 71
3
 72
11
 73
7
 74
0
 42
0.0000001
 43
0.0000001
 44
0.0000000001
 40
0.0
 40
0.0
 40
0.0
 40
0.0
 40
0.2507778978
 40
0.498286751
 40
0.7466650501
 40
1.0
 40
1.0
 40
1.0
 40
1.0
 10
15.0226272775
 20
10.7261676258
 30
0.0
 10
15.0351868009
 20
10.7229859144
 30
0.0
 10
15.0605997449
 20
10.7183128825
 30
0.0
 10
15.0992679183
 20
10.7167187783
 30
0.0
 10
15.1379042575
 20
10.7206118921
 30
0.0
 10
15.163177105
 20
10.7267715698
 30
0.0
 10
15.1756677805
 20
10.7306816411
 30
0.0
  0
SPLINE
  5
36C
100
AcDbEntity
  8
0
100
AcDbSpline
 62
7
  6
CONTINUOUS
 70
0
 71
3
 72
15
 73
11
 74
0
 42
0.0000001
 43
0.0000001
 44
0.0000000001
 40
0.0
 40
0.0
 40
0.0
 40
0.0
 40
0.1270446867
 40
0.25229037
 40
0.3763274257
 40
0.4997703908
 40
0.6232429607
 40
0.7473676233
 40
0.8727566363
 40
1.0
 40
1.0
 40
1.0
 40
1.0
 10
15.1741236705
 20
14.29140655
 30
0.0
 10
15.167222791
 20
14.2935265328
 30
0.0
 10
15.1533634048
 20
14.2972509285
 30
0.0
 10
15.1323382184
 20
14.3012583452
 30
0.0
 10
15.1112708127
 20
14.3036324114
 30
0.0
 10
15.0901838195
 20
14.3043720778
 30
0.0
 10
15.0690978598
 20
14.3034779179
 30
0.0
 10
15.0480334517
 20
14.3009507662
 30
0.0
 10
15.0270128687
 20
14.2967918686
 30
0.0
 10
15.0131607509
 20
14.2929670122
 30
0.0
 10
15.0062635769
 20
14.2907970843
 30
0.0
  0
SPLINE
  5
36D
100
AcDbEntity
  8
0
100
AcDbSpline
 62
7
  6
CONTINUOUS
 70
0
 71
3
 72
9
 73
5
 74
0
 42
0.0000001
 43
0.0000001
 44
0.0000000001
 40
0.0
 40
0.0
 40
0.0
 40
0.0
 40
0.4891565416
 40
1.0
 40
1.0
 40
1.0
 40
1.0
 10
15.0062635769
 20
14.2907970843
 30
0.0
 10
14.9937793045
 20
14.2868693929
 30
0.0
 10
14.96875347
 20
14.2771937004
 30
0.0
 10
14.9450397147
 20
14.2646737199
 30
0.0
 10
14.9332990467
 20
14.2576762159
 30
0.0
  0
SPLINE
  5
36E
100
AcDbEntity
  8
0
100
AcDbSpline
 62
7
  6
CONTINUOUS
 70
0
 71
3
 72
9
 73
5
 74
0
 42
0.0000001
 43
0.0000001
 44
0.0000000001
 40
0.0
 40
0.0
 40
0.0
 40
0.0
 40
0.2400639638
 40
1.0
 40
1.0
 40
1.0
 40
1.0
 10
14.9332990467
 20
14.2576762159
 30
0.0
 10
14.9272435553
 20
14.254067109
 30
0.0
 10
14.9024213955
 20
14.2383606793
 30
0.0
 10
14.8792385637
 20
14.2201247359
 30
0.0
 10
14.8625656905
 20
14.2052925871
 30
0.0
  0
SPLINE
  5
36F
100
AcDbEntity
  8
0
100
AcDbSpline
 62
7
  6
CONTINUOUS
 70
0
 71
3
 72
9
 73
5
 74
0
 42
0.0000001
 43
0.0000001
 44
0.0000000001
 40
0.0
 40
0.0
 40
0.0
 40
0.0
 40
0.4862314891
 40
1.0
 40
1.0
 40
1.0
 40
1.0
 10
14.8625656905
 20
14.2052925871
 30
0.0
 10
14.8511158787
 20
14.1951068614
 30
0.0
 10
14.8284361051
 20
14.1731694847
 30
0.0
 10
14.8074149704
 20
14.1496504887
 30
0.0
 10
14.7970110635
 20
14.1372424419
 30
0.0
  0
SPLINE
  5
370
100
AcDbEntity
  8
0
100
AcDbSpline
 62
7
  6
CONTINUOUS
 70
0
 71
3
 72
9
 73
5
 74
0
 42
0.0000001
 43
0.0000001
 44
0.0000000001
 40
0.0
 40
0.0
 40
0.0
 40
0.0
 40
0.4875798313
 40
1.0
 40
1.0
 40
1.0
 40
1.0
 10
14.7909249599
 20
14.1298923031
 30
0.0
 10
14.7805890022
 20
14.1172532882
 30
0.0
 10
14.7601896294
 20
14.0906709385
 30
0.0
 10
14.7412757436
 20
14.0630180172
 30
0.0
 10
14.7319330586
 20
14.0486254845
 30
0.0
  0
SPLINE
  5
371
100
AcDbEntity
  8
0
100
AcDbSpline
 62
7
  6
CONTINUOUS
 70
0
 71
3
 72
9
 73
5
 74
0
 42
0.0000001
 43
0.0000001
 44
0.0000000001
 40
0.0
 40
0.0
 40
0.0
 40
0.0
 40
0.4879824597
 40
1.0
 40
1.0
 40
1.0
 40
1.0
 10
14.7307351841
 20
14.0467759572
 30
0.0
 10
14.7203028257
 20
14.0306318225
 30
0.0
 10
14.6998107674
 20
13.9969698892
 30
0.0
 10
14.6809430037
 20
13.9623762501
 30
0.0
 10
14.671663052
 20
13.9444697859
 30
0.0
  0
SPLINE
  5
372
100
AcDbEntity
  8
0
100
AcDbSpline
 62
7
  6
CONTINUOUS
 70
0
 71
3
 72
9
 73
5
 74
0
 42
0.0000001
 43
0.0000001
 44
0.0000000001
 40
0.0
 40
0.0
 40
0.0
 40
0.0
 40
0.4901119628
 40
1.0
 40
1.0
 40
1.0
 40
1.0
 10
14.6668782924
 20
13.9351542318
 30
0.0
 10
14.6578972678
 20
13.9175121772
 30
0.0
 10
14.6403024206
 20
13.8811414368
 30
0.0
 10
14.6240532006
 20
13.8441522723
 30
0.0
 10
14.616085598
 20
13.8251606225
 30
0.0
  0
SPLINE
  5
373
100
AcDbEntity
  8
0
100
AcDbSpline
 62
7
  6
CONTINUOUS
 70
0
 71
3
 72
11
 73
7
 74
0
 42
0.0000001
 43
0.0000001
 44
0.0000000001
 40
0.0
 40
0.0
 40
0.0
 40
0.0
 40
0.2645336002
 40
0.5195584799
 40
0.7647798817
 40
1.0
 40
1.0
 40
1.0
 40
1.0
 10
15.3974277207
 20
13.7935599423
 30
0.0
 10
15.4053768627
 20
13.815484779
 30
0.0
 10
15.4216484989
 20
13.8583115453
 30
0.0
 10
15.4476949897
 20
13.9205150317
 30
0.0
 10
15.4748823531
 20
13.9793945547
 30
0.0
 10
15.4941313689
 20
14.0171395998
 30
0.0
 10
15.5039520436
 20
14.0354038217
 30
0.0
  0
SPLINE
  5
374
100
AcDbEntity
  8
0
100
AcDbSpline
 62
7
  6
CONTINUOUS
 70
0
 71
3
 72
11
 73
7
 74
0
 42
0.0000001
 43
0.0000001
 44
0.0000000001
 40
0.0
 40
0.0
 40
0.0
 40
0.0
 40
0.2666965142
 40
0.5222532768
 40
0.7666615227
 40
1.0
 40
1.0
 40
1.0
 40
1.0
 10
15.5051353535
 20
14.0375998935
 30
0.0
 10
15.5138069695
 20
14.0536595309
 30
0.0
 10
15.5313960383
 20
14.084785333
 30
0.0
 10
15.5591414027
 20
14.1293350777
 30
0.0
 10
15.5876343928
 20
14.1706677774
 30
0.0
 10
15.6075527713
 20
14.1966178499
 30
0.0
 10
15.6176349196
 20
14.2090009404
 30
0.0
  0
SPLINE
  5
375
100
AcDbEntity
  8
0
100
AcDbSpline
 62
7
  6
CONTINUOUS
 70
0
 71
3
 72
19
 73
15
 74
0
 42
0.0000001
 43
0.0000001
 44
0.0000000001
 40
0.0
 40
0.0
 40
0.0
 40
0.0
 40
0.1514996415
 40
0.2930021676
 40
0.4252832014
 40
0.5494488521
 40
0.6089679108
 40
0.6670445475
 40
0.7239210106
 40
0.7798593476
 40
0.8351400803
 40
0.8900569128
 40
0.944909771
 40
1.0
 40
1.0
 40
1.0
 40
1.0
 10
15.6176349196
 20
14.2090009404
 30
0.0
 10
15.6310142228
 20
14.2254336607
 30
0.0
 10
15.6581131957
 20
14.2562528434
 30
0.0
 10
15.7013199406
 20
14.2972702696
 30
0.0
 10
15.7455113846
 20
14.331292258
 30
0.0
 10
15.7835758376
 20
14.3540036321
 30
0.0
 10
15.814242926
 20
14.3683084445
 30
0.0
 10
15.8370480476
 20
14.3770561246
 30
0.0
 10
15.8599552765
 20
14.383960848
 30
0.0
 10
15.8829424112
 20
14.3890121367
 30
0.0
 10
15.9059848445
 20
14.3922019685
 30
0.0
 10
15.9290578837
 20
14.3935292156
 30
0.0
 10
15.9521348135
 20
14.3929927141
 30
0.0
 10
15.9674493368
 20
14.3913978979
 30
0.0
 10
15.9750759189
 20
14.3902973271
 30
0.0
  0
SPLINE
  5
376
100
AcDbEntity
  8
0
100
AcDbSpline
 62
7
  6
CONTINUOUS
 70
0
 71
3
 72
9
 73
5
 74
0
 42
0.0000001
 43
0.0000001
 44
0.0000000001
 40
0.0
 40
0.0
 40
0.0
 40
0.0
 40
0.4955099712
 40
1.0
 40
1.0
 40
1.0
 40
1.0
 10
15.975613934
 20
14.3902191774
 30
0.0
 10
15.9845458387
 20
14.3889132986
 30
0.0
 10
16.0024581111
 20
14.3854409064
 30
0.0
 10
16.0199867877
 20
14.380385605
 30
0.0
 10
16.0287019577
 20
14.377468368
 30
0.0
  0
SPLINE
  5
377
100
AcDbEntity
  8
0
100
AcDbSpline
 62
7
  6
CONTINUOUS
 70
0
 71
3
 72
45
 73
41
 74
0
 42
0.0000001
 43
0.0000001
 44
0.0000000001
 40
0.0
 40
0.0
 40
0.0
 40
0.0
 40
0.0329441866
 40
0.0671740767
 40
0.1025470063
 40
0.1389328909
 40
0.1761982838
 40
0.2141951542
 40
0.2527705258
 40
0.2917681043
 40
0.3310293433
 40
0.3703927008
 40
0.4096962277
 40
0.448778432
 40
0.4874793815
 40
0.5256419934
 40
0.5631128506
 40
0.5997440908
 40
0.6353938582
 40
0.6699285569
 40
0.7032234209
 40
0.7351651367
 40
0.7656529034
 40
0.7946015662
 40
0.8219436566
 40
0.8476333993
 40
0.8598529823
 40
0.8716547915
 40
0.8940114324
 40
0.9045837906
 40
0.9147639634
 40
0.9339978898
 40
0.9430984072
 40
0.9518850377
 40
0.960387593
 40
0.9686405496
 40
0.9766832908
 40
0.9845591111
 40
0.992314773
 40
1.0
 40
1.0
 40
1.0
 40
1.0
 10
16.4506097885
 20
11.4016463609
 30
0.0
 10
16.4608440881
 20
11.4347645666
 30
0.0
 10
16.4803241376
 20
11.5027287329
 30
0.0
 10
16.5061986727
 20
11.6075012532
 30
0.0
 10
16.5291753932
 20
11.716650424
 30
0.0
 10
16.5491471337
 20
11.8296317884
 30
0.0
 10
16.5660135908
 20
11.9459075757
 30
0.0
 10
16.5797002044
 20
12.0649185802
 30
0.0
 10
16.5901315038
 20
12.1860876881
 30
0.0
 10
16.5972639602
 20
12.308827739
 30
0.0
 10
16.6010565627
 20
12.4325455381
 30
0.0
 10
16.6014971276
 20
12.5566424676
 30
0.0
 10
16.5985771932
 20
12.6805174648
 30
0.0
 10
16.5923169354
 20
12.8035710078
 30
0.0
 10
16.5827413037
 20
12.9252073632
 30
0.0
 10
16.5699022393
 20
13.0448383014
 30
0.0
 10
16.5538572786
 20
13.1618848147
 30
0.0
 10
16.5346892118
 20
13.2757815186
 30
0.0
 10
16.5124869906
 20
13.385977686
 30
0.0
 10
16.4873625719
 20
13.4919419662
 30
0.0
 10
16.4594343154
 20
13.5931628034
 30
0.0
 10
16.4288409592
 20
13.6891537529
 30
0.0
 10
16.3957273942
 20
13.7794529076
 30
0.0
 10
16.3602552095
 20
13.8636298768
 30
0.0
 10
16.3225921184
 20
13.941279656
 30
0.0
 10
16.2889901624
 20
14.0012103915
 30
0.0
 10
16.2610804675
 20
14.0454603244
 30
0.0
 10
16.2335597088
 20
14.0857662312
 30
0.0
 10
16.2047964722
 20
14.1231027893
 30
0.0
 10
16.1746950064
 20
14.1570562061
 30
0.0
 10
16.1452761489
 20
14.1871490277
 30
0.0
 10
16.1147152665
 20
14.2139220816
 30
0.0
 10
16.0830488464
 20
14.2368254323
 30
0.0
 10
16.0595117166
 20
14.2515980358
 30
0.0
 10
16.0357792188
 20
14.264259299
 30
0.0
 10
16.0118774891
 20
14.274789291
 30
0.0
 10
15.9878374458
 20
14.2831756523
 30
0.0
 10
15.9636881893
 20
14.2894061517
 30
0.0
 10
15.9394629337
 20
14.2934680211
 30
0.0
 10
15.9232395082
 20
14.2947269366
 30
0.0
 10
15.9151575106
 20
14.2949907669
 30
0.0
  0
SPLINE
  5
378
100
AcDbEntity
  8
0
100
AcDbSpline
 62
7
  6
CONTINUOUS
 70
0
 71
3
 72
9
 73
5
 74
0
 42
0.0000001
 43
0.0000001
 44
0.0000000001
 40
0.0
 40
0.0
 40
0.0
 40
0.0
 40
0.4916185276
 40
1.0
 40
1.0
 40
1.0
 40
1.0
 10
15.8452340474
 20
14.2882293941
 30
0.0
 10
15.8337673815
 20
14.2856306764
 30
0.0
 10
15.8107500354
 20
14.2789069466
 30
0.0
 10
15.7886602137
 20
14.2696035977
 30
0.0
 10
15.7777144215
 20
14.2643106562
 30
0.0
  0
SPLINE
  5
379
100
AcDbEntity
  8
0
100
AcDbSpline
 62
7
  6
CONTINUOUS
 70
0
 71
3
 72
11
 73
7
 74
0
 42
0.0000001
 43
0.0000001
 44
0.0000000001
 40
0.0
 40
0.0
 40
0.0
 40
0.0
 40
0.2298835196
 40
0.4721274222
 40
0.7284028986
 40
1.0
 40
1.0
 40
1.0
 40
1.0
 10
15.7777144215
 20
14.2643106562
 30
0.0
 10
15.7652442065
 20
14.2582805657
 30
0.0
 10
15.7403490955
 20
14.2443723535
 30
0.0
 10
15.7044215658
 20
14.2190458803
 30
0.0
 10
15.6691066676
 20
14.188852369
 30
0.0
 10
15.6467103756
 20
14.1662138262
 30
0.0
 10
15.6356261672
 20
14.1541740148
 30
0.0
  0
SPLINE
  5
37A
100
AcDbEntity
  8
0
100
AcDbSpline
 62
7
  6
CONTINUOUS
 70
0
 71
3
 72
11
 73
7
 74
0
 42
0.0000001
 43
0.0000001
 44
0.0000000001
 40
0.0
 40
0.0
 40
0.0
 40
0.0
 40
0.2321542489
 40
0.4760721756
 40
0.7319939885
 40
1.0
 40
1.0
 40
1.0
 40
1.0
 10
15.6356261672
 20
14.1541740148
 30
0.0
 10
15.6254840804
 20
14.1431575483
 30
0.0
 10
15.6054255312
 20
14.1198770301
 30
0.0
 10
15.5767231412
 20
14.0823605138
 30
0.0
 10
15.5487354383
 20
14.0414751682
 30
0.0
 10
15.5309973399
 20
14.0126949102
 30
0.0
 10
15.5222446808
 20
13.9977879576
 30
0.0
  0
SPLINE
  5
37B
100
AcDbEntity
  8
0
100
AcDbSpline
 62
7
  6
CONTINUOUS
 70
0
 71
3
 72
11
 73
7
 74
0
 42
0.0000001
 43
0.0000001
 44
0.0000000001
 40
0.0
 40
0.0
 40
0.0
 40
0.0
 40
0.2333330544
 40
0.478116334
 40
0.7339004978
 40
1.0
 40
1.0
 40
1.0
 40
1.0
 10
15.4785960827
 20
13.9170297209
 30
0.0
 10
15.4675100987
 20
13.8947941796
 30
0.0
 10
15.4459262241
 20
13.8486608419
 30
0.0
 10
15.4159481333
 20
13.7764685029
 30
0.0
 10
15.3876869901
 20
13.6998586461
 30
0.0
 10
15.3703836061
 20
13.6470354226
 30
0.0
 10
15.3620177878
 20
13.6199636249
 30
0.0
  0
SPLINE
  5
37C
100
AcDbEntity
  8
0
100
AcDbSpline
 62
7
  6
CONTINUOUS
 70
0
 71
3
 72
30
 73
26
 74
0
 42
0.0000001
 43
0.0000001
 44
0.0000000001
 40
0.0
 40
0.0
 40
0.0
 40
0.0
 40
0.0285312944
 40
0.0578819399
 40
0.1187846933
 40
0.1822406084
 40
0.214782452
 40
0.2477796226
 40
0.3148693314
 40
0.3829688561
 40
0.4515204993
 40
0.5199584328
 40
0.5877188986
 40
0.6542482182
 40
0.6868844882
 40
0.7190141455
 40
0.7505738595
 40
0.7815036748
 40
0.841239044
 40
0.8699426705
 40
0.8978029746
 40
0.9247754769
 40
0.950821527
 40
0.9759058443
 40
1.0
 40
1.0
 40
1.0
 40
1.0
 10
15.3620177878
 20
13.6199636249
 30
0.0
 10
15.3548126269
 20
13.5966477157
 30
0.0
 10
15.3408811323
 20
13.5491317364
 30
0.0
 10
15.3149239839
 20
13.4508928347
 30
0.0
 10
15.2862653529
 20
13.3225228494
 30
0.0
 10
15.2631226988
 20
13.1902842006
 30
0.0
 10
15.2476046192
 20
13.0810400445
 30
0.0
 10
15.2340110911
 20
12.9684081061
 30
0.0
 10
15.2211864372
 20
12.8250828133
 30
0.0
 10
15.212485287
 20
12.6509909215
 30
0.0
 10
15.2104756562
 20
12.4755393673
 30
0.0
 10
15.2151791446
 20
12.3004291987
 30
0.0
 10
15.2265488777
 20
12.1273591255
 30
0.0
 10
15.2415775956
 20
11.9853307948
 30
0.0
 10
15.2569087864
 20
11.8740735382
 30
0.0
 10
15.2699086588
 20
11.7927082148
 30
0.0
 10
15.2844551845
 20
11.7130874009
 30
0.0
 10
15.3056163923
 20
11.6107020224
 30
0.0
 10
15.3298443039
 20
11.5114638372
 30
0.0
 10
15.3573190804
 20
11.4158477909
 30
0.0
 10
15.378983435
 20
11.3477486728
 30
0.0
 10
15.4019286686
 20
11.282474725
 30
0.0
 10
15.4260949432
 20
11.2201814123
 30
0.0
 10
15.4514269476
 20
11.1610217955
 30
0.0
 10
15.4694202351
 20
11.1229863687
 30
0.0
 10
15.4786160834
 20
11.1045432243
 30
0.0
  0
SPLINE
  5
37D
100
AcDbEntity
  8
0
100
AcDbSpline
 62
7
  6
CONTINUOUS
 70
0
 71
3
 72
11
 73
7
 74
0
 42
0.0000001
 43
0.0000001
 44
0.0000000001
 40
0.0
 40
0.0
 40
0.0
 40
0.0
 40
0.2667201113
 40
0.5223182835
 40
0.7667345008
 40
1.0
 40
1.0
 40
1.0
 40
1.0
 10
15.4793375639
 20
11.1030981884
 30
0.0
 10
15.4876167049
 20
11.0865385796
 30
0.0
 10
15.5044359784
 20
11.0544076447
 30
0.0
 10
15.5310568433
 20
11.0083034818
 30
0.0
 10
15.5584803405
 20
10.9654024466
 30
0.0
 10
15.5777067157
 20
10.938366481
 30
0.0
 10
15.5874544955
 20
10.9254377362
 30
0.0
  0
SPLINE
  5
37E
100
AcDbEntity
  8
0
100
AcDbSpline
 62
7
  6
CONTINUOUS
 70
0
 71
3
 72
15
 73
11
 74
0
 42
0.0000001
 43
0.0000001
 44
0.0000000001
 40
0.0
 40
0.0
 40
0.0
 40
0.0
 40
0.1485043999
 40
0.2892903029
 40
0.4226762019
 40
0.5491076134
 40
0.6691968978
 40
0.7837141918
 40
0.893606806
 40
1.0
 40
1.0
 40
1.0
 40
1.0
 10
15.5874544955
 20
10.9254377362
 30
0.0
 10
15.5974038213
 20
10.9122416754
 30
0.0
 10
15.6175237724
 20
10.8870787605
 30
0.0
 10
15.6492412719
 20
10.8522952662
 30
0.0
 10
15.6816087043
 20
10.8215747809
 30
0.0
 10
15.7145581832
 20
10.7950024282
 30
0.0
 10
15.748011097
 20
10.7726427101
 30
0.0
 10
15.7818968651
 20
10.7545612999
 30
0.0
 10
15.8161308079
 20
10.7408235285
 30
0.0
 10
15.8394289424
 20
10.7345089294
 30
0.0
 10
15.8510277834
 20
10.73213094
 30
0.0
  0
SPLINE
  5
37F
100
AcDbEntity
  8
0
100
AcDbSpline
 62
7
  6
CONTINUOUS
 70
0
 71
3
 72
27
 73
23
 74
0
 42
0.0000001
 43
0.0000001
 44
0.0000000001
 40
0.0
 40
0.0
 40
0.0
 40
0.0
 40
0.0219508542
 40
0.0437551372
 40
0.0655240161
 40
0.0873690538
 40
0.1094005548
 40
0.1317257319
 40
0.1544460503
 40
0.1776562058
 40
0.2258640717
 40
0.2769785161
 40
0.3314614628
 40
0.3896553647
 40
0.4517869176
 40
0.517996006
 40
0.5883352085
 40
0.6627941486
 40
0.7413167788
 40
0.8238089589
 40
0.9101169305
 40
1.0
 40
1.0
 40
1.0
 40
1.0
 10
15.8575297874
 20
10.7308767424
 30
0.0
 10
15.864498674
 20
10.729616941
 30
0.0
 10
15.8784910337
 20
10.7276299528
 30
0.0
 10
15.8996080165
 20
10.7262837134
 30
0.0
 10
15.9207328879
 20
10.7265850245
 30
0.0
 10
15.9418429259
 20
10.7285335463
 30
0.0
 10
15.9629174742
 20
10.732128094
 30
0.0
 10
15.9839347752
 20
10.7373664787
 30
0.0
 10
16.0048755579
 20
10.7442402351
 30
0.0
 10
16.03301819
 20
10.7557153496
 30
0.0
 10
16.0680244493
 20
10.7743358331
 30
0.0
 10
16.1088070364
 20
10.8027793082
 30
0.0
 10
16.1487855855
 20
10.8374680872
 30
0.0
 10
16.1878192749
 20
10.878271739
 30
0.0
 10
16.2257947778
 20
10.9250317195
 30
0.0
 10
16.2625759285
 20
10.97758566
 30
0.0
 10
16.2980440048
 20
11.0357383472
 30
0.0
 10
16.3320714985
 20
11.0992831786
 30
0.0
 10
16.364538931
 20
11.1679965791
 30
0.0
 10
16.3953311606
 20
11.2416347974
 30
0.0
 10
16.4243272953
 20
11.3199149076
 30
0.0
 10
16.4420481138
 20
11.3739407716
 30
0.0
 10
16.4506097885
 20
11.4016463609
 30
0.0
  0
SPLINE
  5
380
100
AcDbEntity
  8
0
100
AcDbSpline
 62
7
  6
CONTINUOUS
 70
0
 71
3
 72
28
 73
24
 74
0
 42
0.0000001
 43
0.0000001
 44
0.0000000001
 40
0.0
 40
0.0
 40
0.0
 40
0.0
 40
0.0155997201
 40
0.0315400104
 40
0.0481302021
 40
0.0656379596
 40
0.0842830637
 40
0.104225742
 40
0.1255765757
 40
0.1484101635
 40
0.1727706779
 40
0.1986641373
 40
0.2549473038
 40
0.3169634176
 40
0.3841315373
 40
0.4557269021
 40
0.5308791232
 40
0.6086412419
 40
0.6879760922
 40
0.7678263911
 40
0.847168485
 40
0.9249545335
 40
1.0
 40
1.0
 40
1.0
 40
1.0
 10
16.2167768412
 20
13.4391749847
 30
0.0
 10
16.2180450155
 20
13.4391747648
 30
0.0
 10
16.2206135996
 20
13.4389637536
 30
0.0
 10
16.2244274713
 20
13.4380259672
 30
0.0
 10
16.2282031522
 20
13.4364752925
 30
0.0
 10
16.231923949
 20
13.4343212479
 30
0.0
 10
16.2355750984
 20
13.4315729663
 30
0.0
 10
16.2391457496
 20
13.4282460037
 30
0.0
 10
16.2426247642
 20
13.4243550773
 30
0.0
 10
16.2459997093
 20
13.4199145635
 30
0.0
 10
16.249256888
 20
13.414940103
 30
0.0
 10
16.2535481594
 20
13.4074119007
 30
0.0
 10
16.258492308
 20
13.3967598047
 30
0.0
 10
16.2636185292
 20
13.3825646905
 30
0.0
 10
16.2680239125
 20
13.3668345866
 30
0.0
 10
16.2716301702
 20
13.3498117017
 30
0.0
 10
16.2743881061
 20
13.3317605428
 30
0.0
 10
16.2762452634
 20
13.312963141
 30
0.0
 10
16.2771807595
 20
13.2937154981
 30
0.0
 10
16.2771721519
 20
13.274316865
 30
0.0
 10
16.2762243138
 20
13.2550670748
 30
0.0
 10
16.274345966
 20
13.2362785192
 30
0.0
 10
16.272460988
 20
13.2239903238
 30
0.0
 10
16.2713573192
 20
13.2179901867
 30
0.0
  0
SPLINE
  5
381
100
AcDbEntity
  8
0
100
AcDbSpline
 62
7
  6
CONTINUOUS
 70
0
 71
3
 72
22
 73
18
 74
0
 42
0.0000001
 43
0.0000001
 44
0.0000000001
 40
0.0
 40
0.0
 40
0.0
 40
0.0
 40
0.04949225
 40
0.0991134769
 40
0.1493236362
 40
0.2005615441
 40
0.2532350959
 40
0.3077126892
 40
0.3643105035
 40
0.4232967778
 40
0.5492292065
 40
0.6165692108
 40
0.6869619694
 40
0.7604897233
 40
0.8371817569
 40
0.9170277653
 40
1.0
 40
1.0
 40
1.0
 40
1.0
 10
15.9187003699
 20
13.6333109764
 30
0.0
 10
15.9246619666
 20
13.6337645641
 30
0.0
 10
15.9366581069
 20
13.6340476564
 30
0.0
 10
15.9546675739
 20
13.6325634764
 30
0.0
 10
15.9726332042
 20
13.6291767037
 30
0.0
 10
15.9905190295
 20
13.6238988543
 30
0.0
 10
16.0082936926
 20
13.6167412812
 30
0.0
 10
16.025924641
 20
13.6077171227
 30
0.0
 10
16.0433853747
 20
13.596849248
 30
0.0
 10
16.0669118807
 20
13.5795543585
 30
0.0
 10
16.0894442127
 20
13.5588837851
 30
0.0
 10
16.1109678281
 20
13.5353930432
 30
0.0
 10
16.1271710146
 20
13.5156583958
 30
0.0
 10
16.1430415248
 20
13.4942365143
 30
0.0
 10
16.1585552538
 20
13.471165698
 30
0.0
 10
16.1736838211
 20
13.4464935755
 30
0.0
 10
16.1833103488
 20
13.4293351819
 30
0.0
 10
16.1880592098
 20
13.4205082195
 30
0.0
  0
SPLINE
  5
382
100
AcDbEntity
  8
0
100
AcDbSpline
 62
7
  6
CONTINUOUS
 70
0
 71
3
 72
15
 73
11
 74
0
 42
0.0000001
 43
0.0000001
 44
0.0000000001
 40
0.0
 40
0.0
 40
0.0
 40
0.0
 40
0.1637287701
 40
0.315232935
 40
0.4543475395
 40
0.5813429256
 40
0.6973007464
 40
0.8039624057
 40
0.9037956026
 40
1.0
 40
1.0
 40
1.0
 40
1.0
 10
15.7406380165
 20
11.5005818935
 30
0.0
 10
15.739367113
 20
11.4979945792
 30
0.0
 10
15.7367552813
 20
11.4930910873
 30
0.0
 10
15.7324487252
 20
11.4863392145
 30
0.0
 10
15.7279332422
 20
11.4805207452
 30
0.0
 10
15.7232319954
 20
11.4756864907
 30
0.0
 10
15.7183753191
 20
11.4718700485
 30
0.0
 10
15.7133859617
 20
11.4691013579
 30
0.0
 10
15.7082931682
 20
11.4674206338
 30
0.0
 10
15.7048313581
 20
11.4670408759
 30
0.0
 10
15.7031375879
 20
11.4670403198
 30
0.0
  0
SPLINE
  5
383
100
AcDbEntity
  8
0
100
AcDbSpline
 62
7
  6
CONTINUOUS
 70
0
 71
3
 72
25
 73
21
 74
0
 42
0.0000001
 43
0.0000001
 44
0.0000000001
 40
0.0
 40
0.0
 40
0.0
 40
0.0
 40
0.088789042
 40
0.1742175149
 40
0.2560617876
 40
0.3341590897
 40
0.4084217006
 40
0.4787928158
 40
0.5452581805
 40
0.6078480458
 40
0.666656827
 40
0.7218653793
 40
0.7737363721
 40
0.8226415132
 40
0.8690650327
 40
0.9136054452
 40
0.9354018954
 40
0.9569999694
 40
0.978498914
 40
1.0
 40
1.0
 40
1.0
 40
1.0
 10
16.2742049817
 20
11.8127369985
 30
0.0
 10
16.2690387427
 20
11.7960190431
 30
0.0
 10
16.258358196
 20
11.7633802713
 30
0.0
 10
16.2409390688
 20
11.7160067873
 30
0.0
 10
16.222478114
 20
11.6712985828
 30
0.0
 10
16.2030379212
 20
11.6294196523
 30
0.0
 10
16.1826887168
 20
11.5905066479
 30
0.0
 10
16.1614905441
 20
11.5546856785
 30
0.0
 10
16.1395157055
 20
11.5220711887
 30
0.0
 10
16.1168338562
 20
11.4927712974
 30
0.0
 10
16.0935112561
 20
11.4668878424
 30
0.0
 10
16.0696248116
 20
11.4445024541
 30
0.0
 10
16.0452391274
 20
11.4256983031
 30
0.0
 10
16.0204262864
 20
11.4105457589
 30
0.0
 10
15.9952664291
 20
11.3991082123
 30
0.0
 10
15.9739100081
 20
11.392684642
 30
0.0
 10
15.9568590835
 20
11.3895166712
 30
0.0
 10
15.9441360686
 20
11.3881057384
 30
0.0
 10
15.9314025427
 20
11.3876469042
 30
0.0
 10
15.9229254398
 20
11.3879766451
 30
0.0
 10
15.9187003612
 20
11.3882982727
 30
0.0
  0
SPLINE
  5
384
100
AcDbEntity
  8
0
100
AcDbSpline
 62
7
  6
CONTINUOUS
 70
0
 71
3
 72
20
 73
16
 74
0
 42
0.0000001
 43
0.0000001
 44
0.0000000001
 40
0.0
 40
0.0
 40
0.0
 40
0.0
 40
0.0925284006
 40
0.1938871028
 40
0.2992539807
 40
0.4034531252
 40
0.5014097308
 40
0.5886185864
 40
0.6617146618
 40
0.7193924604
 40
0.7643187667
 40
0.8057638911
 40
0.8556997039
 40
0.9202619825
 40
1.0
 40
1.0
 40
1.0
 40
1.0
 10
15.7603329405
 20
11.5054861366
 30
0.0
 10
15.7642320704
 20
11.5181037257
 30
0.0
 10
15.7704846599
 20
11.5451466748
 30
0.0
 10
15.7756147565
 20
11.5876116379
 30
0.0
 10
15.7767412607
 20
11.6320407809
 30
0.0
 10
15.7737971072
 20
11.6758989092
 30
0.0
 10
15.7669538961
 20
11.7167070427
 30
0.0
 10
15.7566480178
 20
11.752205659
 30
0.0
 10
15.7433704251
 20
11.7805444027
 30
0.0
 10
15.7278032444
 20
11.8005516503
 30
0.0
 10
15.7089109563
 20
11.811150529
 30
0.0
 10
15.6883839156
 20
11.807852135
 30
0.0
 10
15.6712142596
 20
11.79259741
 30
0.0
 10
15.6566205891
 20
11.768843199
 30
0.0
 10
15.6493023861
 20
11.7494633096
 30
0.0
 10
15.6459422405
 20
11.7385898747
 30
0.0
  0
SPLINE
  5
385
100
AcDbEntity
  8
0
100
AcDbSpline
 62
7
  6
CONTINUOUS
 70
0
 71
3
 72
20
 73
16
 74
0
 42
0.0000001
 43
0.0000001
 44
0.0000000001
 40
0.0
 40
0.0
 40
0.0
 40
0.0
 40
0.0925284006
 40
0.1938871028
 40
0.2992539807
 40
0.4034531252
 40
0.5014097308
 40
0.5886185864
 40
0.6617146618
 40
0.7193924604
 40
0.7643187667
 40
0.8057638911
 40
0.8556997039
 40
0.9202619825
 40
1.0
 40
1.0
 40
1.0
 40
1.0
 10
15.6459422405
 20
11.7385898747
 30
0.0
 10
15.6420431106
 20
11.7259722856
 30
0.0
 10
15.6357905212
 20
11.6989293365
 30
0.0
 10
15.6306604246
 20
11.6564643734
 30
0.0
 10
15.6295339203
 20
11.6120352304
 30
0.0
 10
15.6324780739
 20
11.5681771021
 30
0.0
 10
15.639321285
 20
11.5273689686
 30
0.0
 10
15.6496271633
 20
11.4918703523
 30
0.0
 10
15.662904756
 20
11.4635316086
 30
0.0
 10
15.6784719366
 20
11.443524361
 30
0.0
 10
15.6973642248
 20
11.4329254823
 30
0.0
 10
15.7178912654
 20
11.4362238763
 30
0.0
 10
15.7350609214
 20
11.4514786013
 30
0.0
 10
15.749654592
 20
11.4752328123
 30
0.0
 10
15.756972795
 20
11.4946127017
 30
0.0
 10
15.7603329405
 20
11.5054861366
 30
0.0
  0
SPLINE
  5
386
100
AcDbEntity
  8
0
100
AcDbSpline
 62
6
  6
CONTINUOUS
 70
0
 71
3
 72
20
 73
16
 74
0
 42
0.0000001
 43
0.0000001
 44
0.0000000001
 40
0.0
 40
0.0
 40
0.0
 40
0.0
 40
0.092668205
 40
0.194155047
 40
0.2994104099
 40
0.4028298523
 40
0.5006478358
 40
0.5878032295
 40
0.6607676778
 40
0.7184747032
 40
0.7634974346
 40
0.8048029914
 40
0.8548740685
 40
0.9198795005
 40
1.0
 40
1.0
 40
1.0
 40
1.0
 10
14.8409349318
 20
11.7385898747
 30
0.0
 10
14.8370299287
 20
11.7259532802
 30
0.0
 10
14.8307715155
 20
11.6988722136
 30
0.0
 10
14.8256475088
 20
11.6563841302
 30
0.0
 10
14.8245319173
 20
11.6120640425
 30
0.0
 10
14.8274577329
 20
11.5683536736
 30
0.0
 10
14.8342478655
 20
11.527677878
 30
0.0
 10
14.8444995874
 20
11.4922137374
 30
0.0
 10
14.8577060247
 20
11.4638671797
 30
0.0
 10
14.8731832217
 20
11.443806632
 30
0.0
 10
14.8919431721
 20
11.4330223972
 30
0.0
 10
14.9125300155
 20
11.4360187186
 30
0.0
 10
14.9298776852
 20
11.4512217939
 30
0.0
 10
14.9445813256
 20
11.4750711075
 30
0.0
 10
14.9519493843
 20
11.4945605957
 30
0.0
 10
14.9553256318
 20
11.5054861366
 30
0.0
  0
SPLINE
  5
387
100
AcDbEntity
  8
0
100
AcDbSpline
 62
6
  6
CONTINUOUS
 70
0
 71
3
 72
20
 73
16
 74
0
 42
0.0000001
 43
0.0000001
 44
0.0000000001
 40
0.0
 40
0.0
 40
0.0
 40
0.0
 40
0.092668205
 40
0.194155047
 40
0.2994104099
 40
0.4028298523
 40
0.5006478358
 40
0.5878032295
 40
0.6607676778
 40
0.7184747032
 40
0.7634974346
 40
0.8048029914
 40
0.8548740685
 40
0.9198795005
 40
1.0
 40
1.0
 40
1.0
 40
1.0
 10
14.9553256318
 20
11.5054861366
 30
0.0
 10
14.9592306348
 20
11.5181227311
 30
0.0
 10
14.9654890481
 20
11.5452037977
 30
0.0
 10
14.9706130548
 20
11.5876918811
 30
0.0
 10
14.9717286463
 20
11.6320119688
 30
0.0
 10
14.9688028306
 20
11.6757223377
 30
0.0
 10
14.962012698
 20
11.7163981333
 30
0.0
 10
14.9517609761
 20
11.7518622739
 30
0.0
 10
14.9385545388
 20
11.7802088316
 30
0.0
 10
14.9230773418
 20
11.8002693793
 30
0.0
 10
14.9043173914
 20
11.8110536141
 30
0.0
 10
14.883730548
 20
11.8080572928
 30
0.0
 10
14.8663828783
 20
11.7928542174
 30
0.0
 10
14.851679238
 20
11.7690049038
 30
0.0
 10
14.8443111793
 20
11.7495154156
 30
0.0
 10
14.8409349318
 20
11.7385898747
 30
0.0
  0
SPLINE
  5
388
100
AcDbEntity
  8
0
100
AcDbSpline
 62
7
  6
CONTINUOUS
 70
0
 71
3
 72
20
 73
16
 74
0
 42
0.0000001
 43
0.0000001
 44
0.0000000001
 40
0.0
 40
0.0
 40
0.0
 40
0.0
 40
0.0800941014
 40
0.1446510158
 40
0.1944540422
 40
0.2354481666
 40
0.2800720926
 40
0.3374153761
 40
0.4099584833
 40
0.4965792438
 40
0.5940378551
 40
0.6978151906
 40
0.8041542793
 40
0.9066436058
 40
1.0
 40
1.0
 40
1.0
 40
1.0
 10
14.8508487924
 20
11.7183875507
 30
0.0
 10
14.8536615394
 20
11.7274095418
 30
0.0
 10
14.8596998135
 20
11.7434779053
 30
0.0
 10
14.8718102973
 20
11.7631233459
 30
0.0
 10
14.8859850093
 20
11.7756490645
 30
0.0
 10
14.9028222972
 20
11.7783550629
 30
0.0
 10
14.9183621306
 20
11.7697436539
 30
0.0
 10
14.9312089236
 20
11.7533584477
 30
0.0
 10
14.9421808025
 20
11.7301241123
 30
0.0
 10
14.9507247605
 20
11.7009861838
 30
0.0
 10
14.9564355905
 20
11.6674408798
 30
0.0
 10
14.9589609217
 20
11.6311841216
 30
0.0
 10
14.9581007685
 20
11.5942549884
 30
0.0
 10
14.9538809305
 20
11.5587955107
 30
0.0
 10
14.9486450877
 20
11.536218326
 30
0.0
 10
14.9454117711
 20
11.5256884606
 30
0.0
  0
SPLINE
  5
389
100
AcDbEntity
  8
0
100
AcDbSpline
 62
7
  6
CONTINUOUS
 70
0
 71
3
 72
20
 73
16
 74
0
 42
0.0000001
 43
0.0000001
 44
0.0000000001
 40
0.0
 40
0.0
 40
0.0
 40
0.0
 40
0.0800941014
 40
0.1446510158
 40
0.1944540422
 40
0.2354481666
 40
0.2800720926
 40
0.3374153761
 40
0.4099584833
 40
0.4965792438
 40
0.5940378551
 40
0.6978151906
 40
0.8041542793
 40
0.9066436058
 40
1.0
 40
1.0
 40
1.0
 40
1.0
 10
14.9454117711
 20
11.5256884606
 30
0.0
 10
14.9425990242
 20
11.5166664695
 30
0.0
 10
14.93656075
 20
11.500598106
 30
0.0
 10
14.9244502663
 20
11.4809526654
 30
0.0
 10
14.9102755542
 20
11.4684269468
 30
0.0
 10
14.8934382663
 20
11.4657209485
 30
0.0
 10
14.877898433
 20
11.4743323574
 30
0.0
 10
14.8650516399
 20
11.4907175636
 30
0.0
 10
14.854079761
 20
11.513951899
 30
0.0
 10
14.845535803
 20
11.5430898275
 30
0.0
 10
14.839824973
 20
11.5766351315
 30
0.0
 10
14.8372996418
 20
11.6128918897
 30
0.0
 10
14.838159795
 20
11.6498210229
 30
0.0
 10
14.842379633
 20
11.6852805006
 30
0.0
 10
14.8476154759
 20
11.7078576853
 30
0.0
 10
14.8508487924
 20
11.7183875507
 30
0.0
  0
SPLINE
  5
38A
100
AcDbEntity
  8
0
100
AcDbSpline
 62
7
  6
CONTINUOUS
 70
0
 71
3
 72
20
 73
16
 74
0
 42
0.0000001
 43
0.0000001
 44
0.0000000001
 40
0.0
 40
0.0
 40
0.0
 40
0.0
 40
0.0925284006
 40
0.1938871028
 40
0.2992539807
 40
0.4034531252
 40
0.5014097308
 40
0.5886185864
 40
0.6617146618
 40
0.7193924604
 40
0.7643187667
 40
0.8057638911
 40
0.8556997039
 40
0.9202619825
 40
1.0
 40
1.0
 40
1.0
 40
1.0
 10
16.2739721909
 20
13.1676233599
 30
0.0
 10
16.2778713208
 20
13.180240949
 30
0.0
 10
16.2841239102
 20
13.2072838982
 30
0.0
 10
16.2892540069
 20
13.2497488612
 30
0.0
 10
16.2903805111
 20
13.2941780042
 30
0.0
 10
16.2874363576
 20
13.3380361325
 30
0.0
 10
16.2805931464
 20
13.378844266
 30
0.0
 10
16.2702872681
 20
13.4143428824
 30
0.0
 10
16.2570096754
 20
13.4426816261
 30
0.0
 10
16.2414424948
 20
13.4626888737
 30
0.0
 10
16.2225502066
 20
13.4732877524
 30
0.0
 10
16.202023166
 20
13.4699893583
 30
0.0
 10
16.18485351
 20
13.4547346333
 30
0.0
 10
16.1702598395
 20
13.4309804223
 30
0.0
 10
16.1629416364
 20
13.4116005329
 30
0.0
 10
16.1595814909
 20
13.400727098
 30
0.0
  0
SPLINE
  5
38B
100
AcDbEntity
  8
0
100
AcDbSpline
 62
7
  6
CONTINUOUS
 70
0
 71
3
 72
20
 73
16
 74
0
 42
0.0000001
 43
0.0000001
 44
0.0000000001
 40
0.0
 40
0.0
 40
0.0
 40
0.0
 40
0.0925284006
 40
0.1938871028
 40
0.2992539807
 40
0.4034531252
 40
0.5014097308
 40
0.5886185864
 40
0.6617146618
 40
0.7193924604
 40
0.7643187667
 40
0.8057638911
 40
0.8556997039
 40
0.9202619825
 40
1.0
 40
1.0
 40
1.0
 40
1.0
 10
16.1595814909
 20
13.400727098
 30
0.0
 10
16.155682361
 20
13.388109509
 30
0.0
 10
16.1494297716
 20
13.3610665598
 30
0.0
 10
16.1442996749
 20
13.3186015968
 30
0.0
 10
16.1431731707
 20
13.2741724538
 30
0.0
 10
16.1461173242
 20
13.2303143254
 30
0.0
 10
16.1529605354
 20
13.189506192
 30
0.0
 10
16.1632664137
 20
13.1540075756
 30
0.0
 10
16.1765440063
 20
13.1256688319
 30
0.0
 10
16.192111187
 20
13.1056615843
 30
0.0
 10
16.2110034751
 20
13.0950627056
 30
0.0
 10
16.2315305158
 20
13.0983610997
 30
0.0
 10
16.2487001718
 20
13.1136158246
 30
0.0
 10
16.2632938423
 20
13.1373700357
 30
0.0
 10
16.2706120454
 20
13.1567499251
 30
0.0
 10
16.2739721909
 20
13.1676233599
 30
0.0
  0
SPLINE
  5
38C
100
AcDbEntity
  8
0
100
AcDbSpline
 62
6
  6
CONTINUOUS
 70
0
 71
3
 72
20
 73
16
 74
0
 42
0.0000001
 43
0.0000001
 44
0.0000000001
 40
0.0
 40
0.0
 40
0.0
 40
0.0
 40
0.092668205
 40
0.194155047
 40
0.2994104099
 40
0.4028298523
 40
0.5006478358
 40
0.5878032295
 40
0.6607676778
 40
0.7184747032
 40
0.7634974346
 40
0.8048029914
 40
0.8548740685
 40
0.9198795005
 40
1.0
 40
1.0
 40
1.0
 40
1.0
 10
15.3545741821
 20
13.400727098
 30
0.0
 10
15.3506691791
 20
13.3880905035
 30
0.0
 10
15.3444107658
 20
13.3610094369
 30
0.0
 10
15.3392867591
 20
13.3185213535
 30
0.0
 10
15.3381711676
 20
13.2742012658
 30
0.0
 10
15.3410969833
 20
13.230490897
 30
0.0
 10
15.3478871159
 20
13.1898151014
 30
0.0
 10
15.3581388378
 20
13.1543509608
 30
0.0
 10
15.3713452751
 20
13.126004403
 30
0.0
 10
15.3868224721
 20
13.1059438553
 30
0.0
 10
15.4055824225
 20
13.0951596206
 30
0.0
 10
15.4261692659
 20
13.0981559419
 30
0.0
 10
15.4435169356
 20
13.1133590172
 30
0.0
 10
15.4582205759
 20
13.1372083308
 30
0.0
 10
15.4655886346
 20
13.156697819
 30
0.0
 10
15.4689648821
 20
13.1676233599
 30
0.0
  0
SPLINE
  5
38D
100
AcDbEntity
  8
0
100
AcDbSpline
 62
6
  6
CONTINUOUS
 70
0
 71
3
 72
20
 73
16
 74
0
 42
0.0000001
 43
0.0000001
 44
0.0000000001
 40
0.0
 40
0.0
 40
0.0
 40
0.0
 40
0.092668205
 40
0.194155047
 40
0.2994104099
 40
0.4028298523
 40
0.5006478358
 40
0.5878032295
 40
0.6607676778
 40
0.7184747032
 40
0.7634974346
 40
0.8048029914
 40
0.8548740685
 40
0.9198795005
 40
1.0
 40
1.0
 40
1.0
 40
1.0
 10
15.4689648821
 20
13.1676233599
 30
0.0
 10
15.4728698852
 20
13.1802599545
 30
0.0
 10
15.4791282984
 20
13.207341021
 30
0.0
 10
15.4842523051
 20
13.2498291045
 30
0.0
 10
15.4853678966
 20
13.2941491922
 30
0.0
 10
15.482442081
 20
13.337859561
 30
0.0
 10
15.4756519484
 20
13.3785353566
 30
0.0
 10
15.4654002265
 20
13.4139994972
 30
0.0
 10
15.4521937892
 20
13.442346055
 30
0.0
 10
15.4367165922
 20
13.4624066027
 30
0.0
 10
15.4179566418
 20
13.4731908374
 30
0.0
 10
15.3973697984
 20
13.4701945161
 30
0.0
 10
15.3800221287
 20
13.4549914408
 30
0.0
 10
15.3653184883
 20
13.4311421272
 30
0.0
 10
15.3579504296
 20
13.411652639
 30
0.0
 10
15.3545741821
 20
13.400727098
 30
0.0
  0
SPLINE
  5
38E
100
AcDbEntity
  8
0
100
AcDbSpline
 62
7
  6
CONTINUOUS
 70
0
 71
3
 72
20
 73
16
 74
0
 42
0.0000001
 43
0.0000001
 44
0.0000000001
 40
0.0
 40
0.0
 40
0.0
 40
0.0
 40
0.0800941014
 40
0.1446510158
 40
0.1944540422
 40
0.2354481666
 40
0.2800720926
 40
0.3374153761
 40
0.4099584833
 40
0.4965792438
 40
0.5940378551
 40
0.6978151906
 40
0.8041542793
 40
0.9066436058
 40
1.0
 40
1.0
 40
1.0
 40
1.0
 10
15.3644880428
 20
13.3805247741
 30
0.0
 10
15.3673007897
 20
13.3895467652
 30
0.0
 10
15.3733390639
 20
13.4056151287
 30
0.0
 10
15.3854495476
 20
13.4252605692
 30
0.0
 10
15.3996242597
 20
13.4377862879
 30
0.0
 10
15.4164615476
 20
13.4404922862
 30
0.0
 10
15.4320013809
 20
13.4318808772
 30
0.0
 10
15.444848174
 20
13.4154956711
 30
0.0
 10
15.4558200529
 20
13.3922613357
 30
0.0
 10
15.4643640109
 20
13.3631234072
 30
0.0
 10
15.4700748409
 20
13.3295781032
 30
0.0
 10
15.4726001721
 20
13.2933213449
 30
0.0
 10
15.4717400189
 20
13.2563922117
 30
0.0
 10
15.4675201809
 20
13.220932734
 30
0.0
 10
15.462284338
 20
13.1983555493
 30
0.0
 10
15.4590510215
 20
13.1878256839
 30
0.0
  0
SPLINE
  5
38F
100
AcDbEntity
  8
0
100
AcDbSpline
 62
7
  6
CONTINUOUS
 70
0
 71
3
 72
20
 73
16
 74
0
 42
0.0000001
 43
0.0000001
 44
0.0000000001
 40
0.0
 40
0.0
 40
0.0
 40
0.0
 40
0.0800941014
 40
0.1446510158
 40
0.1944540422
 40
0.2354481666
 40
0.2800720926
 40
0.3374153761
 40
0.4099584833
 40
0.4965792438
 40
0.5940378551
 40
0.6978151906
 40
0.8041542793
 40
0.9066436058
 40
1.0
 40
1.0
 40
1.0
 40
1.0
 10
15.4590510215
 20
13.1878256839
 30
0.0
 10
15.4562382745
 20
13.1788036928
 30
0.0
 10
15.4502000004
 20
13.1627353293
 30
0.0
 10
15.4380895166
 20
13.1430898888
 30
0.0
 10
15.4239148046
 20
13.1305641701
 30
0.0
 10
15.4070775167
 20
13.1278581718
 30
0.0
 10
15.3915376834
 20
13.1364695808
 30
0.0
 10
15.3786908903
 20
13.1528547869
 30
0.0
 10
15.3677190114
 20
13.1760891223
 30
0.0
 10
15.3591750534
 20
13.2052270508
 30
0.0
 10
15.3534642234
 20
13.2387723548
 30
0.0
 10
15.3509388922
 20
13.2750291131
 30
0.0
 10
15.3517990454
 20
13.3119582463
 30
0.0
 10
15.3560188834
 20
13.347417724
 30
0.0
 10
15.3612547262
 20
13.3699949086
 30
0.0
 10
15.3644880428
 20
13.3805247741
 30
0.0
  0
ENDSEC
  0
SECTION
  2
OBJECTS
  0
DICTIONARY
  5
C
100
AcDbDictionary
280
0
281
1
  3
ACAD_GROUP
350
D
  3
ACAD_MLINESTYLE
350
17
  3
ACAD_LAYOUT
350
1A
  3
ACAD_PLOTSETTINGS
350
19
  3
ACAD_PLOTSTYLENAME
350
E
  0
DICTIONARY
  5
D
102
{ACAD_REACTORS
330
C
102
}
100
AcDbDictionary
280
0
281
1
  0
ACDBDICTIONARYWDFLT
  5
E
102
{ACAD_REACTORS
330
C
102
}
100
AcDbDictionary
281
1
  3
Normal
350
F
100
AcDbDictionaryWithDefault
340
F
  0
DICTIONARY
  5
17
102
{ACAD_REACTORS
330
C
102
}
100
AcDbDictionary
280
0
281
1
  3
Standard
350
18
  0
DICTIONARY
  5
19
102
{ACAD_REACTORS
330
C
102
}
100
AcDbDictionary
281
1
  0
DICTIONARY
  5
1A
102
{ACAD_REACTORS
330
C
102
}
100
AcDbDictionary
281
1
  3
Model
350
390
  3
Layout1
350
391
  0
ACDBPLACEHOLDER
  5
F
102
{ACAD_REACTORS
330
E
102
}
  0
MLINESTYLE
  5
18
102
{ACAD_REACTORS
330
17
102
}
100
AcDbMlineStyle
  2
STANDARD
 70
0
  3

 62
256
 51
90.0
 52
90.0
 71
2
 49
0.5
 62
256
  6
BYLAYER
 49
-0.5
 62
256
  6
BYLAYER
  0
LAYOUT
  5
390
102
{ACAD_REACTORS
330
1A
102
}
100
AcDbPlotSettings
  1

  2
none_device
  4
ANSI_C_(22.00_x_17.00_Inches)
  6

 40
0.0
 41
0.0
 42
0.0
 43
0.0
 44
558.8
 45
431.8
 46
0.0
 47
0.0
 48
0.0
 49
0.0
140
0.0
141
0.0
142
1.0
143
1.0
 70
1024
 72
0
 73
0
 74
0
  7

 75
0
147
1.0
148
0.0
149
0.0
100
AcDbLayout
  1
Model
 70
0
 71
0
 10
0.0
 20
0.0
 11
22.0
 21
17.0
 12
0.0
 22
0.0
 32
0.0
 14
0.0
 24
0.0
 34
0.0
 15
0.0
 25
0.0
 35
0.0
146
0.0
 13
0.0
 23
0.0
 33
0.0
 16
1.0
 26
0.0
 36
0.0
 17
0.0
 27
1.0
 37
0.0
 76
0
330
216
345
0
346
0
  0
LAYOUT
  5
391
102
{ACAD_REACTORS
330
1A
102
}
100
AcDbPlotSettings
  1

  2
none_device
  4
ANSI_C_(22.00_x_17.00_Inches)
  6

 40
0.0
 41
0.0
 42
0.0
 43
0.0
 44
558.8
 45
431.8
 46
0.0
 47
0.0
 48
0.0
 49
0.0
140
0.0
141
0.0
142
1.0
143
1.0
 70
0
 72
0
 73
0
 74
0
  7

 75
0
147
1.0
148
0.0
149
0.0
100
AcDbLayout
  1
Layout1
 70
0
 71
1
 10
0.0
 20
0.0
 11
22.0
 21
17.0
 12
0.0
 22
0.0
 32
0.0
 14
0.0
 24
0.0
 34
0.0
 15
0.0
 25
0.0
 35
0.0
146
0.0
 13
0.0
 23
0.0
 33
0.0
 16
1.0
 26
0.0
 36
0.0
 17
0.0
 27
1.0
 37
0.0
 76
0
330
217
345
0
346
0
  0
ENDSEC
  0
EOF