999
DXF file: _cgs_temp_output.dxf
999
Pro/ENGINEER 2016360 by Parametric Technology Corporation
  0
SECTION
  2
HEADER
  9
$ACADVER
  1
AC1021
  9
$DWGCODEPAGE
  3
ANSI_1252
  9
$EXTMAX
 10
22.0
 20
17.0
 30
0.0
  9
$EXTMIN
 10
0.0
 20
0.0
 30
0.0
  9
$LIMMIN
 10
0.0
 20
0.0
  9
$LIMMAX
 10
22.0
 20
17.0
  9
$VIEWCTR
 10
11.0
 20
8.5
  9
$VIEWSIZE
 40
17.0
  9
$CLAYER
  8
0
  9
$LTSCALE
 40
1.21
  9
$CELTYPE
  6
BYLAYER
  9
$DIMSCALE
 40
1.0
  9
$DIMASZ
 40
0.1875
  9
$DIMEXO
 40
0.0625
  9
$DIMDLI
 40
0.836
  9
$DIMEXE
 40
0.125
  9
$DIMCEN
 40
0.198
  9
$DIMLFAC
 40
1.0
  9
$DIMBLK
  1
_CLOSED
  9
$DIMALT
 70
0
  9
$DIMALTF
 40
25.4
  9
$DIMTXT
 40
0.15625
  9
$DIMTOL
 70
0
  9
$DIMLIM
 70
0
  9
$DIMTFAC
 40
1.0
  9
$DIMGAP
 40
0.09
  9
$DIMDSEP
 70
46
  9
$AUNITS
 70
0
  9
$PDMODE
 70
3
  9
$PDSIZE
 40
0.3125
  9
$HANDSEED
  5
320
  9
$TILEMODE
 70
1
  9
$MEASUREMENT
 70
0
  9
$INSUNITS
 70
1
  0
ENDSEC
  0
SECTION
  2
CLASSES
  0
CLASS
  1
ACDBDICTIONARYWDFLT
  2
AcDbDictionaryWithDefault
  3
AutoCAD 2000
 90
0
 91
1
280
0
281
0
  0
CLASS
  1
ACDBPLACEHOLDER
  2
AcDbPlaceHolder
  3
AutoCAD 2000
 90
0
 91
1
280
0
281
0
  0
CLASS
  1
LAYOUT
  2
AcDbLayout
  3
AutoCAD 2000
 90
0
 91
0
280
0
281
0
  0
ENDSEC
  0
SECTION
  2
TABLES
  0
TABLE
  2
VPORT
  5
8
100
AcDbSymbolTable
 70
2
  0
VPORT
  5
1F4
100
AcDbSymbolTableRecord
100
AcDbViewportTableRecord
  2
*ACTIVE
 70
0
 10
0.0
 20
0.0
 11
1.0
 21
1.0
 12
11.0
 22
8.5
 13
0.0
 23
0.0
 14
1.0
 24
1.0
 15
0.0
 25
0.0
 16
0.0
 26
0.0
 36
1.0
 17
0.0
 27
0.0
 37
0.0
 40
17.0
 41
1.2941176471
 42
50.0
 43
0.0
 44
0.0
 50
0.0
 51
0.0
 71
0
 72
100
 73
1
 74
1
 75
0
 76
0
 77
0
 78
0
  0
ENDTAB
  0
TABLE
  2
LTYPE
  5
5
100
AcDbSymbolTable
 70
6
  0
LTYPE
  5
14
100
AcDbSymbolTableRecord
100
AcDbLinetypeTableRecord
  2
BYBLOCK
 70
0
  3

 72
65
 73
0
 40
0.0
  0
LTYPE
  5
15
100
AcDbSymbolTableRecord
100
AcDbLinetypeTableRecord
  2
BYLAYER
 70
0
  3

 72
65
 73
0
 40
0.0
  0
LTYPE
  5
16
100
AcDbSymbolTableRecord
100
AcDbLinetypeTableRecord
  2
CONTINUOUS
 70
64
  3
Solid line
 72
65
 73
0
 40
0.0
  0
LTYPE
  5
1F5
100
AcDbSymbolTableRecord
100
AcDbLinetypeTableRecord
  2
CENTER
 70
64
  3
____ _ ____ _ ____ _ ____ _ ____ _ ____ _ ____
 72
65
 73
4
 40
0.6
 49
0.375
 74
0
 49
-0.075
 74
0
 49
0.075
 74
0
 49
-0.075
 74
0
  0
LTYPE
  5
1F6
100
AcDbSymbolTableRecord
100
AcDbLinetypeTableRecord
  2
HIDDEN
 70
64
  3
- - - - - - - - - - - - - - - - - - - -
 72
65
 73
2
 40
0.2
 49
0.1
 74
0
 49
-0.1
 74
0
  0
LTYPE
  5
1F7
100
AcDbSymbolTableRecord
100
AcDbLinetypeTableRecord
  2
PHANTOM
 70
64
  3
_____ _ _ _____ _ _ _____ _ _ _____
 72
65
 73
6
 40
0.8
 49
0.45
 74
0
 49
-0.05
 74
0
 49
0.1
 74
0
 49
-0.05
 74
0
 49
0.1
 74
0
 49
-0.05
 74
0
  0
LTYPE
  5
1F8
100
AcDbSymbolTableRecord
100
AcDbLinetypeTableRecord
  2
DOT
 70
64
  3
. . . . . . . . . . . . . . . . . . . .
 72
65
 73
2
 40
0.2
 49
0.1
 74
0
 49
-0.1
 74
0
  0
LTYPE
  5
1F9
100
AcDbSymbolTableRecord
100
AcDbLinetypeTableRecord
  2
DASHED
 70
64
  3
- - - - - - - - - - - - - - - - - - - -
 72
65
 73
2
 40
0.2
 49
0.1
 74
0
 49
-0.1
 74
0
  0
ENDTAB
  0
TABLE
  2
LAYER
  5
2
100
AcDbSymbolTable
 70
36
  0
LAYER
  5
10
100
AcDbSymbolTableRecord
100
AcDbLayerTableRecord
  2
0
 70
0
 62
7
  6
CONTINUOUS
370
-3
390
F
  0
LAYER
  5
1FA
100
AcDbSymbolTableRecord
100
AcDbLayerTableRecord
  2
DEFAULT_1
 70
0
 62
7
  6
CENTER
370
-3
390
F
  0
LAYER
  5
1FB
100
AcDbSymbolTableRecord
100
AcDbLayerTableRecord
  2
DEFAULT_2
 70
0
 62
8
  6
HIDDEN
370
-3
390
F
  0
LAYER
  5
1FC
100
AcDbSymbolTableRecord
100
AcDbLayerTableRecord
  2
DEFAULT_3
 70
0
 62
7
  6
PHANTOM
370
-3
390
F
  0
LAYER
  5
1FD
100
AcDbSymbolTableRecord
100
AcDbLayerTableRecord
  2
01_ALL_DTM_PLN
 70
0
 62
7
  6
CONTINUOUS
370
-3
390
F
  0
LAYER
  5
1FE
100
AcDbSymbolTableRecord
100
AcDbLayerTableRecord
  2
01__ASM_ALL_DTM_PLN
 70
0
 62
7
  6
CONTINUOUS
370
-3
390
F
  0
LAYER
  5
1FF
100
AcDbSymbolTableRecord
100
AcDbLayerTableRecord
  2
01__ASM_DEF_DTM_PLN
 70
0
 62
7
  6
CONTINUOUS
370
-3
390
F
  0
LAYER
  5
200
100
AcDbSymbolTableRecord
100
AcDbLayerTableRecord
  2
01___PRT_ALL_DTM_PLN
 70
0
 62
7
  6
CONTINUOUS
370
-3
390
F
  0
LAYER
  5
201
100
AcDbSymbolTableRecord
100
AcDbLayerTableRecord
  2
01___PRT_DEF_DTM_PLN
 70
0
 62
7
  6
CONTINUOUS
370
-3
390
F
  0
LAYER
  5
202
100
AcDbSymbolTableRecord
100
AcDbLayerTableRecord
  2
02_ALL_AXES
 70
0
 62
7
  6
CONTINUOUS
370
-3
390
F
  0
LAYER
  5
203
100
AcDbSymbolTableRecord
100
AcDbLayerTableRecord
  2
02__ASM_ALL_AXES
 70
0
 62
7
  6
CONTINUOUS
370
-3
390
F
  0
LAYER
  5
204
100
AcDbSymbolTableRecord
100
AcDbLayerTableRecord
  2
02___PRT_ALL_AXES
 70
0
 62
7
  6
CONTINUOUS
370
-3
390
F
  0
LAYER
  5
205
100
AcDbSymbolTableRecord
100
AcDbLayerTableRecord
  2
03_ALL_CURVES
 70
0
 62
7
  6
CONTINUOUS
370
-3
390
F
  0
LAYER
  5
206
100
AcDbSymbolTableRecord
100
AcDbLayerTableRecord
  2
03__ASM_ALL_CURVES
 70
0
 62
7
  6
CONTINUOUS
370
-3
390
F
  0
LAYER
  5
207
100
AcDbSymbolTableRecord
100
AcDbLayerTableRecord
  2
03___PRT_ALL_CURVES
 70
0
 62
7
  6
CONTINUOUS
370
-3
390
F
  0
LAYER
  5
208
100
AcDbSymbolTableRecord
100
AcDbLayerTableRecord
  2
04_ALL_DTM_PNT
 70
0
 62
7
  6
CONTINUOUS
370
-3
390
F
  0
LAYER
  5
209
100
AcDbSymbolTableRecord
100
AcDbLayerTableRecord
  2
04__ASM_ALL_DTM_PNT
 70
0
 62
7
  6
CONTINUOUS
370
-3
390
F
  0
LAYER
  5
20A
100
AcDbSymbolTableRecord
100
AcDbLayerTableRecord
  2
04___PRT_ALL_DTM_PNT
 70
0
 62
7
  6
CONTINUOUS
370
-3
390
F
  0
LAYER
  5
20B
100
AcDbSymbolTableRecord
100
AcDbLayerTableRecord
  2
05_ALL_DTM_CSYS
 70
0
 62
7
  6
CONTINUOUS
370
-3
390
F
  0
LAYER
  5
20C
100
AcDbSymbolTableRecord
100
AcDbLayerTableRecord
  2
05__ASM_ALL_DTM_CSYS
 70
0
 62
7
  6
CONTINUOUS
370
-3
390
F
  0
LAYER
  5
20D
100
AcDbSymbolTableRecord
100
AcDbLayerTableRecord
  2
05__ASM_DEF_DTM_CSYS
 70
0
 62
7
  6
CONTINUOUS
370
-3
390
F
  0
LAYER
  5
20E
100
AcDbSymbolTableRecord
100
AcDbLayerTableRecord
  2
05___PRT_ALL_DTM_CSYS
 70
0
 62
7
  6
CONTINUOUS
370
-3
390
F
  0
LAYER
  5
20F
100
AcDbSymbolTableRecord
100
AcDbLayerTableRecord
  2
05___PRT_DEF_DTM_CSYS
 70
0
 62
7
  6
CONTINUOUS
370
-3
390
F
  0
LAYER
  5
210
100
AcDbSymbolTableRecord
100
AcDbLayerTableRecord
  2
06_ALL_SURFS
 70
0
 62
7
  6
CONTINUOUS
370
-3
390
F
  0
LAYER
  5
211
100
AcDbSymbolTableRecord
100
AcDbLayerTableRecord
  2
06__ASM_ALL_SURFS
 70
0
 62
7
  6
CONTINUOUS
370
-3
390
F
  0
LAYER
  5
212
100
AcDbSymbolTableRecord
100
AcDbLayerTableRecord
  2
06___PRT_ALL_SURFS
 70
0
 62
7
  6
CONTINUOUS
370
-3
390
F
  0
LAYER
  5
213
100
AcDbSymbolTableRecord
100
AcDbLayerTableRecord
  2
07__ASM_ALL_SKELETONS
 70
0
 62
7
  6
CONTINUOUS
370
-3
390
F
  0
LAYER
  5
214
100
AcDbSymbolTableRecord
100
AcDbLayerTableRecord
  2
ANNOTATIONS
 70
0
 62
7
  6
CONTINUOUS
370
-3
390
F
  0
LAYER
  5
215
100
AcDbSymbolTableRecord
100
AcDbLayerTableRecord
  2
ASM_DATUMS
 70
0
 62
7
  6
CONTINUOUS
370
-3
390
F
  0
LAYER
  5
216
100
AcDbSymbolTableRecord
100
AcDbLayerTableRecord
  2
ASM_DEF_DATUMS
 70
0
 62
7
  6
CONTINUOUS
370
-3
390
F
  0
LAYER
  5
217
100
AcDbSymbolTableRecord
100
AcDbLayerTableRecord
  2
AXIS
 70
0
 62
7
  6
CONTINUOUS
370
-3
390
F
  0
LAYER
  5
218
100
AcDbSymbolTableRecord
100
AcDbLayerTableRecord
  2
CSYS
 70
0
 62
7
  6
CONTINUOUS
370
-3
390
F
  0
LAYER
  5
219
100
AcDbSymbolTableRecord
100
AcDbLayerTableRecord
  2
CURVES
 70
0
 62
7
  6
CONTINUOUS
370
-3
390
F
  0
LAYER
  5
21A
100
AcDbSymbolTableRecord
100
AcDbLayerTableRecord
  2
DATUMS
 70
0
 62
7
  6
CONTINUOUS
370
-3
390
F
  0
LAYER
  5
21B
100
AcDbSymbolTableRecord
100
AcDbLayerTableRecord
  2
DEF_CSYS
 70
0
 62
7
  6
CONTINUOUS
370
-3
390
F
  0
LAYER
  5
21C
100
AcDbSymbolTableRecord
100
AcDbLayerTableRecord
  2
DEF_DATUMS
 70
0
 62
7
  6
CONTINUOUS
370
-3
390
F
  0
LAYER
  5
21D
100
AcDbSymbolTableRecord
100
AcDbLayerTableRecord
  2
GTOL
 70
0
 62
7
  6
CONTINUOUS
370
-3
390
F
  0
LAYER
  5
21E
100
AcDbSymbolTableRecord
100
AcDbLayerTableRecord
  2
POINTS
 70
0
 62
7
  6
CONTINUOUS
370
-3
390
F
  0
LAYER
  5
21F
100
AcDbSymbolTableRecord
100
AcDbLayerTableRecord
  2
SKELETONS
 70
0
 62
7
  6
CONTINUOUS
370
-3
390
F
  0
LAYER
  5
220
100
AcDbSymbolTableRecord
100
AcDbLayerTableRecord
  2
SURFACES
 70
0
 62
7
  6
CONTINUOUS
370
-3
390
F
  0
LAYER
  5
221
100
AcDbSymbolTableRecord
100
AcDbLayerTableRecord
  2
XSEC_DATUMS
 70
0
 62
7
  6
CONTINUOUS
370
-3
390
F
  0
ENDTAB
  0
TABLE
  2
STYLE
  5
3
100
AcDbSymbolTable
 70
1
  0
STYLE
  5
11
100
AcDbSymbolTableRecord
100
AcDbTextStyleTableRecord
  2
STANDARD
 70
0
 40
0.0
 41
0.8
 50
0.0
 71
0
 42
0.2
  3
txt
  4

  0
STYLE
  5
222
100
AcDbSymbolTableRecord
100
AcDbTextStyleTableRecord
  2
TEXTSTYLE_1
 70
0
 40
0.0
 41
0.8
 50
0.0
 71
0
 42
0.2
  3
gdt
  4

  0
ENDTAB
  0
TABLE
  2
VIEW
  5
6
100
AcDbSymbolTable
 70
0
  0
ENDTAB
  0
TABLE
  2
UCS
  5
7
100
AcDbSymbolTable
 70
0
  0
ENDTAB
  0
TABLE
  2
APPID
  5
9
100
AcDbSymbolTable
 70
1
  0
APPID
  5
223
100
AcDbSymbolTableRecord
100
AcDbRegAppTableRecord
  2
ACAD
 70
0
  0
ENDTAB
  0
TABLE
  2
BLOCK_RECORD
  5
1
100
AcDbSymbolTable
 70
0
  0
BLOCK_RECORD
  5
224
100
AcDbSymbolTableRecord
100
AcDbBlockTableRecord
  2
*Model_Space
  0
BLOCK_RECORD
  5
225
100
AcDbSymbolTableRecord
100
AcDbBlockTableRecord
  2
*Paper_Space
  0
ENDTAB
  0
TABLE
  2
DIMSTYLE
  5
A
100
AcDbSymbolTable
 70
1
100
AcDbDimStyleTable
 71
0
  0
DIMSTYLE
105
226
100
AcDbSymbolTableRecord
100
AcDbDimStyleTableRecord
  2
STANDARD
 70
0
  3

  4

 40
1.0
 41
0.1875
 42
0.0625
 43
0.38
 44
0.125
 45
0.0
 46
0.0
 47
0.0001
 48
0.0001
140
0.15625
141
0.09
142
0.0
143
25.4
144
1.0
145
0.0
146
1.0
147
0.09
 71
0.0
 72
0.0
 73
1
 74
1
 75
0
 76
0
 77
0
 78
4
 79
1
170
0
171
3
172
0
173
0
174
0
175
0
176
0
177
0
178
0
270
2
179
4
271
4
272
4
273
2
274
2
275
0
280
0
281
0
282
0
283
1
284
4
285
0
286
0
287
3
288
0
340
11
278
46
  0
ENDTAB
  0
ENDSEC
  0
SECTION
  2
BLOCKS
  0
BLOCK
  5
20
100
AcDbEntity
  8
0
100
AcDbBlockBegin
  2
*Model_Space
 70
0
 10
0.0
 20
0.0
 30
0.0
  3
*Model_Space
  1

  0
ENDBLK
  5
21
100
AcDbEntity
  8
0
100
AcDbBlockEnd
  0
BLOCK
  5
1C
100
AcDbEntity
  8
0
100
AcDbBlockBegin
  2
*Paper_Space
 70
0
 10
0.0
 20
0.0
 30
0.0
  3
*Paper_Space
  1

  0
ENDBLK
  5
1D
100
AcDbEntity
  8
0
100
AcDbBlockEnd
  0
ENDSEC
  0
SECTION
  2
ENTITIES
  0
MTEXT
  5
227
100
AcDbEntity
  8
0
100
AcDbMText
 62
7
  6
CONTINUOUS
  7
STANDARD
 71
1
 72
1
 10
15.9560215477
 20
0.9479130325
 30
0.0
 11
1.0
 21
0.0
 31
0.0
 44
0.9
  1
SCALE: 1:1.000
 40
0.3
 41
3.36
  0
LINE
  5
228
100
AcDbEntity
  8
0
100
AcDbLine
 62
7
  6
CONTINUOUS
 10
0.0
 20
0.0
 11
0.0
 21
17.0
  0
LINE
  5
229
100
AcDbEntity
  8
0
100
AcDbLine
 62
7
  6
CONTINUOUS
 10
0.0
 20
0.0
 11
22.0
 21
0.0
  0
LINE
  5
22A
100
AcDbEntity
  8
0
100
AcDbLine
 62
7
  6
CONTINUOUS
 10
0.0
 20
17.0
 11
22.0
 21
17.0
  0
LINE
  5
22B
100
AcDbEntity
  8
0
100
AcDbLine
 62
7
  6
CONTINUOUS
 10
22.0
 20
0.0
 11
22.0
 21
17.0
  0
LINE
  5
22C
100
AcDbEntity
  8
02___PRT_ALL_AXES
100
AcDbLine
 62
7
  6
CONTINUOUS
 10
5.5602455615
 20
6.9576198968
 11
5.5028672762
 21
6.9400775945
  0
LINE
  5
22D
100
AcDbEntity
  8
02___PRT_ALL_AXES
100
AcDbLine
 62
7
  6
CONTINUOUS
 10
5.5602455615
 20
4.0826198968
 11
5.5028672762
 21
4.100162199
  0
LINE
  5
22E
100
AcDbEntity
  8
0
100
AcDbLine
 62
7
  6
CONTINUOUS
 10
5.5928672762
 20
4.2255509523
 11
6.6678672762
 21
4.2255509523
  0
LINE
  5
22F
100
AcDbEntity
  8
0
100
AcDbLine
 62
7
  6
CONTINUOUS
 10
5.5928672762
 20
4.3040251432
 11
6.6678672762
 21
4.3040251432
  0
LINE
  5
230
100
AcDbEntity
  8
0
100
AcDbLine
 62
7
  6
CONTINUOUS
 10
5.5928672762
 20
4.4801668315
 11
6.6678672762
 21
4.4801668315
  0
LINE
  5
231
100
AcDbEntity
  8
0
100
AcDbLine
 62
7
  6
CONTINUOUS
 10
5.5928672762
 20
4.7397123633
 11
6.6678672762
 21
4.7397123633
  0
LINE
  5
232
100
AcDbEntity
  8
02___PRT_ALL_AXES
100
AcDbLine
 62
7
  6
CONTINUOUS
 10
5.5028672762
 20
6.9400775945
 11
5.5028672762
 21
4.100162199
  0
LINE
  5
233
100
AcDbEntity
  8
02___PRT_ALL_AXES
100
AcDbLine
 62
7
  6
CONTINUOUS
 10
5.5602455615
 20
6.9576198968
 11
5.5602455615
 21
4.0826198968
  0
LINE
  5
234
100
AcDbEntity
  8
02___PRT_ALL_AXES
100
AcDbLine
 62
7
  6
CONTINUOUS
 10
5.5928672762
 20
6.850919076
 11
5.5928672762
 21
4.1893207175
  0
LINE
  5
235
100
AcDbEntity
  8
0
100
AcDbLine
 62
7
  6
CONTINUOUS
 10
5.5928672762
 20
5.0616441841
 11
6.6678672762
 21
5.0616441841
  0
LINE
  5
236
100
AcDbEntity
  8
02___PRT_ALL_AXES
100
AcDbLine
 62
7
  6
CONTINUOUS
 10
5.5928672762
 20
4.1893207175
 11
5.5602455615
 21
4.0826198968
  0
LINE
  5
237
100
AcDbEntity
  8
02___PRT_ALL_AXES
100
AcDbLine
 62
7
  6
CONTINUOUS
 10
5.5928672762
 20
6.850919076
 11
5.5602455615
 21
6.9576198968
  0
LINE
  5
238
100
AcDbEntity
  8
02___PRT_ALL_AXES
100
AcDbLine
 62
7
  6
CONTINUOUS
 10
6.6678672762
 20
6.850919076
 11
6.7004889908
 21
6.9576198968
  0
LINE
  5
239
100
AcDbEntity
  8
02___PRT_ALL_AXES
100
AcDbLine
 62
7
  6
CONTINUOUS
 10
6.6678672762
 20
4.1893207175
 11
6.7004889908
 21
4.0826198968
  0
LINE
  5
23A
100
AcDbEntity
  8
0
100
AcDbLine
 62
7
  6
CONTINUOUS
 10
6.6678672762
 20
5.9760658561
 11
5.5928672762
 21
5.9760658561
  0
LINE
  5
23B
100
AcDbEntity
  8
02___PRT_ALL_AXES
100
AcDbLine
 62
7
  6
CONTINUOUS
 10
6.6678672762
 20
4.1893207175
 11
6.6678672762
 21
6.850919076
  0
LINE
  5
23C
100
AcDbEntity
  8
02___PRT_ALL_AXES
100
AcDbLine
 62
7
  6
CONTINUOUS
 10
6.7004889908
 20
4.0826198968
 11
6.7004889908
 21
6.9576198968
  0
LINE
  5
23D
100
AcDbEntity
  8
02___PRT_ALL_AXES
100
AcDbLine
 62
7
  6
CONTINUOUS
 10
6.7578672762
 20
4.100162199
 11
6.7578672762
 21
6.9400775945
  0
LINE
  5
23E
100
AcDbEntity
  8
0
100
AcDbLine
 62
7
  6
CONTINUOUS
 10
6.6678672762
 20
6.2983639283
 11
5.5928672762
 21
6.2983639283
  0
LINE
  5
23F
100
AcDbEntity
  8
0
100
AcDbLine
 62
7
  6
CONTINUOUS
 10
6.6678672762
 20
6.5584509084
 11
5.5928672762
 21
6.5584509084
  0
LINE
  5
240
100
AcDbEntity
  8
0
100
AcDbLine
 62
7
  6
CONTINUOUS
 10
6.6678672762
 20
6.735265396
 11
5.5928672762
 21
6.735265396
  0
LINE
  5
241
100
AcDbEntity
  8
0
100
AcDbLine
 62
7
  6
CONTINUOUS
 10
6.6678672762
 20
6.8146229386
 11
5.5928672762
 21
6.8146229386
  0
LINE
  5
242
100
AcDbEntity
  8
02___PRT_ALL_AXES
100
AcDbLine
 62
7
  6
CONTINUOUS
 10
6.7004889908
 20
4.0826198968
 11
6.7578672762
 21
4.100162199
  0
LINE
  5
243
100
AcDbEntity
  8
02___PRT_ALL_AXES
100
AcDbLine
 62
7
  6
CONTINUOUS
 10
6.7004889908
 20
6.9576198968
 11
6.7578672762
 21
6.9400775945
  0
LINE
  5
244
100
AcDbEntity
  8
02___PRT_ALL_AXES
100
AcDbLine
 62
7
  6
CONTINUOUS
 10
5.4433720839
 20
14.0200054791
 11
5.5007503692
 21
14.0375477814
  0
LINE
  5
245
100
AcDbEntity
  8
02___PRT_ALL_AXES
100
AcDbLine
 62
7
  6
CONTINUOUS
 10
5.4433720839
 20
11.1800900837
 11
5.5007503692
 21
11.1625477814
  0
LINE
  5
246
100
AcDbEntity
  8
AXIS
100
AcDbLine
 62
7
  6
CONTINUOUS
 10
6.6083720839
 20
11.3020477814
 11
5.5333720839
 21
11.3020477814
  0
LINE
  5
247
100
AcDbEntity
  8
0
100
AcDbLine
 62
7
  6
CONTINUOUS
 10
5.5333720839
 20
11.3318194583
 11
6.6083720839
 21
11.3318194583
  0
LINE
  5
248
100
AcDbEntity
  8
0
100
AcDbLine
 62
7
  6
CONTINUOUS
 10
5.5333720839
 20
11.4603161352
 11
6.6083720839
 21
11.4603161352
  0
LINE
  5
249
100
AcDbEntity
  8
0
100
AcDbLine
 62
7
  6
CONTINUOUS
 10
5.5333720839
 20
11.6802965551
 11
6.6083720839
 21
11.6802965551
  0
LINE
  5
24A
100
AcDbEntity
  8
02___PRT_ALL_AXES
100
AcDbLine
 62
7
  6
CONTINUOUS
 10
5.4433720839
 20
11.1800900837
 11
5.4433720839
 21
14.0200054791
  0
LINE
  5
24B
100
AcDbEntity
  8
0
100
AcDbLine
 62
7
  6
CONTINUOUS
 10
5.5333720839
 20
11.9739470786
 11
6.6083720839
 21
11.9739470786
  0
LINE
  5
24C
100
AcDbEntity
  8
02___PRT_ALL_AXES
100
AcDbLine
 62
7
  6
CONTINUOUS
 10
5.5007503692
 20
11.1625477814
 11
5.5007503692
 21
14.0375477814
  0
LINE
  5
24D
100
AcDbEntity
  8
02___PRT_ALL_AXES
100
AcDbLine
 62
7
  6
CONTINUOUS
 10
5.5333720839
 20
11.2692486021
 11
5.5333720839
 21
13.9308469606
  0
LINE
  5
24E
100
AcDbEntity
  8
02___PRT_ALL_AXES
100
AcDbLine
 62
7
  6
CONTINUOUS
 10
5.5007503692
 20
11.1625477814
 11
5.5333720839
 21
11.2692486021
  0
LINE
  5
24F
100
AcDbEntity
  8
02___PRT_ALL_AXES
100
AcDbLine
 62
7
  6
CONTINUOUS
 10
5.5007503692
 20
14.0375477814
 11
5.5333720839
 21
13.9308469606
  0
LINE
  5
250
100
AcDbEntity
  8
02___PRT_ALL_AXES
100
AcDbLine
 62
7
  6
CONTINUOUS
 10
6.6409937985
 20
14.0375477814
 11
6.6083720839
 21
13.9308469606
  0
LINE
  5
251
100
AcDbEntity
  8
02___PRT_ALL_AXES
100
AcDbLine
 62
7
  6
CONTINUOUS
 10
6.6409937985
 20
11.1625477814
 11
6.6083720839
 21
11.2692486021
  0
LINE
  5
252
100
AcDbEntity
  8
02___PRT_ALL_AXES
100
AcDbLine
 62
7
  6
CONTINUOUS
 10
6.6083720839
 20
11.2692486021
 11
6.6083720839
 21
13.9308469606
  0
LINE
  5
253
100
AcDbEntity
  8
02___PRT_ALL_AXES
100
AcDbLine
 62
7
  6
CONTINUOUS
 10
6.6409937985
 20
11.1625477814
 11
6.6409937985
 21
14.0375477814
  0
LINE
  5
254
100
AcDbEntity
  8
02___PRT_ALL_AXES
100
AcDbLine
 62
7
  6
CONTINUOUS
 10
6.6983720839
 20
11.1800900837
 11
6.6983720839
 21
14.0200054791
  0
LINE
  5
255
100
AcDbEntity
  8
0
100
AcDbLine
 62
7
  6
CONTINUOUS
 10
6.6083720839
 20
13.2245685849
 11
5.5333720839
 21
13.2245685849
  0
LINE
  5
256
100
AcDbEntity
  8
0
100
AcDbLine
 62
7
  6
CONTINUOUS
 10
6.6083720839
 20
13.5185250715
 11
5.5333720839
 21
13.5185250715
  0
LINE
  5
257
100
AcDbEntity
  8
0
100
AcDbLine
 62
7
  6
CONTINUOUS
 10
6.6083720839
 20
13.7389146156
 11
5.5333720839
 21
13.7389146156
  0
LINE
  5
258
100
AcDbEntity
  8
0
100
AcDbLine
 62
7
  6
CONTINUOUS
 10
6.6083720839
 20
13.8678904477
 11
5.5333720839
 21
13.8678904477
  0
LINE
  5
259
100
AcDbEntity
  8
AXIS
100
AcDbLine
 62
7
  6
CONTINUOUS
 10
6.6083720839
 20
13.8980477814
 11
5.5333720839
 21
13.8980477814
  0
LINE
  5
25A
100
AcDbEntity
  8
02___PRT_ALL_AXES
100
AcDbLine
 62
7
  6
CONTINUOUS
 10
6.6983720839
 20
11.1800900837
 11
6.6409937985
 21
11.1625477814
  0
LINE
  5
25B
100
AcDbEntity
  8
02___PRT_ALL_AXES
100
AcDbLine
 62
7
  6
CONTINUOUS
 10
6.6983720839
 20
14.0200054791
 11
6.6409937985
 21
14.0375477814
  0
LINE
  5
25C
100
AcDbEntity
  8
02___PRT_ALL_AXES
100
AcDbLine
 62
7
  6
CONTINUOUS
 10
14.821670924
 20
13.9188501321
 11
14.8736368055
 21
13.9362452654
  0
LINE
  5
25D
100
AcDbEntity
  8
02___PRT_ALL_AXES
100
AcDbLine
 62
7
  6
CONTINUOUS
 10
14.821670924
 20
11.1027598537
 11
14.8736368055
 21
11.0853647204
  0
LINE
  5
25E
100
AcDbEntity
  8
0
100
AcDbLine
 62
7
  6
CONTINUOUS
 10
14.7779792796
 20
13.7050066801
 11
14.779505188
 21
13.7058061552
  0
LINE
  5
25F
100
AcDbEntity
  8
0
100
AcDbLine
 62
7
  6
CONTINUOUS
 10
14.8205753021
 20
11.2762425113
 11
14.8193682556
 21
11.27673201
  0
LINE
  5
260
100
AcDbEntity
  8
0
100
AcDbLine
 62
7
  6
CONTINUOUS
 10
14.9610749839
 20
11.2133741588
 11
15.7563871823
 21
11.2133741588
  0
LINE
  5
261
100
AcDbEntity
  8
0
100
AcDbLine
 62
7
  6
CONTINUOUS
 10
14.8205752966
 20
11.276239506
 11
15.7105038984
 21
11.276239506
  0
LINE
  5
262
100
AcDbEntity
  8
0
100
AcDbLine
 62
7
  6
CONTINUOUS
 10
14.7079216632
 20
13.5156687421
 11
14.7172270121
 21
13.5325290421
  0
LINE
  5
263
100
AcDbEntity
  8
AXIS
100
AcDbLine
 62
7
  6
CONTINUOUS
 10
16.0467755897
 20
11.3920549929
 11
16.0058372127
 21
11.3920549929
  0
LINE
  5
264
100
AcDbEntity
  8
0
100
AcDbLine
 62
7
  6
CONTINUOUS
 10
14.7529799334
 20
11.4349194487
 11
14.7507359134
 21
11.438272464
  0
LINE
  5
265
100
AcDbEntity
  8
0
100
AcDbLine
 62
7
  6
CONTINUOUS
 10
14.5133515547
 20
12.2389235679
 11
14.5066842756
 21
12.3293079679
  0
LINE
  5
266
100
AcDbEntity
  8
0
100
AcDbLine
 62
7
  6
CONTINUOUS
 10
14.502263344
 20
12.5846023322
 11
14.5057801115
 21
12.6761496797
  0
LINE
  5
267
100
AcDbEntity
  8
0
100
AcDbLine
 62
7
  6
CONTINUOUS
 10
14.5295409362
 20
12.9243051136
 11
14.5429569684
 21
13.0096020606
  0
LINE
  5
268
100
AcDbEntity
  8
0
100
AcDbLine
 62
7
  6
CONTINUOUS
 10
14.5974068856
 20
13.2449687547
 11
14.6156352368
 21
13.3039557207
  0
LINE
  5
269
100
AcDbEntity
  8
0
100
AcDbLine
 62
7
  6
CONTINUOUS
 10
14.6925497432
 20
11.438272464
 11
15.6242364036
 21
11.438272464
  0
LINE
  5
26A
100
AcDbEntity
  8
0
100
AcDbLine
 62
7
  6
CONTINUOUS
 10
14.6439996806
 20
11.6398251415
 11
14.6268399152
 21
11.6863474951
  0
LINE
  5
26B
100
AcDbEntity
  8
0
100
AcDbLine
 62
7
  6
CONTINUOUS
 10
14.5619076639
 20
11.9152612981
 11
14.5455962432
 21
11.9971635758
  0
LINE
  5
26C
100
AcDbEntity
  8
02___PRT_ALL_AXES
100
AcDbLine
 62
7
  6
CONTINUOUS
 10
15.9082506594
 20
13.8002798112
 11
15.9080393504
 21
13.8001573725
  0
LINE
  5
26D
100
AcDbEntity
  8
02___PRT_ALL_AXES
100
AcDbLine
 62
7
  6
CONTINUOUS
 10
15.9083591765
 20
13.799043607
 11
15.9081473584
 21
13.7989293754
  0
LINE
  5
26E
100
AcDbEntity
  8
0
100
AcDbLine
 62
7
  6
CONTINUOUS
 10
14.5874809244
 20
11.6863474951
 11
15.538215132
 21
11.6863474951
  0
LINE
  5
26F
100
AcDbEntity
  8
0
100
AcDbLine
 62
7
  6
CONTINUOUS
 10
14.7202525383
 20
13.5541165647
 11
14.7140824893
 21
13.6124082256
  0
LINE
  5
270
100
AcDbEntity
  8
0
100
AcDbLine
 62
7
  6
CONTINUOUS
 10
14.8884311677
 20
11.2398083952
 11
14.8868984396
 21
11.276239506
  0
LINE
  5
271
100
AcDbEntity
  8
0
100
AcDbLine
 62
7
  6
CONTINUOUS
 10
14.8451180502
 20
13.7058063589
 11
14.8455217919
 21
13.7572843116
  0
LINE
  5
272
100
AcDbEntity
  8
0
100
AcDbLine
 62
7
  6
CONTINUOUS
 10
14.752565247
 20
11.3546402214
 11
14.7567283838
 21
11.4140932996
  0
LINE
  5
273
100
AcDbEntity
  8
0
100
AcDbLine
 62
7
  6
CONTINUOUS
 10
14.9873782751
 20
13.799984585
 11
14.9875304134
 21
13.8012226271
  0
LINE
  5
274
100
AcDbEntity
  8
0
100
AcDbLine
 62
7
  6
CONTINUOUS
 10
14.6347961078
 20
11.5630963
 11
14.6453119785
 21
11.6171309196
  0
LINE
  5
275
100
AcDbEntity
  8
0
100
AcDbLine
 62
7
  6
CONTINUOUS
 10
14.5446604942
 20
11.8482962132
 11
14.5606775416
 21
11.8925367427
  0
LINE
  5
276
100
AcDbEntity
  8
0
100
AcDbLine
 62
7
  6
CONTINUOUS
 10
14.4894574345
 20
12.1871449581
 11
14.5096786254
 21
12.2180088748
  0
LINE
  5
277
100
AcDbEntity
  8
AXIS
100
AcDbLine
 62
7
  6
CONTINUOUS
 10
15.9126003723
 20
11.822195305
 11
15.8704310626
 21
11.822195305
  0
LINE
  5
278
100
AcDbEntity
  8
0
100
AcDbLine
 62
7
  6
CONTINUOUS
 10
14.5013987501
 20
12.6961446287
 11
14.4801905443
 21
12.7222775951
  0
LINE
  5
279
100
AcDbEntity
  8
0
100
AcDbLine
 62
7
  6
CONTINUOUS
 10
14.5409462128
 20
13.0319565303
 11
14.5234631849
 21
13.0723715831
  0
LINE
  5
27A
100
AcDbEntity
  8
0
100
AcDbLine
 62
7
  6
CONTINUOUS
 10
14.6161703674
 20
13.3268575878
 11
14.6038562363
 21
13.3783261875
  0
LINE
  5
27B
100
AcDbEntity
  8
0
100
AcDbLine
 62
7
  6
CONTINUOUS
 10
14.4736571784
 20
12.552203141
 11
14.4964450353
 21
12.5671911375
  0
LINE
  5
27C
100
AcDbEntity
  8
0
100
AcDbLine
 62
7
  6
CONTINUOUS
 10
14.5138771341
 20
12.000375906
 11
15.473211898
 21
12.000375906
  0
LINE
  5
27D
100
AcDbEntity
  8
0
100
AcDbLine
 62
7
  6
CONTINUOUS
 10
14.5002871037
 20
12.3453242393
 11
14.4770711243
 21
12.3550589163
  0
LINE
  5
27E
100
AcDbEntity
  8
02___PRT_ALL_AXES
100
AcDbLine
 62
7
  6
CONTINUOUS
 10
15.7002824122
 20
11.4778167267
 11
15.6993550762
 21
11.4797224742
  0
LINE
  5
27F
100
AcDbEntity
  8
02___PRT_ALL_AXES
100
AcDbLine
 62
7
  6
CONTINUOUS
 10
15.6862673637
 20
11.4392343057
 11
15.6856112637
 21
11.4407014982
  0
LINE
  5
280
100
AcDbEntity
  8
02___PRT_ALL_AXES
100
AcDbLine
 62
7
  6
CONTINUOUS
 10
15.6715172674
 20
13.4784493124
 11
15.6709010534
 21
13.4769410987
  0
LINE
  5
281
100
AcDbEntity
  8
02___PRT_ALL_AXES
100
AcDbLine
 62
7
  6
CONTINUOUS
 10
15.6711730157
 20
13.4794012557
 11
15.6705491343
 21
13.47791102
  0
LINE
  5
282
100
AcDbEntity
  8
02___PRT_ALL_AXES
100
AcDbLine
 62
7
  6
CONTINUOUS
 10
15.700324979
 20
11.4779536377
 11
15.699429054
 21
11.4799592911
  0
LINE
  5
283
100
AcDbEntity
  8
02___PRT_ALL_AXES
100
AcDbLine
 62
7
  6
CONTINUOUS
 10
15.6862673637
 20
11.4392343057
 11
15.6856364944
 21
11.4407757811
  0
LINE
  5
284
100
AcDbEntity
  8
02___PRT_ALL_AXES
100
AcDbLine
 62
7
  6
CONTINUOUS
 10
15.5714488284
 20
13.22629669
 11
15.5715477786
 21
13.2267320948
  0
LINE
  5
285
100
AcDbEntity
  8
02___PRT_ALL_AXES
100
AcDbLine
 62
7
  6
CONTINUOUS
 10
15.5719142351
 20
13.2255995077
 11
15.5720144255
 21
13.2260324844
  0
LINE
  5
286
100
AcDbEntity
  8
0
100
AcDbLine
 62
7
  6
CONTINUOUS
 10
15.4594438144
 20
12.9139089724
 11
14.4985392038
 21
12.9139089724
  0
LINE
  5
287
100
AcDbEntity
  8
AXIS
100
AcDbLine
 62
7
  6
CONTINUOUS
 10
16.2774349952
 20
13.0028005774
 11
15.9919060871
 21
13.0028005774
  0
LINE
  5
288
100
AcDbEntity
  8
AXIS
100
AcDbLine
 62
7
  6
CONTINUOUS
 10
15.8453467575
 20
13.0811966192
 11
15.8067024154
 21
13.0811966192
  0
LINE
  5
289
100
AcDbEntity
  8
AXIS
100
AcDbLine
 62
7
  6
CONTINUOUS
 10
16.2254774007
 20
13.1291221699
 11
15.9399484925
 21
13.1291221699
  0
LINE
  5
28A
100
AcDbEntity
  8
0
100
AcDbLine
 62
7
  6
CONTINUOUS
 10
15.5155696095
 20
13.2449687547
 11
14.5612557369
 21
13.2449687547
  0
LINE
  5
28B
100
AcDbEntity
  8
0
100
AcDbLine
 62
7
  6
CONTINUOUS
 10
15.5963901621
 20
13.5156687421
 11
14.6574822419
 21
13.5156687421
  0
LINE
  5
28C
100
AcDbEntity
  8
AXIS
100
AcDbLine
 62
7
  6
CONTINUOUS
 10
16.264054832
 20
11.5411229589
 11
16.2642681552
 21
11.5414383655
  0
LINE
  5
28D
100
AcDbEntity
  8
AXIS
100
AcDbLine
 62
7
  6
CONTINUOUS
 10
16.2637369564
 20
11.5425416092
 11
16.2639518221
 21
11.5428482889
  0
LINE
  5
28E
100
AcDbEntity
  8
AXIS
100
AcDbLine
 62
7
  6
CONTINUOUS
 10
16.0467755897
 20
13.6295549929
 11
16.0061906418
 21
13.6295549929
  0
LINE
  5
28F
100
AcDbEntity
  8
0
100
AcDbLine
 62
7
  6
CONTINUOUS
 10
15.6860272274
 20
13.7058063589
 11
14.7795051879
 21
13.7058063589
  0
LINE
  5
290
100
AcDbEntity
  8
0
100
AcDbLine
 62
7
  6
CONTINUOUS
 10
14.9169884052
 20
13.7999161035
 11
14.9174433597
 21
13.7999741363
  0
LINE
  5
291
100
AcDbEntity
  8
0
100
AcDbLine
 62
7
  6
CONTINUOUS
 10
15.7488852489
 20
13.799984585
 11
14.9174433649
 21
13.799984585
  0
LINE
  5
292
100
AcDbEntity
  8
0
100
AcDbLine
 62
7
  6
CONTINUOUS
 10
14.9913621072
 20
13.8082086783
 11
15.7560561251
 21
13.8082086783
  0
LINE
  5
293
100
AcDbEntity
  8
02___PRT_ALL_AXES
100
AcDbLine
 62
7
  6
CONTINUOUS
 10
16.120554013
 20
11.1027598537
 11
16.0685881314
 21
11.0853647204
  0
LINE
  5
294
100
AcDbEntity
  8
02___PRT_ALL_AXES
100
AcDbLine
 62
7
  6
CONTINUOUS
 10
16.120554013
 20
13.9188501321
 11
16.0685881314
 21
13.9362452654
  0
CIRCLE
  5
295
100
AcDbEntity
  8
02___PRT_ALL_AXES
100
AcDbCircle
 62
7
  6
CONTINUOUS
 10
15.5603552569
 20
5.4606247044
 40
1.4375
  0
CIRCLE
  5
296
100
AcDbEntity
  8
02___PRT_ALL_AXES
100
AcDbCircle
 62
7
  6
CONTINUOUS
 10
15.5603552569
 20
5.4606247044
 40
1.4199576977
  0
CIRCLE
  5
297
100
AcDbEntity
  8
02___PRT_ALL_AXES
100
AcDbCircle
 62
7
  6
CONTINUOUS
 10
15.5603552569
 20
5.4606247044
 40
1.3218321192
  0
CIRCLE
  5
298
100
AcDbEntity
  8
02___PRT_ALL_AXES
100
AcDbCircle
 62
7
  6
CONTINUOUS
 10
15.5603552569
 20
5.4606247044
 40
1.1205
  0
CIRCLE
  5
299
100
AcDbEntity
  8
AXIS
100
AcDbCircle
 62
7
  6
CONTINUOUS
 10
15.5603552569
 20
5.4606247044
 40
1.11875
  0
ARC
  5
29A
100
AcDbEntity
  8
AXIS
100
AcDbCircle
 62
7
  6
CONTINUOUS
 10
15.5603552569
 20
5.4606247044
 40
0.77
100
AcDbArc
 50
191.852238335
 51
348.147761665
  0
ARC
  5
29B
100
AcDbEntity
  8
AXIS
100
AcDbCircle
 62
7
  6
CONTINUOUS
 10
15.5603552569
 20
5.4606247044
 40
0.77
100
AcDbArc
 50
1.852238335
 51
80.6368904001
  0
ARC
  5
29C
100
AcDbEntity
  8
AXIS
100
AcDbCircle
 62
7
  6
CONTINUOUS
 10
15.5603552569
 20
5.4606247044
 40
0.77
100
AcDbArc
 50
99.3631095999
 51
178.147761665
  0
ARC
  5
29D
100
AcDbEntity
  8
AXIS
100
AcDbCircle
 62
7
  6
CONTINUOUS
 10
15.5603552569
 20
5.4606247044
 40
0.752
100
AcDbArc
 50
2.4768073688
 51
80.1201274897
  0
ARC
  5
29E
100
AcDbEntity
  8
AXIS
100
AcDbCircle
 62
7
  6
CONTINUOUS
 10
15.5603552569
 20
5.4606247044
 40
0.752
100
AcDbArc
 50
192.4768073688
 51
347.5231926312
  0
ARC
  5
29F
100
AcDbEntity
  8
AXIS
100
AcDbCircle
 62
7
  6
CONTINUOUS
 10
15.5603552569
 20
5.4606247044
 40
0.752
100
AcDbArc
 50
99.8798725103
 51
177.5231926312
  0
ARC
  5
2A0
100
AcDbEntity
  8
AXIS
100
AcDbCircle
 62
7
  6
CONTINUOUS
 10
15.5603552569
 20
5.4606247044
 40
0.7500531915
100
AcDbArc
 50
80.0762559404
 51
99.9237440596
  0
CIRCLE
  5
2A1
100
AcDbEntity
  8
AXIS
100
AcDbCircle
 62
7
  6
CONTINUOUS
 10
15.5603552569
 20
5.4606247044
 40
0.691
  0
ARC
  5
2A2
100
AcDbEntity
  8
AXIS
100
AcDbCircle
 62
7
  6
CONTINUOUS
 10
15.5603552569
 20
6.1856247044
 40
0.13
100
AcDbArc
 50
6.1073404
 51
173.8926596
  0
ARC
  5
2A3
100
AcDbEntity
  8
AXIS
100
AcDbCircle
 62
7
  6
CONTINUOUS
 10
14.8381141008
 20
5.397436791
 40
0.1
100
AcDbArc
 50
94.8233131634
 51
275.1766868366
  0
ARC
  5
2A4
100
AcDbEntity
  8
AXIS
100
AcDbCircle
 62
7
  6
CONTINUOUS
 10
16.2825964131
 20
5.397436791
 40
0.1
100
AcDbArc
 50
264.8233131634
 51
85.1766868366
  0
ARC
  5
2A5
100
AcDbEntity
  8
AXIS
100
AcDbCircle
 62
7
  6
CONTINUOUS
 10
17.1708927009
 20
-16.7046363403
 40
29.8498247231
100
AcDbArc
 50
92.3763977341
 51
92.5111881126
  0
ARC
  5
2A6
100
AcDbEntity
  8
AXIS
100
AcDbCircle
 62
7
  6
CONTINUOUS
 10
14.5054968963
 20
36.6578268945
 40
23.7192706498
100
AcDbArc
 50
273.0685994945
 51
273.5847472513
  0
ARC
  5
2A7
100
AcDbEntity
  8
0
100
AcDbCircle
 62
7
  6
CONTINUOUS
 10
17.7920194866
 20
12.5107667555
 40
3.3214432004
100
AcDbArc
 50
179.448064178
 51
182.5361191586
  0
ARC
  5
2A8
100
AcDbEntity
  8
0
100
AcDbCircle
 62
7
  6
CONTINUOUS
 10
17.5621493833
 20
12.5254807312
 40
3.0910849443
100
AcDbArc
 50
172.9107640894
 51
176.1504685744
  0
ARC
  5
2A9
100
AcDbEntity
  8
0
100
AcDbCircle
 62
7
  6
CONTINUOUS
 10
17.3671491077
 20
12.4737704124
 40
2.8948230868
100
AcDbArc
 50
185.9046772556
 51
189.2892772225
  0
ARC
  5
2AA
100
AcDbEntity
  8
02___PRT_ALL_AXES
100
AcDbCircle
 62
7
  6
CONTINUOUS
 10
18.2494880609
 20
12.6200864905
 40
2.7457940449
100
AcDbArc
 50
167.2452825889
 51
170.5452619159
  0
ARC
  5
2AB
100
AcDbEntity
  8
02___PRT_ALL_AXES
100
AcDbCircle
 62
7
  6
CONTINUOUS
 10
18.1449821516
 20
12.5991412972
 40
2.6324046037
100
AcDbArc
 50
169.4267163437
 51
169.5888563655
  0
ARC
  5
2AC
100
AcDbEntity
  8
0
100
AcDbCircle
 62
7
  6
CONTINUOUS
 10
16.8470948409
 20
12.6400070836
 40
2.366583797
100
AcDbArc
 50
166.1204286619
 51
169.1812485185
  0
ARC
  5
2AD
100
AcDbEntity
  8
0
100
AcDbCircle
 62
7
  6
CONTINUOUS
 10
16.6328726296
 20
12.6914821105
 40
2.146268969
100
AcDbArc
 50
165.1764258776
 51
166.0826285223
  0
ARC
  5
2AE
100
AcDbEntity
  8
02___PRT_ALL_AXES
100
AcDbCircle
 62
7
  6
CONTINUOUS
 10
17.3397345079
 20
12.8631136174
 40
1.8035433369
100
AcDbArc
 50
158.9243649971
 51
162.8987779898
  0
ARC
  5
2AF
100
AcDbEntity
  8
AXIS
100
AcDbCircle
 62
7
  6
CONTINUOUS
 10
14.6926859813
 20
12.3367904044
 40
1.7737246859
100
AcDbArc
 50
342.9045631565
 51
346.9380203828
  0
ARC
  5
2B0
100
AcDbEntity
  8
AXIS
100
AcDbCircle
 62
7
  6
CONTINUOUS
 10
14.7911966265
 20
12.7135572957
 40
1.6711233635
100
AcDbArc
 50
15.9717503155
 51
16.3598341294
  0
ARC
  5
2B1
100
AcDbEntity
  8
02___PRT_ALL_AXES
100
AcDbCircle
 62
7
  6
CONTINUOUS
 10
16.7163261068
 20
11.9733927698
 40
1.130460262
100
AcDbArc
 50
206.0008391902
 51
206.1384240064
  0
ARC
  5
2B2
100
AcDbEntity
  8
AXIS
100
AcDbCircle
 62
7
  6
CONTINUOUS
 10
15.751413049
 20
11.8880525208
 40
0.6190005805
100
AcDbArc
 50
325.4237918102
 51
325.9118816638
  0
ARC
  5
2B3
100
AcDbEntity
  8
AXIS
100
AcDbCircle
 62
7
  6
CONTINUOUS
 10
15.8944116849
 20
13.2447160248
 40
0.4377481993
100
AcDbArc
 50
41.6505292091
 51
42.2748291965
  0
ARC
  5
2B4
100
AcDbEntity
  8
02___PRT_ALL_AXES
100
AcDbCircle
 62
7
  6
CONTINUOUS
 10
16.0211624661
 20
13.4579477509
 40
0.1733699235
100
AcDbArc
 50
81.575938694
 51
84.7354270838
  0
ARC
  5
2B5
100
AcDbEntity
  8
02___PRT_ALL_AXES
100
AcDbCircle
 62
7
  6
CONTINUOUS
 10
16.0211691574
 20
11.5636468993
 40
0.1733538512
100
AcDbArc
 50
275.1455806105
 51
278.4583179956
  0
ARC
  5
2B6
100
AcDbEntity
  8
AXIS
100
AcDbCircle
 62
7
  6
CONTINUOUS
 10
16.0468217884
 20
11.5630612211
 40
0.1710062312
100
AcDbArc
 50
261.7033874692
 51
269.9845211011
  0
ARC
  5
2B7
100
AcDbEntity
  8
AXIS
100
AcDbCircle
 62
7
  6
CONTINUOUS
 10
16.0468198638
 20
13.458577299
 40
0.1709776963
100
AcDbArc
 50
90.0148365278
 51
98.2803235617
  0
ARC
  5
2B8
100
AcDbEntity
  8
02___PRT_ALL_AXES
100
AcDbCircle
 62
7
  6
CONTINUOUS
 10
16.021424624
 20
11.5609387531
 40
0.1706337072
100
AcDbArc
 50
270.0073161538
 51
275.1417014801
  0
ARC
  5
2B9
100
AcDbEntity
  8
02___PRT_ALL_AXES
100
AcDbCircle
 62
7
  6
CONTINUOUS
 10
16.0214301369
 20
13.4607508895
 40
0.1705540498
100
AcDbArc
 50
84.7385647657
 51
89.9945324251
  0
SPLINE
  5
2BA
100
AcDbEntity
  8
AXIS
100
AcDbSpline
 62
7
  6
CONTINUOUS
 70
0
 71
3
 72
33
 73
29
 74
0
 42
0.0000001
 43
0.0000001
 44
0.0000000001
 40
0.0
 40
0.0
 40
0.0
 40
0.0
 40
0.0621661714
 40
0.1243260757
 40
0.1864822423
 40
0.2486384486
 40
0.3108018844
 40
0.3418914041
 40
0.3729919413
 40
0.4041149714
 40
0.4352930514
 40
0.4509341012
 40
0.4666732575
 40
0.4826742274
 40
0.4999800954
 40
0.5173298898
 40
0.5333279571
 40
0.5490654217
 40
0.5647070484
 40
0.5958850237
 40
0.6270080504
 40
0.6581085884
 40
0.6891981093
 40
0.7513615459
 40
0.8135177534
 40
0.8756739214
 40
0.937833827
 40
1.0
 40
1.0
 40
1.0
 40
1.0
 10
14.8297057707
 20
5.4970826638
 30
0.0
 10
14.8296599982
 20
5.4929335766
 30
0.0
 10
14.8296390824
 20
5.4846348673
 30
0.0
 10
14.8298196662
 20
5.4721886731
 30
0.0
 10
14.8302121845
 20
5.4597479821
 30
0.0
 10
14.8308165705
 20
5.4473155753
 30
0.0
 10
14.831496674
 20
5.4369644153
 30
0.0
 10
14.8321464561
 20
5.4286897163
 30
0.0
 10
14.8326867299
 20
5.4224848443
 30
0.0
 10
14.8332799543
 20
5.4162788827
 30
0.0
 10
14.8338182228
 20
5.4111044108
 30
0.0
 10
14.8342749208
 20
5.4069539563
 30
0.0
 10
14.8346317934
 20
5.4038116058
 30
0.0
 10
14.8350094237
 20
5.4005600093
 30
0.0
 10
14.8353846958
 20
5.3971990596
 30
0.0
 10
14.8355993064
 20
5.3938242265
 30
0.0
 10
14.8357915305
 20
5.3905537945
 30
0.0
 10
14.8359859234
 20
5.3873974923
 30
0.0
 10
14.8362568247
 20
5.383230866
 30
0.0
 10
14.8366252969
 20
5.3780415067
 30
0.0
 10
14.8371187309
 20
5.371826822
 30
0.0
 10
14.8376641319
 20
5.3656223986
 30
0.0
 10
14.8384611071
 20
5.3573605772
 30
0.0
 10
14.8395887964
 20
5.3470485757
 30
0.0
 10
14.841152457
 20
5.3347000943
 30
0.0
 10
14.8429262053
 20
5.322380245
 30
0.0
 10
14.844909624
 20
5.3100917781
 30
0.0
 10
14.8463712778
 20
5.3019227766
 30
0.0
 10
14.8471368364
 20
5.2978446716
 30
0.0
  0
SPLINE
  5
2BB
100
AcDbEntity
  8
AXIS
100
AcDbSpline
 62
7
  6
CONTINUOUS
 70
0
 71
3
 72
33
 73
29
 74
0
 42
0.0000001
 43
0.0000001
 44
0.0000000001
 40
0.0
 40
0.0
 40
0.0
 40
0.0
 40
0.0621660586
 40
0.1243258493
 40
0.186481902
 40
0.248637994
 40
0.3108013148
 40
0.3418907775
 40
0.3729912569
 40
0.4041142262
 40
0.4352921792
 40
0.4509335554
 40
0.466671819
 40
0.4826697072
 40
0.5000036801
 40
0.5173295425
 40
0.5333279359
 40
0.5490665305
 40
0.5647078028
 40
0.5958857737
 40
0.6270087434
 40
0.6581092226
 40
0.6891986851
 40
0.7513620058
 40
0.8135180978
 40
0.8756741505
 40
0.9378339412
 40
1.0
 40
1.0
 40
1.0
 40
1.0
 10
16.2735736775
 20
5.2978446716
 30
0.0
 10
16.2743392347
 20
5.3019227692
 30
0.0
 10
16.2758008859
 20
5.3100917557
 30
0.0
 10
16.2777843016
 20
5.3223802
 30
0.0
 10
16.2795580476
 20
5.3347000265
 30
0.0
 10
16.2811217067
 20
5.347048485
 30
0.0
 10
16.2822493952
 20
5.3573604674
 30
0.0
 10
16.2830463706
 20
5.3656222733
 30
0.0
 10
16.2835917708
 20
5.3718266852
 30
0.0
 10
16.2840852083
 20
5.3780413605
 30
0.0
 10
16.2844536704
 20
5.3832306984
 30
0.0
 10
16.2847245972
 20
5.3873973584
 30
0.0
 10
16.2849189017
 20
5.3905536908
 30
0.0
 10
16.2851114093
 20
5.3938230888
 30
0.0
 10
16.2853255418
 20
5.39719822
 30
0.0
 10
16.285700859
 20
5.4005592791
 30
0.0
 10
16.2860788181
 20
5.4038119686
 30
0.0
 10
16.2864355999
 20
5.4069541341
 30
0.0
 10
16.2868923136
 20
5.4111045566
 30
0.0
 10
16.2874305724
 20
5.4162790333
 30
0.0
 10
16.288023797
 20
5.4224849797
 30
0.0
 10
16.2885640678
 20
5.4286898403
 30
0.0
 10
16.2892138477
 20
5.4369645242
 30
0.0
 10
16.2898939483
 20
5.4473156654
 30
0.0
 10
16.290498332
 20
5.4597480495
 30
0.0
 10
16.2908908486
 20
5.472188718
 30
0.0
 10
16.2910714314
 20
5.4846348897
 30
0.0
 10
16.2910505156
 20
5.4929335841
 30
0.0
 10
16.2910047431
 20
5.4970826638
 30
0.0
  0
SPLINE
  5
2BC
100
AcDbEntity
  8
02___PRT_ALL_AXES
100
AcDbSpline
 62
7
  6
CONTINUOUS
 70
0
 71
3
 72
41
 73
37
 74
0
 42
0.0000001
 43
0.0000001
 44
0.0000000001
 40
0.0
 40
0.0
 40
0.0
 40
0.0
 40
0.032027984
 40
0.06523626
 40
0.0995132372
 40
0.1347486352
 40
0.1708206164
 40
0.2076023662
 40
0.2449624806
 40
0.2827655305
 40
0.3208732439
 40
0.3591453853
 40
0.3974407022
 40
0.4356177718
 40
0.4735359112
 40
0.5110561355
 40
0.5480420174
 40
0.5843605871
 40
0.6198834288
 40
0.654487665
 40
0.688056953
 40
0.7204826993
 40
0.7516655555
 40
0.7815167724
 40
0.8099598848
 40
0.8369329594
 40
0.8623913221
 40
0.8863106089
 40
0.9086908683
 40
0.9295620004
 40
0.9489902115
 40
0.9581991841
 40
0.9670929312
 40
0.9840167973
 40
0.9921110624
 40
1.0
 40
1.0
 40
1.0
 40
1.0
 10
14.4600001481
 20
13.3934648523
 30
0.0
 10
14.4522894779
 20
13.3685131144
 30
0.0
 10
14.4375714285
 20
13.3173805584
 30
0.0
 10
14.4178885506
 20
13.238644608
 30
0.0
 10
14.4002652849
 20
13.1567451393
 30
0.0
 10
14.384778188
 20
13.0720416001
 30
0.0
 10
14.3714952284
 20
12.9848987726
 30
0.0
 10
14.3604741986
 20
12.8956958698
 30
0.0
 10
14.3517631567
 20
12.8048202558
 30
0.0
 10
14.3454004662
 20
12.7126666601
 30
0.0
 10
14.3414139491
 20
12.619635623
 30
0.0
 10
14.3398208117
 20
12.5261315166
 30
0.0
 10
14.3406280345
 20
12.432560784
 30
0.0
 10
14.3438323356
 20
12.3393301795
 30
0.0
 10
14.3494196064
 20
12.2468449513
 30
0.0
 10
14.3573652423
 20
12.1555070272
 30
0.0
 10
14.3676345476
 20
12.0657132996
 30
0.0
 10
14.3801828979
 20
11.9778538776
 30
0.0
 10
14.3949552469
 20
11.8923102166
 30
0.0
 10
14.4118869506
 20
11.8094534716
 30
0.0
 10
14.430904196
 20
11.7296429533
 30
0.0
 10
14.4519242964
 20
11.6532244224
 30
0.0
 10
14.4748554792
 20
11.5805282659
 30
0.0
 10
14.4995981234
 20
11.5118681685
 30
0.0
 10
14.5260454435
 20
11.4475397656
 30
0.0
 10
14.554083939
 20
11.387819063
 30
0.0
 10
14.583594128
 20
11.3329607517
 30
0.0
 10
14.614452015
 20
11.2831980575
 30
0.0
 10
14.6465324005
 20
11.2387405905
 30
0.0
 10
14.6797046413
 20
11.1997798553
 30
0.0
 10
14.7086567005
 20
11.1715399553
 30
0.0
 10
14.7322475511
 20
11.1520205586
 30
0.0
 10
14.7552712266
 20
11.1351021206
 30
0.0
 10
14.7790324081
 20
11.1207706741
 30
0.0
 10
14.8033693144
 20
11.109425694
 30
0.0
 10
14.8155709028
 20
11.1048020383
 30
0.0
 10
14.821670936
 20
11.1027600906
 30
0.0
  0
SPLINE
  5
2BD
100
AcDbEntity
  8
02___PRT_ALL_AXES
100
AcDbSpline
 62
7
  6
CONTINUOUS
 70
0
 71
3
 72
22
 73
18
 74
0
 42
0.0000001
 43
0.0000001
 44
0.0000000001
 40
0.0
 40
0.0
 40
0.0
 40
0.0
 40
0.0575278907
 40
0.114042226
 40
0.1699183323
 40
0.2255476361
 40
0.2813281308
 40
0.3376539096
 40
0.3949049087
 40
0.4534384262
 40
0.5135830785
 40
0.5756329416
 40
0.6398480688
 40
0.7064512458
 40
0.7756314314
 40
0.8475449767
 40
1.0
 40
1.0
 40
1.0
 40
1.0
 10
14.8736368091
 20
13.9362451953
 30
0.0
 10
14.8801884938
 20
13.9384384044
 30
0.0
 10
14.8933652687
 20
13.9422472925
 30
0.0
 10
14.913416712
 20
13.9461772326
 30
0.0
 10
14.933516816
 20
13.9482566558
 30
0.0
 10
14.9536348199
 20
13.9484794192
 30
0.0
 10
14.9737417727
 20
13.946847178
 30
0.0
 10
14.9938082815
 20
13.9433613512
 30
0.0
 10
15.0138059883
 20
13.9380295517
 30
0.0
 10
15.0337076477
 20
13.9308612975
 30
0.0
 10
15.0534865689
 20
13.9218677378
 30
0.0
 10
15.0731183075
 20
13.9110644776
 30
0.0
 10
15.0925776629
 20
13.8984659726
 30
0.0
 10
15.1118413561
 20
13.8840912988
 30
0.0
 10
15.1308865826
 20
13.8679588723
 30
0.0
 10
15.1564520853
 20
13.8436626458
 30
0.0
 10
15.1744656161
 20
13.8235440334
 30
0.0
 10
15.1860774192
 20
13.8093874057
 30
0.0
  0
SPLINE
  5
2BE
100
AcDbEntity
  8
02___PRT_ALL_AXES
100
AcDbSpline
 62
7
  6
CONTINUOUS
 70
0
 71
3
 72
23
 73
19
 74
0
 42
0.0000001
 43
0.0000001
 44
0.0000000001
 40
0.0
 40
0.0
 40
0.0
 40
0.0
 40
0.0838346687
 40
0.1650436693
 40
0.2434895293
 40
0.3190804931
 40
0.3917410857
 40
0.4614081462
 40
0.528039855
 40
0.591620661
 40
0.6521628064
 40
0.7097098985
 40
0.7643437711
 40
0.8161881557
 40
0.8654171491
 40
0.9122586948
 40
0.95700246
 40
1.0
 40
1.0
 40
1.0
 40
1.0
 10
14.4600001481
 20
13.3934648523
 30
0.0
 10
14.4654330304
 20
13.4110456658
 30
0.0
 10
14.4766045615
 20
13.4455121319
 30
0.0
 10
14.4945826398
 20
13.4958502795
 30
0.0
 10
14.5134834524
 20
13.5439114412
 30
0.0
 10
14.5332609236
 20
13.5895818117
 30
0.0
 10
14.5538706871
 20
13.6327583182
 30
0.0
 10
14.5752653568
 20
13.6733425973
 30
0.0
 10
14.5973966231
 20
13.7112410649
 30
0.0
 10
14.6202142706
 20
13.7463671608
 30
0.0
 10
14.6436670578
 20
13.778641072
 30
0.0
 10
14.6677038681
 20
13.8079887198
 30
0.0
 10
14.6922714917
 20
13.8343434407
 30
0.0
 10
14.7173186766
 20
13.8576430728
 30
0.0
 10
14.7427909149
 20
13.8778332249
 30
0.0
 10
14.7686377232
 20
13.8948619992
 30
0.0
 10
14.7947980277
 20
13.9086836081
 30
0.0
 10
14.8127213922
 20
13.9158540667
 30
0.0
 10
14.8216709354
 20
13.9188499064
 30
0.0
  0
SPLINE
  5
2BF
100
AcDbEntity
  8
02___PRT_ALL_AXES
100
AcDbSpline
 62
7
  6
CONTINUOUS
 70
0
 71
3
 72
23
 73
19
 74
0
 42
0.0000001
 43
0.0000001
 44
0.0000000001
 40
0.0
 40
0.0
 40
0.0
 40
0.0
 40
0.0575126127
 40
0.1140115406
 40
0.1698723213
 40
0.2254872102
 40
0.281254644
 40
0.3375691565
 40
0.394811026
 40
0.4533383817
 40
0.5134790842
 40
0.5755286936
 40
0.639746078
 40
0.7063546912
 40
0.775543755
 40
0.8474681777
 40
0.9222546359
 40
1.0
 40
1.0
 40
1.0
 40
1.0
 10
14.8736368101
 20
11.0853648096
 30
0.0
 10
14.8801936748
 20
11.0831700466
 30
0.0
 10
14.8933808376
 20
11.0793586168
 30
0.0
 10
14.9134482356
 20
11.0754271006
 30
0.0
 10
14.9335645078
 20
11.0733506255
 30
0.0
 10
14.9536985279
 20
11.0731319028
 30
0.0
 10
14.9738213939
 20
11.0747726954
 30
0.0
 10
14.9939036245
 20
11.0782692099
 30
0.0
 10
15.0139169672
 20
11.0836144047
 30
0.0
 10
15.0338335006
 20
11.0907999789
 30
0.0
 10
15.0536276188
 20
11.0998121487
 30
0.0
 10
15.0732733591
 20
11.1106382774
 30
0.0
 10
15.0927467908
 20
11.1232612751
 30
0.0
 10
15.1120240504
 20
11.1376635672
 30
0.0
 10
15.1310811734
 20
11.1538260043
 30
0.0
 10
15.1498960481
 20
11.1717263975
 30
0.0
 10
15.1684441703
 20
11.1913419484
 30
0.0
 10
15.1803829226
 20
11.2052718469
 30
0.0
 10
15.1863065694
 20
11.2125020088
 30
0.0
  0
SPLINE
  5
2C0
100
AcDbEntity
  8
02___PRT_ALL_AXES
100
AcDbSpline
 62
7
  6
CONTINUOUS
 70
0
 71
3
 72
32
 73
28
 74
0
 42
0.0000001
 43
0.0000001
 44
0.0000000001
 40
0.0
 40
0.0
 40
0.0
 40
0.0
 40
0.0928997835
 40
0.181427487
 40
0.2653254598
 40
0.3444200786
 40
0.4185914505
 40
0.4878061596
 40
0.5205789122
 40
0.5521472353
 40
0.5825396194
 40
0.6117935905
 40
0.6399568464
 40
0.6670894059
 40
0.7185312446
 40
0.7430553811
 40
0.76691624
 40
0.7902393177
 40
0.8131612693
 40
0.8358280859
 40
0.8583920867
 40
0.8810080735
 40
0.9038295915
 40
0.9270049922
 40
0.9506745893
 40
0.9749673475
 40
1.0
 40
1.0
 40
1.0
 40
1.0
 10
14.5700927184
 20
13.3380430285
 30
0.0
 10
14.5774568203
 20
13.3618732707
 30
0.0
 10
14.5927627002
 20
13.408134432
 30
0.0
 10
14.6181221995
 20
13.4747299386
 30
0.0
 10
14.6452331823
 20
13.5366110824
 30
0.0
 10
14.6739623037
 20
13.5934773576
 30
0.0
 10
14.7041735355
 20
13.6450545211
 30
0.0
 10
14.7309379651
 20
13.6841116434
 30
0.0
 10
14.7530223653
 20
13.7123738799
 30
0.0
 10
14.7695607137
 20
13.7317092775
 30
0.0
 10
14.7863551571
 20
13.7495470669
 30
0.0
 10
14.8033855719
 20
13.7658651097
 30
0.0
 10
14.8206350298
 20
13.780643709
 30
0.0
 10
14.8434828464
 20
13.7979595375
 30
0.0
 10
14.8671229274
 20
13.8125628618
 30
0.0
 10
14.8913844438
 20
13.8240048915
 30
0.0
 10
14.9094082916
 20
13.8308334786
 30
0.0
 10
14.9275211885
 20
13.8360332907
 30
0.0
 10
14.9457008012
 20
13.8395959045
 30
0.0
 10
14.9639224831
 20
13.8415138879
 30
0.0
 10
14.9821610157
 20
13.8417855285
 30
0.0
 10
15.0003910344
 20
13.8404086486
 30
0.0
 10
15.0185871575
 20
13.8373864921
 30
0.0
 10
15.0367248876
 20
13.8327251565
 30
0.0
 10
15.0547801513
 20
13.8264308378
 30
0.0
 10
15.0727294787
 20
13.8185159185
 30
0.0
 10
15.0844214146
 20
13.8122672495
 30
0.0
 10
15.0902348974
 20
13.8088947729
 30
0.0
  0
SPLINE
  5
2C1
100
AcDbEntity
  8
02___PRT_ALL_AXES
100
AcDbSpline
 62
7
  6
CONTINUOUS
 70
0
 71
3
 72
22
 73
18
 74
0
 42
0.0000001
 43
0.0000001
 44
0.0000000001
 40
0.0
 40
0.0
 40
0.0
 40
0.0
 40
0.0808454318
 40
0.1594665111
 40
0.2357540207
 40
0.3096328211
 40
0.381042244
 40
0.4499289623
 40
0.5162495557
 40
0.5799786011
 40
0.6411063912
 40
0.6996431821
 40
0.7556191263
 40
0.8090901618
 40
0.8601387456
 40
0.9088796383
 40
1.0
 40
1.0
 40
1.0
 40
1.0
 10
14.507497912
 20
13.4043693223
 30
0.0
 10
14.512376826
 20
13.4201574939
 30
0.0
 10
14.5223803513
 20
13.4511837916
 30
0.0
 10
14.5383574956
 20
13.4966520893
 30
0.0
 10
14.5550752043
 20
13.5403328218
 30
0.0
 10
14.5725009079
 20
13.5821439505
 30
0.0
 10
14.5906044526
 20
13.6220112034
 30
0.0
 10
14.6093522655
 20
13.6598639289
 30
0.0
 10
14.6287120078
 20
13.6956330761
 30
0.0
 10
14.6486476674
 20
13.7292545586
 30
0.0
 10
14.6691250017
 20
13.7606675656
 30
0.0
 10
14.6901065598
 20
13.7898163055
 30
0.0
 10
14.7115571889
 20
13.8166480618
 30
0.0
 10
14.7334370963
 20
13.841114118
 30
0.0
 10
14.7557150891
 20
13.86317321
 30
0.0
 10
14.7852165311
 20
13.8887358627
 30
0.0
 10
14.8088283089
 20
13.9051322814
 30
0.0
 10
14.825020467
 20
13.9143358628
 30
0.0
  0
SPLINE
  5
2C2
100
AcDbEntity
  8
02___PRT_ALL_AXES
100
AcDbSpline
 62
7
  6
CONTINUOUS
 70
0
 71
3
 72
9
 73
5
 74
0
 42
0.0000001
 43
0.0000001
 44
0.0000000001
 40
0.0
 40
0.0
 40
0.0
 40
0.0
 40
0.5089767676
 40
1.0
 40
1.0
 40
1.0
 40
1.0
 10
14.825020467
 20
13.9143358628
 30
0.0
 10
14.8328950383
 20
13.9188117491
 30
0.0
 10
14.8487635182
 20
13.9269297519
 30
0.0
 10
14.8653505395
 20
13.9334713254
 30
0.0
 10
14.8736368091
 20
13.9362451953
 30
0.0
  0
SPLINE
  5
2C3
100
AcDbEntity
  8
02___PRT_ALL_AXES
100
AcDbSpline
 62
7
  6
CONTINUOUS
 70
0
 71
3
 72
39
 73
35
 74
0
 42
0.0000001
 43
0.0000001
 44
0.0000000001
 40
0.0
 40
0.0
 40
0.0
 40
0.0
 40
0.0313333634
 40
0.0637776319
 40
0.0972326746
 40
0.1316003623
 40
0.1667721575
 40
0.2026350289
 40
0.2390719355
 40
0.2759621067
 40
0.313182075
 40
0.3506064499
 40
0.3881086568
 40
0.4255616381
 40
0.4628386345
 40
0.4998139397
 40
0.5363635835
 40
0.5723661349
 40
0.6077035482
 40
0.6422618817
 40
0.6759321203
 40
0.7086112565
 40
0.7402032164
 40
0.7706198572
 40
0.799782313
 40
0.827622628
 40
0.8540853145
 40
0.8791294513
 40
0.9027315701
 40
0.9248889625
 40
0.9456236791
 40
0.9649877504
 40
0.983069513
 40
1.0
 40
1.0
 40
1.0
 40
1.0
 10
14.507497912
 20
13.4043693223
 30
0.0
 10
14.5000281045
 20
13.3801970164
 30
0.0
 10
14.4857386449
 20
13.3307086625
 30
0.0
 10
14.4665261186
 20
13.2545714666
 30
0.0
 10
14.4492201507
 20
13.1754686082
 30
0.0
 10
14.4338897899
 20
13.093718773
 30
0.0
 10
14.4205965746
 20
13.0096448453
 30
0.0
 10
14.4093935872
 20
12.9235824453
 30
0.0
 10
14.4003256392
 20
12.8358744259
 30
0.0
 10
14.3934294095
 20
12.7468702331
 30
0.0
 10
14.3887323769
 20
12.6569247514
 30
0.0
 10
14.3862532287
 20
12.566396614
 30
0.0
 10
14.3860020172
 20
12.4756467925
 30
0.0
 10
14.38797995
 20
12.3850371745
 30
0.0
 10
14.3921788392
 20
12.2949290683
 30
0.0
 10
14.3985818027
 20
12.2056817487
 30
0.0
 10
14.4071633846
 20
12.1176510472
 30
0.0
 10
14.4178891942
 20
12.031187849
 30
0.0
 10
14.4307160184
 20
11.9466366283
 30
0.0
 10
14.4455924901
 20
11.8643341566
 30
0.0
 10
14.4624593065
 20
11.7846081319
 30
0.0
 10
14.4812487618
 20
11.7077756284
 30
0.0
 10
14.5018856064
 20
11.6341418734
 30
0.0
 10
14.5242876062
 20
11.5639991245
 30
0.0
 10
14.5483657482
 20
11.497625291
 30
0.0
 10
14.5740242253
 20
11.4352824874
 30
0.0
 10
14.6011617744
 20
11.3772162102
 30
0.0
 10
14.6296725697
 20
11.3236544297
 30
0.0
 10
14.6594463909
 20
11.2748063409
 30
0.0
 10
14.6903704129
 20
11.2308615785
 30
0.0
 10
14.7223298027
 20
11.1919913592
 30
0.0
 10
14.7552137325
 20
11.1583471011
 30
0.0
 10
14.7889002665
 20
11.1300701122
 30
0.0
 10
14.8125347997
 20
11.114407594
 30
0.0
 10
14.8244042646
 20
11.1076252948
 30
0.0
  0
SPLINE
  5
2C4
100
AcDbEntity
  8
02___PRT_ALL_AXES
100
AcDbSpline
 62
7
  6
CONTINUOUS
 70
0
 71
3
 72
9
 73
5
 74
0
 42
0.0000001
 43
0.0000001
 44
0.0000000001
 40
0.0
 40
0.0
 40
0.0
 40
0.0
 40
0.5091112319
 40
1.0
 40
1.0
 40
1.0
 40
1.0
 10
14.8244042646
 20
11.1076252948
 30
0.0
 10
14.8323751121
 20
11.1030706941
 30
0.0
 10
14.8484394519
 20
11.0948149194
 30
0.0
 10
14.8652428115
 20
11.0881745118
 30
0.0
 10
14.8736368101
 20
11.0853648096
 30
0.0
  0
SPLINE
  5
2C5
100
AcDbEntity
  8
02___PRT_ALL_AXES
100
AcDbSpline
 62
7
  6
CONTINUOUS
 70
0
 71
3
 72
51
 73
47
 74
0
 42
0.0000001
 43
0.0000001
 44
0.0000000001
 40
0.0
 40
0.0
 40
0.0
 40
0.0
 40
0.0346212622
 40
0.0707015695
 40
0.108079225
 40
0.1465857437
 40
0.1860379817
 40
0.2262453876
 40
0.2670101748
 40
0.3081296917
 40
0.3493982151
 40
0.390608737
 40
0.431554754
 40
0.4720320401
 40
0.5118404669
 40
0.5507859038
 40
0.5886821565
 40
0.6253530159
 40
0.660634492
 40
0.6943773135
 40
0.7264498413
 40
0.7567415892
 40
0.7711936874
 40
0.7851710151
 40
0.7986680379
 40
0.8116811646
 40
0.8242097959
 40
0.8362560886
 40
0.8478254807
 40
0.8589273478
 40
0.8695748584
 40
0.8797862316
 40
0.88958452
 40
0.8989985886
 40
0.9080633914
 40
0.9168200805
 40
0.9253164475
 40
0.9336061512
 40
0.9417483681
 40
0.9498063293
 40
0.9578457838
 40
0.9659330212
 40
0.9741329474
 40
0.9825071099
 40
0.9911124179
 40
1.0
 40
1.0
 40
1.0
 40
1.0
 10
14.5700927184
 20
13.3380430285
 30
0.0
 10
14.561643467
 20
13.3107012408
 30
0.0
 10
14.5456558613
 20
13.2544676031
 30
0.0
 10
14.5247302638
 20
13.1675940645
 30
0.0
 10
14.5064569526
 20
13.0768461717
 30
0.0
 10
14.490943991
 20
12.9827621923
 30
0.0
 10
14.4782840176
 20
12.8858937489
 30
0.0
 10
14.4685520475
 20
12.7868126677
 30
0.0
 10
14.4618061625
 20
12.6861029559
 30
0.0
 10
14.4580863762
 20
12.5843588398
 30
0.0
 10
14.4574147814
 20
12.4821806796
 30
0.0
 10
14.4597953631
 20
12.3801714359
 30
0.0
 10
14.4652139714
 20
12.2789330575
 30
0.0
 10
14.4736384191
 20
12.1790628722
 30
0.0
 10
14.485018666
 20
12.0811499728
 30
0.0
 10
14.4992869641
 20
11.9857715898
 30
0.0
 10
14.5163584671
 20
11.8934895981
 30
0.0
 10
14.5361317974
 20
11.8048469965
 30
0.0
 10
14.5584896693
 20
11.7203648807
 30
0.0
 10
14.5832999977
 20
11.6405379853
 30
0.0
 10
14.6104161381
 20
11.5658354574
 30
0.0
 10
14.6351767636
 20
11.5073270782
 30
0.0
 10
14.6560828387
 20
11.4635144194
 30
0.0
 10
14.6719900365
 20
11.4327178363
 30
0.0
 10
14.6883458348
 20
11.4035125919
 30
0.0
 10
14.7051278562
 20
11.3759418853
 30
0.0
 10
14.7223108768
 20
11.35004579
 30
0.0
 10
14.7398702641
 20
11.3258622298
 30
0.0
 10
14.7577813567
 20
11.3034270301
 30
0.0
 10
14.7760175663
 20
11.28277232
 30
0.0
 10
14.7945545068
 20
11.2639296309
 30
0.0
 10
14.8133649556
 20
11.2469259696
 30
0.0
 10
14.8324235587
 20
11.2317877646
 30
0.0
 10
14.8517036816
 20
11.2185385228
 30
0.0
 10
14.8711780305
 20
11.2071989425
 30
0.0
 10
14.890819895
 20
11.1977899503
 30
0.0
 10
14.9105997012
 20
11.1903268708
 30
0.0
 10
14.9304882817
 20
11.1848263525
 30
0.0
 10
14.950453538
 20
11.1812989348
 30
0.0
 10
14.9704625934
 20
11.1797528704
 30
0.0
 10
14.9904812001
 20
11.1801927818
 30
0.0
 10
15.01047515
 20
11.1826157575
 30
0.0
 10
15.0304102578
 20
11.1870183795
 30
0.0
 10
15.0502548472
 20
11.1933889532
 30
0.0
 10
15.069976287
 20
11.2017148089
 30
0.0
 10
15.0827972538
 20
11.2084402017
 30
0.0
 10
15.0891675457
 20
11.2120992405
 30
0.0
  0
SPLINE
  5
2C6
100
AcDbEntity
  8
02___PRT_ALL_AXES
100
AcDbSpline
 62
7
  6
CONTINUOUS
 70
0
 71
3
 72
11
 73
7
 74
0
 42
0.0000001
 43
0.0000001
 44
0.0000000001
 40
0.0
 40
0.0
 40
0.0
 40
0.0
 40
0.246902156
 40
0.4950570573
 40
0.7456940158
 40
1.0
 40
1.0
 40
1.0
 40
1.0
 10
16.0214464124
 20
13.6313049385
 30
0.0
 10
16.0170530492
 20
13.6313048601
 30
0.0
 10
16.0082402889
 20
13.6309622061
 30
0.0
 10
15.9950483731
 20
13.6294233395
 30
0.0
 10
15.9818825222
 20
13.6268610623
 30
0.0
 10
15.9732058126
 20
13.624492068
 30
0.0
 10
15.9688856007
 20
13.6231458296
 30
0.0
  0
SPLINE
  5
2C7
100
AcDbEntity
  8
02___PRT_ALL_AXES
100
AcDbSpline
 62
7
  6
CONTINUOUS
 70
0
 71
3
 72
23
 73
19
 74
0
 42
0.0000001
 43
0.0000001
 44
0.0000000001
 40
0.0
 40
0.0
 40
0.0
 40
0.0
 40
0.0428868695
 40
0.0874782219
 40
0.1341463368
 40
0.1831980131
 40
0.2348768559
 40
0.289367895
 40
0.3468049557
 40
0.4072753674
 40
0.4708288433
 40
0.537479972
 40
0.6072149405
 40
0.6799901652
 40
0.755745071
 40
0.8344050898
 40
0.9158723332
 40
1.0
 40
1.0
 40
1.0
 40
1.0
 10
15.9688856007
 20
13.6231458296
 30
0.0
 10
15.9617387392
 20
13.6209187675
 30
0.0
 10
15.947417607
 20
13.6155133858
 30
0.0
 10
15.9264969233
 20
13.60490997
 30
0.0
 10
15.9058229488
 20
13.5917108948
 30
0.0
 10
15.8854448285
 20
13.5759543465
 30
0.0
 10
15.8654050331
 20
13.5576808985
 30
0.0
 10
15.8457466045
 20
13.5369357594
 30
0.0
 10
15.8265128612
 20
13.5137679503
 30
0.0
 10
15.8077456266
 20
13.4882324349
 30
0.0
 10
15.7894881594
 20
13.46038814
 30
0.0
 10
15.7717809996
 20
13.4303005009
 30
0.0
 10
15.7546665175
 20
13.398039539
 30
0.0
 10
15.7381828642
 20
13.3636818212
 30
0.0
 10
15.7223698284
 20
13.3273062437
 30
0.0
 10
15.707262892
 20
13.2889969129
 30
0.0
 10
15.6929006147
 20
13.2488477276
 30
0.0
 10
15.6839825055
 20
13.2213486607
 30
0.0
 10
15.6796470008
 20
13.2073189624
 30
0.0
  0
SPLINE
  5
2C8
100
AcDbEntity
  8
02___PRT_ALL_AXES
100
AcDbSpline
 62
7
  6
CONTINUOUS
 70
0
 71
3
 72
28
 73
24
 74
0
 42
0.0000001
 43
0.0000001
 44
0.0000000001
 40
0.0
 40
0.0
 40
0.0
 40
0.0
 40
0.022910253
 40
0.0454449955
 40
0.0677236623
 40
0.0898711362
 40
0.112014933
 40
0.1342827335
 40
0.1567994808
 40
0.1796851489
 40
0.2030525826
 40
0.2270056094
 40
0.2770098096
 40
0.3303593094
 40
0.3875243486
 40
0.4488308955
 40
0.5144813152
 40
0.5845749623
 40
0.6591273658
 40
0.7380837637
 40
0.8213278067
 40
0.9087067175
 40
1.0
 40
1.0
 40
1.0
 40
1.0
 10
16.0685881269
 20
13.9362451762
 30
0.0
 10
16.0626941437
 20
13.9382180545
 30
0.0
 10
16.0508507262
 20
13.9416952684
 30
0.0
 10
16.0328516334
 20
13.9454750164
 30
0.0
 10
16.014809478
 20
13.9477618929
 30
0.0
 10
15.9967462917
 20
13.9485531644
 30
0.0
 10
15.9786823768
 20
13.9478478609
 30
0.0
 10
15.9606387747
 20
13.9456458259
 30
0.0
 10
15.9426357866
 20
13.9419517424
 30
0.0
 10
15.9246936917
 20
13.9367700612
 30
0.0
 10
15.9068315432
 20
13.9301071846
 30
0.0
 10
15.8828072121
 20
13.9191065025
 30
0.0
 10
15.8529837445
 20
13.9014750911
 30
0.0
 10
15.8183878667
 20
13.8748800997
 30
0.0
 10
15.7845833228
 20
13.8426738135
 30
0.0
 10
15.7516944778
 20
13.8049976521
 30
0.0
 10
15.7198384937
 20
13.7620055151
 30
0.0
 10
15.6891356708
 20
13.7138711156
 30
0.0
 10
15.65970537
 20
13.6607878039
 30
0.0
 10
15.6316653393
 20
13.6029704238
 30
0.0
 10
15.6051269926
 20
13.5406519462
 30
0.0
 10
15.5802012685
 20
13.4740893553
 30
0.0
 10
15.5650441363
 20
13.4280325094
 30
0.0
 10
15.5577316584
 20
13.4043693223
 30
0.0
  0
SPLINE
  5
2C9
100
AcDbEntity
  8
02___PRT_ALL_AXES
100
AcDbSpline
 62
7
  6
CONTINUOUS
 70
0
 71
3
 72
23
 73
19
 74
0
 42
0.0000001
 43
0.0000001
 44
0.0000000001
 40
0.0
 40
0.0
 40
0.0
 40
0.0
 40
0.0838346687
 40
0.1650436693
 40
0.2434895293
 40
0.3190804931
 40
0.3917410857
 40
0.4614081462
 40
0.528039855
 40
0.591620661
 40
0.6521628064
 40
0.7097098985
 40
0.7643437711
 40
0.8161881557
 40
0.8654171491
 40
0.9122586948
 40
0.95700246
 40
1.0
 40
1.0
 40
1.0
 40
1.0
 10
16.4822247889
 20
11.6281451335
 30
0.0
 10
16.4767919066
 20
11.61056432
 30
0.0
 10
16.4656203754
 20
11.5760978539
 30
0.0
 10
16.4476422971
 20
11.5257597063
 30
0.0
 10
16.4287414846
 20
11.4776985446
 30
0.0
 10
16.4089640133
 20
11.4320281741
 30
0.0
 10
16.3883542498
 20
11.3888516676
 30
0.0
 10
16.3669595802
 20
11.3482673885
 30
0.0
 10
16.3448283138
 20
11.310368921
 30
0.0
 10
16.3220106664
 20
11.275242825
 30
0.0
 10
16.2985578792
 20
11.2429689138
 30
0.0
 10
16.2745210689
 20
11.213621266
 30
0.0
 10
16.2499534452
 20
11.1872665451
 30
0.0
 10
16.2249062603
 20
11.163966913
 30
0.0
 10
16.199434022
 20
11.1437767609
 30
0.0
 10
16.1735872138
 20
11.1267479866
 30
0.0
 10
16.1474269093
 20
11.1129263778
 30
0.0
 10
16.1295035447
 20
11.1057559191
 30
0.0
 10
16.1205540015
 20
11.1027600794
 30
0.0
  0
SPLINE
  5
2CA
100
AcDbEntity
  8
02___PRT_ALL_AXES
100
AcDbSpline
 62
7
  6
CONTINUOUS
 70
0
 71
3
 72
41
 73
37
 74
0
 42
0.0000001
 43
0.0000001
 44
0.0000000001
 40
0.0
 40
0.0
 40
0.0
 40
0.0
 40
0.032027984
 40
0.06523626
 40
0.0995132372
 40
0.1347486352
 40
0.1708206164
 40
0.2076023662
 40
0.2449624806
 40
0.2827655305
 40
0.3208732439
 40
0.3591453853
 40
0.3974407022
 40
0.4356177718
 40
0.4735359112
 40
0.5110561355
 40
0.5480420174
 40
0.5843605871
 40
0.6198834288
 40
0.654487665
 40
0.688056953
 40
0.7204826993
 40
0.7516655555
 40
0.7815167724
 40
0.8099598848
 40
0.8369329594
 40
0.8623913221
 40
0.8863106089
 40
0.9086908683
 40
0.9295620004
 40
0.9489902115
 40
0.9581991841
 40
0.9670929312
 40
0.9840167973
 40
0.9921110624
 40
1.0
 40
1.0
 40
1.0
 40
1.0
 10
16.4822247889
 20
11.6281451335
 30
0.0
 10
16.4899354591
 20
11.6530968714
 30
0.0
 10
16.5046535084
 20
11.7042294274
 30
0.0
 10
16.5243363864
 20
11.7829653779
 30
0.0
 10
16.541959652
 20
11.8648648465
 30
0.0
 10
16.557446749
 20
11.9495683857
 30
0.0
 10
16.5707297086
 20
12.0367112132
 30
0.0
 10
16.5817507384
 20
12.1259141161
 30
0.0
 10
16.5904617802
 20
12.21678973
 30
0.0
 10
16.5968244707
 20
12.3089433257
 30
0.0
 10
16.6008109879
 20
12.4019743629
 30
0.0
 10
16.6024041253
 20
12.4954784692
 30
0.0
 10
16.6015969024
 20
12.5890492018
 30
0.0
 10
16.5983926013
 20
12.6822798063
 30
0.0
 10
16.5928053306
 20
12.7747650345
 30
0.0
 10
16.5848596947
 20
12.8661029586
 30
0.0
 10
16.5745903893
 20
12.9558966862
 30
0.0
 10
16.562042039
 20
13.0437561082
 30
0.0
 10
16.5472696901
 20
13.1292997692
 30
0.0
 10
16.5303379863
 20
13.2121565142
 30
0.0
 10
16.5113207409
 20
13.2919670325
 30
0.0
 10
16.4903006405
 20
13.3683855634
 30
0.0
 10
16.4673694578
 20
13.44108172
 30
0.0
 10
16.4426268136
 20
13.5097418173
 30
0.0
 10
16.4161794934
 20
13.5740702202
 30
0.0
 10
16.3881409979
 20
13.6337909229
 30
0.0
 10
16.3586308089
 20
13.6886492341
 30
0.0
 10
16.327772922
 20
13.7384119284
 30
0.0
 10
16.2956925365
 20
13.7828693953
 30
0.0
 10
16.2625202957
 20
13.8218301305
 30
0.0
 10
16.2335682365
 20
13.8500700305
 30
0.0
 10
16.2099773859
 20
13.8695894272
 30
0.0
 10
16.1869537103
 20
13.8865078652
 30
0.0
 10
16.1631925289
 20
13.9008393117
 30
0.0
 10
16.1388556225
 20
13.9121842918
 30
0.0
 10
16.1266540341
 20
13.9168079475
 30
0.0
 10
16.120554001
 20
13.9188498952
 30
0.0
  0
SPLINE
  5
2CB
100
AcDbEntity
  8
02___PRT_ALL_AXES
100
AcDbSpline
 62
7
  6
CONTINUOUS
 70
0
 71
3
 72
51
 73
47
 74
0
 42
0.0000001
 43
0.0000001
 44
0.0000000001
 40
0.0
 40
0.0
 40
0.0
 40
0.0
 40
0.0081714454
 40
0.0161957385
 40
0.0241301345
 40
0.0320343358
 40
0.0399688934
 40
0.0479935344
 40
0.0561654719
 40
0.0645381762
 40
0.0731603068
 40
0.0820750813
 40
0.0913202393
 40
0.1009276876
 40
0.1109242538
 40
0.1213315067
 40
0.1321665922
 40
0.1434424753
 40
0.1551682523
 40
0.1673499345
 40
0.1799901888
 40
0.193089343
 40
0.2066450501
 40
0.2206529291
 40
0.2351066795
 40
0.2499980496
 40
0.2810512447
 40
0.3137205666
 40
0.3478916827
 40
0.3834338098
 40
0.4202023121
 40
0.4580409341
 40
0.4967837796
 40
0.5362571118
 40
0.5762810488
 40
0.616671197
 40
0.6572402064
 40
0.6977992945
 40
0.7381597508
 40
0.7781344514
 40
0.8175394108
 40
0.8561952607
 40
0.8939293
 40
0.9305756893
 40
0.9659813465
 40
1.0
 40
1.0
 40
1.0
 40
1.0
 10
16.0685881279
 20
11.0853647905
 30
0.0
 10
16.0618109957
 20
11.0830961118
 30
0.0
 10
16.0481764045
 20
11.0791761078
 30
0.0
 10
16.0274192844
 20
11.0752072912
 30
0.0
 10
16.0066117031
 20
11.0732214656
 30
0.0
 10
15.9857881329
 20
11.0732248094
 30
0.0
 10
15.9649808757
 20
11.0752152273
 30
0.0
 10
15.9442227888
 20
11.0791906028
 30
0.0
 10
15.9235450706
 20
11.0851409984
 30
0.0
 10
15.9029781145
 20
11.093056036
 30
0.0
 10
15.8825507456
 20
11.1029212513
 30
0.0
 10
15.8622901423
 20
11.1147195834
 30
0.0
 10
15.842223801
 20
11.1284336161
 30
0.0
 10
15.8223767232
 20
11.1440414473
 30
0.0
 10
15.8027756947
 20
11.1615218874
 30
0.0
 10
15.7834452276
 20
11.1808493879
 30
0.0
 10
15.7644109685
 20
11.2019977006
 30
0.0
 10
15.745698009
 20
11.2249378356
 30
0.0
 10
15.7273304568
 20
11.2496381324
 30
0.0
 10
15.7093338207
 20
11.2760656109
 30
0.0
 10
15.6917310027
 20
11.3041836615
 30
0.0
 10
15.6745468122
 20
11.333954622
 30
0.0
 10
15.6578037158
 20
11.3653376015
 30
0.0
 10
15.6415247606
 20
11.3982899698
 30
0.0
 10
15.6257321031
 20
11.4327669914
 30
0.0
 10
15.605063398
 20
11.4813862498
 30
0.0
 10
15.5806716723
 20
11.5457034093
 30
0.0
 10
15.5540621058
 20
11.6271097207
 30
0.0
 10
15.5298630497
 20
11.7133478761
 30
0.0
 10
15.5082073827
 20
11.8039467188
 30
0.0
 10
15.4892141047
 20
11.8984129552
 30
0.0
 10
15.4729878257
 20
11.996230676
 30
0.0
 10
15.4596180115
 20
12.0968652935
 30
0.0
 10
15.4491784178
 20
12.1997663131
 30
0.0
 10
15.4417265788
 20
12.3043705405
 30
0.0
 10
15.4373035874
 20
12.4101052657
 30
0.0
 10
15.4359338381
 20
12.5163914843
 30
0.0
 10
15.4376248989
 20
12.6226471154
 30
0.0
 10
15.4423674597
 20
12.7282902348
 30
0.0
 10
15.450135393
 20
12.8327423386
 30
0.0
 10
15.4608858705
 20
12.9354314923
 30
0.0
 10
15.4745594231
 20
13.0357959856
 30
0.0
 10
15.4910808836
 20
13.1332860675
 30
0.0
 10
15.510358861
 20
13.2273710012
 30
0.0
 10
15.5322874179
 20
13.3175331179
 30
0.0
 10
15.5489472096
 20
13.3759428356
 30
0.0
 10
15.5577316584
 20
13.4043693223
 30
0.0
  0
SPLINE
  5
2CC
100
AcDbEntity
  8
02___PRT_ALL_AXES
100
AcDbSpline
 62
7
  6
CONTINUOUS
 70
0
 71
3
 72
11
 73
7
 74
0
 42
0.0000001
 43
0.0000001
 44
0.0000000001
 40
0.0
 40
0.0
 40
0.0
 40
0.0
 40
0.2472581484
 40
0.4956243885
 40
0.7461869672
 40
1.0
 40
1.0
 40
1.0
 40
1.0
 10
16.0214464124
 20
11.3903050473
 30
0.0
 10
16.0173201732
 20
11.3903049736
 30
0.0
 10
16.0090460829
 20
11.3906069194
 30
0.0
 10
15.996657453
 20
11.3919642266
 30
0.0
 10
15.9842902612
 20
11.3942239348
 30
0.0
 10
15.9761289944
 20
11.3963148914
 30
0.0
 10
15.972063707
 20
11.3975039978
 30
0.0
  0
SPLINE
  5
2CD
100
AcDbEntity
  8
02___PRT_ALL_AXES
100
AcDbSpline
 62
7
  6
CONTINUOUS
 70
0
 71
3
 72
40
 73
36
 74
0
 42
0.0000001
 43
0.0000001
 44
0.0000000001
 40
0.0
 40
0.0
 40
0.0
 40
0.0
 40
0.0078321313
 40
0.0158544206
 40
0.0325980053
 40
0.0504805362
 40
0.0696799889
 40
0.0903190795
 40
0.1124740454
 40
0.1361824644
 40
0.1614497
 40
0.1882553887
 40
0.2165574863
 40
0.2462954786
 40
0.277393937
 40
0.3097642528
 40
0.3433064313
 40
0.3779112444
 40
0.4134610966
 40
0.4498313762
 40
0.486891909
 40
0.5245076085
 40
0.5625396994
 40
0.6008467655
 40
0.6392854808
 40
0.677711751
 40
0.7159815271
 40
0.7539517801
 40
0.7914814383
 40
0.8284322412
 40
0.8646702778
 40
0.9000654616
 40
0.9344940911
 40
0.9678448287
 40
1.0
 40
1.0
 40
1.0
 40
1.0
 10
15.972063707
 20
11.3975039978
 30
0.0
 10
15.9672084398
 20
11.3989241753
 30
0.0
 10
15.9574918931
 20
11.4021969845
 30
0.0
 10
15.9380940084
 20
11.4104259438
 30
0.0
 10
15.9139895306
 20
11.4239569781
 30
0.0
 10
15.8860342712
 20
11.444756573
 30
0.0
 10
15.8587297198
 20
11.4702398012
 30
0.0
 10
15.8321809157
 20
11.5002844614
 30
0.0
 10
15.8064876923
 20
11.5347597889
 30
0.0
 10
15.7817537554
 20
11.5735177293
 30
0.0
 10
15.7580802544
 20
11.6163915294
 30
0.0
 10
15.735568025
 20
11.6631968457
 30
0.0
 10
15.7143144041
 20
11.7137311474
 30
0.0
 10
15.6944111259
 20
11.7677742588
 30
0.0
 10
15.6759460179
 20
11.8250903599
 30
0.0
 10
15.6590006148
 20
11.8854284352
 30
0.0
 10
15.6436490896
 20
11.9485234468
 30
0.0
 10
15.629959976
 20
12.0140981159
 30
0.0
 10
15.6179939794
 20
12.0818637949
 30
0.0
 10
15.6078035906
 20
12.1515218394
 30
0.0
 10
15.5994346352
 20
12.222765242
 30
0.0
 10
15.5929241664
 20
12.2952797809
 30
0.0
 10
15.5883006053
 20
12.3687454864
 30
0.0
 10
15.5855851127
 20
12.4428381963
 30
0.0
 10
15.5847895328
 20
12.5172309032
 30
0.0
 10
15.5859170005
 20
12.5915952425
 30
0.0
 10
15.5889631652
 20
12.6656029936
 30
0.0
 10
15.5939141927
 20
12.7389275252
 30
0.0
 10
15.6007477513
 20
12.8112452678
 30
0.0
 10
15.6094341695
 20
12.8822373016
 30
0.0
 10
15.6199346558
 20
12.951590305
 30
0.0
 10
15.6322019545
 20
13.0189981607
 30
0.0
 10
15.6461827852
 20
13.0841666885
 30
0.0
 10
15.6618149724
 20
13.1468042623
 30
0.0
 10
15.6735150806
 20
13.1874760611
 30
0.0
 10
15.6796470008
 20
13.2073189624
 30
0.0
  0
SPLINE
  5
2CE
100
AcDbEntity
  8
02___PRT_ALL_AXES
100
AcDbSpline
 62
7
  6
CONTINUOUS
 70
0
 71
3
 72
28
 73
24
 74
0
 42
0.0000001
 43
0.0000001
 44
0.0000000001
 40
0.0
 40
0.0
 40
0.0
 40
0.0
 40
0.0242203298
 40
0.0480749922
 40
0.0716636141
 40
0.0950901096
 40
0.1184609615
 40
0.1418837089
 40
0.1654649068
 40
0.1893085472
 40
0.2135144931
 40
0.2381767358
 40
0.2891892812
 40
0.3429857658
 40
0.4000554781
 40
0.4607685003
 40
0.5253892861
 40
0.5940905787
 40
0.6669658939
 40
0.7440444584
 40
0.8253001153
 40
0.9106560187
 40
1.0
 40
1.0
 40
1.0
 40
1.0
 10
16.120554001
 20
13.9188498952
 30
0.0
 10
16.1153565832
 20
13.9205896982
 30
0.0
 10
16.104921034
 20
13.923699558
 30
0.0
 10
16.0890815048
 20
13.9272378914
 30
0.0
 10
16.0732056097
 20
13.9296056392
 30
0.0
 10
16.0573083685
 20
13.9308008213
 30
0.0
 10
16.041403631
 20
13.9308214263
 30
0.0
 10
16.0255058557
 20
13.9296671621
 30
0.0
 10
16.0096291182
 20
13.9273402903
 30
0.0
 10
15.9937875917
 20
13.9238428262
 30
0.0
 10
15.9779947537
 20
13.9191775867
 30
0.0
 10
15.9567859455
 20
13.9113222147
 30
0.0
 10
15.9303699501
 20
13.8984583419
 30
0.0
 10
15.8994852319
 20
13.8786253365
 30
0.0
 10
15.8691392006
 20
13.8543024615
 30
0.0
 10
15.8394220342
 20
13.8255811022
 30
0.0
 10
15.810418145
 20
13.7925578559
 30
0.0
 10
15.782214396
 20
13.7553405254
 30
0.0
 10
15.7548956338
 20
13.7140497595
 30
0.0
 10
15.7285476232
 20
13.668817925
 30
0.0
 10
15.7032542777
 20
13.6197908524
 30
0.0
 10
15.679096072
 20
13.5671288368
 30
0.0
 10
15.6641325573
 20
13.5305233536
 30
0.0
 10
15.656836427
 20
13.5116678692
 30
0.0
  0
SPLINE
  5
2CF
100
AcDbEntity
  8
02___PRT_ALL_AXES
100
AcDbSpline
 62
7
  6
CONTINUOUS
 70
0
 71
3
 72
51
 73
47
 74
0
 42
0.0000001
 43
0.0000001
 44
0.0000000001
 40
0.0
 40
0.0
 40
0.0
 40
0.0
 40
0.0346315813
 40
0.0707234915
 40
0.1081137767
 40
0.1466336436
 40
0.1860996306
 40
0.2263208516
 40
0.2670991757
 40
0.3082316041
 40
0.3495120669
 40
0.3907332163
 40
0.4316882213
 40
0.4721725464
 40
0.5119857761
 40
0.5509335211
 40
0.5888293646
 40
0.6254969193
 40
0.6607720695
 40
0.6945054819
 40
0.7265655289
 40
0.756841831
 40
0.7712851654
 40
0.7852530911
 40
0.7987401231
 40
0.8117427309
 40
0.8242604085
 40
0.8362953937
 40
0.8478532582
 40
0.8589435037
 40
0.8695794657
 40
0.879779558
 40
0.88956704
 40
0.8989710399
 40
0.9080267715
 40
0.9167756923
 40
0.925265895
 40
0.9335513371
 40
0.9416914758
 40
0.9497497683
 40
0.9577921324
 40
0.9658849447
 40
0.9740931213
 40
0.9824781375
 40
0.9910967831
 40
1.0
 40
1.0
 40
1.0
 40
1.0
 10
16.4246605494
 20
11.6891409713
 30
0.0
 10
16.433058644
 20
11.7163172154
 30
0.0
 10
16.4489487824
 20
11.7722113241
 30
0.0
 10
16.4697446466
 20
11.8585616106
 30
0.0
 10
16.4879024112
 20
11.9487646004
 30
0.0
 10
16.5033145469
 20
12.0422845512
 30
0.0
 10
16.5158888943
 20
12.1385724017
 30
0.0
 10
16.5255508464
 20
12.237058992
 30
0.0
 10
16.5322426594
 20
12.3371630388
 30
0.0
 10
16.5359245852
 20
12.4382930952
 30
0.0
 10
16.5365747267
 20
12.539851622
 30
0.0
 10
16.534189222
 20
12.6412385094
 30
0.0
 10
16.5287822702
 20
12.7418546782
 30
0.0
 10
16.520386036
 20
12.8411056758
 30
0.0
 10
16.5090504568
 20
12.938405277
 30
0.0
 10
16.4948431017
 20
13.0331790983
 30
0.0
 10
16.4778485706
 20
13.124868081
 30
0.0
 10
16.4581679203
 20
13.2129320007
 30
0.0
 10
16.4359180429
 20
13.2968524819
 30
0.0
 10
16.4112305632
 20
13.3761374423
 30
0.0
 10
16.3842515807
 20
13.4503203054
 30
0.0
 10
16.3596178527
 20
13.5084116879
 30
0.0
 10
16.338820228
 20
13.5519039246
 30
0.0
 10
16.3229967961
 20
13.5824699982
 30
0.0
 10
16.3067278568
 20
13.611452099
 30
0.0
 10
16.2900356581
 20
13.6388072783
 30
0.0
 10
16.2729453977
 20
13.6644957682
 30
0.0
 10
16.2554815003
 20
13.6884798417
 30
0.0
 10
16.237668621
 20
13.7107239787
 30
0.0
 10
16.2195331592
 20
13.7311962395
 30
0.0
 10
16.2010994096
 20
13.7498653207
 30
0.0
 10
16.1823945096
 20
13.7667044677
 30
0.0
 10
16.1634436118
 20
13.7816873527
 30
0.0
 10
16.1442733452
 20
13.7947907819
 30
0.0
 10
16.1249107848
 20
13.805994092
 30
0.0
 10
16.1053826203
 20
13.8152766193
 30
0.0
 10
16.0857182962
 20
13.8226231712
 30
0.0
 10
16.0659468895
 20
13.8280171851
 30
0.0
 10
16.0461004445
 20
13.8314484678
 30
0.0
 10
16.0262117013
 20
13.8329087329
 30
0.0
 10
16.0063148042
 20
13.8323937782
 30
0.0
 10
15.9864437796
 20
13.8299065318
 30
0.0
 10
15.9666326376
 20
13.82545062
 30
0.0
 10
15.9469128056
 20
13.8190379101
 30
0.0
 10
15.9273167606
 20
13.8106809783
 30
0.0
 10
15.9145793745
 20
13.8039432628
 30
0.0
 10
15.9082506594
 20
13.8002798112
 30
0.0
  0
SPLINE
  5
2D0
100
AcDbEntity
  8
02___PRT_ALL_AXES
100
AcDbSpline
 62
7
  6
CONTINUOUS
 70
0
 71
3
 72
17
 73
13
 74
0
 42
0.0000001
 43
0.0000001
 44
0.0000000001
 40
0.0
 40
0.0
 40
0.0
 40
0.0
 40
0.0973145456
 40
0.1485381806
 40
0.2016055261
 40
0.256605482
 40
0.3136084855
 40
0.4338102639
 40
0.562525545
 40
0.6998536974
 40
0.8457412742
 40
1.0
 40
1.0
 40
1.0
 40
1.0
 10
15.9080393504
 20
13.8001573725
 30
0.0
 10
15.8966712997
 20
13.7935639344
 30
0.0
 10
15.879992243
 20
13.7822984469
 30
0.0
 10
15.8588132904
 20
13.7651789874
 30
0.0
 10
15.8428325756
 20
13.7507623303
 30
0.0
 10
15.8270499343
 20
13.7350075072
 30
0.0
 10
15.8059153964
 20
13.7118285019
 30
0.0
 10
15.7801433006
 20
13.6794743997
 30
0.0
 10
15.7508027022
 20
13.6362990148
 30
0.0
 10
15.7226355199
 20
13.5882858054
 30
0.0
 10
15.6957608784
 20
13.5356417987
 30
0.0
 10
15.6792289891
 20
13.4986122677
 30
0.0
 10
15.6711730157
 20
13.4794012557
 30
0.0
  0
SPLINE
  5
2D1
100
AcDbEntity
  8
02___PRT_ALL_AXES
100
AcDbSpline
 62
7
  6
CONTINUOUS
 70
0
 71
3
 72
9
 73
5
 74
0
 42
0.0000001
 43
0.0000001
 44
0.0000000001
 40
0.0
 40
0.0
 40
0.0
 40
0.0
 40
0.4870160681
 40
1.0
 40
1.0
 40
1.0
 40
1.0
 10
15.6705491343
 20
13.47791102
 30
0.0
 10
15.6608702646
 20
13.4547531699
 30
0.0
 10
15.6422964982
 20
13.4066527795
 30
0.0
 10
15.6260378567
 20
13.3577278849
 30
0.0
 10
15.6182322754
 20
13.3324690146
 30
0.0
  0
SPLINE
  5
2D2
100
AcDbEntity
  8
02___PRT_ALL_AXES
100
AcDbSpline
 62
7
  6
CONTINUOUS
 70
0
 71
3
 72
32
 73
28
 74
0
 42
0.0000001
 43
0.0000001
 44
0.0000000001
 40
0.0
 40
0.0
 40
0.0
 40
0.0
 40
0.0915979102
 40
0.1792086262
 40
0.2626012757
 40
0.3416210705
 40
0.4161513207
 40
0.4861392628
 40
0.5194393003
 40
0.5516196403
 40
0.5826967655
 40
0.6126950294
 40
0.641645933
 40
0.6695887215
 40
0.6965725558
 40
0.722655647
 40
0.7723766315
 40
0.7962120685
 40
0.8194856564
 40
0.8423083874
 40
0.8647994875
 40
0.8870851912
 40
0.9092960752
 40
0.9315643206
 40
0.9540208842
 40
0.9767925693
 40
1.0
 40
1.0
 40
1.0
 40
1.0
 10
16.4246605494
 20
11.6891409713
 30
0.0
 10
16.4178398477
 20
11.6670691723
 30
0.0
 10
16.4036953739
 20
11.6241273837
 30
0.0
 10
16.380406562
 20
11.5621061865
 30
0.0
 10
16.3555939437
 20
11.5041098546
 30
0.0
 10
16.3293640013
 20
11.4503842758
 30
0.0
 10
16.3018251389
 20
11.4011541131
 30
0.0
 10
16.277489384
 20
11.3634387641
 30
0.0
 10
16.2574164419
 20
11.3357822606
 30
0.0
 10
16.242359285
 20
11.3166342122
 30
0.0
 10
16.2270650344
 20
11.2987568238
 30
0.0
 10
16.2115498837
 20
11.2821685678
 30
0.0
 10
16.19582982
 20
11.2668868679
 30
0.0
 10
16.1799206994
 20
11.2529292501
 30
0.0
 10
16.1638375321
 20
11.2403090366
 30
0.0
 10
16.1425312601
 20
11.2255243619
 30
0.0
 10
16.1205678168
 20
11.2131286828
 30
0.0
 10
16.0981140464
 20
11.2034787505
 30
0.0
 10
16.0814183576
 20
11.1977380324
 30
0.0
 10
16.0646538824
 20
11.1934013295
 30
0.0
 10
16.047838314
 20
11.1904754094
 30
0.0
 10
16.0309915428
 20
11.1889647117
 30
0.0
 10
16.0141333979
 20
11.1888703964
 30
0.0
 10
15.9972840135
 20
11.1901940683
 30
0.0
 10
15.9804631069
 20
11.1929330928
 30
0.0
 10
15.9636911819
 20
11.1970823579
 30
0.0
 10
15.9526747373
 20
11.2007460983
 30
0.0
 10
15.9471931739
 20
11.2027981746
 30
0.0
  0
SPLINE
  5
2D3
100
AcDbEntity
  8
02___PRT_ALL_AXES
100
AcDbSpline
 62
7
  6
CONTINUOUS
 70
0
 71
3
 72
16
 73
12
 74
0
 42
0.0000001
 43
0.0000001
 44
0.0000000001
 40
0.0
 40
0.0
 40
0.0
 40
0.0
 40
0.048252775
 40
0.0978358476
 40
0.2016730402
 40
0.3128134193
 40
0.4321552659
 40
0.5602982209
 40
0.6975893376
 40
0.8441670583
 40
1.0
 40
1.0
 40
1.0
 40
1.0
 10
15.9471931739
 20
11.2027981746
 30
0.0
 10
15.9415424579
 20
11.2049135747
 30
0.0
 10
15.9302453109
 20
11.2096433051
 30
0.0
 10
15.9077281932
 20
11.2210362082
 30
0.0
 10
15.8798236707
 20
11.2389921247
 30
0.0
 10
15.8475425027
 20
11.2656819447
 30
0.0
 10
15.8160603573
 20
11.2977147837
 30
0.0
 10
15.7854989435
 20
11.3349467835
 30
0.0
 10
15.7559728486
 20
11.3772213205
 30
0.0
 10
15.727600379
 20
11.4243586721
 30
0.0
 10
15.7100597435
 20
11.4578852123
 30
0.0
 10
15.7014753711
 20
11.475378324
 30
0.0
  0
SPLINE
  5
2D4
100
AcDbEntity
  8
02___PRT_ALL_AXES
100
AcDbSpline
 62
7
  6
CONTINUOUS
 70
0
 71
3
 72
26
 73
22
 74
0
 42
0.0000001
 43
0.0000001
 44
0.0000000001
 40
0.0
 40
0.0
 40
0.0
 40
0.0
 40
0.0240503139
 40
0.0489278078
 40
0.0746123705
 40
0.1010797587
 40
0.128303096
 40
0.1562522816
 40
0.2141922163
 40
0.2746162591
 40
0.3372058459
 40
0.4016170502
 40
0.4674856529
 40
0.5344317908
 40
0.6020643355
 40
0.6699851031
 40
0.7377929707
 40
0.8050879572
 40
0.8714753677
 40
0.9365697467
 40
1.0
 40
1.0
 40
1.0
 40
1.0
 10
15.6993550762
 20
11.4797224742
 30
0.0
 10
15.6936700687
 20
11.4914332763
 30
0.0
 10
15.6825105735
 20
11.5154566363
 30
0.0
 10
15.6666475252
 20
11.5526026527
 30
0.0
 10
15.6514016298
 20
11.5914152768
 30
0.0
 10
15.6367983924
 20
11.631826324
 30
0.0
 10
15.6228639203
 20
11.6737663205
 30
0.0
 10
15.6049940875
 20
11.732330407
 30
0.0
 10
15.5845718309
 20
11.8088774564
 30
0.0
 10
15.5633687309
 20
11.9045268778
 30
0.0
 10
15.5453321595
 20
12.0043837828
 30
0.0
 10
15.5305883139
 20
12.107754957
 30
0.0
 10
15.519240471
 20
12.2139243069
 30
0.0
 10
15.5113681636
 20
12.3221550618
 30
0.0
 10
15.5070265894
 20
12.431695927
 30
0.0
 10
15.5062461983
 20
12.5417862044
 30
0.0
 10
15.5090324892
 20
12.6516613436
 30
0.0
 10
15.5153658637
 20
12.760558142
 30
0.0
 10
15.5252020581
 20
12.8677210216
 30
0.0
 10
15.5384716459
 20
12.9724044057
 30
0.0
 10
15.5497121906
 20
13.0410765149
 30
0.0
 10
15.5559165557
 20
13.0748442906
 30
0.0
  0
SPLINE
  5
2D5
100
AcDbEntity
  8
02___PRT_ALL_AXES
100
AcDbSpline
 62
7
  6
CONTINUOUS
 70
0
 71
3
 72
11
 73
7
 74
0
 42
0.0000001
 43
0.0000001
 44
0.0000000001
 40
0.0
 40
0.0
 40
0.0
 40
0.0
 40
0.2602098941
 40
0.5140033799
 40
0.7608085875
 40
1.0
 40
1.0
 40
1.0
 40
1.0
 10
15.5572731019
 20
13.0821691139
 30
0.0
 10
15.5613753708
 20
13.1041457536
 30
0.0
 10
15.570034048
 20
13.1474559212
 30
0.0
 10
15.5845819353
 20
13.2111906517
 30
0.0
 10
15.6004927346
 20
13.2727358708
 30
0.0
 10
15.6121648211
 20
13.3128347254
 30
0.0
 10
15.6182322754
 20
13.3324690146
 30
0.0
  0
SPLINE
  5
2D6
100
AcDbEntity
  8
02___PRT_ALL_AXES
100
AcDbSpline
 62
7
  6
CONTINUOUS
 70
0
 71
3
 72
25
 73
21
 74
0
 42
0.0000001
 43
0.0000001
 44
0.0000000001
 40
0.0
 40
0.0
 40
0.0
 40
0.0
 40
0.049920315
 40
0.0987641792
 40
0.1230246751
 40
0.147293972
 40
0.1716663762
 40
0.1962346836
 40
0.2462905736
 40
0.2981587079
 40
0.3524236102
 40
0.4095708606
 40
0.4699872743
 40
0.5339672606
 40
0.6017213784
 40
0.6733896429
 40
0.7490487393
 40
0.828723649
 40
0.9123939789
 40
1.0
 40
1.0
 40
1.0
 40
1.0
 10
16.1205540015
 20
11.1027600794
 30
0.0
 10
16.1110507248
 20
11.0995788787
 30
0.0
 10
16.0918395098
 20
11.0944296679
 30
0.0
 10
16.067271935
 20
11.0912265328
 30
0.0
 10
16.0477184756
 20
11.0906860841
 30
0.0
 10
16.0330835777
 20
11.0912759834
 30
0.0
 10
16.0184607464
 20
11.0928602752
 30
0.0
 10
15.9988770011
 20
11.0963155358
 30
0.0
 10
15.9743554493
 20
11.1032000672
 30
0.0
 10
15.9453784922
 20
11.1153646988
 30
0.0
 10
15.9167345249
 20
11.1314340053
 30
0.0
 10
15.8885011853
 20
11.151347234
 30
0.0
 10
15.8607473946
 20
11.1750400099
 30
0.0
 10
15.8335426212
 20
11.2024423066
 30
0.0
 10
15.8069538854
 20
11.2334756161
 30
0.0
 10
15.781050623
 20
11.2680550653
 30
0.0
 10
15.7558996226
 20
11.3060850632
 30
0.0
 10
15.7315683261
 20
11.3474621073
 30
0.0
 10
15.7081230171
 20
11.3920718605
 30
0.0
 10
15.693456326
 20
11.4231836465
 30
0.0
 10
15.6862673637
 20
11.4392343057
 30
0.0
  0
SPLINE
  5
2D7
100
AcDbEntity
  8
02___PRT_ALL_AXES
100
AcDbSpline
 62
7
  6
CONTINUOUS
 70
0
 71
3
 72
11
 73
7
 74
0
 42
0.0000001
 43
0.0000001
 44
0.0000000001
 40
0.0
 40
0.0
 40
0.0
 40
0.0
 40
0.2337318047
 40
0.478700933
 40
0.7343425352
 40
1.0
 40
1.0
 40
1.0
 40
1.0
 10
15.6856112637
 20
11.4407014982
 30
0.0
 10
15.6765977431
 20
11.4608898892
 30
0.0
 10
15.6591402602
 20
11.5026905929
 30
0.0
 10
15.6351416176
 20
11.5678956804
 30
0.0
 10
15.6127916171
 20
11.6368643761
 30
0.0
 10
15.5992970886
 20
11.6843048138
 30
0.0
 10
15.592822901
 20
11.7085855638
 30
0.0
  0
SPLINE
  5
2D8
100
AcDbEntity
  8
02___PRT_ALL_AXES
100
AcDbSpline
 62
7
  6
CONTINUOUS
 70
0
 71
3
 72
11
 73
7
 74
0
 42
0.0000001
 43
0.0000001
 44
0.0000000001
 40
0.0
 40
0.0
 40
0.0
 40
0.0
 40
0.2401518712
 40
0.4873208133
 40
0.740839081
 40
1.0
 40
1.0
 40
1.0
 40
1.0
 10
15.592822901
 20
11.7085855638
 30
0.0
 10
15.5865165001
 20
11.7322370476
 30
0.0
 10
15.5744938244
 20
11.7804405674
 30
0.0
 10
15.5584150433
 20
11.8542302504
 30
0.0
 10
15.5440736149
 20
11.9303492032
 30
0.0
 10
15.5357880313
 20
11.9819509146
 30
0.0
 10
15.5319355805
 20
12.0080838189
 30
0.0
  0
SPLINE
  5
2D9
100
AcDbEntity
  8
02___PRT_ALL_AXES
100
AcDbSpline
 62
7
  6
CONTINUOUS
 70
0
 71
3
 72
15
 73
11
 74
0
 42
0.0000001
 43
0.0000001
 44
0.0000000001
 40
0.0
 40
0.0
 40
0.0
 40
0.0
 40
0.1223037301
 40
0.2473103043
 40
0.3740698387
 40
0.5016087874
 40
0.6289432231
 40
0.7550919197
 40
0.8790895508
 40
1.0
 40
1.0
 40
1.0
 40
1.0
 10
15.5319355805
 20
12.0080838189
 30
0.0
 10
15.5256232733
 20
12.050903034
 30
0.0
 10
15.5146780792
 20
12.1377649929
 30
0.0
 10
15.5033034797
 20
12.2696857743
 30
0.0
 10
15.4968552885
 20
12.4037948887
 30
0.0
 10
15.4953930777
 20
12.5388736447
 30
0.0
 10
15.4989301463
 20
12.6736978925
 30
0.0
 10
15.5074341536
 20
12.8070459335
 30
0.0
 10
15.5208266531
 20
12.9377060284
 30
0.0
 10
15.5331178279
 20
13.0235301365
 30
0.0
 10
15.5400978254
 20
13.065745907
 30
0.0
  0
LINE
  5
2DA
100
AcDbEntity
  8
02___PRT_ALL_AXES
100
AcDbLine
 62
7
  6
CONTINUOUS
 10
15.5400978254
 20
13.065745907
 11
15.540993771
 21
13.071133737
  0
SPLINE
  5
2DB
100
AcDbEntity
  8
02___PRT_ALL_AXES
100
AcDbSpline
 62
7
  6
CONTINUOUS
 70
0
 71
3
 72
9
 73
5
 74
0
 42
0.0000001
 43
0.0000001
 44
0.0000000001
 40
0.0
 40
0.0
 40
0.0
 40
0.0
 40
0.5096544529
 40
1.0
 40
1.0
 40
1.0
 40
1.0
 10
15.5715477786
 20
13.2267320948
 30
0.0
 10
15.5780472402
 20
13.2553196323
 30
0.0
 10
15.5917729786
 20
13.3111958808
 30
0.0
 10
15.6076038446
 20
13.3665159168
 30
0.0
 10
15.6159316956
 20
13.3934648523
 30
0.0
  0
SPLINE
  5
2DC
100
AcDbEntity
  8
0
100
AcDbSpline
 62
7
  6
CONTINUOUS
 70
0
 71
3
 72
9
 73
5
 74
0
 42
0.0000001
 43
0.0000001
 44
0.0000000001
 40
0.0
 40
0.0
 40
0.0
 40
0.0
 40
0.5132455981
 40
1.0
 40
1.0
 40
1.0
 40
1.0
 10
14.6043103386
 20
13.3903370774
 30
0.0
 10
14.612002315
 20
13.4117750256
 30
0.0
 10
14.6278859408
 20
13.4532299133
 30
0.0
 10
14.6457635092
 20
13.4938709257
 30
0.0
 10
14.6550089504
 20
13.5133928395
 30
0.0
  0
SPLINE
  5
2DD
100
AcDbEntity
  8
0
100
AcDbSpline
 62
7
  6
CONTINUOUS
 70
0
 71
3
 72
9
 73
5
 74
0
 42
0.0000001
 43
0.0000001
 44
0.0000000001
 40
0.0
 40
0.0
 40
0.0
 40
0.0
 40
0.5181184036
 40
1.0
 40
1.0
 40
1.0
 40
1.0
 10
14.7158356573
 20
13.6236043464
 30
0.0
 10
14.7254677848
 20
13.6384565447
 30
0.0
 10
14.7450495533
 20
13.6664973197
 30
0.0
 10
14.7668694825
 20
13.6928560505
 30
0.0
 10
14.7779792796
 20
13.7050066801
 30
0.0
  0
SPLINE
  5
2DE
100
AcDbEntity
  8
0
100
AcDbSpline
 62
7
  6
CONTINUOUS
 70
0
 71
3
 72
10
 73
6
 74
0
 42
0.0000001
 43
0.0000001
 44
0.0000000001
 40
0.0
 40
0.0
 40
0.0
 40
0.0
 40
0.5144748871
 40
0.7603554002
 40
1.0
 40
1.0
 40
1.0
 40
1.0
 10
14.8484320569
 20
13.7667590205
 30
0.0
 10
14.85931576
 20
13.7740511652
 30
0.0
 10
14.8761226865
 20
13.7838350512
 30
0.0
 10
14.8994548756
 20
13.7940802654
 30
0.0
 10
14.9111467256
 20
13.7981514386
 30
0.0
 10
14.9169884052
 20
13.7999161035
 30
0.0
  0
SPLINE
  5
2DF
100
AcDbEntity
  8
0
100
AcDbSpline
 62
7
  6
CONTINUOUS
 70
0
 71
3
 72
11
 73
7
 74
0
 42
0.0000001
 43
0.0000001
 44
0.0000000001
 40
0.0
 40
0.0
 40
0.0
 40
0.0
 40
0.1989694118
 40
0.4347396247
 40
0.7041375089
 40
1.0
 40
1.0
 40
1.0
 40
1.0
 10
14.5256372721
 20
12.9137010848
 30
0.0
 10
14.526119547
 20
12.9142842732
 30
0.0
 10
14.5270121436
 20
12.915691441
 30
0.0
 10
14.5280761873
 20
12.9181561065
 30
0.0
 10
14.5289477057
 20
12.9210815756
 30
0.0
 10
14.5293660923
 20
12.9231934851
 30
0.0
 10
14.5295409362
 20
12.9243051136
 30
0.0
  0
SPLINE
  5
2E0
100
AcDbEntity
  8
0
100
AcDbSpline
 62
7
  6
CONTINUOUS
 70
0
 71
3
 72
15
 73
11
 74
0
 42
0.0000001
 43
0.0000001
 44
0.0000000001
 40
0.0
 40
0.0
 40
0.0
 40
0.0
 40
0.0768187321
 40
0.1619837179
 40
0.2610837183
 40
0.376867375
 40
0.5100489652
 40
0.6600579171
 40
0.824444783
 40
1.0
 40
1.0
 40
1.0
 40
1.0
 10
14.5138771316
 20
12.0003773113
 30
0.0
 10
14.5136842214
 20
12.0003780339
 30
0.0
 10
14.5132750833
 20
12.0004604731
 30
0.0
 10
14.5127044786
 20
12.0008016898
 30
0.0
 10
14.5121729862
 20
12.0013441101
 30
0.0
 10
14.5116825391
 20
12.002071698
 30
0.0
 10
14.5112386322
 20
12.0029725735
 30
0.0
 10
14.5108512994
 20
12.0040294768
 30
0.0
 10
14.5105260253
 20
12.0052172909
 30
0.0
 10
14.5103603303
 20
12.0060555486
 30
0.0
 10
14.5102888961
 20
12.006490587
 30
0.0
  0
SPLINE
  5
2E1
100
AcDbEntity
  8
0
100
AcDbSpline
 62
7
  6
CONTINUOUS
 70
0
 71
3
 72
14
 73
10
 74
0
 42
0.0000001
 43
0.0000001
 44
0.0000000001
 40
0.0
 40
0.0
 40
0.0
 40
0.0
 40
0.0864651439
 40
0.178444946
 40
0.2804466218
 40
0.3954932342
 40
0.5253080444
 40
0.6699759639
 40
1.0
 40
1.0
 40
1.0
 40
1.0
 10
14.5874809242
 20
11.6863478069
 30
0.0
 10
14.5873359015
 20
11.686347245
 30
0.0
 10
14.5870349528
 20
11.6863911013
 30
0.0
 10
14.5866009627
 20
11.6865841506
 30
0.0
 10
14.5861831147
 20
11.686896636
 30
0.0
 10
14.5857843066
 20
11.6873234355
 30
0.0
 10
14.585408238
 20
11.6878597428
 30
0.0
 10
14.5849190644
 20
11.6887493924
 30
0.0
 10
14.5846318256
 20
11.6894965428
 30
0.0
 10
14.5844641444
 20
11.6900240673
 30
0.0
  0
SPLINE
  5
2E2
100
AcDbEntity
  8
0
100
AcDbSpline
 62
7
  6
CONTINUOUS
 70
0
 71
3
 72
11
 73
7
 74
0
 42
0.0000001
 43
0.0000001
 44
0.0000000001
 40
0.0
 40
0.0
 40
0.0
 40
0.0
 40
0.2022941205
 40
0.4283089981
 40
0.6923915272
 40
1.0
 40
1.0
 40
1.0
 40
1.0
 10
14.6925497345
 20
11.438271776
 30
0.0
 10
14.692351911
 20
11.4382717885
 30
0.0
 10
14.6919299285
 20
11.4383586171
 30
0.0
 10
14.6913479801
 20
11.4387236517
 30
0.0
 10
14.6908057566
 20
11.4392919754
 30
0.0
 10
14.6904973559
 20
11.4397614677
 30
0.0
 10
14.6903487149
 20
11.4400229879
 30
0.0
  0
SPLINE
  5
2E3
100
AcDbEntity
  8
0
100
AcDbSpline
 62
7
  6
CONTINUOUS
 70
0
 71
3
 72
11
 73
7
 74
0
 42
0.0000001
 43
0.0000001
 44
0.0000000001
 40
0.0
 40
0.0
 40
0.0
 40
0.0
 40
0.2440561866
 40
0.4911094031
 40
0.7426339
 40
1.0
 40
1.0
 40
1.0
 40
1.0
 10
14.9610749839
 20
11.2133741588
 30
0.0
 10
14.9552388379
 20
11.2138181248
 30
0.0
 10
14.9435283487
 20
11.2152336707
 30
0.0
 10
14.926078723
 20
11.2189014106
 30
0.0
 10
14.9086949621
 20
11.2241169387
 30
0.0
 10
14.8973129211
 20
11.2285616303
 30
0.0
 10
14.891652671
 20
11.2310228776
 30
0.0
  0
SPLINE
  5
2E4
100
AcDbEntity
  8
0
100
AcDbSpline
 62
7
  6
CONTINUOUS
 70
0
 71
3
 72
10
 73
6
 74
0
 42
0.0000001
 43
0.0000001
 44
0.0000000001
 40
0.0
 40
0.0
 40
0.0
 40
0.0
 40
0.4811795163
 40
0.7357763993
 40
1.0
 40
1.0
 40
1.0
 40
1.0
 10
14.8193682556
 20
11.27673201
 30
0.0
 10
14.8078867321
 20
11.2863442056
 30
0.0
 10
14.7911941922
 20
11.3021004792
 30
0.0
 10
14.7701757772
 20
11.3250558192
 30
0.0
 10
14.7598270598
 20
11.3374579181
 30
0.0
 10
14.7546926476
 20
11.3438802641
 30
0.0
  0
SPLINE
  5
2E5
100
AcDbEntity
  8
0
100
AcDbSpline
 62
7
  6
CONTINUOUS
 70
0
 71
3
 72
9
 73
5
 74
0
 42
0.0000001
 43
0.0000001
 44
0.0000000001
 40
0.0
 40
0.0
 40
0.0
 40
0.0
 40
0.4851109175
 40
1.0
 40
1.0
 40
1.0
 40
1.0
 10
14.6903487149
 20
11.4400229879
 30
0.0
 10
14.6804422875
 20
11.4574524306
 30
0.0
 10
14.6611923876
 20
11.4940542165
 30
0.0
 10
14.6440215467
 20
11.5316675099
 30
0.0
 10
14.6356571323
 20
11.5512332261
 30
0.0
  0
SPLINE
  5
2E6
100
AcDbEntity
  8
0
100
AcDbSpline
 62
7
  6
CONTINUOUS
 70
0
 71
3
 72
9
 73
5
 74
0
 42
0.0000001
 43
0.0000001
 44
0.0000000001
 40
0.0
 40
0.0
 40
0.0
 40
0.0
 40
0.4903720409
 40
1.0
 40
1.0
 40
1.0
 40
1.0
 10
14.5844641444
 20
11.6900240673
 30
0.0
 10
14.5769506976
 20
11.7136613463
 30
0.0
 10
14.5626264913
 20
11.7621853141
 30
0.0
 10
14.5501263931
 20
11.8112080222
 30
0.0
 10
14.5441854184
 20
11.8362906742
 30
0.0
  0
SPLINE
  5
2E7
100
AcDbEntity
  8
0
100
AcDbSpline
 62
7
  6
CONTINUOUS
 70
0
 71
3
 72
15
 73
11
 74
0
 42
0.0000001
 43
0.0000001
 44
0.0000000001
 40
0.0
 40
0.0
 40
0.0
 40
0.0
 40
0.1773413481
 40
0.3440659618
 40
0.4959975714
 40
0.6302308989
 40
0.7458216423
 40
0.8432578385
 40
0.9257655412
 40
1.0
 40
1.0
 40
1.0
 40
1.0
 10
14.4946953468
 20
12.9069671229
 30
0.0
 10
14.4947576351
 20
12.9074661893
 30
0.0
 10
14.4949115291
 20
12.9084307343
 30
0.0
 10
14.4952358886
 20
12.9098009055
 30
0.0
 10
14.4956399443
 20
12.9110222633
 30
0.0
 10
14.4961158273
 20
12.9120605899
 30
0.0
 10
14.4966499095
 20
12.9128932704
 30
0.0
 10
14.4972380145
 20
12.9135011022
 30
0.0
 10
14.4978739007
 20
12.913866864
 30
0.0
 10
14.4983295118
 20
12.913927718
 30
0.0
 10
14.4985392038
 20
12.9139089724
 30
0.0
  0
SPLINE
  5
2E8
100
AcDbEntity
  8
0
100
AcDbSpline
 62
7
  6
CONTINUOUS
 70
0
 71
3
 72
13
 73
9
 74
0
 42
0.0000001
 43
0.0000001
 44
0.0000000001
 40
0.0
 40
0.0
 40
0.0
 40
0.0
 40
0.0878152143
 40
0.1902288484
 40
0.3058381441
 40
0.4327213831
 40
0.7106298556
 40
1.0
 40
1.0
 40
1.0
 40
1.0
 10
14.4801905443
 20
12.7222775951
 30
0.0
 10
14.4799851762
 20
12.7225306518
 30
0.0
 10
14.4796004581
 20
12.7231276475
 30
0.0
 10
14.4791232748
 20
12.7241599522
 30
0.0
 10
14.4787148295
 20
12.725375453
 30
0.0
 10
14.4782662539
 20
12.7272560183
 30
0.0
 10
14.4779595985
 20
12.7298225415
 30
0.0
 10
14.4779660387
 20
12.7319337601
 30
0.0
 10
14.4780385369
 20
12.7330052362
 30
0.0
  0
SPLINE
  5
2E9
100
AcDbEntity
  8
0
100
AcDbSpline
 62
7
  6
CONTINUOUS
 70
0
 71
3
 72
15
 73
11
 74
0
 42
0.0000001
 43
0.0000001
 44
0.0000000001
 40
0.0
 40
0.0
 40
0.0
 40
0.0
 40
0.1463945796
 40
0.2921169771
 40
0.4338196257
 40
0.5688229461
 40
0.6947415256
 40
0.8095645822
 40
0.9116569467
 40
1.0
 40
1.0
 40
1.0
 40
1.0
 10
14.5057801115
 20
12.6761496797
 30
0.0
 10
14.5058190992
 20
12.6771645947
 30
0.0
 10
14.5058356341
 20
12.6791925822
 30
0.0
 10
14.5056842127
 20
12.682200257
 30
0.0
 10
14.505356592
 20
12.6851146142
 30
0.0
 10
14.5048631542
 20
12.6878663238
 30
0.0
 10
14.5042140204
 20
12.6903937733
 30
0.0
 10
14.5034254433
 20
12.6926418739
 30
0.0
 10
14.5025130895
 20
12.694557729
 30
0.0
 10
14.5017849747
 20
12.6956687188
 30
0.0
 10
14.5013987501
 20
12.6961446287
 30
0.0
  0
SPLINE
  5
2EA
100
AcDbEntity
  8
0
100
AcDbSpline
 62
7
  6
CONTINUOUS
 70
0
 71
3
 72
15
 73
11
 74
0
 42
0.0000001
 43
0.0000001
 44
0.0000000001
 40
0.0
 40
0.0
 40
0.0
 40
0.0
 40
0.0790700729
 40
0.1724401892
 40
0.2808172175
 40
0.4035516731
 40
0.5392108576
 40
0.6857044673
 40
0.84046635
 40
1.0
 40
1.0
 40
1.0
 40
1.0
 10
14.4964450353
 20
12.5671911375
 30
0.0
 10
14.4968602602
 20
12.5674642386
 30
0.0
 10
14.4976722533
 20
12.568202353
 30
0.0
 10
14.4987149626
 20
12.5696354216
 30
0.0
 10
14.4996579491
 20
12.5714507192
 30
0.0
 10
14.5004840956
 20
12.5736068667
 30
0.0
 10
14.5011745993
 20
12.5760593619
 30
0.0
 10
14.5017150953
 20
12.578754238
 30
0.0
 10
14.5020900001
 20
12.5816280597
 30
0.0
 10
14.5022248526
 20
12.5836003388
 30
0.0
 10
14.502263344
 20
12.5846023322
 30
0.0
  0
SPLINE
  5
2EB
100
AcDbEntity
  8
0
100
AcDbSpline
 62
7
  6
CONTINUOUS
 70
0
 71
3
 72
13
 73
9
 74
0
 42
0.0000001
 43
0.0000001
 44
0.0000000001
 40
0.0
 40
0.0
 40
0.0
 40
0.0
 40
0.3124759595
 40
0.596229579
 40
0.7198392776
 40
0.8286841537
 40
0.9219291566
 40
1.0
 40
1.0
 40
1.0
 40
1.0
 10
14.4707303943
 20
12.5427620463
 30
0.0
 10
14.4707405417
 20
12.5438201134
 30
0.0
 10
14.4708841716
 20
12.5458394437
 30
0.0
 10
14.4713762312
 20
12.5482382781
 30
0.0
 10
14.4719662626
 20
12.5498867354
 30
0.0
 10
14.4724585294
 20
12.5508776008
 30
0.0
 10
14.4730058545
 20
12.5516571115
 30
0.0
 10
14.4734363048
 20
12.5520578683
 30
0.0
 10
14.4736571784
 20
12.552203141
 30
0.0
  0
SPLINE
  5
2EC
100
AcDbEntity
  8
0
100
AcDbSpline
 62
7
  6
CONTINUOUS
 70
0
 71
3
 72
15
 73
11
 74
0
 42
0.0000001
 43
0.0000001
 44
0.0000000001
 40
0.0
 40
0.0
 40
0.0
 40
0.0
 40
0.0748268863
 40
0.1640503526
 40
0.2694791082
 40
0.3910959689
 40
0.5275723073
 40
0.6769224968
 40
0.8358085934
 40
1.0
 40
1.0
 40
1.0
 40
1.0
 10
14.4770711243
 20
12.3550589163
 30
0.0
 10
14.4768489455
 20
12.3551520779
 30
0.0
 10
14.4764028214
 20
12.3554540195
 30
0.0
 10
14.4758278515
 20
12.3561109005
 30
0.0
 10
14.4753029194
 20
12.3569885433
 30
0.0
 10
14.4748424459
 20
12.358067368
 30
0.0
 10
14.4744532391
 20
12.3593221314
 30
0.0
 10
14.4741480443
 20
12.3607226082
 30
0.0
 10
14.473932615
 20
12.3622294758
 30
0.0
 10
14.473852999
 20
12.3632675007
 30
0.0
 10
14.4738295552
 20
12.3637956277
 30
0.0
  0
SPLINE
  5
2ED
100
AcDbEntity
  8
0
100
AcDbSpline
 62
7
  6
CONTINUOUS
 70
0
 71
3
 72
15
 73
11
 74
0
 42
0.0000001
 43
0.0000001
 44
0.0000000001
 40
0.0
 40
0.0
 40
0.0
 40
0.0
 40
0.1656309109
 40
0.3243865556
 40
0.4727457861
 40
0.6082650827
 40
0.7290997675
 40
0.8342662288
 40
0.923890386
 40
1.0
 40
1.0
 40
1.0
 40
1.0
 10
14.5066842756
 20
12.3293079679
 30
0.0
 10
14.5066117297
 20
12.3302914313
 30
0.0
 10
14.5064111375
 20
12.3322137977
 30
0.0
 10
14.5059395819
 20
12.3349907889
 30
0.0
 10
14.5053093253
 20
12.3375524124
 30
0.0
 10
14.5045380628
 20
12.339838899
 30
0.0
 10
14.5036415864
 20
12.3418007628
 30
0.0
 10
14.502638646
 20
12.3433990043
 30
0.0
 10
14.5015447582
 20
12.3445979633
 30
0.0
 10
14.5007049958
 20
12.3451490132
 30
0.0
 10
14.5002871037
 20
12.3453242393
 30
0.0
  0
SPLINE
  5
2EE
100
AcDbEntity
  8
0
100
AcDbSpline
 62
7
  6
CONTINUOUS
 70
0
 71
3
 72
15
 73
11
 74
0
 42
0.0000001
 43
0.0000001
 44
0.0000000001
 40
0.0
 40
0.0
 40
0.0
 40
0.0
 40
0.0930368087
 40
0.1990330592
 40
0.3165090658
 40
0.4435698987
 40
0.5780519748
 40
0.7175035152
 40
0.8592377322
 40
1.0
 40
1.0
 40
1.0
 40
1.0
 10
14.5096786254
 20
12.2180088748
 30
0.0
 10
14.5100446836
 20
12.2185675951
 30
0.0
 10
14.5107270616
 20
12.219829285
 30
0.0
 10
14.5115705612
 20
12.2219430234
 30
0.0
 10
14.5122796312
 20
12.2243611026
 30
0.0
 10
14.5128401355
 20
12.2270262937
 30
0.0
 10
14.5132377006
 20
12.2298797247
 30
0.0
 10
14.5134643777
 20
12.2328572703
 30
0.0
 10
14.5135122744
 20
12.2358879339
 30
0.0
 10
14.5134259006
 20
12.2379157043
 30
0.0
 10
14.5133515547
 20
12.2389235679
 30
0.0
  0
SPLINE
  5
2EF
100
AcDbEntity
  8
0
100
AcDbSpline
 62
7
  6
CONTINUOUS
 70
0
 71
3
 72
12
 73
8
 74
0
 42
0.0000001
 43
0.0000001
 44
0.0000000001
 40
0.0
 40
0.0
 40
0.0
 40
0.0
 40
0.2793985877
 40
0.5544141393
 40
0.8007248325
 40
0.9072598605
 40
1.0
 40
1.0
 40
1.0
 40
1.0
 10
14.4876847292
 20
12.175969142
 30
0.0
 10
14.4875741199
 20
12.1770329533
 30
0.0
 10
14.4874966677
 20
12.1791607797
 30
0.0
 10
14.4877554442
 20
12.1822214356
 30
0.0
 10
14.4882858129
 20
12.1845788869
 30
0.0
 10
14.4889026776
 20
12.1861718768
 30
0.0
 10
14.4892628785
 20
12.1868480044
 30
0.0
 10
14.4894574345
 20
12.1871449581
 30
0.0
  0
LINE
  5
2F0
100
AcDbEntity
  8
0
100
AcDbLine
 62
7
  6
CONTINUOUS
 10
14.5455962432
 20
11.9971635758
 11
14.5447569994
 21
12.0005068989
  0
SPLINE
  5
2F1
100
AcDbEntity
  8
0
100
AcDbSpline
 62
7
  6
CONTINUOUS
 70
0
 71
3
 72
15
 73
11
 74
0
 42
0.0000001
 43
0.0000001
 44
0.0000000001
 40
0.0
 40
0.0
 40
0.0
 40
0.0
 40
0.1085398359
 40
0.226630877
 40
0.3518945857
 40
0.4819522878
 40
0.6143702664
 40
0.7466317934
 40
0.8761358289
 40
1.0
 40
1.0
 40
1.0
 40
1.0
 10
14.5606775416
 20
11.8925367427
 30
0.0
 10
14.5609607936
 20
11.8933191101
 30
0.0
 10
14.5614687345
 20
11.8949833918
 30
0.0
 10
14.5620504519
 20
11.8976198062
 30
0.0
 10
14.562469732
 20
11.9004537056
 30
0.0
 10
14.5627188889
 20
11.9034174869
 30
0.0
 10
14.5627907847
 20
11.9064444403
 30
0.0
 10
14.5626850052
 20
11.909466223
 30
0.0
 10
14.5624017801
 20
11.9124106144
 30
0.0
 10
14.5620931292
 20
11.9143300469
 30
0.0
 10
14.5619076639
 20
11.9152612981
 30
0.0
  0
SPLINE
  5
2F2
100
AcDbEntity
  8
0
100
AcDbSpline
 62
7
  6
CONTINUOUS
 70
0
 71
3
 72
13
 73
9
 74
0
 42
0.0000001
 43
0.0000001
 44
0.0000000001
 40
0.0
 40
0.0
 40
0.0
 40
0.0
 40
0.1208112624
 40
0.2489698802
 40
0.5140344931
 40
0.7717406351
 40
0.8910130592
 40
1.0
 40
1.0
 40
1.0
 40
1.0
 10
14.5441854184
 20
11.8362906742
 30
0.0
 10
14.5440726177
 20
11.836766916
 30
0.0
 10
14.5438822431
 20
11.8377585981
 30
0.0
 10
14.5436322075
 20
11.8398271866
 30
0.0
 10
14.5435716319
 20
11.8424706908
 30
0.0
 10
14.5438322637
 20
11.845067102
 30
0.0
 10
14.5442432274
 20
11.8469940242
 30
0.0
 10
14.5445101926
 20
11.8478810668
 30
0.0
 10
14.5446604942
 20
11.8482962132
 30
0.0
  0
SPLINE
  5
2F3
100
AcDbEntity
  8
0
100
AcDbSpline
 62
7
  6
CONTINUOUS
 70
0
 71
3
 72
15
 73
11
 74
0
 42
0.0000001
 43
0.0000001
 44
0.0000000001
 40
0.0
 40
0.0
 40
0.0
 40
0.0
 40
0.124391732
 40
0.2542829142
 40
0.3867772094
 40
0.5192685952
 40
0.6492398407
 40
0.7742624794
 40
0.8919683579
 40
1.0
 40
1.0
 40
1.0
 40
1.0
 10
14.6453119785
 20
11.6171309196
 30
0.0
 10
14.6454939451
 20
11.6180659345
 30
0.0
 10
14.6457955336
 20
11.6199914428
 30
0.0
 10
14.646068204
 20
11.6229424486
 30
0.0
 10
14.6461631541
 20
11.6259666416
 30
0.0
 10
14.6460804161
 20
11.6289917436
 30
0.0
 10
14.6458206574
 20
11.6319494552
 30
0.0
 10
14.6453912666
 20
11.6347732217
 30
0.0
 10
14.6448001647
 20
11.6373956905
 30
0.0
 10
14.6442859675
 20
11.6390489808
 30
0.0
 10
14.6439996806
 20
11.6398251415
 30
0.0
  0
SPLINE
  5
2F4
100
AcDbEntity
  8
0
100
AcDbSpline
 62
7
  6
CONTINUOUS
 70
0
 71
3
 72
13
 73
9
 74
0
 42
0.0000001
 43
0.0000001
 44
0.0000000001
 40
0.0
 40
0.0
 40
0.0
 40
0.0
 40
0.1042182603
 40
0.2198351506
 40
0.4743874573
 40
0.7423784976
 40
0.8742156273
 40
1.0
 40
1.0
 40
1.0
 40
1.0
 10
14.6356571323
 20
11.5512332261
 30
0.0
 10
14.6354927514
 20
11.5516177396
 30
0.0
 10
14.6351966617
 20
11.5524507204
 30
0.0
 10
14.6347227865
 20
11.5542961041
 30
0.0
 10
14.6343814984
 20
11.5568432659
 30
0.0
 10
14.634360327
 20
11.5594757998
 30
0.0
 10
14.6345424547
 20
11.5615781138
 30
0.0
 10
14.6346996931
 20
11.5626008838
 30
0.0
 10
14.6347961078
 20
11.5630963
 30
0.0
  0
SPLINE
  5
2F5
100
AcDbEntity
  8
0
100
AcDbSpline
 62
7
  6
CONTINUOUS
 70
0
 71
3
 72
15
 73
11
 74
0
 42
0.0000001
 43
0.0000001
 44
0.0000000001
 40
0.0
 40
0.0
 40
0.0
 40
0.0
 40
0.1413416629
 40
0.283488503
 40
0.4231756268
 40
0.557716078
 40
0.6846636717
 40
0.8018687034
 40
0.9074599398
 40
1.0
 40
1.0
 40
1.0
 40
1.0
 10
14.7567283838
 20
11.4140932996
 30
0.0
 10
14.7567990363
 20
11.4151022773
 30
0.0
 10
14.7568780945
 20
11.4171308179
 30
0.0
 10
14.7568193411
 20
11.4201601861
 30
0.0
 10
14.7565820113
 20
11.4231322065
 30
0.0
 10
14.7561742597
 20
11.4259760278
 30
0.0
 10
14.7556042676
 20
11.4286277607
 30
0.0
 10
14.7548866176
 20
11.4310288981
 30
0.0
 10
14.7540356204
 20
11.4331226397
 30
0.0
 10
14.7533482531
 20
11.4343691052
 30
0.0
 10
14.7529799334
 20
11.4349194487
 30
0.0
  0
SPLINE
  5
2F6
100
AcDbEntity
  8
0
100
AcDbSpline
 62
7
  6
CONTINUOUS
 70
0
 71
3
 72
13
 73
9
 74
0
 42
0.0000001
 43
0.0000001
 44
0.0000000001
 40
0.0
 40
0.0
 40
0.0
 40
0.0
 40
0.0881346229
 40
0.1908213551
 40
0.3066199579
 40
0.4335859545
 40
0.7113025627
 40
1.0
 40
1.0
 40
1.0
 40
1.0
 10
14.7546926476
 20
11.3438802641
 30
0.0
 10
14.7544879372
 20
11.3441363248
 30
0.0
 10
14.7541047754
 20
11.3447387428
 30
0.0
 10
14.7536299328
 20
11.3457781246
 30
0.0
 10
14.753224234
 20
11.3469997123
 30
0.0
 10
14.7527801029
 20
11.3488861183
 30
0.0
 10
14.7524791526
 20
11.3514562115
 30
0.0
 10
14.752490235
 20
11.3535689863
 30
0.0
 10
14.752565247
 20
11.3546402214
 30
0.0
  0
SPLINE
  5
2F7
100
AcDbEntity
  8
0
100
AcDbSpline
 62
7
  6
CONTINUOUS
 70
0
 71
3
 72
15
 73
11
 74
0
 42
0.0000001
 43
0.0000001
 44
0.0000000001
 40
0.0
 40
0.0
 40
0.0
 40
0.0
 40
0.0750006986
 40
0.1644789325
 40
0.2701371506
 40
0.3918947777
 40
0.5283891026
 40
0.6776147034
 40
0.836227597
 40
1.0
 40
1.0
 40
1.0
 40
1.0
 10
14.891652671
 20
11.2310228776
 30
0.0
 10
14.8914304397
 20
11.2311195105
 30
0.0
 10
14.8909852159
 20
11.2314282056
 30
0.0
 10
14.8904120344
 20
11.2320933373
 30
0.0
 10
14.8898891732
 20
11.2329786654
 30
0.0
 10
14.8894311367
 20
11.2340643324
 30
0.0
 10
14.8890447618
 20
11.2353249083
 30
0.0
 10
14.8887427261
 20
11.2367299697
 30
0.0
 10
14.8885307074
 20
11.238240069
 30
0.0
 10
14.8884534108
 20
11.2392797046
 30
0.0
 10
14.8884311677
 20
11.2398083952
 30
0.0
  0
SPLINE
  5
2F8
100
AcDbEntity
  8
AXIS
100
AcDbSpline
 62
7
  6
CONTINUOUS
 70
0
 71
3
 72
13
 73
9
 74
0
 42
0.0000001
 43
0.0000001
 44
0.0000000001
 40
0.0
 40
0.0
 40
0.0
 40
0.0
 40
0.1105265961
 40
0.2226551299
 40
0.3379089005
 40
0.4576630547
 40
0.7145510742
 40
1.0
 40
1.0
 40
1.0
 40
1.0
 10
16.2408808118
 20
13.1372776299
 30
0.0
 10
16.2402199476
 20
13.1372776306
 30
0.0
 10
16.2388870476
 20
13.1371901582
 30
0.0
 10
16.2368998028
 20
13.1367978725
 30
0.0
 10
16.2349241054
 20
13.136144936
 30
0.0
 10
16.2322527275
 20
13.1349007327
 30
0.0
 10
16.2289595347
 20
13.1326556477
 30
0.0
 10
16.2266221078
 20
13.1303881456
 30
0.0
 10
16.2254774007
 20
13.1291221699
 30
0.0
  0
SPLINE
  5
2F9
100
AcDbEntity
  8
AXIS
100
AcDbSpline
 62
7
  6
CONTINUOUS
 70
0
 71
3
 72
17
 73
13
 74
0
 42
0.0000001
 43
0.0000001
 44
0.0000000001
 40
0.0
 40
0.0
 40
0.0
 40
0.0
 40
0.0547927679
 40
0.1097961073
 40
0.2211986853
 40
0.335848893
 40
0.4551606366
 40
0.5169731952
 40
0.5803869351
 40
0.7124314275
 40
0.8521104039
 40
1.0
 40
1.0
 40
1.0
 40
1.0
 10
16.0467755897
 20
11.3920549962
 30
0.0
 10
16.0505890743
 20
11.3920549729
 30
0.0
 10
16.0582334677
 20
11.3923134481
 30
0.0
 10
16.0735591725
 20
11.3938665042
 30
0.0
 10
16.0927857513
 20
11.3977895156
 30
0.0
 10
16.1155882462
 20
11.4055755104
 30
0.0
 10
16.1341872933
 20
11.4145087219
 30
0.0
 10
16.1488923975
 20
11.4230894044
 30
0.0
 10
16.1638774687
 20
11.4329034989
 30
0.0
 10
16.1824169212
 20
11.447119114
 30
0.0
 10
16.203971991
 20
11.4668692879
 30
0.0
 10
16.2176436536
 20
11.4815156574
 30
0.0
 10
16.2244088642
 20
11.4892729149
 30
0.0
  0
SPLINE
  5
2FA
100
AcDbEntity
  8
AXIS
100
AcDbSpline
 62
7
  6
CONTINUOUS
 70
0
 71
3
 72
9
 73
5
 74
0
 42
0.0000001
 43
0.0000001
 44
0.0000000001
 40
0.0
 40
0.0
 40
0.0
 40
0.0
 40
0.4875818474
 40
1.0
 40
1.0
 40
1.0
 40
1.0
 10
16.2244088642
 20
11.4892729149
 30
0.0
 10
16.2308215152
 20
11.4966259136
 30
0.0
 10
16.2434915334
 20
11.5121312881
 30
0.0
 10
16.2552619332
 20
11.5283261721
 30
0.0
 10
16.2610808519
 20
11.5367685199
 30
0.0
  0
SPLINE
  5
2FB
100
AcDbEntity
  8
AXIS
100
AcDbSpline
 62
7
  6
CONTINUOUS
 70
0
 71
3
 72
15
 73
11
 74
0
 42
0.0000001
 43
0.0000001
 44
0.0000000001
 40
0.0
 40
0.0
 40
0.0
 40
0.0
 40
0.1079061335
 40
0.220848317
 40
0.3387880296
 40
0.4616559314
 40
0.5893566671
 40
0.7217732563
 40
0.8587340641
 40
1.0
 40
1.0
 40
1.0
 40
1.0
 10
16.2642681552
 20
11.5414383655
 30
0.0
 10
16.270343694
 20
11.5504271531
 30
0.0
 10
16.2823047677
 20
11.5691478281
 30
0.0
 10
16.2993107451
 20
11.598674342
 30
0.0
 10
16.3157571053
 20
11.63022251
 30
0.0
 10
16.3316053263
 20
11.6637231479
 30
0.0
 10
16.3468226426
 20
11.699104376
 30
0.0
 10
16.3613748482
 20
11.7362894856
 30
0.0
 10
16.3752278296
 20
11.7751906244
 30
0.0
 10
16.3838475982
 20
11.8018084116
 30
0.0
 10
16.388041178
 20
11.8153788409
 30
0.0
  0
SPLINE
  5
2FC
100
AcDbEntity
  8
AXIS
100
AcDbSpline
 62
7
  6
CONTINUOUS
 70
0
 71
3
 72
17
 73
13
 74
0
 42
0.0000001
 43
0.0000001
 44
0.0000000001
 40
0.0
 40
0.0
 40
0.0
 40
0.0
 40
0.0535530284
 40
0.1073576261
 40
0.2166252367
 40
0.3297240026
 40
0.4482871901
 40
0.5100777944
 40
0.5737208952
 40
0.7070179369
 40
0.8489632767
 40
1.0
 40
1.0
 40
1.0
 40
1.0
 10
16.0467755897
 20
11.7408049965
 30
0.0
 10
16.043875772
 20
11.7408049367
 30
0.0
 10
16.0380599566
 20
11.7410224225
 30
0.0
 10
16.0263945048
 20
11.7423299005
 30
0.0
 10
16.0117525183
 20
11.7456375374
 30
0.0
 10
15.9944352188
 20
11.7521843863
 30
0.0
 10
15.98037348
 20
11.7596741734
 30
0.0
 10
15.969277239
 20
11.7668551972
 30
0.0
 10
15.9579402265
 20
11.7750968844
 30
0.0
 10
15.943957943
 20
11.7870293561
 30
0.0
 10
15.9277984555
 20
11.8035468025
 30
0.0
 10
15.9176234375
 20
11.8157412125
 30
0.0
 10
15.9126003723
 20
11.822195305
 30
0.0
  0
SPLINE
  5
2FD
100
AcDbEntity
  8
AXIS
100
AcDbSpline
 62
7
  6
CONTINUOUS
 70
0
 71
3
 72
16
 73
12
 74
0
 42
0.0000001
 43
0.0000001
 44
0.0000000001
 40
0.0
 40
0.0
 40
0.0
 40
0.0
 40
0.1105882339
 40
0.2227391561
 40
0.3379380607
 40
0.4575244356
 40
0.5193534431
 40
0.5826977793
 40
0.7143363394
 40
0.8532427867
 40
1.0
 40
1.0
 40
1.0
 40
1.0
 10
16.0467755897
 20
13.6295549896
 30
0.0
 10
16.0541342426
 20
13.6295549447
 30
0.0
 10
16.0689729835
 20
13.628583642
 30
0.0
 10
16.0910935281
 20
13.6242351097
 30
0.0
 10
16.1130769521
 20
13.6170090662
 30
0.0
 10
16.1310311208
 20
13.6087088421
 30
0.0
 10
16.145236767
 20
13.6007315679
 30
0.0
 10
16.1597001303
 20
13.5916182177
 30
0.0
 10
16.177611086
 20
13.5784144804
 30
0.0
 10
16.1984766325
 20
13.5600496328
 30
0.0
 10
16.2117441303
 20
13.5464093581
 30
0.0
 10
16.2183132597
 20
13.5391837748
 30
0.0
  0
SPLINE
  5
2FE
100
AcDbEntity
  8
AXIS
100
AcDbSpline
 62
7
  6
CONTINUOUS
 70
0
 71
3
 72
11
 73
7
 74
0
 42
0.0000001
 43
0.0000001
 44
0.0000000001
 40
0.0
 40
0.0
 40
0.0
 40
0.0
 40
0.2289146405
 40
0.4717760179
 40
0.7287977223
 40
1.0
 40
1.0
 40
1.0
 40
1.0
 10
16.2215025161
 20
13.5356371037
 30
0.0
 10
16.2292089885
 20
13.526973108
 30
0.0
 10
16.2443983582
 20
13.5084924755
 30
0.0
 10
16.2658861737
 20
13.4784458487
 30
0.0
 10
16.2866800429
 20
13.4453581952
 30
0.0
 10
16.2996906381
 20
13.4219625318
 30
0.0
 10
16.3060835041
 20
13.4098031737
 30
0.0
  0
SPLINE
  5
2FF
100
AcDbEntity
  8
AXIS
100
AcDbSpline
 62
7
  6
CONTINUOUS
 70
0
 71
3
 72
9
 73
5
 74
0
 42
0.0000001
 43
0.0000001
 44
0.0000000001
 40
0.0
 40
0.0
 40
0.0
 40
0.0
 40
0.4883504701
 40
1.0
 40
1.0
 40
1.0
 40
1.0
 10
16.3060835041
 20
13.4098031737
 30
0.0
 10
16.3127397513
 20
13.3971428593
 30
0.0
 10
16.3257360903
 20
13.3708816887
 30
0.0
 10
16.3375798394
 20
13.3440838188
 30
0.0
 10
16.3433709853
 20
13.3302621225
 30
0.0
  0
SPLINE
  5
300
100
AcDbEntity
  8
AXIS
100
AcDbSpline
 62
7
  6
CONTINUOUS
 70
0
 71
3
 72
9
 73
5
 74
0
 42
0.0000001
 43
0.0000001
 44
0.0000000001
 40
0.0
 40
0.0
 40
0.0
 40
0.0
 40
0.4850170018
 40
1.0
 40
1.0
 40
1.0
 40
1.0
 10
16.3433709853
 20
13.3302621225
 30
0.0
 10
16.353042815
 20
13.3071784194
 30
0.0
 10
16.3714486377
 20
13.2589332427
 30
0.0
 10
16.3871736743
 20
13.2097590836
 30
0.0
 10
16.394658992
 20
13.1842607466
 30
0.0
  0
SPLINE
  5
301
100
AcDbEntity
  8
AXIS
100
AcDbSpline
 62
7
  6
CONTINUOUS
 70
0
 71
3
 72
23
 73
19
 74
0
 42
0.0000001
 43
0.0000001
 44
0.0000000001
 40
0.0
 40
0.0
 40
0.0
 40
0.0
 40
0.0561672743
 40
0.1144438361
 40
0.1745926442
 40
0.2363601462
 40
0.2994788442
 40
0.3636694016
 40
0.4286441893
 40
0.494109156
 40
0.5597662602
 40
0.6253161934
 40
0.6904602479
 40
0.7549029688
 40
0.8183547331
 40
0.8805341104
 40
0.9411678553
 40
1.0
 40
1.0
 40
1.0
 40
1.0
 10
16.3978104205
 20
13.1733892359
 30
0.0
 10
16.4042475321
 20
13.1509000483
 30
0.0
 10
16.4164171865
 20
13.1048018372
 30
0.0
 10
16.4323345112
 20
13.033836629
 30
0.0
 10
16.4461912237
 20
12.9600661056
 30
0.0
 10
16.4579119705
 20
12.8838866687
 30
0.0
 10
16.4674326754
 20
12.805705858
 30
0.0
 10
16.4747028929
 20
12.7259430103
 30
0.0
 10
16.4796831089
 20
12.6450258685
 30
0.0
 10
16.4823456545
 20
12.5633884964
 30
0.0
 10
16.4826771831
 20
12.4814689574
 30
0.0
 10
16.4806754799
 20
12.3997068333
 30
0.0
 10
16.4763507856
 20
12.3185409071
 30
0.0
 10
16.46972758
 20
12.2384065387
 30
0.0
 10
16.4608410411
 20
12.1597334595
 30
0.0
 10
16.4497384633
 20
12.0829438515
 30
0.0
 10
16.4364820892
 20
12.0084501229
 30
0.0
 10
16.4260835628
 20
11.9597814487
 30
0.0
 10
16.4205175884
 20
11.935919853
 30
0.0
  0
SPLINE
  5
302
100
AcDbEntity
  8
0
100
AcDbSpline
 62
7
  6
CONTINUOUS
 70
0
 71
3
 72
15
 73
11
 74
0
 42
0.0000001
 43
0.0000001
 44
0.0000000001
 40
0.0
 40
0.0
 40
0.0
 40
0.0
 40
0.1770773804
 40
0.3436677677
 40
0.4955893073
 40
0.6299201992
 40
0.7456814801
 40
0.8433002245
 40
0.9258986764
 40
1.0
 40
1.0
 40
1.0
 40
1.0
 10
14.9875304134
 20
13.8012226271
 30
0.0
 10
14.9875918498
 20
13.801722572
 30
0.0
 10
14.987744132
 20
13.8026892036
 30
0.0
 10
14.9880661333
 20
13.8040630898
 30
0.0
 10
14.9884680932
 20
13.8052890612
 30
0.0
 10
14.9889421776
 20
13.8063327616
 30
0.0
 10
14.9894747407
 20
13.8071713917
 30
0.0
 10
14.9900614841
 20
13.8077856254
 30
0.0
 10
14.9906959511
 20
13.8081585121
 30
0.0
 10
14.9911519584
 20
13.8082250418
 30
0.0
 10
14.9913621072
 20
13.8082086783
 30
0.0
  0
SPLINE
  5
303
100
AcDbEntity
  8
0
100
AcDbSpline
 62
7
  6
CONTINUOUS
 70
0
 71
3
 72
13
 73
9
 74
0
 42
0.0000001
 43
0.0000001
 44
0.0000000001
 40
0.0
 40
0.0
 40
0.0
 40
0.0
 40
0.3119403729
 40
0.5955798766
 40
0.7192780526
 40
0.828287553
 40
0.9217390589
 40
1.0
 40
1.0
 40
1.0
 40
1.0
 10
14.8455217919
 20
13.7572843116
 30
0.0
 10
14.8455300964
 20
13.7583431433
 30
0.0
 10
14.8456704396
 20
13.7603654105
 30
0.0
 10
14.8461584135
 20
13.7627690852
 30
0.0
 10
14.8467453893
 20
13.7644236029
 30
0.0
 10
14.8472359202
 20
13.7654200092
 30
0.0
 10
14.8477818028
 20
13.7662055879
 30
0.0
 10
14.8482113615
 20
13.7666111533
 30
0.0
 10
14.8484320569
 20
13.7667590205
 30
0.0
  0
SPLINE
  5
304
100
AcDbEntity
  8
0
100
AcDbSpline
 62
7
  6
CONTINUOUS
 70
0
 71
3
 72
12
 73
8
 74
0
 42
0.0000001
 43
0.0000001
 44
0.0000000001
 40
0.0
 40
0.0
 40
0.0
 40
0.0
 40
0.2788994487
 40
0.5537631764
 40
0.8002689122
 40
0.9070089276
 40
1.0
 40
1.0
 40
1.0
 40
1.0
 10
14.7140824893
 20
13.6124082256
 30
0.0
 10
14.7139699523
 20
13.6134714214
 30
0.0
 10
14.7138888987
 20
13.6155996098
 30
0.0
 10
14.7141425628
 20
13.6186632592
 30
0.0
 10
14.7146689109
 20
13.621025946
 30
0.0
 10
14.7152827935
 20
13.6226253015
 30
0.0
 10
14.7156416925
 20
13.6233052638
 30
0.0
 10
14.7158356573
 20
13.6236043464
 30
0.0
  0
SPLINE
  5
305
100
AcDbEntity
  8
0
100
AcDbSpline
 62
7
  6
CONTINUOUS
 70
0
 71
3
 72
13
 73
9
 74
0
 42
0.0000001
 43
0.0000001
 44
0.0000000001
 40
0.0
 40
0.0
 40
0.0
 40
0.0
 40
0.097273342
 40
0.2066740003
 40
0.3264082333
 40
0.454406457
 40
0.7257819029
 40
1.0
 40
1.0
 40
1.0
 40
1.0
 10
14.7172270121
 20
13.5325290421
 30
0.0
 10
14.7175728072
 20
13.5331555859
 30
0.0
 10
14.7182113733
 20
13.5345403154
 30
0.0
 10
14.7189890515
 20
13.536815409
 30
0.0
 10
14.7196237089
 20
13.5393679918
 30
0.0
 10
14.7202741582
 20
13.5431339363
 30
0.0
 10
14.7206348183
 20
13.548089329
 30
0.0
 10
14.7204648901
 20
13.5521103674
 30
0.0
 10
14.7202525383
 20
13.5541165647
 30
0.0
  0
SPLINE
  5
306
100
AcDbEntity
  8
0
100
AcDbSpline
 62
7
  6
CONTINUOUS
 70
0
 71
3
 72
11
 73
7
 74
0
 42
0.0000001
 43
0.0000001
 44
0.0000000001
 40
0.0
 40
0.0
 40
0.0
 40
0.0
 40
0.3162681637
 40
0.5837935442
 40
0.8062275767
 40
1.0
 40
1.0
 40
1.0
 40
1.0
 10
14.6550089504
 20
13.5133928395
 30
0.0
 10
14.6551679038
 20
13.5137284726
 30
0.0
 10
14.6555011144
 20
13.5143311165
 30
0.0
 10
14.6561026024
 20
13.5150706
 30
0.0
 10
14.6567621389
 20
13.5155516274
 30
0.0
 10
14.6572547171
 20
13.5156694421
 30
0.0
 10
14.6574822496
 20
13.5156694314
 30
0.0
  0
SPLINE
  5
307
100
AcDbEntity
  8
0
100
AcDbSpline
 62
7
  6
CONTINUOUS
 70
0
 71
3
 72
13
 73
9
 74
0
 42
0.0000001
 43
0.0000001
 44
0.0000000001
 40
0.0
 40
0.0
 40
0.0
 40
0.0
 40
0.1205451755
 40
0.2485060809
 40
0.5134114067
 40
0.7712851403
 40
0.8907544314
 40
1.0
 40
1.0
 40
1.0
 40
1.0
 10
14.6038562363
 20
13.3783261875
 30
0.0
 10
14.6037425646
 20
13.3788012938
 30
0.0
 10
14.6035504236
 20
13.379791096
 30
0.0
 10
14.6032967409
 20
13.3818574535
 30
0.0
 10
14.6032317298
 20
13.3845010495
 30
0.0
 10
14.6034879675
 20
13.387099632
 30
0.0
 10
14.603895472
 20
13.3890305809
 30
0.0
 10
14.6041608217
 20
13.3899203659
 30
0.0
 10
14.6043103386
 20
13.3903370774
 30
0.0
  0
SPLINE
  5
308
100
AcDbEntity
  8
0
100
AcDbSpline
 62
7
  6
CONTINUOUS
 70
0
 71
3
 72
15
 73
11
 74
0
 42
0.0000001
 43
0.0000001
 44
0.0000000001
 40
0.0
 40
0.0
 40
0.0
 40
0.0
 40
0.1128277319
 40
0.2341488744
 40
0.3614207175
 40
0.4921851551
 40
0.6239711594
 40
0.7542720775
 40
0.8805345874
 40
1.0
 40
1.0
 40
1.0
 40
1.0
 10
14.6156352368
 20
13.3039557207
 30
0.0
 10
14.6158922167
 20
13.3047873081
 30
0.0
 10
14.6163462116
 20
13.3065380559
 30
0.0
 10
14.6168470316
 20
13.3092828864
 30
0.0
 10
14.6171798554
 20
13.3121924257
 30
0.0
 10
14.6173390257
 20
13.315197204
 30
0.0
 10
14.6173195285
 20
13.3182294683
 30
0.0
 10
14.6171230907
 20
13.3212207597
 30
0.0
 10
14.6167521235
 20
13.3240995992
 30
0.0
 10
14.6163848113
 20
13.3259612904
 30
0.0
 10
14.6161703674
 20
13.3268575878
 30
0.0
  0
SPLINE
  5
309
100
AcDbEntity
  8
0
100
AcDbSpline
 62
7
  6
CONTINUOUS
 70
0
 71
3
 72
14
 73
10
 74
0
 42
0.0000001
 43
0.0000001
 44
0.0000000001
 40
0.0
 40
0.0
 40
0.0
 40
0.0
 40
0.3342968928
 40
0.4808329062
 40
0.6116197026
 40
0.7266000414
 40
0.8273332355
 40
0.9168140002
 40
1.0
 40
1.0
 40
1.0
 40
1.0
 10
14.5580353453
 20
13.2405911441
 30
0.0
 10
14.5581996248
 20
13.2412116393
 30
0.0
 10
14.5584894984
 20
13.2420932334
 30
0.0
 10
14.559001593
 20
13.2431517604
 30
0.0
 10
14.5594021427
 20
13.2437919542
 30
0.0
 10
14.5598317779
 20
13.2443034717
 30
0.0
 10
14.5602859213
 20
13.2446802366
 30
0.0
 10
14.5607622633
 20
13.2449148646
 30
0.0
 10
14.5610960106
 20
13.2449676194
 30
0.0
 10
14.5612557327
 20
13.2449670696
 30
0.0
  0
SPLINE
  5
30A
100
AcDbEntity
  8
0
100
AcDbSpline
 62
7
  6
CONTINUOUS
 70
0
 71
3
 72
13
 73
9
 74
0
 42
0.0000001
 43
0.0000001
 44
0.0000000001
 40
0.0
 40
0.0
 40
0.0
 40
0.0
 40
0.1038814807
 40
0.2192381771
 40
0.4735628005
 40
0.7417598094
 40
0.87385931
 40
1.0
 40
1.0
 40
1.0
 40
1.0
 10
14.5234631849
 20
13.0723715831
 30
0.0
 10
14.5232978397
 20
13.0727538072
 30
0.0
 10
14.5229997443
 20
13.0735827226
 30
0.0
 10
14.5225214956
 20
13.0754218294
 30
0.0
 10
14.5221745477
 20
13.077964854
 30
0.0
 10
14.5221476163
 20
13.0805959451
 30
0.0
 10
14.5223249083
 20
13.0827001023
 30
0.0
 10
14.5224797694
 20
13.0837248063
 30
0.0
 10
14.5225750052
 20
13.0842214478
 30
0.0
  0
SPLINE
  5
30B
100
AcDbEntity
  8
0
100
AcDbSpline
 62
7
  6
CONTINUOUS
 70
0
 71
3
 72
15
 73
11
 74
0
 42
0.0000001
 43
0.0000001
 44
0.0000000001
 40
0.0
 40
0.0
 40
0.0
 40
0.0
 40
0.1289612139
 40
0.2621916108
 40
0.3966808312
 40
0.5297859938
 40
0.6589919086
 40
0.7819230669
 40
0.8963125672
 40
1.0
 40
1.0
 40
1.0
 40
1.0
 10
14.5429569684
 20
13.0096020606
 30
0.0
 10
14.543108561
 20
13.0105658615
 30
0.0
 10
14.5433490127
 20
13.012536464
 30
0.0
 10
14.5435303993
 20
13.0155337406
 30
0.0
 10
14.5435323477
 20
13.0185679656
 30
0.0
 10
14.5433571465
 20
13.0215666323
 30
0.0
 10
14.5430076178
 20
13.0244620758
 30
0.0
 10
14.5424932674
 20
13.0271893395
 30
0.0
 10
14.5418239747
 20
13.0296834608
 30
0.0
 10
14.5412576604
 20
13.0312365651
 30
0.0
 10
14.5409462128
 20
13.0319565303
 30
0.0
  0
SPLINE
  5
30C
100
AcDbEntity
  8
AXIS
100
AcDbSpline
 62
7
  6
CONTINUOUS
 70
0
 71
3
 72
9
 73
5
 74
0
 42
0.0000001
 43
0.0000001
 44
0.0000000001
 40
0.0
 40
0.0
 40
0.0
 40
0.0
 40
0.4746228567
 40
1.0
 40
1.0
 40
1.0
 40
1.0
 10
15.9399484925
 20
13.1291221699
 30
0.0
 10
15.9387008803
 20
13.1277423875
 30
0.0
 10
15.9362773964
 20
13.1246475535
 30
0.0
 10
15.9342074389
 20
13.12131175
 30
0.0
 10
15.9331973514
 20
13.1195173983
 30
0.0
  0
SPLINE
  5
30D
100
AcDbEntity
  8
AXIS
100
AcDbSpline
 62
7
  6
CONTINUOUS
 70
0
 71
3
 72
23
 73
19
 74
0
 42
0.0000001
 43
0.0000001
 44
0.0000000001
 40
0.0
 40
0.0
 40
0.0
 40
0.0
 40
0.0498257821
 40
0.1029158761
 40
0.1589980309
 40
0.2178009738
 40
0.2790142961
 40
0.3422849297
 40
0.4072374915
 40
0.4734799951
 40
0.5406034066
 40
0.6081903517
 40
0.6758189277
 40
0.7430651246
 40
0.8095047927
 40
0.8747372968
 40
0.9383782193
 40
1.0
 40
1.0
 40
1.0
 40
1.0
 10
15.8528900388
 20
11.9234290249
 30
0.0
 10
15.8461111021
 20
11.9381846644
 30
0.0
 10
15.8331447085
 20
11.9691450496
 30
0.0
 10
15.8158897323
 20
12.0180300722
 30
0.0
 10
15.8003263157
 20
12.0705375468
 30
0.0
 10
15.7865673352
 20
12.1262735676
 30
0.0
 10
15.774712218
 20
12.1848357605
 30
0.0
 10
15.7648509301
 20
12.2457959587
 30
0.0
 10
15.7570545994
 20
12.3087052913
 30
0.0
 10
15.7513845014
 20
12.3731015658
 30
0.0
 10
15.7478782386
 20
12.4385111233
 30
0.0
 10
15.7465663667
 20
12.5044530287
 30
0.0
 10
15.7474553494
 20
12.5704419654
 30
0.0
 10
15.7505407171
 20
12.6359906618
 30
0.0
 10
15.7557974697
 20
12.7006179399
 30
0.0
 10
15.7631881173
 20
12.7638543898
 30
0.0
 10
15.7726604581
 20
12.8252241988
 30
0.0
 10
15.7804493717
 20
12.8653110233
 30
0.0
 10
15.7846985649
 20
12.884938996
 30
0.0
  0
SPLINE
  5
30E
100
AcDbEntity
  8
AXIS
100
AcDbSpline
 62
7
  6
CONTINUOUS
 70
0
 71
3
 72
22
 73
18
 74
0
 42
0.0000001
 43
0.0000001
 44
0.0000000001
 40
0.0
 40
0.0
 40
0.0
 40
0.0
 40
0.0850927997
 40
0.1670111389
 40
0.2456646133
 40
0.3209819031
 40
0.3929486629
 40
0.4615953049
 40
0.5269785198
 40
0.5891911018
 40
0.6483683033
 40
0.7046883516
 40
0.8096469849
 40
0.8590579926
 40
0.9069275634
 40
0.9537349578
 40
1.0
 40
1.0
 40
1.0
 40
1.0
 10
15.8453467575
 20
13.0811966192
 30
0.0
 10
15.8486907684
 20
13.0889838558
 30
0.0
 10
15.8555066576
 20
13.1041611563
 30
0.0
 10
15.8663301927
 20
13.1261101733
 30
0.0
 10
15.8775368575
 20
13.1467660065
 30
0.0
 10
15.8891029951
 20
13.1660770048
 30
0.0
 10
15.9010030582
 20
13.1840004572
 30
0.0
 10
15.9132113516
 20
13.2005012251
 30
0.0
 10
15.925705627
 20
13.2155459873
 30
0.0
 10
15.9384609629
 20
13.2291028491
 30
0.0
 10
15.95145397
 20
13.2411470927
 30
0.0
 10
15.968644916
 20
13.2548249149
 30
0.0
 10
15.9866588833
 20
13.265859635
 30
0.0
 10
16.0052612108
 20
13.2736658894
 30
0.0
 10
16.0190414829
 20
13.2777787509
 30
0.0
 10
16.0328890818
 20
13.2802517869
 30
0.0
 10
16.0421677932
 20
13.2808041807
 30
0.0
 10
16.04677559
 20
13.2808045453
 30
0.0
  0
SPLINE
  5
30F
100
AcDbEntity
  8
AXIS
100
AcDbSpline
 62
7
  6
CONTINUOUS
 70
0
 71
3
 72
24
 73
20
 74
0
 42
0.0000001
 43
0.0000001
 44
0.0000000001
 40
0.0
 40
0.0
 40
0.0
 40
0.0
 40
0.0820664962
 40
0.1648080662
 40
0.3283922015
 40
0.4076368334
 40
0.4841645868
 40
0.5572514686
 40
0.6262194979
 40
0.6905205165
 40
0.749699288
 40
0.8034671981
 40
0.8517371842
 40
0.8946802898
 40
0.9328797856
 40
0.9505371281
 40
0.9674559548
 40
0.9838608005
 40
1.0
 40
1.0
 40
1.0
 40
1.0
 10
15.8528900388
 20
11.9234290249
 30
0.0
 10
15.8526383026
 20
11.9198246417
 30
0.0
 10
15.8522927906
 20
11.9125739442
 30
0.0
 10
15.8522153591
 20
11.898113228
 30
0.0
 10
15.8530434456
 20
11.8837812886
 30
0.0
 10
15.8547991015
 20
11.86982695
 30
0.0
 10
15.8565333449
 20
11.85989694
 30
0.0
 10
15.8586732749
 20
11.8505095237
 30
0.0
 10
15.8611988643
 20
11.8417765201
 30
0.0
 10
15.8640755604
 20
11.8337996668
 30
0.0
 10
15.8672722773
 20
11.8266710764
 30
0.0
 10
15.8707527996
 20
11.820472127
 30
0.0
 10
15.8744785812
 20
11.8152689036
 30
0.0
 10
15.8784184857
 20
11.8111238607
 30
0.0
 10
15.8819461063
 20
11.8085233445
 30
0.0
 10
15.884817562
 20
11.8070861096
 30
0.0
 10
15.8869386545
 20
11.8063330585
 30
0.0
 10
15.8890749874
 20
11.805879152
 30
0.0
 10
15.8905097252
 20
11.8057772269
 30
0.0
 10
15.8912202899
 20
11.8057769055
 30
0.0
  0
SPLINE
  5
310
100
AcDbEntity
  8
AXIS
100
AcDbSpline
 62
7
  6
CONTINUOUS
 70
0
 71
3
 72
29
 73
25
 74
0
 42
0.0000001
 43
0.0000001
 44
0.0000000001
 40
0.0
 40
0.0
 40
0.0
 40
0.0
 40
0.0688368163
 40
0.142007538
 40
0.2182952608
 40
0.2965486018
 40
0.3755444882
 40
0.4540033384
 40
0.5306775137
 40
0.6043677175
 40
0.673964658
 40
0.7069201151
 40
0.738500455
 40
0.7971466356
 40
0.8240967519
 40
0.8494015413
 40
0.8730447485
 40
0.895052573
 40
0.9154873088
 40
0.9344534163
 40
0.9521193916
 40
0.9687222564
 40
0.9845618779
 40
1.0
 40
1.0
 40
1.0
 40
1.0
 10
15.7846985649
 20
12.884938996
 30
0.0
 10
15.7832828422
 20
12.8899306992
 30
0.0
 10
15.780764636
 20
12.9003449715
 30
0.0
 10
15.7779431523
 20
12.9165650426
 30
0.0
 10
15.7760087752
 20
12.9336291534
 30
0.0
 10
15.7749960303
 20
12.9512113819
 30
0.0
 10
15.7749218463
 20
12.9689861806
 30
0.0
 10
15.7757917249
 20
12.9866207405
 30
0.0
 10
15.7775849611
 20
13.0037841762
 30
0.0
 10
15.780271099
 20
13.0201546778
 30
0.0
 10
15.7832592829
 20
13.033110389
 30
0.0
 10
15.7860821079
 20
13.0428213294
 30
0.0
 10
15.789028353
 20
13.0516276981
 30
0.0
 10
15.7923631591
 20
13.0598243646
 30
0.0
 10
15.7961425752
 20
13.0672849036
 30
0.0
 10
15.7990355904
 20
13.0722250824
 30
0.0
 10
15.8020558399
 20
13.076644926
 30
0.0
 10
15.8051889786
 20
13.0805251825
 30
0.0
 10
15.8084212867
 20
13.0838489384
 30
0.0
 10
15.8117417646
 20
13.0865984734
 30
0.0
 10
15.815137511
 20
13.0887583994
 30
0.0
 10
15.818593823
 20
13.0903172741
 30
0.0
 10
15.822093901
 20
13.091261337
 30
0.0
 10
15.8244565845
 20
13.091472288
 30
0.0
 10
15.8256202343
 20
13.0914722207
 30
0.0
  0
SPLINE
  5
311
100
AcDbEntity
  8
AXIS
100
AcDbSpline
 62
7
  6
CONTINUOUS
 70
0
 71
3
 72
23
 73
19
 74
0
 42
0.0000001
 43
0.0000001
 44
0.0000000001
 40
0.0
 40
0.0
 40
0.0
 40
0.0
 40
0.0862283506
 40
0.1694939241
 40
0.2496210556
 40
0.3264947452
 40
0.4000322099
 40
0.4701710442
 40
0.536872473
 40
0.600137424
 40
0.6600087762
 40
0.7165781162
 40
0.769993695
 40
0.8204689801
 40
0.8682939832
 40
0.9138393201
 40
0.9575626122
 40
1.0
 40
1.0
 40
1.0
 40
1.0
 10
15.7055100014
 20
13.2062311449
 30
0.0
 10
15.7101896331
 20
13.2213744387
 30
0.0
 10
15.7198359284
 20
13.2510049659
 30
0.0
 10
15.7354552667
 20
13.2941570537
 30
0.0
 10
15.7519391911
 20
13.3351401449
 30
0.0
 10
15.7692383217
 20
13.3738362863
 30
0.0
 10
15.7873072067
 20
13.4101408778
 30
0.0
 10
15.8060952134
 20
13.4439567533
 30
0.0
 10
15.8255531689
 20
13.4751904036
 30
0.0
 10
15.8456279615
 20
13.5037564512
 30
0.0
 10
15.8662670169
 20
13.529577022
 30
0.0
 10
15.8874172297
 20
13.5525813601
 30
0.0
 10
15.9090245198
 20
13.5727061736
 30
0.0
 10
15.9310366995
 20
13.5898921899
 30
0.0
 10
15.953397642
 20
13.6040885481
 30
0.0
 10
15.9760545917
 20
13.6152440303
 30
0.0
 10
15.9989394536
 20
13.6233172598
 30
0.0
 10
16.0144766004
 20
13.6266523841
 30
0.0
 10
16.0221962764
 20
13.6277726051
 30
0.0
  0
SPLINE
  5
312
100
AcDbEntity
  8
AXIS
100
AcDbSpline
 62
7
  6
CONTINUOUS
 70
0
 71
3
 72
15
 73
11
 74
0
 42
0.0000001
 43
0.0000001
 44
0.0000000001
 40
0.0
 40
0.0
 40
0.0
 40
0.0
 40
0.1008298513
 40
0.204552114
 40
0.313795226
 40
0.4307230841
 40
0.5570145658
 40
0.6937189318
 40
0.8413204837
 40
1.0
 40
1.0
 40
1.0
 40
1.0
 10
15.8912202899
 20
11.8057769055
 30
0.0
 10
15.8921664478
 20
11.8057764776
 30
0.0
 10
15.894090611
 20
11.8059574636
 30
0.0
 10
15.8969362659
 20
11.8067690455
 30
0.0
 10
15.8997415547
 20
11.8081084412
 30
0.0
 10
15.9024922234
 20
11.8099636032
 30
0.0
 10
15.9051750765
 20
11.812323976
 30
0.0
 10
15.9077786693
 20
11.8151728052
 30
0.0
 10
15.9102915205
 20
11.8184902396
 30
0.0
 10
15.9118410526
 20
11.8209144609
 30
0.0
 10
15.9126003723
 20
11.822195305
 30
0.0
  0
SPLINE
  5
313
100
AcDbEntity
  8
AXIS
100
AcDbSpline
 62
7
  6
CONTINUOUS
 70
0
 71
3
 72
13
 73
9
 74
0
 42
0.0000001
 43
0.0000001
 44
0.0000000001
 40
0.0
 40
0.0
 40
0.0
 40
0.0
 40
0.1108750617
 40
0.2232998601
 40
0.3387498433
 40
0.4585766637
 40
0.7152611564
 40
1.0
 40
1.0
 40
1.0
 40
1.0
 10
15.8256202343
 20
13.0914722207
 30
0.0
 10
15.8264657685
 20
13.0914721718
 30
0.0
 10
15.8281706243
 20
13.0913619012
 30
0.0
 10
15.8307127732
 20
13.090867985
 30
0.0
 10
15.8332407012
 20
13.0900466855
 30
0.0
 10
15.8366584887
 20
13.0884820798
 30
0.0
 10
15.8408752056
 20
13.0856554189
 30
0.0
 10
15.8438762581
 20
13.0827943363
 30
0.0
 10
15.8453467575
 20
13.0811966192
 30
0.0
  0
SPLINE
  5
314
100
AcDbEntity
  8
AXIS
100
AcDbSpline
 62
7
  6
CONTINUOUS
 70
0
 71
3
 72
15
 73
11
 74
0
 42
0.0000001
 43
0.0000001
 44
0.0000000001
 40
0.0
 40
0.0
 40
0.0
 40
0.0
 40
0.1016852
 40
0.2100739288
 40
0.325269067
 40
0.4472500064
 40
0.5759187939
 40
0.7111150089
 40
0.8526037776
 40
1.0
 40
1.0
 40
1.0
 40
1.0
 10
15.8787482587
 20
11.8219949239
 30
0.0
 10
15.8843729293
 20
11.828322144
 30
0.0
 10
15.8954426666
 20
11.841889772
 30
0.0
 10
15.9110220157
 20
11.8640631754
 30
0.0
 10
15.9260432894
 20
11.8886211332
 30
0.0
 10
15.9404548547
 20
11.9154707298
 30
0.0
 10
15.9542031547
 20
11.9445174609
 30
0.0
 10
15.9672407724
 20
11.9756568874
 30
0.0
 10
15.9795157298
 20
12.0087709959
 30
0.0
 10
15.987015024
 20
12.0316298073
 30
0.0
 10
15.9906381653
 20
12.0433542968
 30
0.0
  0
SPLINE
  5
315
100
AcDbEntity
  8
AXIS
100
AcDbSpline
 62
7
  6
CONTINUOUS
 70
0
 71
3
 72
22
 73
18
 74
0
 42
0.0000001
 43
0.0000001
 44
0.0000000001
 40
0.0
 40
0.0
 40
0.0
 40
0.0
 40
0.0487345306
 40
0.09790011
 40
0.1479131551
 40
0.1991641924
 40
0.2520113945
 40
0.3067702876
 40
0.363708626
 40
0.4230534423
 40
0.484994797
 40
0.5496847151
 40
0.6172411368
 40
0.6877553745
 40
0.7612917569
 40
0.837863481
 40
1.0
 40
1.0
 40
1.0
 40
1.0
 10
16.04677559
 20
13.2808045453
 30
0.0
 10
16.0507682003
 20
13.2808048611
 30
0.0
 10
16.058794778
 20
13.280392182
 30
0.0
 10
16.0707895437
 20
13.2785368669
 30
0.0
 10
16.0827415235
 20
13.2754517669
 30
0.0
 10
16.0946287679
 20
13.2711441836
 30
0.0
 10
16.1064314431
 20
13.2656212178
 30
0.0
 10
16.1181305405
 20
13.2588944247
 30
0.0
 10
16.1297091975
 20
13.2509788171
 30
0.0
 10
16.1411499862
 20
13.2418882065
 30
0.0
 10
16.1524347592
 20
13.2316360997
 30
0.0
 10
16.1635474175
 20
13.2202393355
 30
0.0
 10
16.1744727013
 20
13.2077160454
 30
0.0
 10
16.1851943535
 20
13.1940844286
 30
0.0
 10
16.1956944358
 20
13.1793646941
 30
0.0
 10
16.2096428932
 20
13.1579144212
 30
0.0
 10
16.2193056644
 20
13.1408844684
 30
0.0
 10
16.2254774007
 20
13.1291221699
 30
0.0
  0
SPLINE
  5
316
100
AcDbEntity
  8
AXIS
100
AcDbSpline
 62
7
  6
CONTINUOUS
 70
0
 71
3
 72
30
 73
26
 74
0
 42
0.0000001
 43
0.0000001
 44
0.0000000001
 40
0.0
 40
0.0
 40
0.0
 40
0.0
 40
0.0207341867
 40
0.0426864861
 40
0.065861682
 40
0.0902481767
 40
0.1158210148
 40
0.1425468987
 40
0.1703803788
 40
0.1992690931
 40
0.2291544697
 40
0.259969395
 40
0.291643317
 40
0.324100192
 40
0.3910312705
 40
0.4600854122
 40
0.5305376247
 40
0.6016359202
 40
0.6726163477
 40
0.7427182152
 40
0.8111962302
 40
0.8773311952
 40
0.9404743625
 40
0.9707319553
 40
1.0
 40
1.0
 40
1.0
 40
1.0
 10
15.8948272827
 20
11.821433581
 30
0.0
 10
15.9000171458
 20
11.8280654718
 30
0.0
 10
15.9102235784
 20
11.8420977876
 30
0.0
 10
15.9246249524
 20
11.8646560766
 30
0.0
 10
15.9385072382
 20
11.8892551816
 30
0.0
 10
15.9518278143
 20
11.9158163765
 30
0.0
 10
15.9645475325
 20
11.9442566085
 30
0.0
 10
15.9766228097
 20
11.9744881091
 30
0.0
 10
15.9880189259
 20
12.0064148515
 30
0.0
 10
15.998699163
 20
12.0399367656
 30
0.0
 10
16.0086277313
 20
12.074948706
 30
0.0
 10
16.0177764556
 20
12.1113394398
 30
0.0
 10
16.0261138652
 20
12.1489948153
 30
0.0
 10
16.0362167169
 20
12.2012635809
 30
0.0
 10
16.0465822438
 20
12.2689179149
 30
0.0
 10
16.0553238053
 20
12.352334715
 30
0.0
 10
16.0603790908
 20
12.4377510573
 30
0.0
 10
16.061683927
 20
12.524088202
 30
0.0
 10
16.059222368
 20
12.6102580362
 30
0.0
 10
16.0530255309
 20
12.6951738609
 30
0.0
 10
16.0431714383
 20
12.7777643142
 30
0.0
 10
16.029789027
 20
12.8569933074
 30
0.0
 10
16.0156415647
 20
12.9202639525
 30
0.0
 10
16.0026126003
 20
12.9683586845
 30
0.0
 10
15.9955645255
 20
12.991490309
 30
0.0
 10
15.9919060871
 20
13.0028005774
 30
0.0
  0
SPLINE
  5
317
100
AcDbEntity
  8
AXIS
100
AcDbSpline
 62
7
  6
CONTINUOUS
 70
0
 71
3
 72
9
 73
5
 74
0
 42
0.0000001
 43
0.0000001
 44
0.0000000001
 40
0.0
 40
0.0
 40
0.0
 40
0.0
 40
0.4824758109
 40
1.0
 40
1.0
 40
1.0
 40
1.0
 10
15.8974389857
 20
13.1765311255
 30
0.0
 10
15.9038885863
 20
13.1678303762
 30
0.0
 10
15.9164806317
 20
13.1492151923
 30
0.0
 10
15.9277025045
 20
13.1297530266
 30
0.0
 10
15.9331973514
 20
13.1195173983
 30
0.0
  0
SPLINE
  5
318
100
AcDbEntity
  8
AXIS
100
AcDbSpline
 62
7
  6
CONTINUOUS
 70
0
 71
3
 72
9
 73
5
 74
0
 42
0.0000001
 43
0.0000001
 44
0.0000000001
 40
0.0
 40
0.0
 40
0.0
 40
0.0
 40
0.242367051
 40
1.0
 40
1.0
 40
1.0
 40
1.0
 10
15.9885403072
 20
12.9849651664
 30
0.0
 10
15.9888812718
 20
12.9863916186
 30
0.0
 10
15.9902130004
 20
12.9922949502
 30
0.0
 10
15.9912569493
 20
12.9982620985
 30
0.0
 10
15.9919060871
 20
13.0028005774
 30
0.0
  0
SPLINE
  5
319
100
AcDbEntity
  8
AXIS
100
AcDbSpline
 62
7
  6
CONTINUOUS
 70
0
 71
3
 72
23
 73
19
 74
0
 42
0.0000001
 43
0.0000001
 44
0.0000000001
 40
0.0
 40
0.0
 40
0.0
 40
0.0
 40
0.0556596488
 40
0.113931439
 40
0.1744846514
 40
0.2369958041
 40
0.3011037683
 40
0.3664305348
 40
0.4325871143
 40
0.4991743111
 40
0.5657888505
 40
0.6320271795
 40
0.6974892441
 40
0.761784609
 40
0.8245332072
 40
0.8853712046
 40
0.9439718232
 40
1.0
 40
1.0
 40
1.0
 40
1.0
 10
15.9885403072
 20
12.9849651664
 30
0.0
 10
15.993877832
 20
12.9680930607
 30
0.0
 10
16.0039275468
 20
12.9332753527
 30
0.0
 10
16.0169142168
 20
12.8793254999
 30
0.0
 10
16.028087194
 20
12.8227492632
 30
0.0
 10
16.0373666735
 20
12.7639543795
 30
0.0
 10
16.0446864322
 20
12.7033553748
 30
0.0
 10
16.0499937624
 20
12.6413844584
 30
0.0
 10
16.0532501062
 20
12.578483116
 30
0.0
 10
16.054432103
 20
12.5150993612
 30
0.0
 10
16.0535317497
 20
12.4516850003
 30
0.0
 10
16.0505550223
 20
12.3886920608
 30
0.0
 10
16.04552327
 20
12.3265692233
 30
0.0
 10
16.0384730682
 20
12.2657590917
 30
0.0
 10
16.0294551863
 20
12.2066954274
 30
0.0
 10
16.0185339909
 20
12.1497947251
 30
0.0
 10
16.0057874647
 20
12.0954671024
 30
0.0
 10
15.9958975291
 20
12.0603736043
 30
0.0
 10
15.9906381653
 20
12.0433542968
 30
0.0
  0
SPLINE
  5
31A
100
AcDbEntity
  8
AXIS
100
AcDbSpline
 62
7
  6
CONTINUOUS
 70
0
 71
3
 72
9
 73
5
 74
0
 42
0.0000001
 43
0.0000001
 44
0.0000000001
 40
0.0
 40
0.0
 40
0.0
 40
0.0
 40
0.5166787523
 40
1.0
 40
1.0
 40
1.0
 40
1.0
 10
15.9399484925
 20
13.1291221699
 30
0.0
 10
15.93453113
 20
13.1394467581
 30
0.0
 10
15.9234641346
 20
13.1591315711
 30
0.0
 10
15.9110864224
 20
13.1780282773
 30
0.0
 10
15.9047464319
 20
13.1869031017
 30
0.0
  0
SPLINE
  5
31B
100
AcDbEntity
  8
AXIS
100
AcDbSpline
 62
7
  6
CONTINUOUS
 70
0
 71
3
 72
39
 73
35
 74
0
 42
0.0000001
 43
0.0000001
 44
0.0000000001
 40
0.0
 40
0.0
 40
0.0
 40
0.0
 40
0.0326070974
 40
0.0665631486
 40
0.1017214779
 40
0.137946461
 40
0.1751034213
 40
0.213043316
 40
0.2516082237
 40
0.2906368682
 40
0.3299652449
 40
0.3694274151
 40
0.4480749697
 40
0.5252572209
 40
0.5628987319
 40
0.5996971098
 40
0.6355062628
 40
0.6701860511
 40
0.7036084303
 40
0.7356544263
 40
0.7662208915
 40
0.7952187184
 40
0.8225791921
 40
0.8482554643
 40
0.8722282007
 40
0.8945122842
 40
0.9151626034
 40
0.9342869865
 40
0.9520527256
 40
0.9687009731
 40
0.9767082793
 40
0.9845603848
 40
0.9923069341
 40
1.0
 40
1.0
 40
1.0
 40
1.0
 10
16.2774349952
 20
13.0028005774
 30
0.0
 10
16.2820509139
 20
12.988530205
 30
0.0
 10
16.2908473416
 20
12.9591935447
 30
0.0
 10
16.3025545367
 20
12.9138825197
 30
0.0
 10
16.3129873703
 20
12.8665557736
 30
0.0
 10
16.3220949617
 20
12.8174591319
 30
0.0
 10
16.3298302689
 20
12.7668335629
 30
0.0
 10
16.3361582383
 20
12.7149289949
 30
0.0
 10
16.3410442425
 20
12.6620045609
 30
0.0
 10
16.3444644262
 20
12.6083256323
 30
0.0
 10
16.3464019527
 20
12.554159536
 30
0.0
 10
16.3469929109
 20
12.4817372851
 30
0.0
 10
16.3440335937
 20
12.3919091627
 30
0.0
 10
16.3361417517
 20
12.3032154571
 30
0.0
 10
16.3268630899
 20
12.2340842054
 30
0.0
 10
16.318564272
 20
12.1840475914
 30
0.0
 10
16.3089153521
 20
12.1356416798
 30
0.0
 10
16.297959528
 20
12.0891076319
 30
0.0
 10
16.2857564364
 20
12.0446764093
 30
0.0
 10
16.2723629769
 20
12.0025691362
 30
0.0
 10
16.2578492707
 20
11.9629937648
 30
0.0
 10
16.2422848766
 20
11.9261460097
 30
0.0
 10
16.2257475907
 20
11.8922066794
 30
0.0
 10
16.2083175982
 20
11.8613412483
 30
0.0
 10
16.1900763767
 20
11.8337003835
 30
0.0
 10
16.1711103819
 20
11.8094157562
 30
0.0
 10
16.1514994348
 20
11.7886086626
 30
0.0
 10
16.1313282356
 20
11.7713792932
 30
0.0
 10
16.1106768528
 20
11.7578316761
 30
0.0
 10
16.0929015361
 20
11.7495737634
 30
0.0
 10
16.0786474414
 20
11.7450055483
 30
0.0
 10
16.0680480779
 20
11.7425844732
 30
0.0
 10
16.0574201464
 20
11.7411294904
 30
0.0
 10
16.050314182
 20
11.7408050694
 30
0.0
 10
16.0467755897
 20
11.7408049965
 30
0.0
  0
SPLINE
  5
31C
100
AcDbEntity
  8
AXIS
100
AcDbSpline
 62
7
  6
CONTINUOUS
 70
0
 71
3
 72
26
 73
22
 74
0
 42
0.0000001
 43
0.0000001
 44
0.0000000001
 40
0.0
 40
0.0
 40
0.0
 40
0.0
 40
0.077646019
 40
0.1573075427
 40
0.2378484592
 40
0.3182757206
 40
0.397651823
 40
0.4750325947
 40
0.5494821801
 40
0.6201523637
 40
0.6862877488
 40
0.7472563362
 40
0.8025954069
 40
0.8520471866
 40
0.8956861289
 40
0.9154754277
 40
0.9340459274
 40
0.9515576871
 40
0.9682134736
 40
0.9842628887
 40
1.0
 40
1.0
 40
1.0
 40
1.0
 10
16.2774349952
 20
13.0028005774
 30
0.0
 10
16.2779810488
 20
13.0066183382
 30
0.0
 10
16.2788820997
 20
13.0143834705
 30
0.0
 10
16.2796758628
 20
13.0261747166
 30
0.0
 10
16.2799142455
 20
13.0381286664
 30
0.0
 10
16.2795970041
 20
13.0500664891
 30
0.0
 10
16.2787268095
 20
13.0618195882
 30
0.0
 10
16.2773195036
 20
13.0732217562
 30
0.0
 10
16.2753932664
 20
13.0841095825
 30
0.0
 10
16.2729764826
 20
13.0943268248
 30
0.0
 10
16.2701051867
 20
13.1037292598
 30
0.0
 10
16.2668183708
 20
13.1121842066
 30
0.0
 10
16.263164964
 20
13.1195775214
 30
0.0
 10
16.2591889646
 20
13.1258052265
 30
0.0
 10
16.255535263
 20
13.1300936694
 30
0.0
 10
16.2524824482
 20
13.1327988284
 30
0.0
 10
16.2502219998
 20
13.134418329
 30
0.0
 10
16.2479237553
 20
13.1356888653
 30
0.0
 10
16.2455947306
 20
13.1366036553
 30
0.0
 10
16.2432438861
 20
13.1371546516
 30
0.0
 10
16.2416624612
 20
13.1372776291
 30
0.0
 10
16.2408808118
 20
13.1372776299
 30
0.0
  0
SPLINE
  5
31D
100
AcDbEntity
  8
AXIS
100
AcDbSpline
 62
7
  6
CONTINUOUS
 70
0
 71
3
 72
42
 73
38
 74
0
 42
0.0000001
 43
0.0000001
 44
0.0000000001
 40
0.0
 40
0.0
 40
0.0
 40
0.0
 40
0.0326036044
 40
0.0664506146
 40
0.101412057
 40
0.1373683604
 40
0.1741881185
 40
0.2117312552
 40
0.2498536115
 40
0.2884073022
 40
0.3272409798
 40
0.3662014842
 40
0.4051348746
 40
0.4438872937
 40
0.4823062418
 40
0.5202412978
 40
0.5575457245
 40
0.5940769493
 40
0.6296982285
 40
0.6642798052
 40
0.697699683
 40
0.7298462162
 40
0.7606185282
 40
0.7899292964
 40
0.8177071105
 40
0.8438983722
 40
0.8684725322
 40
0.8914251595
 40
0.9127845993
 40
0.9326196545
 40
0.9420036265
 40
0.9510552878
 40
0.9682508376
 40
0.9764648629
 40
0.9844669528
 40
0.9922973466
 40
1.0
 40
1.0
 40
1.0
 40
1.0
 10
15.7055100014
 20
13.2062311449
 30
0.0
 10
15.6992211504
 20
13.1858804155
 30
0.0
 10
15.6872382392
 20
13.1441411169
 30
0.0
 10
15.6712824491
 20
13.0798244216
 30
0.0
 10
15.657068466
 20
13.0128597804
 30
0.0
 10
15.6446628155
 20
12.943564134
 30
0.0
 10
15.6341212865
 20
12.872255779
 30
0.0
 10
15.6254954802
 20
12.7992658899
 30
0.0
 10
15.6188243599
 20
12.7249344941
 30
0.0
 10
15.6141394643
 20
12.6496070634
 30
0.0
 10
15.6114633716
 20
12.5736338377
 30
0.0
 10
15.6108073448
 20
12.497368341
 30
0.0
 10
15.6121758504
 20
12.4211653731
 30
0.0
 10
15.6155615576
 20
12.3453793971
 30
0.0
 10
15.6209486102
 20
12.2703629833
 30
0.0
 10
15.6283127386
 20
12.1964650485
 30
0.0
 10
15.6376180165
 20
12.1240291092
 30
0.0
 10
15.6488222092
 20
12.0533919403
 30
0.0
 10
15.6618723296
 20
11.9848815873
 30
0.0
 10
15.6767068871
 20
11.918815991
 30
0.0
 10
15.6932579914
 20
11.8555016839
 30
0.0
 10
15.7114468039
 20
11.7952314868
 30
0.0
 10
15.7311899142
 20
11.738284098
 30
0.0
 10
15.7523957402
 20
11.6849219043
 30
0.0
 10
15.7749655861
 20
11.6353895165
 30
0.0
 10
15.798798535
 20
11.5899138715
 30
0.0
 10
15.8237854902
 20
11.5487010608
 30
0.0
 10
15.8498186578
 20
11.5119367087
 30
0.0
 10
15.876785261
 20
11.4797903865
 30
0.0
 10
15.9003674325
 20
11.4565524263
 30
0.0
 10
15.9196007347
 20
11.4405551337
 30
0.0
 10
15.9383563661
 20
11.426752297
 30
0.0
 10
15.9577348754
 20
11.415127173
 30
0.0
 10
15.9775959704
 20
11.4060296096
 30
0.0
 10
15.9923551068
 20
11.4005978036
 30
0.0
 10
16.0071822183
 20
11.3964655808
 30
0.0
 10
16.0171661257
 20
11.3945687755
 30
0.0
 10
16.022145983
 20
11.3938446861
 30
0.0
  0
ENDSEC
  0
SECTION
  2
OBJECTS
  0
DICTIONARY
  5
C
100
AcDbDictionary
280
0
281
1
  3
ACAD_GROUP
350
D
  3
ACAD_MLINESTYLE
350
17
  3
ACAD_LAYOUT
350
1A
  3
ACAD_PLOTSETTINGS
350
19
  3
ACAD_PLOTSTYLENAME
350
E
  0
DICTIONARY
  5
D
102
{ACAD_REACTORS
330
C
102
}
100
AcDbDictionary
280
0
281
1
  0
ACDBDICTIONARYWDFLT
  5
E
102
{ACAD_REACTORS
330
C
102
}
100
AcDbDictionary
281
1
  3
Normal
350
F
100
AcDbDictionaryWithDefault
340
F
  0
DICTIONARY
  5
17
102
{ACAD_REACTORS
330
C
102
}
100
AcDbDictionary
280
0
281
1
  3
Standard
350
18
  0
DICTIONARY
  5
19
102
{ACAD_REACTORS
330
C
102
}
100
AcDbDictionary
281
1
  0
DICTIONARY
  5
1A
102
{ACAD_REACTORS
330
C
102
}
100
AcDbDictionary
281
1
  3
Model
350
31E
  3
Layout1
350
31F
  0
ACDBPLACEHOLDER
  5
F
102
{ACAD_REACTORS
330
E
102
}
  0
MLINESTYLE
  5
18
102
{ACAD_REACTORS
330
17
102
}
100
AcDbMlineStyle
  2
STANDARD
 70
0
  3

 62
256
 51
90.0
 52
90.0
 71
2
 49
0.5
 62
256
  6
BYLAYER
 49
-0.5
 62
256
  6
BYLAYER
  0
LAYOUT
  5
31E
102
{ACAD_REACTORS
330
1A
102
}
100
AcDbPlotSettings
  1

  2
none_device
  4
ANSI_C_(22.00_x_17.00_Inches)
  6

 40
0.0
 41
0.0
 42
0.0
 43
0.0
 44
558.8
 45
431.8
 46
0.0
 47
0.0
 48
0.0
 49
0.0
140
0.0
141
0.0
142
1.0
143
1.0
 70
1024
 72
0
 73
0
 74
0
  7

 75
0
147
1.0
148
0.0
149
0.0
100
AcDbLayout
  1
Model
 70
0
 71
0
 10
0.0
 20
0.0
 11
22.0
 21
17.0
 12
0.0
 22
0.0
 32
0.0
 14
0.0
 24
0.0
 34
0.0
 15
0.0
 25
0.0
 35
0.0
146
0.0
 13
0.0
 23
0.0
 33
0.0
 16
1.0
 26
0.0
 36
0.0
 17
0.0
 27
1.0
 37
0.0
 76
0
330
224
345
0
346
0
  0
LAYOUT
  5
31F
102
{ACAD_REACTORS
330
1A
102
}
100
AcDbPlotSettings
  1

  2
none_device
  4
ANSI_C_(22.00_x_17.00_Inches)
  6

 40
0.0
 41
0.0
 42
0.0
 43
0.0
 44
558.8
 45
431.8
 46
0.0
 47
0.0
 48
0.0
 49
0.0
140
0.0
141
0.0
142
1.0
143
1.0
 70
0
 72
0
 73
0
 74
0
  7

 75
0
147
1.0
148
0.0
149
0.0
100
AcDbLayout
  1
Layout1
 70
0
 71
1
 10
0.0
 20
0.0
 11
22.0
 21
17.0
 12
0.0
 22
0.0
 32
0.0
 14
0.0
 24
0.0
 34
0.0
 15
0.0
 25
0.0
 35
0.0
146
0.0
 13
0.0
 23
0.0
 33
0.0
 16
1.0
 26
0.0
 36
0.0
 17
0.0
 27
1.0
 37
0.0
 76
0
330
225
345
0
346
0
  0
ENDSEC
  0
EOF