999
DXF file: _cgs_temp_output.dxf
999
Pro/ENGINEER 2016360 by Parametric Technology Corporation
  0
SECTION
  2
HEADER
  9
$ACADVER
  1
AC1021
  9
$DWGCODEPAGE
  3
ANSI_1252
  9
$EXTMAX
 10
22.0
 20
17.0
 30
0.0
  9
$EXTMIN
 10
0.0
 20
0.0
 30
0.0
  9
$LIMMIN
 10
0.0
 20
0.0
  9
$LIMMAX
 10
22.0
 20
17.0
  9
$VIEWCTR
 10
11.0
 20
8.5
  9
$VIEWSIZE
 40
17.0
  9
$CLAYER
  8
0
  9
$LTSCALE
 40
1.21
  9
$CELTYPE
  6
BYLAYER
  9
$DIMSCALE
 40
1.0
  9
$DIMASZ
 40
0.1875
  9
$DIMEXO
 40
0.0625
  9
$DIMDLI
 40
0.836
  9
$DIMEXE
 40
0.125
  9
$DIMCEN
 40
0.198
  9
$DIMLFAC
 40
1.0
  9
$DIMBLK
  1
_CLOSED
  9
$DIMALT
 70
0
  9
$DIMALTF
 40
25.4
  9
$DIMTXT
 40
0.15625
  9
$DIMTOL
 70
0
  9
$DIMLIM
 70
0
  9
$DIMTFAC
 40
1.0
  9
$DIMGAP
 40
0.09
  9
$DIMDSEP
 70
46
  9
$AUNITS
 70
0
  9
$PDMODE
 70
3
  9
$PDSIZE
 40
0.3125
  9
$HANDSEED
  5
337
  9
$TILEMODE
 70
1
  9
$MEASUREMENT
 70
0
  9
$INSUNITS
 70
1
  0
ENDSEC
  0
SECTION
  2
CLASSES
  0
CLASS
  1
ACDBDICTIONARYWDFLT
  2
AcDbDictionaryWithDefault
  3
AutoCAD 2000
 90
0
 91
1
280
0
281
0
  0
CLASS
  1
ACDBPLACEHOLDER
  2
AcDbPlaceHolder
  3
AutoCAD 2000
 90
0
 91
1
280
0
281
0
  0
CLASS
  1
LAYOUT
  2
AcDbLayout
  3
AutoCAD 2000
 90
0
 91
0
280
0
281
0
  0
ENDSEC
  0
SECTION
  2
TABLES
  0
TABLE
  2
VPORT
  5
8
100
AcDbSymbolTable
 70
2
  0
VPORT
  5
1F4
100
AcDbSymbolTableRecord
100
AcDbViewportTableRecord
  2
*ACTIVE
 70
0
 10
0.0
 20
0.0
 11
1.0
 21
1.0
 12
11.0
 22
8.5
 13
0.0
 23
0.0
 14
1.0
 24
1.0
 15
0.0
 25
0.0
 16
0.0
 26
0.0
 36
1.0
 17
0.0
 27
0.0
 37
0.0
 40
17.0
 41
1.2941176471
 42
50.0
 43
0.0
 44
0.0
 50
0.0
 51
0.0
 71
0
 72
100
 73
1
 74
1
 75
0
 76
0
 77
0
 78
0
  0
ENDTAB
  0
TABLE
  2
LTYPE
  5
5
100
AcDbSymbolTable
 70
6
  0
LTYPE
  5
14
100
AcDbSymbolTableRecord
100
AcDbLinetypeTableRecord
  2
BYBLOCK
 70
0
  3

 72
65
 73
0
 40
0.0
  0
LTYPE
  5
15
100
AcDbSymbolTableRecord
100
AcDbLinetypeTableRecord
  2
BYLAYER
 70
0
  3

 72
65
 73
0
 40
0.0
  0
LTYPE
  5
16
100
AcDbSymbolTableRecord
100
AcDbLinetypeTableRecord
  2
CONTINUOUS
 70
64
  3
Solid line
 72
65
 73
0
 40
0.0
  0
LTYPE
  5
1F5
100
AcDbSymbolTableRecord
100
AcDbLinetypeTableRecord
  2
CENTER
 70
64
  3
____ _ ____ _ ____ _ ____ _ ____ _ ____ _ ____
 72
65
 73
4
 40
0.6
 49
0.375
 74
0
 49
-0.075
 74
0
 49
0.075
 74
0
 49
-0.075
 74
0
  0
LTYPE
  5
1F6
100
AcDbSymbolTableRecord
100
AcDbLinetypeTableRecord
  2
HIDDEN
 70
64
  3
- - - - - - - - - - - - - - - - - - - -
 72
65
 73
2
 40
0.2
 49
0.1
 74
0
 49
-0.1
 74
0
  0
LTYPE
  5
1F7
100
AcDbSymbolTableRecord
100
AcDbLinetypeTableRecord
  2
PHANTOM
 70
64
  3
_____ _ _ _____ _ _ _____ _ _ _____
 72
65
 73
6
 40
0.8
 49
0.45
 74
0
 49
-0.05
 74
0
 49
0.1
 74
0
 49
-0.05
 74
0
 49
0.1
 74
0
 49
-0.05
 74
0
  0
LTYPE
  5
1F8
100
AcDbSymbolTableRecord
100
AcDbLinetypeTableRecord
  2
DOT
 70
64
  3
. . . . . . . . . . . . . . . . . . . .
 72
65
 73
2
 40
0.2
 49
0.1
 74
0
 49
-0.1
 74
0
  0
LTYPE
  5
1F9
100
AcDbSymbolTableRecord
100
AcDbLinetypeTableRecord
  2
DASHED
 70
64
  3
- - - - - - - - - - - - - - - - - - - -
 72
65
 73
2
 40
0.2
 49
0.1
 74
0
 49
-0.1
 74
0
  0
ENDTAB
  0
TABLE
  2
LAYER
  5
2
100
AcDbSymbolTable
 70
36
  0
LAYER
  5
10
100
AcDbSymbolTableRecord
100
AcDbLayerTableRecord
  2
0
 70
0
 62
7
  6
CONTINUOUS
370
-3
390
F
  0
LAYER
  5
1FA
100
AcDbSymbolTableRecord
100
AcDbLayerTableRecord
  2
DEFAULT_1
 70
0
 62
7
  6
CENTER
370
-3
390
F
  0
LAYER
  5
1FB
100
AcDbSymbolTableRecord
100
AcDbLayerTableRecord
  2
DEFAULT_2
 70
0
 62
8
  6
HIDDEN
370
-3
390
F
  0
LAYER
  5
1FC
100
AcDbSymbolTableRecord
100
AcDbLayerTableRecord
  2
DEFAULT_3
 70
0
 62
7
  6
PHANTOM
370
-3
390
F
  0
LAYER
  5
1FD
100
AcDbSymbolTableRecord
100
AcDbLayerTableRecord
  2
01_ALL_DTM_PLN
 70
0
 62
7
  6
CONTINUOUS
370
-3
390
F
  0
LAYER
  5
1FE
100
AcDbSymbolTableRecord
100
AcDbLayerTableRecord
  2
01__ASM_ALL_DTM_PLN
 70
0
 62
7
  6
CONTINUOUS
370
-3
390
F
  0
LAYER
  5
1FF
100
AcDbSymbolTableRecord
100
AcDbLayerTableRecord
  2
01__ASM_DEF_DTM_PLN
 70
0
 62
7
  6
CONTINUOUS
370
-3
390
F
  0
LAYER
  5
200
100
AcDbSymbolTableRecord
100
AcDbLayerTableRecord
  2
01___PRT_ALL_DTM_PLN
 70
0
 62
7
  6
CONTINUOUS
370
-3
390
F
  0
LAYER
  5
201
100
AcDbSymbolTableRecord
100
AcDbLayerTableRecord
  2
01___PRT_DEF_DTM_PLN
 70
0
 62
7
  6
CONTINUOUS
370
-3
390
F
  0
LAYER
  5
202
100
AcDbSymbolTableRecord
100
AcDbLayerTableRecord
  2
02_ALL_AXES
 70
0
 62
7
  6
CONTINUOUS
370
-3
390
F
  0
LAYER
  5
203
100
AcDbSymbolTableRecord
100
AcDbLayerTableRecord
  2
02__ASM_ALL_AXES
 70
0
 62
7
  6
CONTINUOUS
370
-3
390
F
  0
LAYER
  5
204
100
AcDbSymbolTableRecord
100
AcDbLayerTableRecord
  2
02___PRT_ALL_AXES
 70
0
 62
7
  6
CONTINUOUS
370
-3
390
F
  0
LAYER
  5
205
100
AcDbSymbolTableRecord
100
AcDbLayerTableRecord
  2
03_ALL_CURVES
 70
0
 62
7
  6
CONTINUOUS
370
-3
390
F
  0
LAYER
  5
206
100
AcDbSymbolTableRecord
100
AcDbLayerTableRecord
  2
03__ASM_ALL_CURVES
 70
0
 62
7
  6
CONTINUOUS
370
-3
390
F
  0
LAYER
  5
207
100
AcDbSymbolTableRecord
100
AcDbLayerTableRecord
  2
03___PRT_ALL_CURVES
 70
0
 62
7
  6
CONTINUOUS
370
-3
390
F
  0
LAYER
  5
208
100
AcDbSymbolTableRecord
100
AcDbLayerTableRecord
  2
04_ALL_DTM_PNT
 70
0
 62
7
  6
CONTINUOUS
370
-3
390
F
  0
LAYER
  5
209
100
AcDbSymbolTableRecord
100
AcDbLayerTableRecord
  2
04__ASM_ALL_DTM_PNT
 70
0
 62
7
  6
CONTINUOUS
370
-3
390
F
  0
LAYER
  5
20A
100
AcDbSymbolTableRecord
100
AcDbLayerTableRecord
  2
04___PRT_ALL_DTM_PNT
 70
0
 62
7
  6
CONTINUOUS
370
-3
390
F
  0
LAYER
  5
20B
100
AcDbSymbolTableRecord
100
AcDbLayerTableRecord
  2
05_ALL_DTM_CSYS
 70
0
 62
7
  6
CONTINUOUS
370
-3
390
F
  0
LAYER
  5
20C
100
AcDbSymbolTableRecord
100
AcDbLayerTableRecord
  2
05__ASM_ALL_DTM_CSYS
 70
0
 62
7
  6
CONTINUOUS
370
-3
390
F
  0
LAYER
  5
20D
100
AcDbSymbolTableRecord
100
AcDbLayerTableRecord
  2
05__ASM_DEF_DTM_CSYS
 70
0
 62
7
  6
CONTINUOUS
370
-3
390
F
  0
LAYER
  5
20E
100
AcDbSymbolTableRecord
100
AcDbLayerTableRecord
  2
05___PRT_ALL_DTM_CSYS
 70
0
 62
7
  6
CONTINUOUS
370
-3
390
F
  0
LAYER
  5
20F
100
AcDbSymbolTableRecord
100
AcDbLayerTableRecord
  2
05___PRT_DEF_DTM_CSYS
 70
0
 62
7
  6
CONTINUOUS
370
-3
390
F
  0
LAYER
  5
210
100
AcDbSymbolTableRecord
100
AcDbLayerTableRecord
  2
06_ALL_SURFS
 70
0
 62
7
  6
CONTINUOUS
370
-3
390
F
  0
LAYER
  5
211
100
AcDbSymbolTableRecord
100
AcDbLayerTableRecord
  2
06__ASM_ALL_SURFS
 70
0
 62
7
  6
CONTINUOUS
370
-3
390
F
  0
LAYER
  5
212
100
AcDbSymbolTableRecord
100
AcDbLayerTableRecord
  2
06___PRT_ALL_SURFS
 70
0
 62
7
  6
CONTINUOUS
370
-3
390
F
  0
LAYER
  5
213
100
AcDbSymbolTableRecord
100
AcDbLayerTableRecord
  2
07__ASM_ALL_SKELETONS
 70
0
 62
7
  6
CONTINUOUS
370
-3
390
F
  0
LAYER
  5
214
100
AcDbSymbolTableRecord
100
AcDbLayerTableRecord
  2
ANNOTATIONS
 70
0
 62
7
  6
CONTINUOUS
370
-3
390
F
  0
LAYER
  5
215
100
AcDbSymbolTableRecord
100
AcDbLayerTableRecord
  2
ASM_DATUMS
 70
0
 62
7
  6
CONTINUOUS
370
-3
390
F
  0
LAYER
  5
216
100
AcDbSymbolTableRecord
100
AcDbLayerTableRecord
  2
ASM_DEF_DATUMS
 70
0
 62
7
  6
CONTINUOUS
370
-3
390
F
  0
LAYER
  5
217
100
AcDbSymbolTableRecord
100
AcDbLayerTableRecord
  2
AXIS
 70
0
 62
7
  6
CONTINUOUS
370
-3
390
F
  0
LAYER
  5
218
100
AcDbSymbolTableRecord
100
AcDbLayerTableRecord
  2
CSYS
 70
0
 62
7
  6
CONTINUOUS
370
-3
390
F
  0
LAYER
  5
219
100
AcDbSymbolTableRecord
100
AcDbLayerTableRecord
  2
CURVES
 70
0
 62
7
  6
CONTINUOUS
370
-3
390
F
  0
LAYER
  5
21A
100
AcDbSymbolTableRecord
100
AcDbLayerTableRecord
  2
DATUMS
 70
0
 62
7
  6
CONTINUOUS
370
-3
390
F
  0
LAYER
  5
21B
100
AcDbSymbolTableRecord
100
AcDbLayerTableRecord
  2
DEF_CSYS
 70
0
 62
7
  6
CONTINUOUS
370
-3
390
F
  0
LAYER
  5
21C
100
AcDbSymbolTableRecord
100
AcDbLayerTableRecord
  2
DEF_DATUMS
 70
0
 62
7
  6
CONTINUOUS
370
-3
390
F
  0
LAYER
  5
21D
100
AcDbSymbolTableRecord
100
AcDbLayerTableRecord
  2
GTOL
 70
0
 62
7
  6
CONTINUOUS
370
-3
390
F
  0
LAYER
  5
21E
100
AcDbSymbolTableRecord
100
AcDbLayerTableRecord
  2
POINTS
 70
0
 62
7
  6
CONTINUOUS
370
-3
390
F
  0
LAYER
  5
21F
100
AcDbSymbolTableRecord
100
AcDbLayerTableRecord
  2
SKELETONS
 70
0
 62
7
  6
CONTINUOUS
370
-3
390
F
  0
LAYER
  5
220
100
AcDbSymbolTableRecord
100
AcDbLayerTableRecord
  2
SURFACES
 70
0
 62
7
  6
CONTINUOUS
370
-3
390
F
  0
LAYER
  5
221
100
AcDbSymbolTableRecord
100
AcDbLayerTableRecord
  2
XSEC_DATUMS
 70
0
 62
7
  6
CONTINUOUS
370
-3
390
F
  0
ENDTAB
  0
TABLE
  2
STYLE
  5
3
100
AcDbSymbolTable
 70
1
  0
STYLE
  5
11
100
AcDbSymbolTableRecord
100
AcDbTextStyleTableRecord
  2
STANDARD
 70
0
 40
0.0
 41
0.8
 50
0.0
 71
0
 42
0.2
  3
txt
  4

  0
STYLE
  5
222
100
AcDbSymbolTableRecord
100
AcDbTextStyleTableRecord
  2
TEXTSTYLE_1
 70
0
 40
0.0
 41
0.8
 50
0.0
 71
0
 42
0.2
  3
gdt
  4

  0
ENDTAB
  0
TABLE
  2
VIEW
  5
6
100
AcDbSymbolTable
 70
0
  0
ENDTAB
  0
TABLE
  2
UCS
  5
7
100
AcDbSymbolTable
 70
0
  0
ENDTAB
  0
TABLE
  2
APPID
  5
9
100
AcDbSymbolTable
 70
1
  0
APPID
  5
223
100
AcDbSymbolTableRecord
100
AcDbRegAppTableRecord
  2
ACAD
 70
0
  0
ENDTAB
  0
TABLE
  2
BLOCK_RECORD
  5
1
100
AcDbSymbolTable
 70
0
  0
BLOCK_RECORD
  5
224
100
AcDbSymbolTableRecord
100
AcDbBlockTableRecord
  2
*Model_Space
  0
BLOCK_RECORD
  5
225
100
AcDbSymbolTableRecord
100
AcDbBlockTableRecord
  2
*Paper_Space
  0
ENDTAB
  0
TABLE
  2
DIMSTYLE
  5
A
100
AcDbSymbolTable
 70
1
100
AcDbDimStyleTable
 71
0
  0
DIMSTYLE
105
226
100
AcDbSymbolTableRecord
100
AcDbDimStyleTableRecord
  2
STANDARD
 70
0
  3

  4

 40
1.0
 41
0.1875
 42
0.0625
 43
0.38
 44
0.125
 45
0.0
 46
0.0
 47
0.0001
 48
0.0001
140
0.15625
141
0.09
142
0.0
143
25.4
144
1.0
145
0.0
146
1.0
147
0.09
 71
0.0
 72
0.0
 73
1
 74
1
 75
0
 76
0
 77
0
 78
4
 79
1
170
0
171
3
172
0
173
0
174
0
175
0
176
0
177
0
178
0
270
2
179
4
271
4
272
4
273
2
274
2
275
0
280
0
281
0
282
0
283
1
284
4
285
0
286
0
287
3
288
0
340
11
278
46
  0
ENDTAB
  0
ENDSEC
  0
SECTION
  2
BLOCKS
  0
BLOCK
  5
20
100
AcDbEntity
  8
0
100
AcDbBlockBegin
  2
*Model_Space
 70
0
 10
0.0
 20
0.0
 30
0.0
  3
*Model_Space
  1

  0
ENDBLK
  5
21
100
AcDbEntity
  8
0
100
AcDbBlockEnd
  0
BLOCK
  5
1C
100
AcDbEntity
  8
0
100
AcDbBlockBegin
  2
*Paper_Space
 70
0
 10
0.0
 20
0.0
 30
0.0
  3
*Paper_Space
  1

  0
ENDBLK
  5
1D
100
AcDbEntity
  8
0
100
AcDbBlockEnd
  0
ENDSEC
  0
SECTION
  2
ENTITIES
  0
MTEXT
  5
227
100
AcDbEntity
  8
0
100
AcDbMText
 62
7
  6
CONTINUOUS
  7
STANDARD
 71
1
 72
1
 10
15.9560215477
 20
0.9479130325
 30
0.0
 11
1.0
 21
0.0
 31
0.0
 44
0.9
  1
SCALE: 1:1.000
 40
0.3
 41
3.36
  0
LINE
  5
228
100
AcDbEntity
  8
0
100
AcDbLine
 62
7
  6
CONTINUOUS
 10
0.0
 20
0.0
 11
0.0
 21
17.0
  0
LINE
  5
229
100
AcDbEntity
  8
0
100
AcDbLine
 62
7
  6
CONTINUOUS
 10
0.0
 20
0.0
 11
22.0
 21
0.0
  0
LINE
  5
22A
100
AcDbEntity
  8
0
100
AcDbLine
 62
7
  6
CONTINUOUS
 10
0.0
 20
17.0
 11
22.0
 21
17.0
  0
LINE
  5
22B
100
AcDbEntity
  8
0
100
AcDbLine
 62
7
  6
CONTINUOUS
 10
22.0
 20
0.0
 11
22.0
 21
17.0
  0
LINE
  5
22C
100
AcDbEntity
  8
02___PRT_ALL_AXES
100
AcDbLine
 62
7
  6
CONTINUOUS
 10
5.5574347042
 20
7.3876198968
 11
5.4713672762
 21
7.3613064433
  0
LINE
  5
22D
100
AcDbEntity
  8
02___PRT_ALL_AXES
100
AcDbLine
 62
7
  6
CONTINUOUS
 10
5.5574347042
 20
3.6526198968
 11
5.4713672762
 21
3.6789333502
  0
LINE
  5
22E
100
AcDbEntity
  8
0
100
AcDbLine
 62
7
  6
CONTINUOUS
 10
5.5963672762
 20
3.8007628046
 11
6.6643672762
 21
3.8007628046
  0
LINE
  5
22F
100
AcDbEntity
  8
0
100
AcDbLine
 62
7
  6
CONTINUOUS
 10
5.5963672762
 20
3.9068360758
 11
6.6643672762
 21
3.9068360758
  0
LINE
  5
230
100
AcDbEntity
  8
0
100
AcDbLine
 62
7
  6
CONTINUOUS
 10
5.5963672762
 20
4.1419307551
 11
6.6643672762
 21
4.1419307551
  0
LINE
  5
231
100
AcDbEntity
  8
0
100
AcDbLine
 62
7
  6
CONTINUOUS
 10
5.5963672762
 20
4.4870092759
 11
6.6643672762
 21
4.4870092759
  0
LINE
  5
232
100
AcDbEntity
  8
02___PRT_ALL_AXES
100
AcDbLine
 62
7
  6
CONTINUOUS
 10
5.4713672762
 20
7.3613064433
 11
5.4713672762
 21
3.6789333502
  0
LINE
  5
233
100
AcDbEntity
  8
02___PRT_ALL_AXES
100
AcDbLine
 62
7
  6
CONTINUOUS
 10
5.5574347042
 20
7.3876198968
 11
5.5574347042
 21
3.6526198968
  0
LINE
  5
234
100
AcDbEntity
  8
02___PRT_ALL_AXES
100
AcDbLine
 62
7
  6
CONTINUOUS
 10
5.5963672762
 20
7.2602771918
 11
5.5963672762
 21
3.7799626017
  0
LINE
  5
235
100
AcDbEntity
  8
0
100
AcDbLine
 62
7
  6
CONTINUOUS
 10
5.5963672762
 20
4.914127768
 11
6.6643672762
 21
4.914127768
  0
LINE
  5
236
100
AcDbEntity
  8
02___PRT_ALL_AXES
100
AcDbLine
 62
7
  6
CONTINUOUS
 10
5.5963672762
 20
3.7799626017
 11
5.5574347042
 21
3.6526198968
  0
LINE
  5
237
100
AcDbEntity
  8
02___PRT_ALL_AXES
100
AcDbLine
 62
7
  6
CONTINUOUS
 10
6.6643672762
 20
7.2602771918
 11
6.7032998481
 21
7.3876198968
  0
LINE
  5
238
100
AcDbEntity
  8
02___PRT_ALL_AXES
100
AcDbLine
 62
7
  6
CONTINUOUS
 10
5.5963672762
 20
7.2602771918
 11
5.5574347042
 21
7.3876198968
  0
LINE
  5
239
100
AcDbEntity
  8
02___PRT_ALL_AXES
100
AcDbLine
 62
7
  6
CONTINUOUS
 10
6.6643672762
 20
3.7799626017
 11
6.7032998481
 21
3.6526198968
  0
LINE
  5
23A
100
AcDbEntity
  8
02___PRT_ALL_AXES
100
AcDbLine
 62
7
  6
CONTINUOUS
 10
6.6643672762
 20
3.7799626017
 11
6.6643672762
 21
7.2602771918
  0
LINE
  5
23B
100
AcDbEntity
  8
02___PRT_ALL_AXES
100
AcDbLine
 62
7
  6
CONTINUOUS
 10
6.7032998481
 20
3.6526198968
 11
6.7032998481
 21
7.3876198968
  0
LINE
  5
23C
100
AcDbEntity
  8
02___PRT_ALL_AXES
100
AcDbLine
 62
7
  6
CONTINUOUS
 10
6.7893672762
 20
3.6789333502
 11
6.7893672762
 21
7.3613064433
  0
LINE
  5
23D
100
AcDbEntity
  8
0
100
AcDbLine
 62
7
  6
CONTINUOUS
 10
6.6643672762
 20
6.1227584454
 11
5.5963672762
 21
6.1227584454
  0
LINE
  5
23E
100
AcDbEntity
  8
0
100
AcDbLine
 62
7
  6
CONTINUOUS
 10
6.6643672762
 20
6.5503574273
 11
5.5963672762
 21
6.5503574273
  0
LINE
  5
23F
100
AcDbEntity
  8
0
100
AcDbLine
 62
7
  6
CONTINUOUS
 10
6.6643672762
 20
6.896149096
 11
5.5963672762
 21
6.896149096
  0
LINE
  5
240
100
AcDbEntity
  8
0
100
AcDbLine
 62
7
  6
CONTINUOUS
 10
6.6643672762
 20
7.1321318316
 11
5.5963672762
 21
7.1321318316
  0
LINE
  5
241
100
AcDbEntity
  8
0
100
AcDbLine
 62
7
  6
CONTINUOUS
 10
6.6643672762
 20
7.2393842056
 11
5.5963672762
 21
7.2393842056
  0
LINE
  5
242
100
AcDbEntity
  8
02___PRT_ALL_AXES
100
AcDbLine
 62
7
  6
CONTINUOUS
 10
6.7032998481
 20
3.6526198968
 11
6.7893672762
 21
3.6789333502
  0
LINE
  5
243
100
AcDbEntity
  8
02___PRT_ALL_AXES
100
AcDbLine
 62
7
  6
CONTINUOUS
 10
6.7032998481
 20
7.3876198968
 11
6.7893672762
 21
7.3613064433
  0
LINE
  5
244
100
AcDbEntity
  8
02___PRT_ALL_AXES
100
AcDbLine
 62
7
  6
CONTINUOUS
 10
5.4118720839
 20
14.4412343279
 11
5.4979395119
 21
14.4675477814
  0
LINE
  5
245
100
AcDbEntity
  8
02___PRT_ALL_AXES
100
AcDbLine
 62
7
  6
CONTINUOUS
 10
5.4118720839
 20
10.7588612348
 11
5.4979395119
 21
10.7325477814
  0
LINE
  5
246
100
AcDbEntity
  8
AXIS
100
AcDbLine
 62
7
  6
CONTINUOUS
 10
6.6048720839
 20
10.8755477814
 11
5.5368720839
 21
10.8755477814
  0
LINE
  5
247
100
AcDbEntity
  8
0
100
AcDbLine
 62
7
  6
CONTINUOUS
 10
5.5368720839
 20
10.9166754122
 11
6.6048720839
 21
10.9166754122
  0
LINE
  5
248
100
AcDbEntity
  8
0
100
AcDbLine
 62
7
  6
CONTINUOUS
 10
5.5368720839
 20
11.0888544794
 11
6.6048720839
 21
11.0888544794
  0
LINE
  5
249
100
AcDbEntity
  8
0
100
AcDbLine
 62
7
  6
CONTINUOUS
 10
5.5368720839
 20
11.3817878385
 11
6.6048720839
 21
11.3817878385
  0
LINE
  5
24A
100
AcDbEntity
  8
0
100
AcDbLine
 62
7
  6
CONTINUOUS
 10
5.5368720839
 20
11.7717542452
 11
6.6048720839
 21
11.7717542452
  0
LINE
  5
24B
100
AcDbEntity
  8
02___PRT_ALL_AXES
100
AcDbLine
 62
7
  6
CONTINUOUS
 10
5.4118720839
 20
10.7588612348
 11
5.4118720839
 21
14.4412343279
  0
LINE
  5
24C
100
AcDbEntity
  8
02___PRT_ALL_AXES
100
AcDbLine
 62
7
  6
CONTINUOUS
 10
5.4979395119
 20
10.7325477814
 11
5.4979395119
 21
14.4675477814
  0
LINE
  5
24D
100
AcDbEntity
  8
02___PRT_ALL_AXES
100
AcDbLine
 62
7
  6
CONTINUOUS
 10
5.5368720839
 20
10.8598904863
 11
5.5368720839
 21
14.3402050764
  0
LINE
  5
24E
100
AcDbEntity
  8
02___PRT_ALL_AXES
100
AcDbLine
 62
7
  6
CONTINUOUS
 10
5.4979395119
 20
10.7325477814
 11
5.5368720839
 21
10.8598904863
  0
LINE
  5
24F
100
AcDbEntity
  8
02___PRT_ALL_AXES
100
AcDbLine
 62
7
  6
CONTINUOUS
 10
6.6438046558
 20
14.4675477814
 11
6.6048720839
 21
14.3402050764
  0
LINE
  5
250
100
AcDbEntity
  8
02___PRT_ALL_AXES
100
AcDbLine
 62
7
  6
CONTINUOUS
 10
5.4979395119
 20
14.4675477814
 11
5.5368720839
 21
14.3402050764
  0
LINE
  5
251
100
AcDbEntity
  8
02___PRT_ALL_AXES
100
AcDbLine
 62
7
  6
CONTINUOUS
 10
6.6438046558
 20
10.7325477814
 11
6.6048720839
 21
10.8598904863
  0
LINE
  5
252
100
AcDbEntity
  8
02___PRT_ALL_AXES
100
AcDbLine
 62
7
  6
CONTINUOUS
 10
6.6048720839
 20
10.8598904863
 11
6.6048720839
 21
14.3402050764
  0
LINE
  5
253
100
AcDbEntity
  8
02___PRT_ALL_AXES
100
AcDbLine
 62
7
  6
CONTINUOUS
 10
6.6438046558
 20
10.7325477814
 11
6.6438046558
 21
14.4675477814
  0
LINE
  5
254
100
AcDbEntity
  8
02___PRT_ALL_AXES
100
AcDbLine
 62
7
  6
CONTINUOUS
 10
6.7298720839
 20
10.7588612348
 11
6.7298720839
 21
14.4412343279
  0
LINE
  5
255
100
AcDbEntity
  8
0
100
AcDbLine
 62
7
  6
CONTINUOUS
 10
6.6048720839
 20
13.4262452131
 11
5.5368720839
 21
13.4262452131
  0
LINE
  5
256
100
AcDbEntity
  8
0
100
AcDbLine
 62
7
  6
CONTINUOUS
 10
6.6048720839
 20
13.8166139691
 11
5.5368720839
 21
13.8166139691
  0
LINE
  5
257
100
AcDbEntity
  8
0
100
AcDbLine
 62
7
  6
CONTINUOUS
 10
6.6048720839
 20
14.1100868349
 11
5.5368720839
 21
14.1100868349
  0
LINE
  5
258
100
AcDbEntity
  8
0
100
AcDbLine
 62
7
  6
CONTINUOUS
 10
6.6048720839
 20
14.282898878
 11
5.5368720839
 21
14.282898878
  0
LINE
  5
259
100
AcDbEntity
  8
AXIS
100
AcDbLine
 62
7
  6
CONTINUOUS
 10
6.6048720839
 20
14.3245477814
 11
5.5368720839
 21
14.3245477814
  0
LINE
  5
25A
100
AcDbEntity
  8
02___PRT_ALL_AXES
100
AcDbLine
 62
7
  6
CONTINUOUS
 10
6.7298720839
 20
10.7588612348
 11
6.6438046558
 21
10.7325477814
  0
LINE
  5
25B
100
AcDbEntity
  8
02___PRT_ALL_AXES
100
AcDbLine
 62
7
  6
CONTINUOUS
 10
6.7298720839
 20
14.4412343279
 11
6.6438046558
 21
14.4675477814
  0
LINE
  5
25C
100
AcDbEntity
  8
02___PRT_ALL_AXES
100
AcDbLine
 62
7
  6
CONTINUOUS
 10
14.7714542959
 20
14.3365451339
 11
14.8494031183
 21
14.3626378339
  0
LINE
  5
25D
100
AcDbEntity
  8
02___PRT_ALL_AXES
100
AcDbLine
 62
7
  6
CONTINUOUS
 10
14.7714542959
 20
10.6850648519
 11
14.8494031183
 21
10.6589721519
  0
LINE
  5
25E
100
AcDbEntity
  8
02___PRT_ALL_AXES
100
AcDbLine
 62
7
  6
CONTINUOUS
 10
14.7744532821
 20
10.6944016562
 11
14.7757636085
 21
10.6937516334
  0
LINE
  5
25F
100
AcDbEntity
  8
02___PRT_ALL_AXES
100
AcDbLine
 62
7
  6
CONTINUOUS
 10
14.7744532821
 20
10.6944016562
 11
14.7757504703
 21
10.6936092307
  0
LINE
  5
260
100
AcDbEntity
  8
0
100
AcDbLine
 62
7
  6
CONTINUOUS
 10
14.9564971512
 20
10.7873080976
 11
15.7198115916
 21
10.7873080976
  0
LINE
  5
261
100
AcDbEntity
  8
0
100
AcDbLine
 62
7
  6
CONTINUOUS
 10
14.9564971436
 20
10.7873123952
 11
14.9562299907
 21
10.7873198676
  0
LINE
  5
262
100
AcDbEntity
  8
0
100
AcDbLine
 62
7
  6
CONTINUOUS
 10
14.7705656815
 20
10.8727501908
 11
14.768116867
 21
10.8737645009
  0
LINE
  5
263
100
AcDbEntity
  8
0
100
AcDbLine
 62
7
  6
CONTINUOUS
 10
14.7705656815
 20
10.8727501836
 11
15.6498424577
 21
10.8727501836
  0
LINE
  5
264
100
AcDbEntity
  8
0
100
AcDbLine
 62
7
  6
CONTINUOUS
 10
14.6168300325
 20
13.8422811766
 11
14.6326870572
 21
13.8710124144
  0
LINE
  5
265
100
AcDbEntity
  8
02___PRT_ALL_AXES
100
AcDbLine
 62
7
  6
CONTINUOUS
 10
15.9877533782
 20
14.2298845723
 11
15.9875048395
 21
14.229811108
  0
LINE
  5
266
100
AcDbEntity
  8
AXIS
100
AcDbLine
 62
7
  6
CONTINUOUS
 10
16.075789011
 20
11.0105549929
 11
16.0291973018
 21
11.0105549929
  0
LINE
  5
267
100
AcDbEntity
  8
0
100
AcDbLine
 62
7
  6
CONTINUOUS
 10
14.6015343996
 20
11.08921959
 11
15.5282249303
 21
11.08921959
  0
LINE
  5
268
100
AcDbEntity
  8
0
100
AcDbLine
 62
7
  6
CONTINUOUS
 10
14.6802921696
 20
11.0780395088
 11
14.672809852
 21
11.08921959
  0
LINE
  5
269
100
AcDbEntity
  8
0
100
AcDbLine
 62
7
  6
CONTINUOUS
 10
14.4719527049
 20
13.4825139784
 11
14.4975211562
 21
13.5652535174
  0
LINE
  5
26A
100
AcDbEntity
  8
0
100
AcDbLine
 62
7
  6
CONTINUOUS
 10
14.5352400214
 20
11.3523027852
 11
14.5105697879
 21
11.4191869933
  0
LINE
  5
26B
100
AcDbEntity
  8
0
100
AcDbLine
 62
7
  6
CONTINUOUS
 10
14.3618394837
 20
12.1524637076
 11
14.3535783132
 21
12.2644555624
  0
LINE
  5
26C
100
AcDbEntity
  8
0
100
AcDbLine
 62
7
  6
CONTINUOUS
 10
14.3475327743
 20
12.6135656859
 11
14.3518902665
 21
12.7269985047
  0
LINE
  5
26D
100
AcDbEntity
  8
02___PRT_ALL_AXES
100
AcDbLine
 62
7
  6
CONTINUOUS
 10
14.3325239418
 20
13.0303481775
 11
14.3321231317
 21
13.0270465206
  0
LINE
  5
26E
100
AcDbEntity
  8
02___PRT_ALL_AXES
100
AcDbLine
 62
7
  6
CONTINUOUS
 10
14.3325820836
 20
13.0303014707
 11
14.3321231317
 21
13.0270465206
  0
LINE
  5
26F
100
AcDbEntity
  8
0
100
AcDbLine
 62
7
  6
CONTINUOUS
 10
14.3843827364
 20
13.0663462785
 11
14.4010060291
 21
13.1720344648
  0
LINE
  5
270
100
AcDbEntity
  8
0
100
AcDbLine
 62
7
  6
CONTINUOUS
 10
14.4630911706
 20
11.4191869933
 11
15.4092067752
 21
11.4191869933
  0
LINE
  5
271
100
AcDbEntity
  8
0
100
AcDbLine
 62
7
  6
CONTINUOUS
 10
14.4261443318
 20
11.7203795957
 11
14.4059334739
 21
11.8218615771
  0
LINE
  5
272
100
AcDbEntity
  8
0
100
AcDbLine
 62
7
  6
CONTINUOUS
 10
14.6387381097
 20
13.9141874596
 11
14.6327287291
 21
13.9709612022
  0
LINE
  5
273
100
AcDbEntity
  8
0
100
AcDbLine
 62
7
  6
CONTINUOUS
 10
14.8637777453
 20
10.8267626819
 11
14.8618429611
 21
10.8727501836
  0
LINE
  5
274
100
AcDbEntity
  8
0
100
AcDbLine
 62
7
  6
CONTINUOUS
 10
14.8064601616
 20
14.1036741476
 11
14.8069215003
 21
14.1624958376
  0
LINE
  5
275
100
AcDbEntity
  8
0
100
AcDbLine
 62
7
  6
CONTINUOUS
 10
14.683734342
 20
10.978482294
 11
14.6877890704
 21
11.0363872106
  0
LINE
  5
276
100
AcDbEntity
  8
0
100
AcDbLine
 62
7
  6
CONTINUOUS
 10
14.5276225803
 20
11.2542867864
 11
14.5378646171
 21
11.3069143412
  0
LINE
  5
277
100
AcDbEntity
  8
0
100
AcDbLine
 62
7
  6
CONTINUOUS
 10
14.4080841246
 20
11.6318419814
 11
14.4236840872
 21
11.6749304848
  0
LINE
  5
278
100
AcDbEntity
  8
02___PRT_ALL_AXES
100
AcDbLine
 62
7
  6
CONTINUOUS
 10
15.7088696494
 20
14.0890963989
 11
15.7078449039
 21
14.0873502861
  0
LINE
  5
279
100
AcDbEntity
  8
02___PRT_ALL_AXES
100
AcDbLine
 62
7
  6
CONTINUOUS
 10
15.7088696494
 20
14.0890963989
 11
15.7078169532
 21
14.0874693028
  0
LINE
  5
27A
100
AcDbEntity
  8
0
100
AcDbLine
 62
7
  6
CONTINUOUS
 10
14.3347989953
 20
12.0805741028
 11
14.3544936253
 21
12.1106343213
  0
LINE
  5
27B
100
AcDbEntity
  8
0
100
AcDbLine
 62
7
  6
CONTINUOUS
 10
14.3137016973
 20
12.5641455884
 11
14.335896157
 21
12.5787432966
  0
LINE
  5
27C
100
AcDbEntity
  8
0
100
AcDbLine
 62
7
  6
CONTINUOUS
 10
14.3664468911
 20
11.8359321956
 11
15.3209330669
 21
11.8359321956
  0
LINE
  5
27D
100
AcDbEntity
  8
0
100
AcDbLine
 62
7
  6
CONTINUOUS
 10
14.3407839692
 20
12.2964881051
 11
14.3181725354
 21
12.3059692905
  0
LINE
  5
27E
100
AcDbEntity
  8
0
100
AcDbLine
 62
7
  6
CONTINUOUS
 10
14.3431275437
 20
12.7669884025
 11
14.3224716009
 21
12.7924408649
  0
LINE
  5
27F
100
AcDbEntity
  8
0
100
AcDbLine
 62
7
  6
CONTINUOUS
 10
14.3969845178
 20
13.2167434041
 11
14.379956749
 21
13.2561060465
  0
LINE
  5
280
100
AcDbEntity
  8
0
100
AcDbLine
 62
7
  6
CONTINUOUS
 10
14.4985914176
 20
13.6110572516
 11
14.4865979472
 21
13.6611856058
  0
LINE
  5
281
100
AcDbEntity
  8
02___PRT_ALL_AXES
100
AcDbLine
 62
7
  6
CONTINUOUS
 10
15.5675985194
 20
13.8036615929
 11
15.5663967418
 21
13.8005249258
  0
LINE
  5
282
100
AcDbEntity
  8
02___PRT_ALL_AXES
100
AcDbLine
 62
7
  6
CONTINUOUS
 10
15.567927018
 20
13.8028296478
 11
15.5666915807
 21
13.799781788
  0
LINE
  5
283
100
AcDbEntity
  8
0
100
AcDbLine
 62
7
  6
CONTINUOUS
 10
15.3024556096
 20
13.0434097515
 11
14.3462296861
 21
13.0434097515
  0
LINE
  5
284
100
AcDbEntity
  8
0
100
AcDbLine
 62
7
  6
CONTINUOUS
 10
15.3785640748
 20
13.4825139784
 11
14.4286043668
 21
13.4825139784
  0
LINE
  5
285
100
AcDbEntity
  8
0
100
AcDbLine
 62
7
  6
CONTINUOUS
 10
15.4898463727
 20
13.8422811766
 11
14.5552913439
 21
13.8422811766
  0
LINE
  5
286
100
AcDbEntity
  8
AXIS
100
AcDbLine
 62
7
  6
CONTINUOUS
 10
16.3685534417
 20
11.2125189787
 11
16.3690677651
 21
11.2132846781
  0
LINE
  5
287
100
AcDbEntity
  8
AXIS
100
AcDbLine
 62
7
  6
CONTINUOUS
 10
16.3681265578
 20
11.2144120378
 11
16.3686414881
 21
11.2151706194
  0
LINE
  5
288
100
AcDbEntity
  8
AXIS
100
AcDbLine
 62
7
  6
CONTINUOUS
 10
16.075789011
 20
14.0110549929
 11
16.0270623793
 21
14.0110549929
  0
LINE
  5
289
100
AcDbEntity
  8
AXIS
100
AcDbLine
 62
7
  6
CONTINUOUS
 10
16.3109041923
 20
13.8842035889
 11
16.311549651
 21
13.8834737255
  0
LINE
  5
28A
100
AcDbEntity
  8
AXIS
100
AcDbLine
 62
7
  6
CONTINUOUS
 10
16.3107469049
 20
13.8832848345
 11
16.3113807364
 21
13.8824902794
  0
LINE
  5
28B
100
AcDbEntity
  8
02___PRT_ALL_AXES
100
AcDbLine
 62
7
  6
CONTINUOUS
 10
15.9877141627
 20
14.2310447851
 11
15.9874648511
 21
14.2309890963
  0
LINE
  5
28C
100
AcDbEntity
  8
0
100
AcDbLine
 62
7
  6
CONTINUOUS
 10
15.614587914
 20
14.0958472688
 11
14.7163110576
 21
14.0958472688
  0
LINE
  5
28D
100
AcDbEntity
  8
0
100
AcDbLine
 62
7
  6
CONTINUOUS
 10
14.8976781874
 20
14.2225307552
 11
14.8986244088
 21
14.2226723286
  0
LINE
  5
28E
100
AcDbEntity
  8
0
100
AcDbLine
 62
7
  6
CONTINUOUS
 10
15.7098012716
 20
14.2226789052
 11
14.8986244061
 21
14.2226789052
  0
LINE
  5
28F
100
AcDbEntity
  8
0
100
AcDbLine
 62
7
  6
CONTINUOUS
 10
15.0024977603
 20
14.2342606543
 11
15.7198998059
 21
14.2342606543
  0
LINE
  5
290
100
AcDbEntity
  8
02___PRT_ALL_AXES
100
AcDbLine
 62
7
  6
CONTINUOUS
 10
16.1707706411
 20
10.6850648519
 11
16.0928218187
 21
10.6589721519
  0
LINE
  5
291
100
AcDbEntity
  8
02___PRT_ALL_AXES
100
AcDbLine
 62
7
  6
CONTINUOUS
 10
16.1707706411
 20
14.3365451339
 11
16.0928218187
 21
14.3626378339
  0
ARC
  5
292
100
AcDbEntity
  8
AXIS
100
AcDbCircle
 62
7
  6
CONTINUOUS
 10
14.4994079035
 20
5.3678038384
 40
0.155
100
AcDbArc
 50
89.6345005846
 51
280.3654994154
  0
CIRCLE
  5
293
100
AcDbEntity
  8
02___PRT_ALL_AXES
100
AcDbCircle
 62
7
  6
CONTINUOUS
 10
15.5603552569
 20
5.4606247044
 40
1.8675
  0
CIRCLE
  5
294
100
AcDbEntity
  8
02___PRT_ALL_AXES
100
AcDbCircle
 62
7
  6
CONTINUOUS
 10
15.5603552569
 20
5.4606247044
 40
1.8411865466
  0
CIRCLE
  5
295
100
AcDbEntity
  8
02___PRT_ALL_AXES
100
AcDbCircle
 62
7
  6
CONTINUOUS
 10
15.5603552569
 20
5.4606247044
 40
1.7267067049
  0
CIRCLE
  5
296
100
AcDbEntity
  8
02___PRT_ALL_AXES
100
AcDbCircle
 62
7
  6
CONTINUOUS
 10
15.5603552569
 20
5.4606247044
 40
1.502
  0
CIRCLE
  5
297
100
AcDbEntity
  8
AXIS
100
AcDbCircle
 62
7
  6
CONTINUOUS
 10
15.5603552569
 20
5.4606247044
 40
1.50025
  0
CIRCLE
  5
298
100
AcDbEntity
  8
AXIS
100
AcDbCircle
 62
7
  6
CONTINUOUS
 10
15.5603552569
 20
5.4606247044
 40
1.315
  0
ARC
  5
299
100
AcDbEntity
  8
AXIS
100
AcDbCircle
 62
7
  6
CONTINUOUS
 10
15.5603552569
 20
5.4606247044
 40
1.123
100
AcDbArc
 50
192.5361011651
 51
347.4638988349
  0
ARC
  5
29A
100
AcDbEntity
  8
AXIS
100
AcDbCircle
 62
7
  6
CONTINUOUS
 10
15.5603552569
 20
5.4606247044
 40
1.123
100
AcDbArc
 50
99.7657211664
 51
177.4638988349
  0
ARC
  5
29B
100
AcDbEntity
  8
AXIS
100
AcDbCircle
 62
7
  6
CONTINUOUS
 10
15.5603552569
 20
5.4606247044
 40
1.123
100
AcDbArc
 50
2.5361011651
 51
80.2342788336
  0
ARC
  5
29C
100
AcDbEntity
  8
AXIS
100
AcDbCircle
 62
7
  6
CONTINUOUS
 10
15.5603552569
 20
5.4606247044
 40
1.0922153923
100
AcDbArc
 50
79.7283895754
 51
100.2716104246
  0
CIRCLE
  5
29D
100
AcDbEntity
  8
AXIS
100
AcDbCircle
 62
7
  6
CONTINUOUS
 10
15.5603552569
 20
5.4606247044
 40
1.053
  0
ARC
  5
29E
100
AcDbEntity
  8
AXIS
100
AcDbCircle
 62
7
  6
CONTINUOUS
 10
16.6213026104
 20
5.3678038384
 40
0.155
100
AcDbArc
 50
259.6345005846
 51
90.3654994154
  0
ARC
  5
29F
100
AcDbEntity
  8
AXIS
100
AcDbCircle
 62
7
  6
CONTINUOUS
 10
15.5603552569
 20
6.5256247044
 40
0.195
100
AcDbArc
 50
2.8545151168
 51
177.1454848832
  0
ARC
  5
2A0
100
AcDbEntity
  8
AXIS
100
AcDbCircle
 62
7
  6
CONTINUOUS
 10
13.8825476804
 20
43.2249846832
 40
30.0908674027
100
AcDbArc
 50
273.3420447188
 51
274.278899149
  0
ARC
  5
2A1
100
AcDbEntity
  8
02___PRT_ALL_AXES
100
AcDbCircle
 62
7
  6
CONTINUOUS
 10
16.1832478897
 20
11.9339674651
 40
1.8056017157
100
AcDbArc
 50
202.3413084866
 51
203.0717658381
  0
ARC
  5
2A2
100
AcDbEntity
  8
AXIS
100
AcDbCircle
 62
7
  6
CONTINUOUS
 10
15.0063926828
 20
12.9951834254
 40
1.5906324495
100
AcDbArc
 50
22.0866288477
 51
22.4116512494
  0
ARC
  5
2A3
100
AcDbEntity
  8
02___PRT_ALL_AXES
100
AcDbCircle
 62
7
  6
CONTINUOUS
 10
15.9841177787
 20
13.1753339485
 40
1.5880052421
100
AcDbArc
 50
154.9423768375
 51
155.1764956693
  0
ARC
  5
2A4
100
AcDbEntity
  8
02___PRT_ALL_AXES
100
AcDbCircle
 62
7
  6
CONTINUOUS
 10
15.6954869798
 20
11.6998387074
 40
1.2642817523
100
AcDbArc
 50
208.9731882594
 51
209.2075195959
  0
ARC
  5
2A5
100
AcDbEntity
  8
AXIS
100
AcDbCircle
 62
7
  6
CONTINUOUS
 10
15.8710880763
 20
13.494653094
 40
0.5875268538
100
AcDbArc
 50
41.5317034272
 51
42.2863841848
  0
ARC
  5
2A6
100
AcDbEntity
  8
AXIS
100
AcDbCircle
 62
7
  6
CONTINUOUS
 10
15.8805789293
 20
13.5032806648
 40
0.5747006596
100
AcDbArc
 50
42.2867027281
 51
42.6491718095
  0
ARC
  5
2A7
100
AcDbEntity
  8
AXIS
100
AcDbCircle
 62
7
  6
CONTINUOUS
 10
15.8851320809
 20
11.5144518164
 40
0.5687271765
100
AcDbArc
 50
315.7071913878
 51
319.3252710519
  0
ARC
  5
2A8
100
AcDbEntity
  8
02___PRT_ALL_AXES
100
AcDbCircle
 62
7
  6
CONTINUOUS
 10
16.0455902954
 20
11.2401698939
 40
0.2313754745
100
AcDbArc
 50
274.7273363455
 51
277.4309885399
  0
ARC
  5
2A9
100
AcDbEntity
  8
02___PRT_ALL_AXES
100
AcDbCircle
 62
7
  6
CONTINUOUS
 10
16.045616613
 20
13.7815995407
 40
0.2312139957
100
AcDbArc
 50
82.5320229414
 51
85.8064355951
  0
ARC
  5
2AA
100
AcDbEntity
  8
AXIS
100
AcDbCircle
 62
7
  6
CONTINUOUS
 10
16.0758630301
 20
11.2400314376
 40
0.2294760643
100
AcDbArc
 50
262.592582284
 51
269.9815188849
  0
ARC
  5
2AB
100
AcDbEntity
  8
AXIS
100
AcDbCircle
 62
7
  6
CONTINUOUS
 10
16.0758438286
 20
13.781873741
 40
0.2291808662
100
AcDbArc
 50
90.0137045539
 51
97.2574209901
  0
ARC
  5
2AC
100
AcDbEntity
  8
02___PRT_ALL_AXES
100
AcDbCircle
 62
7
  6
CONTINUOUS
 10
16.045836592
 20
13.7843746322
 40
0.2284302484
100
AcDbArc
 50
85.8105637008
 51
89.9955010391
  0
ARC
  5
2AD
100
AcDbEntity
  8
02___PRT_ALL_AXES
100
AcDbCircle
 62
7
  6
CONTINUOUS
 10
16.0458417567
 20
11.2372192316
 40
0.228414126
100
AcDbArc
 50
270.0032037695
 51
274.7254725977
  0
ARC
  5
2AE
100
AcDbEntity
  8
0
100
AcDbCircle
 62
7
  6
CONTINUOUS
 10
14.7059669673
 20
14.1044337955
 40
0.1004960655
100
AcDbArc
 50
355.0462318893
 51
359.5668981192
  0
ARC
  5
2AF
100
AcDbEntity
  8
AXIS
100
AcDbCircle
 62
7
  6
CONTINUOUS
 10
17.5624491189
 20
-25.2892902162
 40
38.7395540491
100
AcDbArc
 50
92.2458077588
 51
92.7535581602
  0
ARC
  5
2B0
100
AcDbEntity
  8
02___PRT_ALL_AXES
100
AcDbCircle
 62
7
  6
CONTINUOUS
 10
18.7600036012
 20
12.5108282243
 40
4.4583869812
100
AcDbArc
 50
179.5592477925
 51
182.4132885058
  0
ARC
  5
2B1
100
AcDbEntity
  8
02___PRT_ALL_AXES
100
AcDbCircle
 62
7
  6
CONTINUOUS
 10
18.7106200259
 20
12.5119517923
 40
4.4089962867
100
AcDbArc
 50
176.0634326179
 51
179.5689116914
  0
ARC
  5
2B2
100
AcDbEntity
  8
0
100
AcDbCircle
 62
7
  6
CONTINUOUS
 10
18.7149748735
 20
12.5106377604
 40
4.4072628425
100
AcDbArc
 50
179.5510716009
 51
182.4331117358
  0
ARC
  5
2B3
100
AcDbEntity
  8
02___PRT_ALL_AXES
100
AcDbCircle
 62
7
  6
CONTINUOUS
 10
18.7004538429
 20
12.5087934944
 40
4.3988043866
100
AcDbArc
 50
182.4194697806
 51
182.6521114513
  0
ARC
  5
2B4
100
AcDbEntity
  8
02___PRT_ALL_AXES
100
AcDbCircle
 62
7
  6
CONTINUOUS
 10
18.5621945353
 20
12.5010695632
 40
4.2603359744
100
AcDbArc
 50
182.6343836291
 51
185.9799929319
  0
ARC
  5
2B5
100
AcDbEntity
  8
02___PRT_ALL_AXES
100
AcDbCircle
 62
7
  6
CONTINUOUS
 10
18.4542250283
 20
12.5298771049
 40
4.151975611
100
AcDbArc
 50
173.1227377211
 51
176.0673101283
  0
ARC
  5
2B6
100
AcDbEntity
  8
0
100
AcDbCircle
 62
7
  6
CONTINUOUS
 10
18.4156933319
 20
12.5303575771
 40
4.1073241675
100
AcDbArc
 50
173.0209406475
 51
176.0402920163
  0
ARC
  5
2B7
100
AcDbEntity
  8
02___PRT_ALL_AXES
100
AcDbCircle
 62
7
  6
CONTINUOUS
 10
18.2568834059
 20
12.552289231
 40
3.9533704051
100
AcDbArc
 50
172.8365480831
 51
173.0545446475
  0
ARC
  5
2B8
100
AcDbEntity
  8
02___PRT_ALL_AXES
100
AcDbCircle
 62
7
  6
CONTINUOUS
 10
18.1930558021
 20
12.4620767218
 40
3.8891436637
100
AcDbArc
 50
185.9752293169
 51
189.1052220985
  0
ARC
  5
2B9
100
AcDbEntity
  8
0
100
AcDbCircle
 62
7
  6
CONTINUOUS
 10
18.1566046421
 20
12.4615273237
 40
3.8465524634
100
AcDbArc
 50
186.0197897584
 51
189.1741647197
  0
ARC
  5
2BA
100
AcDbEntity
  8
02___PRT_ALL_AXES
100
AcDbCircle
 62
7
  6
CONTINUOUS
 10
18.0174212403
 20
12.5846358982
 40
3.7117444049
100
AcDbArc
 50
169.5310952058
 51
172.8710200268
  0
ARC
  5
2BB
100
AcDbEntity
  8
02___PRT_ALL_AXES
100
AcDbCircle
 62
7
  6
CONTINUOUS
 10
17.9613754936
 20
12.4268830402
 40
3.6548138376
100
AcDbArc
 50
189.1352077415
 51
189.3435752408
  0
ARC
  5
2BC
100
AcDbEntity
  8
02___PRT_ALL_AXES
100
AcDbCircle
 62
7
  6
CONTINUOUS
 10
17.7365580753
 20
12.6342510715
 40
3.4265421474
100
AcDbArc
 50
169.1091436918
 51
169.4935712255
  0
ARC
  5
2BD
100
AcDbEntity
  8
02___PRT_ALL_AXES
100
AcDbCircle
 62
7
  6
CONTINUOUS
 10
17.6796965961
 20
12.3778281305
 40
3.3689088914
100
AcDbArc
 50
189.2981269726
 51
192.8509857469
  0
ARC
  5
2BE
100
AcDbEntity
  8
02___PRT_ALL_AXES
100
AcDbCircle
 62
7
  6
CONTINUOUS
 10
17.4861866077
 20
12.6843916679
 40
3.1712072391
100
AcDbArc
 50
166.1390125425
 51
169.1440616678
  0
ARC
  5
2BF
100
AcDbEntity
  8
0
100
AcDbCircle
 62
7
  6
CONTINUOUS
 10
17.4469729438
 20
12.6864646051
 40
3.1256266133
100
AcDbArc
 50
166.0033807354
 51
169.0555011342
  0
ARC
  5
2C0
100
AcDbEntity
  8
02___PRT_ALL_AXES
100
AcDbCircle
 62
7
  6
CONTINUOUS
 10
17.3781841504
 20
12.3118065327
 40
3.0602656986
100
AcDbArc
 50
192.9014122402
 51
193.3423537287
  0
ARC
  5
2C1
100
AcDbEntity
  8
02___PRT_ALL_AXES
100
AcDbCircle
 62
7
  6
CONTINUOUS
 10
17.2253371514
 20
12.746808049
 40
2.9030014738
100
AcDbArc
 50
165.7352108048
 51
166.1016681857
  0
ARC
  5
2C2
100
AcDbEntity
  8
02___PRT_ALL_AXES
100
AcDbCircle
 62
7
  6
CONTINUOUS
 10
17.1793830969
 20
12.7585023549
 40
2.8555827875
100
AcDbArc
 50
165.4499868075
 51
165.7354215054
  0
ARC
  5
2C3
100
AcDbEntity
  8
0
100
AcDbCircle
 62
7
  6
CONTINUOUS
 10
17.1788069097
 20
12.7513299974
 40
2.8497344311
100
AcDbArc
 50
165.316456808
 51
165.9647709714
  0
ARC
  5
2C4
100
AcDbEntity
  8
02___PRT_ALL_AXES
100
AcDbCircle
 62
7
  6
CONTINUOUS
 10
17.1455874113
 20
12.7672798312
 40
2.8206658515
100
AcDbArc
 50
165.238054566
 51
165.450101581
  0
ARC
  5
2C5
100
AcDbEntity
  8
02___PRT_ALL_AXES
100
AcDbCircle
 62
7
  6
CONTINUOUS
 10
17.0591961481
 20
12.2329247117
 40
2.7316859658
100
AcDbArc
 50
193.2764911238
 51
197.2354011581
  0
ARC
  5
2C6
100
AcDbEntity
  8
0
100
AcDbCircle
 62
7
  6
CONTINUOUS
 10
17.020921415
 20
12.2300902079
 40
2.6868366946
100
AcDbArc
 50
193.3927798519
 51
197.4000765901
  0
ARC
  5
2C7
100
AcDbEntity
  8
02___PRT_ALL_AXES
100
AcDbCircle
 62
7
  6
CONTINUOUS
 10
16.9385467462
 20
12.8236743232
 40
2.6060901009
100
AcDbArc
 50
162.8416984666
 51
165.277152671
  0
ARC
  5
2C8
100
AcDbEntity
  8
02___PRT_ALL_AXES
100
AcDbCircle
 62
7
  6
CONTINUOUS
 10
16.7731567525
 20
12.1474382826
 40
2.4331635383
100
AcDbArc
 50
197.3085235011
 51
197.5165918395
  0
ARC
  5
2C9
100
AcDbEntity
  8
02___PRT_ALL_AXES
100
AcDbCircle
 62
7
  6
CONTINUOUS
 10
16.7002545638
 20
12.8969920758
 40
2.3567738541
100
AcDbArc
 50
160.9331651993
 51
162.8357517811
  0
ARC
  5
2CA
100
AcDbEntity
  8
02___PRT_ALL_AXES
100
AcDbCircle
 62
7
  6
CONTINUOUS
 10
17.7656927377
 20
12.9629448206
 40
2.353389749
100
AcDbArc
 50
159.1511601354
 51
162.8906108464
  0
ARC
  5
2CB
100
AcDbEntity
  8
02___PRT_ALL_AXES
100
AcDbCircle
 62
7
  6
CONTINUOUS
 10
16.5339801492
 20
12.9534610215
 40
2.1811750054
100
AcDbArc
 50
160.3080690873
 51
160.908314016
  0
ARC
  5
2CC
100
AcDbEntity
  8
02___PRT_ALL_AXES
100
AcDbCircle
 62
7
  6
CONTINUOUS
 10
17.2213037497
 20
11.844088256
 40
1.7681098167
100
AcDbArc
 50
203.8340353507
 51
204.1270211229
  0
ARC
  5
2CD
100
AcDbEntity
  8
02___PRT_ALL_AXES
100
AcDbCircle
 62
7
  6
CONTINUOUS
 10
16.4571798755
 20
11.4087907188
 40
0.8868098153
100
AcDbArc
 50
217.170855966
 51
217.3839461625
  0
ARC
  5
2CE
100
AcDbEntity
  8
02___PRT_ALL_AXES
100
AcDbCircle
 62
7
  6
CONTINUOUS
 10
16.4373447125
 20
13.5174695648
 40
0.8765470459
100
AcDbArc
 50
143.7109075885
 51
144.0245272685
  0
SPLINE
  5
2CF
100
AcDbEntity
  8
AXIS
100
AcDbSpline
 62
7
  6
CONTINUOUS
 70
0
 71
3
 72
29
 73
25
 74
0
 42
0.0000001
 43
0.0000001
 44
0.0000000001
 40
0.0
 40
0.0
 40
0.0
 40
0.0
 40
0.0617379527
 40
0.1234784201
 40
0.1852297827
 40
0.2470071764
 40
0.3088432519
 40
0.3398065882
 40
0.3708286882
 40
0.4019624263
 40
0.433345466
 40
0.4654509246
 40
0.4999996278
 40
0.5345495402
 40
0.5666550682
 40
0.5980381122
 40
0.6291718245
 40
0.6601939007
 40
0.6911572186
 40
0.7529932481
 40
0.8147705943
 40
0.8765218706
 40
0.9382622167
 40
1.0
 40
1.0
 40
1.0
 40
1.0
 10
14.5003966678
 20
5.5228006847
 30
0.0
 10
14.500291465
 20
5.5164416344
 30
0.0
 10
14.5001952748
 20
5.5037210886
 30
0.0
 10
14.500393743
 20
5.4846397451
 30
0.0
 10
14.500934939
 20
5.4655609097
 30
0.0
 10
14.5018187711
 20
5.446485065
 30
0.0
 10
14.5028403943
 20
5.4305932548
 30
0.0
 10
14.5038279618
 20
5.4178759672
 30
0.0
 10
14.5046544178
 20
5.4083188505
 30
0.0
 10
14.5055669376
 20
5.3987261871
 30
0.0
 10
14.5065671627
 20
5.3890299602
 30
0.0
 10
14.5076707272
 20
5.3789915084
 30
0.0
 10
14.5087853802
 20
5.3686242518
 30
0.0
 10
14.509487917
 20
5.3582209325
 30
0.0
 10
14.5101442845
 20
5.3481432234
 30
0.0
 10
14.5108429907
 20
5.338420612
 30
0.0
 10
14.5116100824
 20
5.3288152299
 30
0.0
 10
14.5124557588
 20
5.3192598018
 30
0.0
 10
14.5136915298
 20
5.3065642383
 30
0.0
 10
14.5154450118
 20
5.2907364691
 30
0.0
 10
14.5178870927
 20
5.2717969722
 30
0.0
 10
14.5206671217
 20
5.2529140358
 30
0.0
 10
14.5237851042
 20
5.2340881556
 30
0.0
 10
14.5260887274
 20
5.2215775962
 30
0.0
 10
14.5272965662
 20
5.2153334397
 30
0.0
  0
SPLINE
  5
2D0
100
AcDbEntity
  8
AXIS
100
AcDbSpline
 62
7
  6
CONTINUOUS
 70
0
 71
3
 72
29
 73
25
 74
0
 42
0.0000001
 43
0.0000001
 44
0.0000000001
 40
0.0
 40
0.0
 40
0.0
 40
0.0
 40
0.0617364583
 40
0.123475555
 40
0.185225671
 40
0.2470019076
 40
0.3088368139
 40
0.3397995591
 40
0.3708210349
 40
0.4019541395
 40
0.4333364738
 40
0.465441193
 40
0.4999969656
 40
0.534557574
 40
0.566662944
 40
0.5980453228
 40
0.6291784379
 40
0.6601999155
 40
0.6911626605
 40
0.752997558
 40
0.8147737789
 40
0.8765239568
 40
0.9382632357
 40
1.0
 40
1.0
 40
1.0
 40
1.0
 10
16.5934139477
 20
5.2153334397
 30
0.0
 10
16.5946217605
 20
5.2215774622
 30
0.0
 10
16.5969253381
 20
5.2340877602
 30
0.0
 10
16.6000432684
 20
5.2529132589
 30
0.0
 10
16.6028232618
 20
5.271795834
 30
0.0
 10
16.6052653218
 20
5.290734981
 30
0.0
 10
16.6070187961
 20
5.3065624602
 30
0.0
 10
16.6082545674
 20
5.3192577859
 30
0.0
 10
16.6091002456
 20
5.3288130297
 30
0.0
 10
16.6098673411
 20
5.3384182132
 30
0.0
 10
16.6105660542
 20
5.3481406044
 30
0.0
 10
16.6112224458
 20
5.3582187604
 30
0.0
 10
16.611925154
 20
5.3686238179
 30
0.0
 10
16.6130398983
 20
5.3789928958
 30
0.0
 10
16.6141436273
 20
5.3890324859
 30
0.0
 10
16.6151438096
 20
5.3987285751
 30
0.0
 10
16.6160562944
 20
5.4083210445
 30
0.0
 10
16.6168827166
 20
5.4178779742
 30
0.0
 10
16.617870242
 20
5.4305950178
 30
0.0
 10
16.6188918216
 20
5.446486527
 30
0.0
 10
16.6197756137
 20
5.4655620088
 30
0.0
 10
16.6203167829
 20
5.4846404794
 30
0.0
 10
16.6205152373
 20
5.503721456
 30
0.0
 10
16.6204190469
 20
5.5164417568
 30
0.0
 10
16.620313846
 20
5.5228006847
 30
0.0
  0
SPLINE
  5
2D1
100
AcDbEntity
  8
02___PRT_ALL_AXES
100
AcDbSpline
 62
7
  6
CONTINUOUS
 70
0
 71
3
 72
41
 73
37
 74
0
 42
0.0000001
 43
0.0000001
 44
0.0000000001
 40
0.0
 40
0.0
 40
0.0
 40
0.0
 40
0.032027984
 40
0.06523626
 40
0.0995132372
 40
0.1347486352
 40
0.1708206164
 40
0.2076023662
 40
0.2449624806
 40
0.2827655305
 40
0.3208732439
 40
0.3591453853
 40
0.3974407022
 40
0.4356177718
 40
0.4735359112
 40
0.5110561355
 40
0.5480420174
 40
0.5843605871
 40
0.6198834288
 40
0.654487665
 40
0.688056953
 40
0.7204826993
 40
0.7516655555
 40
0.7815167724
 40
0.8099598848
 40
0.8369329594
 40
0.8623913221
 40
0.8863106089
 40
0.9086908683
 40
0.9295620004
 40
0.9489902115
 40
0.9581991841
 40
0.9670929312
 40
0.9840167973
 40
0.9921110624
 40
1.0
 40
1.0
 40
1.0
 40
1.0
 10
14.3024942924
 20
13.6553049037
 30
0.0
 10
14.2924962606
 20
13.6229512609
 30
0.0
 10
14.2734121185
 20
13.5566502898
 30
0.0
 10
14.247890337
 20
13.4545574085
 30
0.0
 10
14.2250391495
 20
13.3483625549
 30
0.0
 10
14.2049578227
 20
13.2385318063
 30
0.0
 10
14.1877344882
 20
13.1255381575
 30
0.0
 10
14.1734440823
 20
13.0098733141
 30
0.0
 10
14.1621489197
 20
12.8920395518
 30
0.0
 10
14.1538987443
 20
12.7725486959
 30
0.0
 10
14.1487296313
 20
12.6519201066
 30
0.0
 10
14.1466638915
 20
12.5306781126
 30
0.0
 10
14.1477105761
 20
12.4093497277
 30
0.0
 10
14.1518654295
 20
12.2884623696
 30
0.0
 10
14.1591101578
 20
12.1685415028
 30
0.0
 10
14.1694128576
 20
12.0501082866
 30
0.0
 10
14.1827285408
 20
11.933677351
 30
0.0
 10
14.1989993451
 20
11.8197545305
 30
0.0
 10
14.2181538947
 20
11.7088344391
 30
0.0
 10
14.2401083692
 20
11.6013983342
 30
0.0
 10
14.264767059
 20
11.4979121157
 30
0.0
 10
14.2920227485
 20
11.3988241138
 30
0.0
 10
14.3217564407
 20
11.3045627244
 30
0.0
 10
14.3538389624
 20
11.2155346867
 30
0.0
 10
14.3881318503
 20
11.1321233357
 30
0.0
 10
14.4244879338
 20
11.0546865539
 30
0.0
 10
14.4627522871
 20
10.9835545865
 30
0.0
 10
14.5027641314
 20
10.9190298452
 30
0.0
 10
14.544361127
 20
10.8613841208
 30
0.0
 10
14.5873738756
 20
10.8108657275
 30
0.0
 10
14.6249145305
 20
10.7742484931
 30
0.0
 10
14.6555035803
 20
10.7489386893
 30
0.0
 10
14.6853572033
 20
10.7270014157
 30
0.0
 10
14.7161671124
 20
10.7084185618
 30
0.0
 10
14.7477235345
 20
10.6937081062
 30
0.0
 10
14.7635447104
 20
10.6877128483
 30
0.0
 10
14.7714543115
 20
10.685065159
 30
0.0
  0
SPLINE
  5
2D2
100
AcDbEntity
  8
02___PRT_ALL_AXES
100
AcDbSpline
 62
7
  6
CONTINUOUS
 70
0
 71
3
 72
21
 73
17
 74
0
 42
0.0000001
 43
0.0000001
 44
0.0000000001
 40
0.0
 40
0.0
 40
0.0
 40
0.0
 40
0.0588802871
 40
0.1167837899
 40
0.1740290763
 40
0.2309482718
 40
0.2878809348
 40
0.3451661116
 40
0.4031354958
 40
0.4621057862
 40
0.5223744113
 40
0.5842144409
 40
0.7134971844
 40
0.7814175553
 40
0.8517277958
 40
1.0
 40
1.0
 40
1.0
 40
1.0
 10
14.8494031229
 20
14.3626377428
 30
0.0
 10
14.8571904298
 20
14.3652445826
 30
0.0
 10
14.872840443
 20
14.3698286711
 30
0.0
 10
14.8966295426
 20
14.374772723
 30
0.0
 10
14.9204754884
 20
14.3777114701
 30
0.0
 10
14.9443485872
 20
14.378637881
 30
0.0
 10
14.9682205837
 20
14.3775522599
 30
0.0
 10
14.9920630001
 20
14.3744560497
 30
0.0
 10
15.0158475144
 20
14.3693526569
 30
0.0
 10
15.0395468906
 20
14.3622516887
 30
0.0
 10
15.0631353326
 20
14.3531608511
 30
0.0
 10
15.094866292
 20
14.3381863426
 30
0.0
 10
15.1258430466
 20
14.3193560487
 30
0.0
 10
15.1558660014
 20
14.2971817058
 30
0.0
 10
15.1866204135
 20
14.2716412351
 30
0.0
 10
15.2084698895
 20
14.2502866702
 30
0.0
 10
15.2226063521
 20
14.2351934651
 30
0.0
  0
SPLINE
  5
2D3
100
AcDbEntity
  8
02___PRT_ALL_AXES
100
AcDbSpline
 62
7
  6
CONTINUOUS
 70
0
 71
3
 72
23
 73
19
 74
0
 42
0.0000001
 43
0.0000001
 44
0.0000000001
 40
0.0
 40
0.0
 40
0.0
 40
0.0
 40
0.0838346687
 40
0.1650436693
 40
0.2434895293
 40
0.3190804931
 40
0.3917410857
 40
0.4614081462
 40
0.528039855
 40
0.591620661
 40
0.6521628064
 40
0.7097098985
 40
0.7643437711
 40
0.8161881557
 40
0.8654171491
 40
0.9122586948
 40
0.95700246
 40
1.0
 40
1.0
 40
1.0
 40
1.0
 10
14.3024942924
 20
13.6553049037
 30
0.0
 10
14.3095388331
 20
13.6781010457
 30
0.0
 10
14.3240243864
 20
13.72279195
 30
0.0
 10
14.3473356413
 20
13.7880628523
 30
0.0
 10
14.3718433586
 20
13.8503813034
 30
0.0
 10
14.3974877944
 20
13.9095997378
 30
0.0
 10
14.424211421
 20
13.9655845063
 30
0.0
 10
14.4519527952
 20
14.018208066
 30
0.0
 10
14.4806492768
 20
14.0673490711
 30
0.0
 10
14.5102357536
 20
14.1128952838
 30
0.0
 10
14.5406457837
 20
14.1547432144
 30
0.0
 10
14.5718130866
 20
14.1927968087
 30
0.0
 10
14.6036686681
 20
14.2269696279
 30
0.0
 10
14.6361460721
 20
14.2571810696
 30
0.0
 10
14.6691746212
 20
14.2833606075
 30
0.0
 10
14.7026888559
 20
14.3054409484
 30
0.0
 10
14.7366095852
 20
14.323362722
 30
0.0
 10
14.7598498956
 20
14.3326602891
 30
0.0
 10
14.7714543107
 20
14.3365448412
 30
0.0
  0
SPLINE
  5
2D4
100
AcDbEntity
  8
02___PRT_ALL_AXES
100
AcDbSpline
 62
7
  6
CONTINUOUS
 70
0
 71
3
 72
20
 73
16
 74
0
 42
0.0000001
 43
0.0000001
 44
0.0000000001
 40
0.0
 40
0.0
 40
0.0
 40
0.0
 40
0.0588894195
 40
0.1168023942
 40
0.1740567731
 40
0.2309848832
 40
0.2879258157
 40
0.3452186189
 40
0.4031943284
 40
0.4621700524
 40
0.5224428203
 40
0.5842851205
 40
0.7135690001
 40
0.8517388269
 40
1.0
 40
1.0
 40
1.0
 40
1.0
 10
14.8494031241
 20
10.6589722678
 30
0.0
 10
14.8571872555
 20
10.6563667049
 30
0.0
 10
14.8728307302
 20
10.6517843658
 30
0.0
 10
14.8966095995
 20
10.6468402547
 30
0.0
 10
14.9204455934
 20
10.6439016922
 30
0.0
 10
14.9443085214
 20
10.6429722054
 30
0.0
 10
14.9681705549
 20
10.6440532327
 30
0.0
 10
14.9920028606
 20
10.6471444622
 30
0.0
 10
15.0157777355
 20
10.6522392321
 30
0.0
 10
15.0394673782
 20
10.6593314558
 30
0.0
 10
15.0630460202
 20
10.6684114491
 30
0.0
 10
15.0947654461
 20
10.6833685785
 30
0.0
 10
15.1341191383
 20
10.7072764331
 30
0.0
 10
15.1797092225
 20
10.7432300396
 30
0.0
 10
15.208327131
 20
10.7711798655
 30
0.0
 10
15.2224589095
 20
10.7862591694
 30
0.0
  0
SPLINE
  5
2D5
100
AcDbEntity
  8
02___PRT_ALL_AXES
100
AcDbSpline
 62
7
  6
CONTINUOUS
 70
0
 71
3
 72
9
 73
5
 74
0
 42
0.0000001
 43
0.0000001
 44
0.0000000001
 40
0.0
 40
0.0
 40
0.0
 40
0.0
 40
0.5121585091
 40
1.0
 40
1.0
 40
1.0
 40
1.0
 10
14.4803646002
 20
13.6884355658
 30
0.0
 10
14.4899060839
 20
13.7150918958
 30
0.0
 10
14.5095703025
 20
13.7667762898
 30
0.0
 10
14.5315137603
 20
13.8175408403
 30
0.0
 10
14.542835755
 20
13.8420173645
 30
0.0
  0
SPLINE
  5
2D6
100
AcDbEntity
  8
02___PRT_ALL_AXES
100
AcDbSpline
 62
7
  6
CONTINUOUS
 70
0
 71
3
 72
11
 73
7
 74
0
 42
0.0000001
 43
0.0000001
 44
0.0000000001
 40
0.0
 40
0.0
 40
0.0
 40
0.0
 40
0.2627990513
 40
0.5171232739
 40
0.7628726748
 40
1.0
 40
1.0
 40
1.0
 40
1.0
 10
14.5455719444
 20
13.847901069
 30
0.0
 10
14.5519644634
 20
13.8615737147
 30
0.0
 10
14.5649302289
 20
13.8882995953
 30
0.0
 10
14.585272928
 20
13.9271128117
 30
0.0
 10
14.6061676136
 20
13.9639462522
 30
0.0
 10
14.6207058721
 20
13.9875718389
 30
0.0
 10
14.6280683218
 20
13.9990290198
 30
0.0
  0
SPLINE
  5
2D7
100
AcDbEntity
  8
02___PRT_ALL_AXES
100
AcDbSpline
 62
7
  6
CONTINUOUS
 70
0
 71
3
 72
9
 73
5
 74
0
 42
0.0000001
 43
0.0000001
 44
0.0000000001
 40
0.0
 40
0.0
 40
0.0
 40
0.0
 40
0.5168057412
 40
1.0
 40
1.0
 40
1.0
 40
1.0
 10
14.6280683218
 20
13.9990290198
 30
0.0
 10
14.640115325
 20
14.0177761353
 30
0.0
 10
14.6645900756
 20
14.0533219147
 30
0.0
 10
14.6916701789
 20
14.0869466452
 30
0.0
 10
14.7054481448
 20
14.1025754651
 30
0.0
  0
SPLINE
  5
2D8
100
AcDbEntity
  8
02___PRT_ALL_AXES
100
AcDbSpline
 62
7
  6
CONTINUOUS
 70
0
 71
3
 72
10
 73
6
 74
0
 42
0.0000001
 43
0.0000001
 44
0.0000000001
 40
0.0
 40
0.0
 40
0.0
 40
0.0
 40
0.2660410202
 40
0.5210719645
 40
1.0
 40
1.0
 40
1.0
 40
1.0
 10
14.7054481448
 20
14.1025754651
 30
0.0
 10
14.7133043279
 20
14.1114870035
 30
0.0
 10
14.7291419138
 20
14.1285554614
 30
0.0
 10
14.7613255622
 20
14.1595264001
 30
0.0
 10
14.7869973826
 20
14.1801084195
 30
0.0
 10
14.8046423575
 20
14.1921929634
 30
0.0
  0
SPLINE
  5
2D9
100
AcDbEntity
  8
02___PRT_ALL_AXES
100
AcDbSpline
 62
7
  6
CONTINUOUS
 70
0
 71
3
 72
15
 73
11
 74
0
 42
0.0000001
 43
0.0000001
 44
0.0000000001
 40
0.0
 40
0.0
 40
0.0
 40
0.0
 40
0.1367767263
 40
0.2674962271
 40
0.393311775
 40
0.5155686934
 40
0.6357653879
 40
0.755499094
 40
0.8763896605
 40
1.0
 40
1.0
 40
1.0
 40
1.0
 10
14.8046423575
 20
14.1921929634
 30
0.0
 10
14.8151431765
 20
14.1993846771
 30
0.0
 10
14.8363305513
 20
14.2125352568
 30
0.0
 10
14.8692841772
 20
14.2286096929
 30
0.0
 10
14.902552225
 20
14.2404903011
 30
0.0
 10
14.9360446925
 20
14.2481322805
 30
0.0
 10
14.9696684265
 20
14.2514991987
 30
0.0
 10
15.0033227501
 20
14.2505776174
 30
0.0
 10
15.0368988249
 20
14.2453707581
 30
0.0
 10
15.0588488301
 20
14.2391500016
 30
0.0
 10
15.0697192382
 20
14.2353901246
 30
0.0
  0
SPLINE
  5
2DA
100
AcDbEntity
  8
02___PRT_ALL_AXES
100
AcDbSpline
 62
7
  6
CONTINUOUS
 70
0
 71
3
 72
22
 73
18
 74
0
 42
0.0000001
 43
0.0000001
 44
0.0000000001
 40
0.0
 40
0.0
 40
0.0
 40
0.0
 40
0.0804117453
 40
0.1586550293
 40
0.2346244225
 40
0.30824681
 40
0.3794636626
 40
0.4482232809
 40
0.514482724
 40
0.5782155015
 40
0.6394101793
 40
0.6980733493
 40
0.7542303648
 40
0.8079295694
 40
0.8592443855
 40
0.9082769366
 40
1.0
 40
1.0
 40
1.0
 40
1.0
 10
14.3737409383
 20
13.6716616087
 30
0.0
 10
14.379962625
 20
13.6917949943
 30
0.0
 10
14.3927139469
 20
13.7313739654
 30
0.0
 10
14.413057357
 20
13.7894041151
 30
0.0
 10
14.434328731
 20
13.8452015195
 30
0.0
 10
14.4564881128
 20
13.8986649597
 30
0.0
 10
14.4794984996
 20
13.9497029542
 30
0.0
 10
14.5033189174
 20
13.9982284654
 30
0.0
 10
14.5279095453
 20
14.0441563558
 30
0.0
 10
14.5532266473
 20
14.0874070879
 30
0.0
 10
14.5792277677
 20
14.1279055172
 30
0.0
 10
14.6058676432
 20
14.1655819987
 30
0.0
 10
14.6331023569
 20
14.2003713999
 30
0.0
 10
14.6608841073
 20
14.2322122611
 30
0.0
 10
14.6891731244
 20
14.2610537252
 30
0.0
 10
14.7266507165
 20
14.2946780134
 30
0.0
 10
14.7566353533
 20
14.3164826207
 30
0.0
 10
14.7772217441
 20
14.3288914996
 30
0.0
  0
SPLINE
  5
2DB
100
AcDbEntity
  8
02___PRT_ALL_AXES
100
AcDbSpline
 62
7
  6
CONTINUOUS
 70
0
 71
3
 72
9
 73
5
 74
0
 42
0.0000001
 43
0.0000001
 44
0.0000000001
 40
0.0
 40
0.0
 40
0.0
 40
0.0
 40
0.5105150193
 40
1.0
 40
1.0
 40
1.0
 40
1.0
 10
14.7772217441
 20
14.3288914996
 30
0.0
 10
14.7888520869
 20
14.3359019328
 30
0.0
 10
14.8123250622
 20
14.3485291861
 30
0.0
 10
14.8370561632
 20
14.3585045367
 30
0.0
 10
14.8494031229
 20
14.3626377428
 30
0.0
  0
SPLINE
  5
2DC
100
AcDbEntity
  8
02___PRT_ALL_AXES
100
AcDbSpline
 62
7
  6
CONTINUOUS
 70
0
 71
3
 72
40
 73
36
 74
0
 42
0.0000001
 43
0.0000001
 44
0.0000000001
 40
0.0
 40
0.0
 40
0.0
 40
0.0
 40
0.0312152009
 40
0.0635295819
 40
0.096844771
 40
0.1310647044
 40
0.1660830538
 40
0.2017890427
 40
0.2380680208
 40
0.2748016419
 40
0.3118688892
 40
0.3491468457
 40
0.3865113809
 40
0.4238378361
 40
0.4610017943
 40
0.4978797861
 40
0.5343499504
 40
0.5702928504
 40
0.605592235
 40
0.640135724
 40
0.6738156603
 40
0.7065301271
 40
0.7381837513
 40
0.7686886964
 40
0.7979660566
 40
0.8259472112
 40
0.8525752989
 40
0.8778072866
 40
0.9016166627
 40
0.9239962846
 40
0.9449621808
 40
0.9549298477
 40
0.9645633959
 40
0.982868354
 40
1.0
 40
1.0
 40
1.0
 40
1.0
 10
14.3737409383
 20
13.6716616087
 30
0.0
 10
14.3641124401
 20
13.640503777
 30
0.0
 10
14.3456865239
 20
13.5767243024
 30
0.0
 10
14.3208894407
 20
13.4786155932
 30
0.0
 10
14.2985300814
 20
13.3767066664
 30
0.0
 10
14.2786963459
 20
13.2714019438
 30
0.0
 10
14.2614665333
 20
13.1631109461
 30
0.0
 10
14.2469084242
 20
13.0522593679
 30
0.0
 10
14.2350793824
 20
12.9392820972
 30
0.0
 10
14.2260265421
 20
12.8246223789
 30
0.0
 10
14.219785326
 20
12.7087304307
 30
0.0
 10
14.2163802352
 20
12.5920612874
 30
0.0
 10
14.2158249544
 20
12.4750730564
 30
0.0
 10
14.2181218067
 20
12.3582251439
 30
0.0
 10
14.2232613837
 20
12.2419763781
 30
0.0
 10
14.231223408
 20
12.1267832083
 30
0.0
 10
14.2419768064
 20
12.0130979237
 30
0.0
 10
14.2554789205
 20
11.901366743
 30
0.0
 10
14.271676264
 20
11.7920280561
 30
0.0
 10
14.2905051096
 20
11.6855107974
 30
0.0
 10
14.311891435
 20
11.5822326238
 30
0.0
 10
14.3357505748
 20
11.4825980345
 30
0.0
 10
14.3619885355
 20
11.3869969533
 30
0.0
 10
14.3905025313
 20
11.2958032233
 30
0.0
 10
14.4211805749
 20
11.2093726536
 30
0.0
 10
14.4539024337
 20
11.1280416009
 30
0.0
 10
14.4885410133
 20
11.0521257623
 30
0.0
 10
14.5249627962
 20
10.981919231
 30
0.0
 10
14.5630290675
 20
10.9176910966
 30
0.0
 10
14.6025946661
 20
10.8596908107
 30
0.0
 10
14.6372617789
 20
10.8160170564
 30
0.0
 10
14.6656593172
 20
10.7845389993
 30
0.0
 10
14.6934732386
 20
10.7563331507
 30
0.0
 10
14.7288533227
 20
10.7251427973
 30
0.0
 10
14.7591965566
 20
10.7037596558
 30
0.0
 10
14.7744532821
 20
10.6944016562
 30
0.0
  0
SPLINE
  5
2DD
100
AcDbEntity
  8
02___PRT_ALL_AXES
100
AcDbSpline
 62
7
  6
CONTINUOUS
 70
0
 71
3
 72
9
 73
5
 74
0
 42
0.0000001
 43
0.0000001
 44
0.0000000001
 40
0.0
 40
0.0
 40
0.0
 40
0.0
 40
0.5107701332
 40
1.0
 40
1.0
 40
1.0
 40
1.0
 10
14.7757504703
 20
10.6936092307
 30
0.0
 10
14.7876074973
 20
10.6863955208
 30
0.0
 10
14.8115441498
 20
10.6734156994
 30
0.0
 10
14.8367969003
 20
10.6631919177
 30
0.0
 10
14.8494031241
 20
10.6589722678
 30
0.0
  0
SPLINE
  5
2DE
100
AcDbEntity
  8
02___PRT_ALL_AXES
100
AcDbSpline
 62
7
  6
CONTINUOUS
 70
0
 71
3
 72
9
 73
5
 74
0
 42
0.0000001
 43
0.0000001
 44
0.0000000001
 40
0.0
 40
0.0
 40
0.0
 40
0.0
 40
0.5113979525
 40
1.0
 40
1.0
 40
1.0
 40
1.0
 10
14.4528194169
 20
11.4150999363
 30
0.0
 10
14.4619557546
 20
11.3861529427
 30
0.0
 10
14.480887351
 20
11.3298787007
 30
0.0
 10
14.5021573118
 20
11.2744408303
 30
0.0
 10
14.5131820385
 20
11.2476165283
 30
0.0
  0
SPLINE
  5
2DF
100
AcDbEntity
  8
02___PRT_ALL_AXES
100
AcDbSpline
 62
7
  6
CONTINUOUS
 70
0
 71
3
 72
9
 73
5
 74
0
 42
0.0000001
 43
0.0000001
 44
0.0000000001
 40
0.0
 40
0.0
 40
0.0
 40
0.0
 40
0.5136360803
 40
1.0
 40
1.0
 40
1.0
 40
1.0
 10
14.5220677307
 20
11.2263814031
 30
0.0
 10
14.5324342333
 20
11.2020487066
 30
0.0
 10
14.5536822289
 20
11.1551196033
 30
0.0
 10
14.577302898
 20
11.1093303887
 30
0.0
 10
14.5894345397
 20
11.0874202649
 30
0.0
  0
SPLINE
  5
2E0
100
AcDbEntity
  8
02___PRT_ALL_AXES
100
AcDbSpline
 62
7
  6
CONTINUOUS
 70
0
 71
3
 72
11
 73
7
 74
0
 42
0.0000001
 43
0.0000001
 44
0.0000000001
 40
0.0
 40
0.0
 40
0.0
 40
0.0
 40
0.2642020555
 40
0.5189185244
 40
0.7641631552
 40
1.0
 40
1.0
 40
1.0
 40
1.0
 10
14.5919484847
 20
11.0829018071
 30
0.0
 10
14.5988383905
 20
11.0705777579
 30
0.0
 10
14.6127801556
 20
11.0465976726
 30
0.0
 10
14.6345987909
 20
11.0120656405
 30
0.0
 10
14.6569106569
 20
10.9796740532
 30
0.0
 10
14.6723956719
 20
10.9591382775
 30
0.0
 10
14.6802198791
 20
10.9492576485
 30
0.0
  0
SPLINE
  5
2E1
100
AcDbEntity
  8
02___PRT_ALL_AXES
100
AcDbSpline
 62
7
  6
CONTINUOUS
 70
0
 71
3
 72
9
 73
5
 74
0
 42
0.0000001
 43
0.0000001
 44
0.0000000001
 40
0.0
 40
0.0
 40
0.0
 40
0.0
 40
0.5173577451
 40
1.0
 40
1.0
 40
1.0
 40
1.0
 10
14.6802198791
 20
10.9492576485
 30
0.0
 10
14.6927488386
 20
10.9334357256
 30
0.0
 10
14.7181341689
 20
10.9037518556
 30
0.0
 10
14.7460984067
 20
10.8764520165
 30
0.0
 10
14.7602534411
 20
10.8640377084
 30
0.0
  0
SPLINE
  5
2E2
100
AcDbEntity
  8
02___PRT_ALL_AXES
100
AcDbSpline
 62
7
  6
CONTINUOUS
 70
0
 71
3
 72
11
 73
7
 74
0
 42
0.0000001
 43
0.0000001
 44
0.0000000001
 40
0.0
 40
0.0
 40
0.0
 40
0.0
 40
0.265338415
 40
0.519771414
 40
0.7642731064
 40
1.0
 40
1.0
 40
1.0
 40
1.0
 10
14.7602534411
 20
10.8640377084
 30
0.0
 10
14.7686149946
 20
10.8567044234
 30
0.0
 10
14.7854556621
 20
10.8428524738
 30
0.0
 10
14.8115919878
 20
10.8242803371
 30
0.0
 10
14.838009806
 20
10.8083983283
 30
0.0
 10
14.8560861699
 20
10.7994764113
 30
0.0
 10
14.8651341096
 20
10.7955065279
 30
0.0
  0
SPLINE
  5
2E3
100
AcDbEntity
  8
02___PRT_ALL_AXES
100
AcDbSpline
 62
7
  6
CONTINUOUS
 70
0
 71
3
 72
15
 73
11
 74
0
 42
0.0000001
 43
0.0000001
 44
0.0000000001
 40
0.0
 40
0.0
 40
0.0
 40
0.0
 40
0.1298611613
 40
0.256524707
 40
0.3808412578
 40
0.5037232368
 40
0.6261230937
 40
0.7490074091
 40
0.8733290284
 40
1.0
 40
1.0
 40
1.0
 40
1.0
 10
14.8651341096
 20
10.7955065279
 30
0.0
 10
14.8733890652
 20
10.791884575
 30
0.0
 10
14.8899996861
 20
10.78539615
 30
0.0
 10
14.9154101737
 20
10.7779768969
 30
0.0
 10
14.9409245203
 20
10.7730225501
 30
0.0
 10
14.9665006083
 20
10.7705435736
 30
0.0
 10
14.9920975788
 20
10.7705475511
 30
0.0
 10
15.0176741085
 20
10.7730318282
 30
0.0
 10
15.0431863027
 20
10.7779925594
 30
0.0
 10
15.0599365927
 20
10.7828879868
 30
0.0
 10
15.0682612424
 20
10.7857198505
 30
0.0
  0
SPLINE
  5
2E4
100
AcDbEntity
  8
02___PRT_ALL_AXES
100
AcDbSpline
 62
7
  6
CONTINUOUS
 70
0
 71
3
 72
25
 73
21
 74
0
 42
0.0000001
 43
0.0000001
 44
0.0000000001
 40
0.0
 40
0.0
 40
0.0
 40
0.0
 40
0.0212799936
 40
0.0426538248
 40
0.0642136867
 40
0.0860488937
 40
0.1308575784
 40
0.1777210916
 40
0.2271547753
 40
0.2795675104
 40
0.3352687398
 40
0.3944786677
 40
0.4573390364
 40
0.5239275921
 40
0.5942652965
 40
0.6683268398
 40
0.7460428925
 40
0.8273184198
 40
0.9120330288
 40
1.0
 40
1.0
 40
1.0
 40
1.0
 10
16.0458545287
 20
14.0128048799
 30
0.0
 10
16.0403681835
 20
14.0128049831
 30
0.0
 10
16.0293671549
 20
14.0124068846
 30
0.0
 10
16.0128953919
 20
14.0106169613
 30
0.0
 10
15.9964503993
 20
14.007636318
 30
0.0
 10
15.9743952313
 20
14.0020327224
 30
0.0
 10
15.9468312784
 20
13.9919329621
 30
0.0
 10
15.9144280597
 20
13.9752133584
 30
0.0
 10
15.8824952918
 20
13.9538615646
 30
0.0
 10
15.8511261689
 20
13.9279625326
 30
0.0
 10
15.8204055705
 20
13.8976049743
 30
0.0
 10
15.7904203992
 20
13.8628867036
 30
0.0
 10
15.7612549974
 20
13.8239176143
 30
0.0
 10
15.7329970579
 20
13.7808172118
 30
0.0
 10
15.7057296481
 20
13.7337198177
 30
0.0
 10
15.6795379803
 20
13.6827713157
 30
0.0
 10
15.6545012221
 20
13.6281306356
 30
0.0
 10
15.6306971891
 20
13.5699649792
 30
0.0
 10
15.6082035517
 20
13.5084609093
 30
0.0
 10
15.5943776739
 20
13.4661315226
 30
0.0
 10
15.587681645
 20
13.4444631652
 30
0.0
  0
SPLINE
  5
2E5
100
AcDbEntity
  8
02___PRT_ALL_AXES
100
AcDbSpline
 62
7
  6
CONTINUOUS
 70
0
 71
3
 72
28
 73
24
 74
0
 42
0.0000001
 43
0.0000001
 44
0.0000000001
 40
0.0
 40
0.0
 40
0.0
 40
0.0
 40
0.022910253
 40
0.0454449955
 40
0.0677236623
 40
0.0898711362
 40
0.112014933
 40
0.1342827335
 40
0.1567994808
 40
0.1796851489
 40
0.2030525826
 40
0.2270056094
 40
0.2770098096
 40
0.3303593094
 40
0.3875243486
 40
0.4488308955
 40
0.5144813152
 40
0.5845749623
 40
0.6591273658
 40
0.7380837637
 40
0.8213278067
 40
0.9087067175
 40
1.0
 40
1.0
 40
1.0
 40
1.0
 10
16.0928218128
 20
14.362637718
 30
0.0
 10
16.0851647598
 20
14.3652007442
 30
0.0
 10
16.0697786157
 20
14.3697180986
 30
0.0
 10
16.0463954465
 20
14.3746284843
 30
0.0
 10
16.0229563333
 20
14.3775994351
 30
0.0
 10
15.9994898983
 20
14.3786274001
 30
0.0
 10
15.9760225166
 20
14.3777111188
 30
0.0
 10
15.952581524
 20
14.3748503881
 30
0.0
 10
15.9291932942
 20
14.3700512918
 30
0.0
 10
15.9058841727
 20
14.363319612
 30
0.0
 10
15.8826789119
 20
14.3546636663
 30
0.0
 10
15.8514681722
 20
14.3403723454
 30
0.0
 10
15.8127235977
 20
14.3174668422
 30
0.0
 10
15.76777904
 20
14.2829164794
 30
0.0
 10
15.7238625283
 20
14.2410763129
 30
0.0
 10
15.6811356287
 20
14.1921300649
 30
0.0
 10
15.6397505502
 20
14.1362776713
 30
0.0
 10
15.5998635786
 20
14.073744808
 30
0.0
 10
15.5616297791
 20
14.0047826621
 30
0.0
 10
15.5252021218
 20
13.929670344
 30
0.0
 10
15.4907253479
 20
13.8487105131
 30
0.0
 10
15.4583435811
 20
13.7622370254
 30
0.0
 10
15.4386524893
 20
13.7024031752
 30
0.0
 10
15.4291526268
 20
13.6716616087
 30
0.0
  0
SPLINE
  5
2E6
100
AcDbEntity
  8
02___PRT_ALL_AXES
100
AcDbSpline
 62
7
  6
CONTINUOUS
 70
0
 71
3
 72
23
 73
19
 74
0
 42
0.0000001
 43
0.0000001
 44
0.0000000001
 40
0.0
 40
0.0
 40
0.0
 40
0.0
 40
0.0838346687
 40
0.1650436693
 40
0.2434895293
 40
0.3190804931
 40
0.3917410857
 40
0.4614081462
 40
0.528039855
 40
0.591620661
 40
0.6521628064
 40
0.7097098985
 40
0.7643437711
 40
0.8161881557
 40
0.8654171491
 40
0.9122586948
 40
0.95700246
 40
1.0
 40
1.0
 40
1.0
 40
1.0
 10
16.6397306445
 20
11.3663050821
 30
0.0
 10
16.6326861038
 20
11.3435089401
 30
0.0
 10
16.6182005505
 20
11.2988180358
 30
0.0
 10
16.5948892956
 20
11.2335471335
 30
0.0
 10
16.5703815783
 20
11.1712286824
 30
0.0
 10
16.5447371426
 20
11.1120102481
 30
0.0
 10
16.518013516
 20
11.0560254795
 30
0.0
 10
16.4902721417
 20
11.0034019198
 30
0.0
 10
16.4615756602
 20
10.9542609147
 30
0.0
 10
16.4319891834
 20
10.908714702
 30
0.0
 10
16.4015791533
 20
10.8668667714
 30
0.0
 10
16.3704118504
 20
10.8288131771
 30
0.0
 10
16.3385562688
 20
10.7946403579
 30
0.0
 10
16.3060788648
 20
10.7644289162
 30
0.0
 10
16.2730503158
 20
10.7382493783
 30
0.0
 10
16.239536081
 20
10.7161690374
 30
0.0
 10
16.2056153517
 20
10.6982472638
 30
0.0
 10
16.1823750413
 20
10.6889496967
 30
0.0
 10
16.1707706262
 20
10.6850651446
 30
0.0
  0
SPLINE
  5
2E7
100
AcDbEntity
  8
02___PRT_ALL_AXES
100
AcDbSpline
 62
7
  6
CONTINUOUS
 70
0
 71
3
 72
41
 73
37
 74
0
 42
0.0000001
 43
0.0000001
 44
0.0000000001
 40
0.0
 40
0.0
 40
0.0
 40
0.0
 40
0.032027984
 40
0.06523626
 40
0.0995132372
 40
0.1347486352
 40
0.1708206164
 40
0.2076023662
 40
0.2449624806
 40
0.2827655305
 40
0.3208732439
 40
0.3591453853
 40
0.3974407022
 40
0.4356177718
 40
0.4735359112
 40
0.5110561355
 40
0.5480420174
 40
0.5843605871
 40
0.6198834288
 40
0.654487665
 40
0.688056953
 40
0.7204826993
 40
0.7516655555
 40
0.7815167724
 40
0.8099598848
 40
0.8369329594
 40
0.8623913221
 40
0.8863106089
 40
0.9086908683
 40
0.9295620004
 40
0.9489902115
 40
0.9581991841
 40
0.9670929312
 40
0.9840167973
 40
0.9921110624
 40
1.0
 40
1.0
 40
1.0
 40
1.0
 10
16.6397306445
 20
11.3663050821
 30
0.0
 10
16.6497286763
 20
11.3986587249
 30
0.0
 10
16.6688128184
 20
11.464959696
 30
0.0
 10
16.6943345999
 20
11.5670525773
 30
0.0
 10
16.7171857874
 20
11.6732474309
 30
0.0
 10
16.7372671142
 20
11.7830781795
 30
0.0
 10
16.7544904488
 20
11.8960718283
 30
0.0
 10
16.7687808547
 20
12.0117366717
 30
0.0
 10
16.7800760172
 20
12.129570434
 30
0.0
 10
16.7883261927
 20
12.2490612899
 30
0.0
 10
16.7934953056
 20
12.3696898792
 30
0.0
 10
16.7955610455
 20
12.4909318732
 30
0.0
 10
16.7945143609
 20
12.6122602581
 30
0.0
 10
16.7903595075
 20
12.7331476162
 30
0.0
 10
16.7831147792
 20
12.853068483
 30
0.0
 10
16.7728120793
 20
12.9715016992
 30
0.0
 10
16.7594963961
 20
13.0879326348
 30
0.0
 10
16.7432255919
 20
13.2018554553
 30
0.0
 10
16.7240710423
 20
13.3127755467
 30
0.0
 10
16.7021165677
 20
13.4202116516
 30
0.0
 10
16.6774578779
 20
13.5236978701
 30
0.0
 10
16.6502021884
 20
13.622785872
 30
0.0
 10
16.6204684962
 20
13.7170472614
 30
0.0
 10
16.5883859746
 20
13.8060752991
 30
0.0
 10
16.5540930867
 20
13.8894866502
 30
0.0
 10
16.5177370032
 20
13.9669234319
 30
0.0
 10
16.4794726499
 20
14.0380553993
 30
0.0
 10
16.4394608056
 20
14.1025801406
 30
0.0
 10
16.3978638099
 20
14.160225865
 30
0.0
 10
16.3548510613
 20
14.2107442583
 30
0.0
 10
16.3173104064
 20
14.2473614927
 30
0.0
 10
16.2867213566
 20
14.2726712965
 30
0.0
 10
16.2568677337
 20
14.2946085701
 30
0.0
 10
16.2260578246
 20
14.313191424
 30
0.0
 10
16.1945014024
 20
14.3279018796
 30
0.0
 10
16.1786802266
 20
14.3338971375
 30
0.0
 10
16.1707706255
 20
14.3365448268
 30
0.0
  0
SPLINE
  5
2E8
100
AcDbEntity
  8
02___PRT_ALL_AXES
100
AcDbSpline
 62
7
  6
CONTINUOUS
 70
0
 71
3
 72
51
 73
47
 74
0
 42
0.0000001
 43
0.0000001
 44
0.0000000001
 40
0.0
 40
0.0
 40
0.0
 40
0.0
 40
0.0081714454
 40
0.0161957385
 40
0.0241301345
 40
0.0320343358
 40
0.0399688934
 40
0.0479935344
 40
0.0561654719
 40
0.0645381762
 40
0.0731603068
 40
0.0820750813
 40
0.0913202393
 40
0.1009276876
 40
0.1109242538
 40
0.1213315067
 40
0.1321665922
 40
0.1434424753
 40
0.1551682523
 40
0.1673499345
 40
0.1799901888
 40
0.193089343
 40
0.2066450501
 40
0.2206529291
 40
0.2351066795
 40
0.2499980496
 40
0.2810512447
 40
0.3137205666
 40
0.3478916827
 40
0.3834338098
 40
0.4202023121
 40
0.4580409341
 40
0.4967837796
 40
0.5362571118
 40
0.5762810488
 40
0.616671197
 40
0.6572402064
 40
0.6977992945
 40
0.7381597508
 40
0.7781344514
 40
0.8175394108
 40
0.8561952607
 40
0.8939293
 40
0.9305756893
 40
0.9659813465
 40
1.0
 40
1.0
 40
1.0
 40
1.0
 10
16.0928218141
 20
10.658972243
 30
0.0
 10
16.0840174355
 20
10.6560249335
 30
0.0
 10
16.0663043231
 20
10.650932337
 30
0.0
 10
16.0393381166
 20
10.6457763265
 30
0.0
 10
16.0123063544
 20
10.64319648
 30
0.0
 10
15.9852538206
 20
10.643200824
 30
0.0
 10
15.9582224796
 20
10.6457866366
 30
0.0
 10
15.9312550171
 20
10.6509511678
 30
0.0
 10
15.904391964
 20
10.6586815079
 30
0.0
 10
15.8776728054
 20
10.6689641741
 30
0.0
 10
15.8511349888
 20
10.6817803755
 30
0.0
 10
15.8248138223
 20
10.6971079479
 30
0.0
 10
15.7987450277
 20
10.7149242651
 30
0.0
 10
15.7729610849
 20
10.7352008736
 30
0.0
 10
15.7474967922
 20
10.7579102454
 30
0.0
 10
15.7223839941
 20
10.7830191895
 30
0.0
 10
15.6976560088
 20
10.8104936062
 30
0.0
 10
15.6733454335
 20
10.8402958337
 30
0.0
 10
15.6494835875
 20
10.8723847411
 30
0.0
 10
15.6261036099
 20
10.9067174827
 30
0.0
 10
15.6032352532
 20
10.943246498
 30
0.0
 10
15.5809107483
 20
10.9819228589
 30
0.0
 10
15.5591592822
 20
11.0226934427
 30
0.0
 10
15.5380107961
 20
11.0655028672
 30
0.0
 10
15.5174940741
 20
11.1102930153
 30
0.0
 10
15.4906427302
 20
11.1734557736
 30
0.0
 10
15.458954697
 20
11.2570121529
 30
0.0
 10
15.4243853994
 20
11.3627695697
 30
0.0
 10
15.3929476691
 20
11.474804182
 30
0.0
 10
15.364814133
 20
11.592503896
 30
0.0
 10
15.3401393874
 20
11.7152278588
 30
0.0
 10
15.3190593345
 20
11.8423058368
 30
0.0
 10
15.301690202
 20
11.9730433313
 30
0.0
 10
15.2881278081
 20
12.1067251775
 30
0.0
 10
15.2784468973
 20
12.242619713
 30
0.0
 10
15.2727008546
 20
12.3799829125
 30
0.0
 10
15.2709213715
 20
12.5180625739
 30
0.0
 10
15.27311828
 20
12.6561024981
 30
0.0
 10
15.2792794852
 20
12.7933466898
 30
0.0
 10
15.2893710437
 20
12.9290435967
 30
0.0
 10
15.3033373163
 20
13.0624502017
 30
0.0
 10
15.3211010446
 20
13.1928367696
 30
0.0
 10
15.3425645767
 20
13.319489102
 30
0.0
 10
15.3676091839
 20
13.4417177028
 30
0.0
 10
15.3960972395
 20
13.5588500526
 30
0.0
 10
15.417740482
 20
13.6347318946
 30
0.0
 10
15.4291526268
 20
13.6716616087
 30
0.0
  0
SPLINE
  5
2E9
100
AcDbEntity
  8
02___PRT_ALL_AXES
100
AcDbSpline
 62
7
  6
CONTINUOUS
 70
0
 71
3
 72
11
 73
7
 74
0
 42
0.0000001
 43
0.0000001
 44
0.0000000001
 40
0.0
 40
0.0
 40
0.0
 40
0.0
 40
0.2461849875
 40
0.4939164773
 40
0.7447068072
 40
1.0
 40
1.0
 40
1.0
 40
1.0
 10
16.0458545288
 20
11.008805106
 30
0.0
 10
16.0392967357
 20
11.0088052293
 30
0.0
 10
16.0261330434
 20
11.0093753028
 30
0.0
 10
16.0064382929
 20
11.0119348732
 30
0.0
 10
15.9867928623
 20
11.0161967295
 30
0.0
 10
15.9738800811
 20
11.0201274694
 30
0.0
 10
15.9674561143
 20
11.0223586764
 30
0.0
  0
SPLINE
  5
2EA
100
AcDbEntity
  8
02___PRT_ALL_AXES
100
AcDbSpline
 62
7
  6
CONTINUOUS
 70
0
 71
3
 72
40
 73
36
 74
0
 42
0.0000001
 43
0.0000001
 44
0.0000000001
 40
0.0
 40
0.0
 40
0.0
 40
0.0
 40
0.0079074815
 40
0.016024573
 40
0.0330042132
 40
0.0511640563
 40
0.0706610381
 40
0.0916015225
 40
0.1140488471
 40
0.1380305726
 40
0.1635454223
 40
0.1905679984
 40
0.2190525944
 40
0.2489369942
 40
0.2801446573
 40
0.3125865878
 40
0.3461636035
 40
0.3807675035
 40
0.4162822054
 40
0.4525853368
 40
0.4895490568
 40
0.5270409776
 40
0.5649254023
 40
0.6030640547
 40
0.6413170032
 40
0.6795436655
 40
0.7176035455
 40
0.7553572888
 40
0.7926674438
 40
0.8293993205
 40
0.8654225544
 40
0.9006106019
 40
0.9348427853
 40
0.9680105547
 40
1.0
 40
1.0
 40
1.0
 40
1.0
 10
15.9674561143
 20
11.0223586764
 30
0.0
 10
15.9610206648
 20
11.0245938716
 30
0.0
 10
15.9481502848
 20
11.0296325801
 30
0.0
 10
15.9224845876
 20
11.0419181916
 30
0.0
 10
15.8906485316
 20
11.0615178382
 30
0.0
 10
15.8537865959
 20
11.0909448477
 30
0.0
 10
15.8178149902
 20
11.1264828631
 30
0.0
 10
15.7828727599
 20
11.1679709888
 30
0.0
 10
15.7490907848
 20
11.2152331567
 30
0.0
 10
15.7166026413
 20
11.2680695528
 30
0.0
 10
15.6855414858
 20
11.3262582429
 30
0.0
 10
15.6560374511
 20
11.3895532099
 30
0.0
 10
15.6282146782
 20
11.4576849659
 30
0.0
 10
15.6021926899
 20
11.5303627951
 30
0.0
 10
15.5780838887
 20
11.607275349
 30
0.0
 10
15.5559916666
 20
11.688091882
 30
0.0
 10
15.5360121451
 20
11.7724645626
 30
0.0
 10
15.5182324722
 20
11.8600296857
 30
0.0
 10
15.5027291459
 20
11.9504091231
 30
0.0
 10
15.4895698825
 20
12.0432125013
 30
0.0
 10
15.4788123912
 20
12.1380387537
 30
0.0
 10
15.4705027581
 20
12.2344777466
 30
0.0
 10
15.464677377
 20
12.3321123456
 30
0.0
 10
15.4613621077
 20
12.4305201788
 30
0.0
 10
15.4605706814
 20
12.5292754174
 30
0.0
 10
15.4623067033
 20
12.6279507203
 30
0.0
 10
15.4665631611
 20
12.7261191175
 30
0.0
 10
15.4733208631
 20
12.8233558686
 30
0.0
 10
15.4825504687
 20
12.919240261
 30
0.0
 10
15.4942123592
 20
13.013357744
 30
0.0
 10
15.5082553687
 20
13.105301209
 30
0.0
 10
15.5246179938
 20
13.1946726415
 30
0.0
 10
15.5432301173
 20
13.2810895172
 30
0.0
 10
15.5640106947
 20
13.3641730334
 30
0.0
 10
15.5795446223
 20
13.4181317498
 30
0.0
 10
15.587681645
 20
13.4444631652
 30
0.0
  0
SPLINE
  5
2EB
100
AcDbEntity
  8
02___PRT_ALL_AXES
100
AcDbSpline
 62
7
  6
CONTINUOUS
 70
0
 71
3
 72
23
 73
19
 74
0
 42
0.0000001
 43
0.0000001
 44
0.0000000001
 40
0.0
 40
0.0
 40
0.0
 40
0.0
 40
0.0547571427
 40
0.1084529447
 40
0.1615842264
 40
0.2146672008
 40
0.2682199129
 40
0.3227439729
 40
0.3787079579
 40
0.4365361574
 40
0.4966007388
 40
0.5592192352
 40
0.6246555451
 40
0.6931217513
 40
0.7647843539
 40
0.8397660573
 40
0.9181540871
 40
1.0
 40
1.0
 40
1.0
 40
1.0
 10
16.1707706255
 20
14.3365448268
 30
0.0
 10
16.1609650995
 20
14.339827165
 30
0.0
 10
16.1412115791
 20
14.3453877482
 30
0.0
 10
16.1110887272
 20
14.3505831161
 30
0.0
 10
16.0808944933
 20
14.3525204213
 30
0.0
 10
16.0506951018
 20
14.3511893778
 30
0.0
 10
16.0205525769
 20
14.3465973097
 30
0.0
 10
15.9905286303
 20
14.3387550814
 30
0.0
 10
15.9606805964
 20
14.3276859661
 30
0.0
 10
15.9310630352
 20
14.3134161332
 30
0.0
 10
15.9017267288
 20
14.2959783624
 30
0.0
 10
15.8727203537
 20
14.2754086111
 30
0.0
 10
15.8440916933
 20
14.2517462469
 30
0.0
 10
15.8158865204
 20
14.2250356543
 30
0.0
 10
15.788152213
 20
14.1953236706
 30
0.0
 10
15.7609329567
 20
14.1626634911
 30
0.0
 10
15.7342766107
 20
14.127111745
 30
0.0
 10
15.717276759
 20
14.1020656141
 30
0.0
 10
15.7088696494
 20
14.0890963989
 30
0.0
  0
SPLINE
  5
2EC
100
AcDbEntity
  8
02___PRT_ALL_AXES
100
AcDbSpline
 62
7
  6
CONTINUOUS
 70
0
 71
3
 72
11
 73
7
 74
0
 42
0.0000001
 43
0.0000001
 44
0.0000000001
 40
0.0
 40
0.0
 40
0.0
 40
0.0
 40
0.2296657282
 40
0.473076468
 40
0.7299858164
 40
1.0
 40
1.0
 40
1.0
 40
1.0
 10
15.7078169532
 20
14.0874693028
 30
0.0
 10
15.69464938
 20
14.0670773796
 30
0.0
 10
15.6689081781
 20
14.0241697049
 30
0.0
 10
15.6330199785
 20
13.9558322649
 30
0.0
 10
15.5988577064
 20
13.8818939436
 30
0.0
 10
15.5778301628
 20
13.8303026457
 30
0.0
 10
15.5675985194
 20
13.8036615929
 30
0.0
  0
SPLINE
  5
2ED
100
AcDbEntity
  8
02___PRT_ALL_AXES
100
AcDbSpline
 62
7
  6
CONTINUOUS
 70
0
 71
3
 72
48
 73
44
 74
0
 42
0.0000001
 43
0.0000001
 44
0.0000000001
 40
0.0
 40
0.0
 40
0.0
 40
0.0
 40
0.033707813
 40
0.0687691388
 40
0.1050423178
 40
0.1423828959
 40
0.1806325972
 40
0.2196269178
 40
0.2591950214
 40
0.2991615024
 40
0.339347907
 40
0.3795740342
 40
0.4196593654
 40
0.4594244949
 40
0.4986925203
 40
0.53729044
 40
0.5750506103
 40
0.6118123648
 40
0.6474236301
 40
0.6817426548
 40
0.7146399642
 40
0.746000678
 40
0.775727308
 40
0.8037429506
 40
0.8170934512
 40
0.8299990273
 40
0.8424578169
 40
0.8544705514
 40
0.8660401267
 40
0.8771726238
 40
0.8878771803
 40
0.8981663433
 40
0.917560628
 40
0.9267212568
 40
0.9355604822
 40
0.9441141177
 40
0.9524235013
 40
0.9605348245
 40
0.9684989318
 40
0.9763702944
 40
0.9842057821
 40
0.9920632623
 40
1.0
 40
1.0
 40
1.0
 40
1.0
 10
16.5725723651
 20
11.4374668928
 30
0.0
 10
16.5829284944
 20
11.4709793394
 30
0.0
 10
16.602590392
 20
11.5398099939
 30
0.0
 10
16.6285398769
 20
11.6460156127
 30
0.0
 10
16.6514240287
 20
11.7567862185
 30
0.0
 10
16.671122122
 20
11.8715328033
 30
0.0
 10
16.6875288264
 20
11.9896542196
 30
0.0
 10
16.7005571277
 20
12.1105263195
 30
0.0
 10
16.7101379088
 20
12.2335116122
 30
0.0
 10
16.7162202319
 20
12.3579609304
 30
0.0
 10
16.7187717513
 20
12.4832172694
 30
0.0
 10
16.7177786857
 20
12.6086192878
 30
0.0
 10
16.7132463642
 20
12.73350482
 30
0.0
 10
16.7051990574
 20
12.8572145193
 30
0.0
 10
16.6936795743
 20
12.9790953827
 30
0.0
 10
16.6787491088
 20
13.0985042063
 30
0.0
 10
16.6604868202
 20
13.2148110773
 30
0.0
 10
16.6389898973
 20
13.3274029465
 30
0.0
 10
16.614372581
 20
13.4356869402
 30
0.0
 10
16.5867653875
 20
13.5390936588
 30
0.0
 10
16.5563143485
 20
13.6370799051
 30
0.0
 10
16.5231796897
 20
13.7291334536
 30
0.0
 10
16.487536147
 20
13.8147709821
 30
0.0
 10
16.455398923
 20
13.8814567714
 30
0.0
 10
16.4285009086
 20
13.9311244289
 30
0.0
 10
16.4081455489
 20
13.9658995532
 30
0.0
 10
16.3873101573
 20
13.9987528413
 30
0.0
 10
16.3660229101
 20
14.0296420964
 30
0.0
 10
16.3443097886
 20
14.0585261616
 30
0.0
 10
16.3222001344
 20
14.085366929
 30
0.0
 10
16.2997200023
 20
14.1101316967
 30
0.0
 10
16.2698842978
 20
14.1397472641
 30
0.0
 10
16.2388533622
 20
14.1658375998
 30
0.0
 10
16.2066881789
 20
14.1877829308
 30
0.0
 10
16.1827960397
 20
14.2017138535
 30
0.0
 10
16.1587105964
 20
14.2134046035
 30
0.0
 10
16.1344633257
 20
14.2228391893
 30
0.0
 10
16.110086308
 20
14.2299996865
 30
0.0
 10
16.0856138978
 20
14.2348733464
 30
0.0
 10
16.0610819385
 20
14.2374519849
 30
0.0
 10
16.036526307
 20
14.2377277717
 30
0.0
 10
16.0119868171
 20
14.2357032537
 30
0.0
 10
15.9957752672
 20
14.2328415132
 30
0.0
 10
15.9877141627
 20
14.2310447851
 30
0.0
  0
SPLINE
  5
2EE
100
AcDbEntity
  8
02___PRT_ALL_AXES
100
AcDbSpline
 62
7
  6
CONTINUOUS
 70
0
 71
3
 72
15
 73
11
 74
0
 42
0.0000001
 43
0.0000001
 44
0.0000000001
 40
0.0
 40
0.0
 40
0.0
 40
0.0
 40
0.1058888589
 40
0.2154645217
 40
0.3298313788
 40
0.4499174633
 40
0.5764706669
 40
0.7100727616
 40
0.8511502439
 40
1.0
 40
1.0
 40
1.0
 40
1.0
 10
15.9874648511
 20
14.2309890963
 30
0.0
 10
15.9761351037
 20
14.2284529148
 30
0.0
 10
15.9533841161
 20
14.2218402389
 30
0.0
 10
15.9200051016
 20
14.2077372524
 30
0.0
 10
15.8869813656
 20
14.1893680449
 30
0.0
 10
15.8543984165
 20
14.1667928532
 30
0.0
 10
15.8223268525
 20
14.1400782167
 30
0.0
 10
15.790840561
 20
14.1092938661
 30
0.0
 10
15.7600101314
 20
14.0745217737
 30
0.0
 10
15.7404714145
 20
14.0494174895
 30
0.0
 10
15.7308118803
 20
14.0362624722
 30
0.0
  0
SPLINE
  5
2EF
100
AcDbEntity
  8
02___PRT_ALL_AXES
100
AcDbSpline
 62
7
  6
CONTINUOUS
 70
0
 71
3
 72
15
 73
11
 74
0
 42
0.0000001
 43
0.0000001
 44
0.0000000001
 40
0.0
 40
0.0
 40
0.0
 40
0.0
 40
0.1062160163
 40
0.2179384713
 40
0.3351562399
 40
0.4578051912
 40
0.5857737792
 40
0.7189235554
 40
0.857084725
 40
1.0
 40
1.0
 40
1.0
 40
1.0
 10
15.7279827641
 20
14.0323873737
 30
0.0
 10
15.7176541254
 20
14.0181587195
 30
0.0
 10
15.6973266605
 20
13.9883283143
 30
0.0
 10
15.6685127037
 20
13.940893364
 30
0.0
 10
15.6406766895
 20
13.8897592248
 30
0.0
 10
15.6138912416
 20
13.8350593268
 30
0.0
 10
15.5882238398
 20
13.7769328798
 30
0.0
 10
15.5637395731
 20
13.7155266396
 30
0.0
 10
15.5405047173
 20
13.6510028916
 30
0.0
 10
15.5261214129
 20
13.6067456569
 30
0.0
 10
15.5191366923
 20
13.584143093
 30
0.0
  0
SPLINE
  5
2F0
100
AcDbEntity
  8
02___PRT_ALL_AXES
100
AcDbSpline
 62
7
  6
CONTINUOUS
 70
0
 71
3
 72
32
 73
28
 74
0
 42
0.0000001
 43
0.0000001
 44
0.0000000001
 40
0.0
 40
0.0
 40
0.0
 40
0.0
 40
0.0916059183
 40
0.179222628
 40
0.2626191184
 40
0.3416405031
 40
0.416170059
 40
0.4861551024
 40
0.5194529282
 40
0.5516305877
 40
0.5827046127
 40
0.612699422
 40
0.6416465844
 40
0.6695854373
 40
0.6965652484
 40
0.7226443434
 40
0.7723579585
 40
0.7961903814
 40
0.8194616244
 40
0.8422828562
 40
0.8647734778
 40
0.8870598906
 40
0.909272812
 40
0.9315445408
 40
0.9540061146
 40
0.9767843873
 40
1.0
 40
1.0
 40
1.0
 40
1.0
 10
16.5725723651
 20
11.4374668928
 30
0.0
 10
16.5636591542
 20
11.4086237318
 30
0.0
 10
16.5451751077
 20
11.3525085549
 30
0.0
 10
16.5147402165
 20
11.2714622867
 30
0.0
 10
16.4823133605
 20
11.1956779549
 30
0.0
 10
16.4480338023
 20
11.1254770971
 30
0.0
 10
16.412043314
 20
11.0611534976
 30
0.0
 10
16.3802385338
 20
11.0118778429
 30
0.0
 10
16.3540048227
 20
10.9757465489
 30
0.0
 10
16.3343265038
 20
10.9507324075
 30
0.0
 10
16.3143383377
 20
10.9273795375
 30
0.0
 10
16.2940615136
 20
10.9057120782
 30
0.0
 10
16.2735169258
 20
10.8857528179
 30
0.0
 10
16.2527253195
 20
10.8675246622
 30
0.0
 10
16.2317063278
 20
10.8510450155
 30
0.0
 10
16.2038613721
 20
10.8317417776
 30
0.0
 10
16.1751576088
 20
10.8155622827
 30
0.0
 10
16.1458137604
 20
10.802973049
 30
0.0
 10
16.1239948924
 20
10.7954875389
 30
0.0
 10
16.1020863176
 20
10.7898375829
 30
0.0
 10
16.080111181
 20
10.7860320369
 30
0.0
 10
16.0580955116
 20
10.7840766386
 30
0.0
 10
16.0360652396
 20
10.7839729064
 30
0.0
 10
16.0140467057
 20
10.7857229213
 30
0.0
 10
15.9920656886
 20
10.7893231618
 30
0.0
 10
15.9701489991
 20
10.7947669534
 30
0.0
 10
15.9557539391
 20
10.7995691859
 30
0.0
 10
15.9485912712
 20
10.8022581197
 30
0.0
  0
SPLINE
  5
2F1
100
AcDbEntity
  8
02___PRT_ALL_AXES
100
AcDbSpline
 62
7
  6
CONTINUOUS
 70
0
 71
3
 72
13
 73
9
 74
0
 42
0.0000001
 43
0.0000001
 44
0.0000000001
 40
0.0
 40
0.0
 40
0.0
 40
0.0
 40
0.1112595498
 40
0.2256800877
 40
0.3437171545
 40
0.465766939
 40
0.7231238439
 40
1.0
 40
1.0
 40
1.0
 40
1.0
 10
15.9485912712
 20
10.8022581197
 30
0.0
 10
15.9410199423
 20
10.8051004687
 30
0.0
 10
15.9258830468
 20
10.8114712642
 30
0.0
 10
15.9036125674
 20
10.8228394472
 30
0.0
 10
15.8815113051
 20
10.8361280046
 30
0.0
 10
15.8517796048
 20
10.8567441619
 30
0.0
 10
15.8151688746
 20
10.8874997998
 30
0.0
 10
15.7881603887
 20
10.9154949363
 30
0.0
 10
15.7748293954
 20
10.9305723082
 30
0.0
  0
SPLINE
  5
2F2
100
AcDbEntity
  8
02___PRT_ALL_AXES
100
AcDbSpline
 62
7
  6
CONTINUOUS
 70
0
 71
3
 72
30
 73
26
 74
0
 42
0.0000001
 43
0.0000001
 44
0.0000000001
 40
0.0
 40
0.0
 40
0.0
 40
0.0
 40
0.0199381342
 40
0.0408708288
 40
0.0628137599
 40
0.0857724127
 40
0.1097436601
 40
0.1347165453
 40
0.1606735399
 40
0.1875909857
 40
0.215440121
 40
0.2441872855
 40
0.2737947918
 40
0.3042209771
 40
0.3354209708
 40
0.3673466535
 40
0.4331658961
 40
0.5012488558
 40
0.5711301897
 40
0.6423209005
 40
0.7143152946
 40
0.786597632
 40
0.858648603
 40
0.9299517772
 40
1.0
 40
1.0
 40
1.0
 40
1.0
 10
15.7748293954
 20
10.9305723082
 30
0.0
 10
15.7651502711
 20
10.9415194112
 30
0.0
 10
15.7460159198
 20
10.9645921964
 30
0.0
 10
15.7186458439
 20
11.0016330932
 30
0.0
 10
15.6919711306
 20
11.0418614986
 30
0.0
 10
15.6660477621
 20
11.0851914881
 30
0.0
 10
15.6409291238
 20
11.1315331562
 30
0.0
 10
15.6166672316
 20
11.1807892161
 30
0.0
 10
15.5933131536
 20
11.2328565344
 30
0.0
 10
15.5709155392
 20
11.2876256213
 30
0.0
 10
15.5495219488
 20
11.3449813586
 30
0.0
 10
15.529177125
 20
11.4048028506
 30
0.0
 10
15.5099244761
 20
11.466964055
 30
0.0
 10
15.4918043953
 20
11.5313336644
 30
0.0
 10
15.4748554121
 20
11.5977760765
 30
0.0
 10
15.4536516791
 20
11.6898765492
 30
0.0
 10
15.4304168412
 20
11.8092113034
 30
0.0
 10
15.4079798236
 20
11.9569067228
 30
0.0
 10
15.3909034454
 20
12.1092783982
 30
0.0
 10
15.3793333337
 20
12.2650389512
 30
0.0
 10
15.3733683383
 20
12.4228746766
 30
0.0
 10
15.3730593872
 20
12.5814526268
 30
0.0
 10
15.3784091725
 20
12.739434758
 30
0.0
 10
15.3893717981
 20
12.8954840097
 30
0.0
 10
15.400484603
 20
12.9985114601
 30
0.0
 10
15.4069955057
 20
13.0494346219
 30
0.0
  0
SPLINE
  5
2F3
100
AcDbEntity
  8
02___PRT_ALL_AXES
100
AcDbSpline
 62
7
  6
CONTINUOUS
 70
0
 71
3
 72
9
 73
5
 74
0
 42
0.0000001
 43
0.0000001
 44
0.0000000001
 40
0.0
 40
0.0
 40
0.0
 40
0.0
 40
0.5092922534
 40
1.0
 40
1.0
 40
1.0
 40
1.0
 10
15.4069955057
 20
13.0494346219
 30
0.0
 10
15.413973987
 20
13.1040148165
 30
0.0
 10
15.429941213
 20
13.2109084845
 30
0.0
 10
15.4507741926
 20
13.3169700593
 30
0.0
 10
15.4623108709
 20
13.3687162385
 30
0.0
  0
SPLINE
  5
2F4
100
AcDbEntity
  8
02___PRT_ALL_AXES
100
AcDbSpline
 62
7
  6
CONTINUOUS
 70
0
 71
3
 72
9
 73
5
 74
0
 42
0.0000001
 43
0.0000001
 44
0.0000000001
 40
0.0
 40
0.0
 40
0.0
 40
0.0
 40
0.5101464077
 40
1.0
 40
1.0
 40
1.0
 40
1.0
 10
15.4623108709
 20
13.3687162385
 30
0.0
 10
15.4705567361
 20
13.4057019296
 30
0.0
 10
15.4880411831
 20
13.4779154792
 30
0.0
 10
15.5083937068
 20
13.549378779
 30
0.0
 10
15.5191366923
 20
13.584143093
 30
0.0
  0
SPLINE
  5
2F5
100
AcDbEntity
  8
02___PRT_ALL_AXES
100
AcDbSpline
 62
7
  6
CONTINUOUS
 70
0
 71
3
 72
23
 73
19
 74
0
 42
0.0000001
 43
0.0000001
 44
0.0000000001
 40
0.0
 40
0.0
 40
0.0
 40
0.0
 40
0.0567374216
 40
0.1124440679
 40
0.167529353
 40
0.2224195638
 40
0.2775468864
 40
0.3333364616
 40
0.390195377
 40
0.4485016755
 40
0.5085994275
 40
0.5707921774
 40
0.6353435153
 40
0.7024767109
 40
0.7723756319
 40
0.8451903484
 40
0.9210358702
 40
1.0
 40
1.0
 40
1.0
 40
1.0
 10
16.1707706262
 20
10.6850651446
 30
0.0
 10
16.161972417
 20
10.6821199637
 30
0.0
 10
16.1442696105
 20
10.6770408366
 30
0.0
 10
16.11731391
 20
10.6719402297
 30
0.0
 10
16.0902929265
 20
10.6694497233
 30
0.0
 10
16.063252498
 20
10.6695777234
 30
0.0
 10
16.0362361792
 20
10.6723228678
 30
0.0
 10
16.0092873442
 20
10.6776785802
 30
0.0
 10
15.9824485343
 20
10.6856353241
 30
0.0
 10
15.9557590561
 20
10.6961748063
 30
0.0
 10
15.9292581946
 20
10.7092801341
 30
0.0
 10
15.9029816846
 20
10.7249268824
 30
0.0
 10
15.8769653997
 20
10.7430908127
 30
0.0
 10
15.8512442442
 20
10.7637442352
 30
0.0
 10
15.8258513875
 20
10.786855662
 30
0.0
 10
15.8008220132
 20
10.8123934317
 30
0.0
 10
15.7761885534
 20
10.8403190858
 30
0.0
 10
15.7603743351
 20
10.8601010476
 30
0.0
 10
15.7525343012
 20
10.8703612778
 30
0.0
  0
SPLINE
  5
2F6
100
AcDbEntity
  8
02___PRT_ALL_AXES
100
AcDbSpline
 62
7
  6
CONTINUOUS
 70
0
 71
3
 72
11
 73
7
 74
0
 42
0.0000001
 43
0.0000001
 44
0.0000000001
 40
0.0
 40
0.0
 40
0.0
 40
0.0
 40
0.2287461383
 40
0.4717073298
 40
0.7288611066
 40
1.0
 40
1.0
 40
1.0
 40
1.0
 10
15.7505366924
 20
10.8729856608
 30
0.0
 10
15.737310002
 20
10.8904294884
 30
0.0
 10
15.7113486853
 20
10.9274102788
 30
0.0
 10
15.6749173908
 20
10.9869381152
 30
0.0
 10
15.6399496857
 20
11.0519783022
 30
0.0
 10
15.6182601383
 20
11.0976724902
 30
0.0
 10
15.6076533473
 20
11.1213540704
 30
0.0
  0
SPLINE
  5
2F7
100
AcDbEntity
  8
02___PRT_ALL_AXES
100
AcDbSpline
 62
7
  6
CONTINUOUS
 70
0
 71
3
 72
23
 73
19
 74
0
 42
0.0000001
 43
0.0000001
 44
0.0000000001
 40
0.0
 40
0.0
 40
0.0
 40
0.0
 40
0.0502011586
 40
0.1030868304
 40
0.1584953147
 40
0.2162377013
 40
0.2761020335
 40
0.3378568181
 40
0.4012540347
 40
0.4660320178
 40
0.5319180858
 40
0.5986309301
 40
0.665882896
 40
0.733382222
 40
0.8008353258
 40
0.8679489846
 40
0.9344325278
 40
1.0
 40
1.0
 40
1.0
 40
1.0
 10
15.6039787115
 20
11.1296149921
 30
0.0
 10
15.5907725335
 20
11.1595084309
 30
0.0
 10
15.565328003
 20
11.22164327
 30
0.0
 10
15.5308051459
 20
11.31891032
 30
0.0
 10
15.499070209
 20
11.4222679998
 30
0.0
 10
15.4702871511
 20
11.5311875909
 30
0.0
 10
15.4446031913
 20
11.6451157976
 30
0.0
 10
15.4221506546
 20
11.7634714085
 30
0.0
 10
15.4030449741
 20
11.8856501676
 30
0.0
 10
15.3873844272
 20
12.011027612
 30
0.0
 10
15.3752496857
 20
12.1389626263
 30
0.0
 10
15.3667033287
 20
12.2688007582
 30
0.0
 10
15.3617895754
 20
12.3998775868
 30
0.0
 10
15.3605336778
 20
12.531522234
 30
0.0
 10
15.3629419747
 20
12.6630607348
 30
0.0
 10
15.3690021092
 20
12.793820249
 30
0.0
 10
15.3786826111
 20
12.9231299995
 30
0.0
 10
15.3875917658
 20
13.0086462892
 30
0.0
 10
15.3926571935
 20
13.0510286047
 30
0.0
  0
SPLINE
  5
2F8
100
AcDbEntity
  8
02___PRT_ALL_AXES
100
AcDbSpline
 62
7
  6
CONTINUOUS
 70
0
 71
3
 72
13
 73
9
 74
0
 42
0.0000001
 43
0.0000001
 44
0.0000000001
 40
0.0
 40
0.0
 40
0.0
 40
0.0
 40
0.264109241
 40
0.5199506782
 40
0.6442220637
 40
0.7657861855
 40
0.8844510538
 40
1.0
 40
1.0
 40
1.0
 40
1.0
 10
15.3926571935
 20
13.0510286047
 30
0.0
 10
15.3991098036
 20
13.1050174435
 30
0.0
 10
15.4138646676
 20
13.21107244
 30
0.0
 10
15.4375481305
 20
13.3416127838
 30
0.0
 10
15.4593891367
 20
13.4425669717
 30
0.0
 10
15.476954168
 20
13.5155307596
 30
0.0
 10
15.4958229167
 20
13.5863111627
 30
0.0
 10
15.5094292034
 20
13.6325769168
 30
0.0
 10
15.5164526825
 20
13.6553049037
 30
0.0
  0
SPLINE
  5
2F9
100
AcDbEntity
  8
0
100
AcDbSpline
 62
7
  6
CONTINUOUS
 70
0
 71
3
 72
9
 73
5
 74
0
 42
0.0000001
 43
0.0000001
 44
0.0000000001
 40
0.0
 40
0.0
 40
0.0
 40
0.0
 40
0.5123455788
 40
1.0
 40
1.0
 40
1.0
 40
1.0
 10
14.4875309879
 20
13.6852762801
 30
0.0
 10
14.4971192909
 20
13.71174894
 30
0.0
 10
14.5168763461
 20
13.763048697
 30
0.0
 10
14.5389355946
 20
13.8134075904
 30
0.0
 10
14.5503165765
 20
13.8376695741
 30
0.0
  0
SPLINE
  5
2FA
100
AcDbEntity
  8
0
100
AcDbSpline
 62
7
  6
CONTINUOUS
 70
0
 71
3
 72
9
 73
5
 74
0
 42
0.0000001
 43
0.0000001
 44
0.0000000001
 40
0.0
 40
0.0
 40
0.0
 40
0.0
 40
0.5168897421
 40
1.0
 40
1.0
 40
1.0
 40
1.0
 10
14.6362664524
 20
13.9934015844
 30
0.0
 10
14.6482547121
 20
14.0116907443
 30
0.0
 10
14.6726017073
 20
14.0463368843
 30
0.0
 10
14.699531231
 20
14.079038128
 30
0.0
 10
14.7132256386
 20
14.0942109212
 30
0.0
  0
SPLINE
  5
2FB
100
AcDbEntity
  8
0
100
AcDbSpline
 62
7
  6
CONTINUOUS
 70
0
 71
3
 72
10
 73
6
 74
0
 42
0.0000001
 43
0.0000001
 44
0.0000000001
 40
0.0
 40
0.0
 40
0.0
 40
0.0
 40
0.5135135564
 40
0.7597012025
 40
1.0
 40
1.0
 40
1.0
 40
1.0
 10
14.8127774273
 20
14.1814687438
 30
0.0
 10
14.8263050519
 20
14.1903583772
 30
0.0
 10
14.8471454995
 20
14.2023412741
 30
0.0
 10
14.8759940038
 20
14.2150937444
 30
0.0
 10
14.8904519658
 20
14.2202594838
 30
0.0
 10
14.8976781874
 20
14.2225307552
 30
0.0
  0
SPLINE
  5
2FC
100
AcDbEntity
  8
0
100
AcDbSpline
 62
7
  6
CONTINUOUS
 70
0
 71
3
 72
13
 73
9
 74
0
 42
0.0000001
 43
0.0000001
 44
0.0000000001
 40
0.0
 40
0.0
 40
0.0
 40
0.0
 40
0.0875073126
 40
0.1859217154
 40
0.2957951599
 40
0.4170593143
 40
0.6912661465
 40
1.0
 40
1.0
 40
1.0
 40
1.0
 10
14.3746701551
 20
13.0432155774
 30
0.0
 10
14.3752464586
 20
13.0436873411
 30
0.0
 10
14.3763733185
 20
13.0448105934
 30
0.0
 10
14.3778860197
 20
13.0468304631
 30
0.0
 10
14.3793016609
 20
13.0492578577
 30
0.0
 10
14.3811143328
 20
13.053163552
 30
0.0
 10
14.382977704
 20
13.0588812593
 30
0.0
 10
14.383974466
 20
13.0637505623
 30
0.0
 10
14.3843827364
 20
13.0663462785
 30
0.0
  0
SPLINE
  5
2FD
100
AcDbEntity
  8
0
100
AcDbSpline
 62
7
  6
CONTINUOUS
 70
0
 71
3
 72
15
 73
11
 74
0
 42
0.0000001
 43
0.0000001
 44
0.0000000001
 40
0.0
 40
0.0
 40
0.0
 40
0.0
 40
0.0766948751
 40
0.1617628855
 40
0.2608521988
 40
0.3766583574
 40
0.5098047655
 40
0.6595206508
 40
0.8239835918
 40
1.0
 40
1.0
 40
1.0
 40
1.0
 10
14.3664468874
 20
11.8359332765
 30
0.0
 10
14.3660594097
 20
11.8359336547
 30
0.0
 10
14.3652363675
 20
11.836097759
 30
0.0
 10
14.3640933612
 20
11.8367909367
 30
0.0
 10
14.3630273113
 20
11.8378839554
 30
0.0
 10
14.3620435074
 20
11.8393497383
 30
0.0
 10
14.3611546766
 20
11.8411623369
 30
0.0
 10
14.360376767
 20
11.8432877965
 30
0.0
 10
14.3597282498
 20
11.8456804708
 30
0.0
 10
14.359398543
 20
11.8473703311
 30
0.0
 10
14.3592562897
 20
11.8482481499
 30
0.0
  0
SPLINE
  5
2FE
100
AcDbEntity
  8
0
100
AcDbSpline
 62
7
  6
CONTINUOUS
 70
0
 71
3
 72
14
 73
10
 74
0
 42
0.0000001
 43
0.0000001
 44
0.0000000001
 40
0.0
 40
0.0
 40
0.0
 40
0.0
 40
0.0862445512
 40
0.1780727335
 40
0.2800048859
 40
0.3949312495
 40
0.524398262
 40
0.6689918886
 40
1.0
 40
1.0
 40
1.0
 40
1.0
 10
14.4630911732
 20
11.4191870107
 30
0.0
 10
14.4627996829
 20
11.4191871479
 30
0.0
 10
14.4621949418
 20
11.4192769766
 30
0.0
 10
14.461322194
 20
11.4196664251
 30
0.0
 10
14.4604830482
 20
11.4202981347
 30
0.0
 10
14.4596826641
 20
11.4211584904
 30
0.0
 10
14.4589261205
 20
11.4222378681
 30
0.0
 10
14.457944554
 20
11.4240352464
 30
0.0
 10
14.4573705171
 20
11.4255458972
 30
0.0
 10
14.457034559
 20
11.4266130068
 30
0.0
  0
SPLINE
  5
2FF
100
AcDbEntity
  8
0
100
AcDbSpline
 62
7
  6
CONTINUOUS
 70
0
 71
3
 72
11
 73
7
 74
0
 42
0.0000001
 43
0.0000001
 44
0.0000000001
 40
0.0
 40
0.0
 40
0.0
 40
0.0
 40
0.2017093053
 40
0.4268453675
 40
0.6910715163
 40
1.0
 40
1.0
 40
1.0
 40
1.0
 10
14.6015344006
 20
11.0892196736
 30
0.0
 10
14.6011357619
 20
11.0892198286
 30
0.0
 10
14.6002862488
 20
11.0893958073
 30
0.0
 10
14.5991113925
 20
11.0901309368
 30
0.0
 10
14.5980213504
 20
11.0912875241
 30
0.0
 10
14.5974016309
 20
11.0922417974
 30
0.0
 10
14.5971022319
 20
11.0927738827
 30
0.0
  0
SPLINE
  5
300
100
AcDbEntity
  8
0
100
AcDbSpline
 62
7
  6
CONTINUOUS
 70
0
 71
3
 72
11
 73
7
 74
0
 42
0.0000001
 43
0.0000001
 44
0.0000000001
 40
0.0
 40
0.0
 40
0.0
 40
0.0
 40
0.2444058824
 40
0.4917026232
 40
0.74316914
 40
1.0
 40
1.0
 40
1.0
 40
1.0
 10
14.9562299907
 20
10.7873198676
 30
0.0
 10
14.9490033865
 20
10.7879568087
 30
0.0
 10
14.9345109951
 20
10.7898395482
 30
0.0
 10
14.9129144295
 20
10.7944427392
 30
0.0
 10
14.8913928883
 20
10.8008311019
 30
0.0
 10
14.8772793423
 20
10.8062095924
 30
0.0
 10
14.8702568127
 20
10.8091761899
 30
0.0
  0
SPLINE
  5
301
100
AcDbEntity
  8
0
100
AcDbSpline
 62
7
  6
CONTINUOUS
 70
0
 71
3
 72
9
 73
5
 74
0
 42
0.0000001
 43
0.0000001
 44
0.0000000001
 40
0.0
 40
0.0
 40
0.0
 40
0.0
 40
0.4825156391
 40
1.0
 40
1.0
 40
1.0
 40
1.0
 10
14.768116867
 20
10.8737645009
 30
0.0
 10
14.7539563662
 20
10.885808632
 30
0.0
 10
14.7259682759
 20
10.9123919864
 30
0.0
 10
14.7005622959
 20
10.9414221826
 30
0.0
 10
14.6880220484
 20
10.9569214653
 30
0.0
  0
SPLINE
  5
302
100
AcDbEntity
  8
0
100
AcDbSpline
 62
7
  6
CONTINUOUS
 70
0
 71
3
 72
9
 73
5
 74
0
 42
0.0000001
 43
0.0000001
 44
0.0000000001
 40
0.0
 40
0.0
 40
0.0
 40
0.0
 40
0.4861221374
 40
1.0
 40
1.0
 40
1.0
 40
1.0
 10
14.5971022319
 20
11.0927738827
 30
0.0
 10
14.584902341
 20
11.1144552552
 30
0.0
 10
14.5611470306
 20
11.1598186717
 30
0.0
 10
14.5397920543
 20
11.2063515804
 30
0.0
 10
14.5293717145
 20
11.2304975801
 30
0.0
  0
SPLINE
  5
303
100
AcDbEntity
  8
0
100
AcDbSpline
 62
7
  6
CONTINUOUS
 70
0
 71
3
 72
15
 73
11
 74
0
 42
0.0000001
 43
0.0000001
 44
0.0000000001
 40
0.0
 40
0.0
 40
0.0
 40
0.0
 40
0.1758096321
 40
0.3411187623
 40
0.4921350409
 40
0.626565929
 40
0.7431126046
 40
0.8420090795
 40
0.9256878239
 40
1.0
 40
1.0
 40
1.0
 40
1.0
 10
14.3388018631
 20
13.0294244744
 30
0.0
 10
14.3389221408
 20
13.0304039606
 30
0.0
 10
14.3392179055
 20
13.0322975117
 30
0.0
 10
14.3398406167
 20
13.0349916335
 30
0.0
 10
14.3406206017
 20
13.0374024075
 30
0.0
 10
14.3415350509
 20
13.0394708566
 30
0.0
 10
14.3425660469
 20
13.0411511621
 30
0.0
 10
14.343695461
 20
13.0424109157
 30
0.0
 10
14.3449197741
 20
13.0432134473
 30
0.0
 10
14.3458125688
 20
13.0434091214
 30
0.0
 10
14.3462296929
 20
13.0434095824
 30
0.0
  0
SPLINE
  5
304
100
AcDbEntity
  8
0
100
AcDbSpline
 62
7
  6
CONTINUOUS
 70
0
 71
3
 72
15
 73
11
 74
0
 42
0.0000001
 43
0.0000001
 44
0.0000000001
 40
0.0
 40
0.0
 40
0.0
 40
0.0
 40
0.0878927499
 40
0.1902514544
 40
0.305844319
 40
0.4327287378
 40
0.5685453557
 40
0.7105279977
 40
0.8556033195
 40
1.0
 40
1.0
 40
1.0
 40
1.0
 10
14.3224716009
 20
12.7924408649
 30
0.0
 10
14.3220586576
 20
12.7929496978
 30
0.0
 10
14.321284565
 20
12.7941484541
 30
0.0
 10
14.3203273372
 20
12.7962233236
 30
0.0
 10
14.3195129091
 20
12.7986666444
 30
0.0
 10
14.3188593806
 20
12.8014134236
 30
0.0
 10
14.3183855836
 20
12.8043958525
 30
0.0
 10
14.3181023204
 20
12.8075382745
 30
0.0
 10
14.3180204753
 20
12.8107560898
 30
0.0
 10
14.318099236
 20
12.8129146065
 30
0.0
 10
14.3181739292
 20
12.8139886061
 30
0.0
  0
SPLINE
  5
305
100
AcDbEntity
  8
0
100
AcDbSpline
 62
7
  6
CONTINUOUS
 70
0
 71
3
 72
15
 73
11
 74
0
 42
0.0000001
 43
0.0000001
 44
0.0000000001
 40
0.0
 40
0.0
 40
0.0
 40
0.0
 40
0.1463945796
 40
0.2921169771
 40
0.4338196257
 40
0.5688229461
 40
0.6947415256
 40
0.8095645822
 40
0.9116569467
 40
1.0
 40
1.0
 40
1.0
 40
1.0
 10
14.3518902665
 20
12.7269985047
 30
0.0
 10
14.3519682419
 20
12.7290283345
 30
0.0
 10
14.3520013117
 20
12.7330843096
 30
0.0
 10
14.3516984689
 20
12.7390996591
 30
0.0
 10
14.3510432275
 20
12.7449283736
 30
0.0
 10
14.3500563519
 20
12.7504317927
 30
0.0
 10
14.3487580842
 20
12.7554866918
 30
0.0
 10
14.3471809301
 20
12.759982893
 30
0.0
 10
14.3453562225
 20
12.7638146031
 30
0.0
 10
14.3438999929
 20
12.7660365828
 30
0.0
 10
14.3431275437
 20
12.7669884025
 30
0.0
  0
SPLINE
  5
306
100
AcDbEntity
  8
0
100
AcDbSpline
 62
7
  6
CONTINUOUS
 70
0
 71
3
 72
15
 73
11
 74
0
 42
0.0000001
 43
0.0000001
 44
0.0000000001
 40
0.0
 40
0.0
 40
0.0
 40
0.0
 40
0.0790700729
 40
0.1724401892
 40
0.2808172175
 40
0.4035516731
 40
0.5392108576
 40
0.6857044673
 40
0.84046635
 40
1.0
 40
1.0
 40
1.0
 40
1.0
 10
14.335896157
 20
12.5787432966
 30
0.0
 10
14.3367266067
 20
12.5792894988
 30
0.0
 10
14.3383505929
 20
12.5807657276
 30
0.0
 10
14.3404360116
 20
12.5836318647
 30
0.0
 10
14.3423219845
 20
12.5872624599
 30
0.0
 10
14.3439742775
 20
12.5915747551
 30
0.0
 10
14.345355285
 20
12.5964797453
 30
0.0
 10
14.3464362769
 20
12.6018694975
 30
0.0
 10
14.3471860866
 20
12.607617141
 30
0.0
 10
14.3474557917
 20
12.6115616992
 30
0.0
 10
14.3475327743
 20
12.6135656859
 30
0.0
  0
SPLINE
  5
307
100
AcDbEntity
  8
0
100
AcDbSpline
 62
7
  6
CONTINUOUS
 70
0
 71
3
 72
15
 73
11
 74
0
 42
0.0000001
 43
0.0000001
 44
0.0000000001
 40
0.0
 40
0.0
 40
0.0
 40
0.0
 40
0.1580867282
 40
0.312659521
 40
0.4597310716
 40
0.5963093879
 40
0.7199057962
 40
0.8287445602
 40
0.921905052
 40
1.0
 40
1.0
 40
1.0
 40
1.0
 10
14.3078473147
 20
12.5451695396
 30
0.0
 10
14.3078556661
 20
12.5462455371
 30
0.0
 10
14.3079397161
 20
12.5483736857
 30
0.0
 10
14.3082619649
 20
12.551488463
 30
0.0
 10
14.3087758819
 20
12.5544293612
 30
0.0
 10
14.3094641789
 20
12.5571179365
 30
0.0
 10
14.310310686
 20
12.5594870638
 30
0.0
 10
14.3112932166
 20
12.5614812882
 30
0.0
 10
14.3123915348
 20
12.5630494493
 30
0.0
 10
14.3132575875
 20
12.5638534892
 30
0.0
 10
14.3137016973
 20
12.5641455884
 30
0.0
  0
SPLINE
  5
308
100
AcDbEntity
  8
0
100
AcDbSpline
 62
7
  6
CONTINUOUS
 70
0
 71
3
 72
15
 73
11
 74
0
 42
0.0000001
 43
0.0000001
 44
0.0000000001
 40
0.0
 40
0.0
 40
0.0
 40
0.0
 40
0.0748644589
 40
0.1640256053
 40
0.2694944395
 40
0.3911429511
 40
0.5276419236
 40
0.6767355683
 40
0.8355366553
 40
1.0
 40
1.0
 40
1.0
 40
1.0
 10
14.3181725354
 20
12.3059692905
 30
0.0
 10
14.3177257876
 20
12.306156616
 30
0.0
 10
14.3168282995
 20
12.306761822
 30
0.0
 10
14.3156742466
 20
12.3080841824
 30
0.0
 10
14.314626067
 20
12.3098519937
 30
0.0
 10
14.313702328
 20
12.3120213975
 30
0.0
 10
14.3129253784
 20
12.3145434504
 30
0.0
 10
14.3123133064
 20
12.3173561604
 30
0.0
 10
14.3118860569
 20
12.3203850757
 30
0.0
 10
14.3117305719
 20
12.3224727708
 30
0.0
 10
14.3116853417
 20
12.3235360168
 30
0.0
  0
SPLINE
  5
309
100
AcDbEntity
  8
0
100
AcDbSpline
 62
7
  6
CONTINUOUS
 70
0
 71
3
 72
16
 73
12
 74
0
 42
0.0000001
 43
0.0000001
 44
0.0000000001
 40
0.0
 40
0.0
 40
0.0
 40
0.0
 40
0.1656091838
 40
0.3243440033
 40
0.4726837723
 40
0.6081852918
 40
0.7290041257
 40
0.8341567915
 40
0.8808866873
 40
0.9239003699
 40
1.0
 40
1.0
 40
1.0
 40
1.0
 10
14.3535783132
 20
12.2644555624
 30
0.0
 10
14.3534332212
 20
12.266422489
 30
0.0
 10
14.3530320352
 20
12.2702672161
 30
0.0
 10
14.352088931
 20
12.2758212231
 30
0.0
 10
14.3508283947
 20
12.2809443889
 30
0.0
 10
14.3492859451
 20
12.285517626
 30
0.0
 10
14.3474927552
 20
12.2894405244
 30
0.0
 10
14.3457600618
 20
12.2922048358
 30
0.0
 10
14.3442586332
 20
12.2939811332
 30
0.0
 10
14.3428289537
 20
12.2953448823
 30
0.0
 10
14.3416197535
 20
12.2961376529
 30
0.0
 10
14.3407839692
 20
12.2964881051
 30
0.0
  0
SPLINE
  5
30A
100
AcDbEntity
  8
0
100
AcDbSpline
 62
7
  6
CONTINUOUS
 70
0
 71
3
 72
15
 73
11
 74
0
 42
0.0000001
 43
0.0000001
 44
0.0000000001
 40
0.0
 40
0.0
 40
0.0
 40
0.0
 40
0.0930368087
 40
0.1990330592
 40
0.3165090658
 40
0.4435698987
 40
0.5780519748
 40
0.7175035152
 40
0.8592377322
 40
1.0
 40
1.0
 40
1.0
 40
1.0
 10
14.3544936253
 20
12.1106343213
 30
0.0
 10
14.3552257417
 20
12.1117517619
 30
0.0
 10
14.3565904976
 20
12.1142751417
 30
0.0
 10
14.3582774967
 20
12.1185026185
 30
0.0
 10
14.3596956368
 20
12.123338777
 30
0.0
 10
14.3608166454
 20
12.1286691591
 30
0.0
 10
14.3616117756
 20
12.1343760211
 30
0.0
 10
14.3620651297
 20
12.1403311123
 30
0.0
 10
14.3621609232
 20
12.1463924394
 30
0.0
 10
14.3619881755
 20
12.1504479802
 30
0.0
 10
14.3618394837
 20
12.1524637076
 30
0.0
  0
SPLINE
  5
30B
100
AcDbEntity
  8
0
100
AcDbSpline
 62
7
  6
CONTINUOUS
 70
0
 71
3
 72
13
 73
9
 74
0
 42
0.0000001
 43
0.0000001
 44
0.0000000001
 40
0.0
 40
0.0
 40
0.0
 40
0.0
 40
0.2793448973
 40
0.5541252147
 40
0.6822348267
 40
0.8006483329
 40
0.9071480281
 40
1.0
 40
1.0
 40
1.0
 40
1.0
 10
14.3312630987
 20
12.0581318224
 30
0.0
 10
14.3310368532
 20
12.0602675171
 30
0.0
 10
14.3308729229
 20
12.0645372891
 30
0.0
 10
14.3313113653
 20
12.0697800226
 30
0.0
 10
14.3320716956
 20
12.0737185314
 30
0.0
 10
14.3328002036
 20
12.0763369904
 30
0.0
 10
14.3336831629
 20
12.0786190834
 30
0.0
 10
14.3344077814
 20
12.079976987
 30
0.0
 10
14.3347989953
 20
12.0805741028
 30
0.0
  0
SPLINE
  5
30C
100
AcDbEntity
  8
0
100
AcDbSpline
 62
7
  6
CONTINUOUS
 70
0
 71
3
 72
11
 73
7
 74
0
 42
0.0000001
 43
0.0000001
 44
0.0000000001
 40
0.0
 40
0.0
 40
0.0
 40
0.0
 40
0.2780086853
 40
0.5393983935
 40
0.7807999639
 40
1.0
 40
1.0
 40
1.0
 40
1.0
 10
14.4059334739
 20
11.8218615771
 30
0.0
 10
14.4056566521
 20
11.823251544
 30
0.0
 10
14.4050441134
 20
11.8259341841
 30
0.0
 10
14.4039156781
 20
11.82975445
 30
0.0
 10
14.4026176849
 20
11.8332023746
 30
0.0
 10
14.4016001355
 20
11.8353234837
 30
0.0
 10
14.4010612745
 20
11.8363024383
 30
0.0
  0
SPLINE
  5
30D
100
AcDbEntity
  8
0
100
AcDbSpline
 62
7
  6
CONTINUOUS
 70
0
 71
3
 72
15
 73
11
 74
0
 42
0.0000001
 43
0.0000001
 44
0.0000000001
 40
0.0
 40
0.0
 40
0.0
 40
0.0
 40
0.1085398359
 40
0.226630877
 40
0.3518945857
 40
0.4819522878
 40
0.6143702664
 40
0.7466317934
 40
0.8761358289
 40
1.0
 40
1.0
 40
1.0
 40
1.0
 10
14.4236840872
 20
11.6749304848
 30
0.0
 10
14.4242505911
 20
11.6764952197
 30
0.0
 10
14.4252664731
 20
11.6798237832
 30
0.0
 10
14.4264299078
 20
11.6850966119
 30
0.0
 10
14.4272684679
 20
11.6907644107
 30
0.0
 10
14.4277667819
 20
11.6966919732
 30
0.0
 10
14.4279105734
 20
11.7027458802
 30
0.0
 10
14.4276990145
 20
11.7087894456
 30
0.0
 10
14.4271325641
 20
11.7146782284
 30
0.0
 10
14.4265152623
 20
11.7185170933
 30
0.0
 10
14.4261443318
 20
11.7203795957
 30
0.0
  0
SPLINE
  5
30E
100
AcDbEntity
  8
0
100
AcDbSpline
 62
7
  6
CONTINUOUS
 70
0
 71
3
 72
15
 73
11
 74
0
 42
0.0000001
 43
0.0000001
 44
0.0000000001
 40
0.0
 40
0.0
 40
0.0
 40
0.0
 40
0.1208051048
 40
0.2487715718
 40
0.380727928
 40
0.5137429456
 40
0.6449497223
 40
0.7715532433
 40
0.8908148207
 40
1.0
 40
1.0
 40
1.0
 40
1.0
 10
14.4071530448
 20
11.6077508069
 30
0.0
 10
14.4069243538
 20
11.6087062045
 30
0.0
 10
14.4065373797
 20
11.610694249
 30
0.0
 10
14.4061603486
 20
11.6137694773
 30
0.0
 10
14.4059816696
 20
11.6169620979
 30
0.0
 10
14.4060032277
 20
11.620185848
 30
0.0
 10
14.4062261048
 20
11.6233583855
 30
0.0
 10
14.4066426788
 20
11.6263988942
 30
0.0
 10
14.407244676
 20
11.6292253532
 30
0.0
 10
14.4077818671
 20
11.6310071188
 30
0.0
 10
14.4080841246
 20
11.6318419814
 30
0.0
  0
SPLINE
  5
30F
100
AcDbEntity
  8
0
100
AcDbSpline
 62
7
  6
CONTINUOUS
 70
0
 71
3
 72
15
 73
11
 74
0
 42
0.0000001
 43
0.0000001
 44
0.0000000001
 40
0.0
 40
0.0
 40
0.0
 40
0.0
 40
0.124391732
 40
0.2542829142
 40
0.3867772094
 40
0.5192685952
 40
0.6492398407
 40
0.7742624794
 40
0.8919683579
 40
1.0
 40
1.0
 40
1.0
 40
1.0
 10
14.5378646171
 20
11.3069143412
 30
0.0
 10
14.5382285504
 20
11.3087843712
 30
0.0
 10
14.5388317274
 20
11.3126353877
 30
0.0
 10
14.539377068
 20
11.3185373993
 30
0.0
 10
14.5395669682
 20
11.3245857854
 30
0.0
 10
14.5394014923
 20
11.3306359892
 30
0.0
 10
14.538881975
 20
11.3365514125
 30
0.0
 10
14.5380231932
 20
11.3421989456
 30
0.0
 10
14.5368409894
 20
11.3474438831
 30
0.0
 10
14.535812595
 20
11.3507504637
 30
0.0
 10
14.5352400214
 20
11.3523027852
 30
0.0
  0
SPLINE
  5
310
100
AcDbEntity
  8
0
100
AcDbSpline
 62
7
  6
CONTINUOUS
 70
0
 71
3
 72
15
 73
11
 74
0
 42
0.0000001
 43
0.0000001
 44
0.0000000001
 40
0.0
 40
0.0
 40
0.0
 40
0.0
 40
0.1041160312
 40
0.2195025289
 40
0.3436681235
 40
0.473994365
 40
0.6077452862
 40
0.742046856
 40
0.8739093746
 40
1.0
 40
1.0
 40
1.0
 40
1.0
 10
14.5293717145
 20
11.2304975801
 30
0.0
 10
14.5290396049
 20
11.2312671441
 30
0.0
 10
14.5284406524
 20
11.2329337653
 30
0.0
 10
14.52774605
 20
11.2356147673
 30
0.0
 10
14.5272288188
 20
11.2385499983
 30
0.0
 10
14.5268998692
 20
11.2416603938
 30
0.0
 10
14.5267696687
 20
11.244866968
 30
0.0
 10
14.5268400216
 20
11.2480878336
 30
0.0
 10
14.5271120028
 20
11.2512359592
 30
0.0
 10
14.5274286718
 20
11.2532904092
 30
0.0
 10
14.5276225803
 20
11.2542867864
 30
0.0
  0
SPLINE
  5
311
100
AcDbEntity
  8
0
100
AcDbSpline
 62
7
  6
CONTINUOUS
 70
0
 71
3
 72
15
 73
11
 74
0
 42
0.0000001
 43
0.0000001
 44
0.0000000001
 40
0.0
 40
0.0
 40
0.0
 40
0.0
 40
0.1413416629
 40
0.283488503
 40
0.4231756268
 40
0.557716078
 40
0.6846636717
 40
0.8018687034
 40
0.9074599398
 40
1.0
 40
1.0
 40
1.0
 40
1.0
 10
14.6877890704
 20
11.0363872106
 30
0.0
 10
14.6879303755
 20
11.038405166
 30
0.0
 10
14.6880884918
 20
11.0424622471
 30
0.0
 10
14.6879709851
 20
11.0485209836
 30
0.0
 10
14.6874963254
 20
11.0544650244
 30
0.0
 10
14.6866808223
 20
11.0601526669
 30
0.0
 10
14.685540838
 20
11.0654561327
 30
0.0
 10
14.6841055381
 20
11.0702584076
 30
0.0
 10
14.6824035436
 20
11.0744458908
 30
0.0
 10
14.6810288091
 20
11.0769388218
 30
0.0
 10
14.6802921696
 20
11.0780395088
 30
0.0
  0
SPLINE
  5
312
100
AcDbEntity
  8
0
100
AcDbSpline
 62
7
  6
CONTINUOUS
 70
0
 71
3
 72
15
 73
11
 74
0
 42
0.0000001
 43
0.0000001
 44
0.0000000001
 40
0.0
 40
0.0
 40
0.0
 40
0.0
 40
0.0879575031
 40
0.1903715101
 40
0.3060025484
 40
0.4329037912
 40
0.5687134634
 40
0.7106643835
 40
0.8556831517
 40
1.0
 40
1.0
 40
1.0
 40
1.0
 10
14.6880220484
 20
10.9569214653
 30
0.0
 10
14.6876093705
 20
10.95743152
 30
0.0
 10
14.6868359082
 20
10.9586324815
 30
0.0
 10
14.6858796275
 20
10.9607102196
 30
0.0
 10
14.6850663094
 20
10.9631560029
 30
0.0
 10
14.6844140304
 20
10.9659047659
 30
0.0
 10
14.6839415936
 20
10.968888637
 30
0.0
 10
14.6836597661
 20
10.9720319186
 30
0.0
 10
14.6835793922
 20
10.9752499849
 30
0.0
 10
14.6836591461
 20
10.9774084337
 30
0.0
 10
14.683734342
 20
10.978482294
 30
0.0
  0
SPLINE
  5
313
100
AcDbEntity
  8
0
100
AcDbSpline
 62
7
  6
CONTINUOUS
 70
0
 71
3
 72
15
 73
11
 74
0
 42
0.0000001
 43
0.0000001
 44
0.0000000001
 40
0.0
 40
0.0
 40
0.0
 40
0.0
 40
0.0748992203
 40
0.1641118697
 40
0.2696270699
 40
0.3913041936
 40
0.527806947
 40
0.6768757887
 40
0.8356216908
 40
1.0
 40
1.0
 40
1.0
 40
1.0
 10
14.8702568127
 20
10.8091761899
 30
0.0
 10
14.8698100406
 20
10.8093649244
 30
0.0
 10
14.8689129124
 20
10.8099728788
 30
0.0
 10
14.8677595882
 20
10.811298581
 30
0.0
 10
14.866712245
 20
10.8130694981
 30
0.0
 10
14.8657894946
 20
10.8152416758
 30
0.0
 10
14.8650136906
 20
10.8177660813
 30
0.0
 10
14.8644028993
 20
10.8205806487
 30
0.0
 10
14.8639770314
 20
10.8236108677
 30
0.0
 10
14.8638224877
 20
10.8256992104
 30
0.0
 10
14.8637777453
 20
10.8267626819
 30
0.0
  0
SPLINE
  5
314
100
AcDbEntity
  8
AXIS
100
AcDbSpline
 62
7
  6
CONTINUOUS
 70
0
 71
3
 72
14
 73
10
 74
0
 42
0.0000001
 43
0.0000001
 44
0.0000000001
 40
0.0
 40
0.0
 40
0.0
 40
0.0
 40
0.1055274652
 40
0.2132756824
 40
0.3253177791
 40
0.4434520763
 40
0.5691603874
 40
0.7034738401
 40
1.0
 40
1.0
 40
1.0
 40
1.0
 10
16.0730913249
 20
13.439174534
 30
0.0
 10
16.0718413131
 20
13.4391749561
 30
0.0
 10
16.0693104435
 20
13.4389720869
 30
0.0
 10
16.0655512643
 20
13.438061996
 30
0.0
 10
16.0618285293
 20
13.4365548653
 30
0.0
 10
16.0581574919
 20
13.4344599231
 30
0.0
 10
16.0545518028
 20
13.4317859288
 30
0.0
 10
16.0496883664
 20
13.427322203
 30
0.0
 10
16.0464258956
 20
13.4233588091
 30
0.0
 10
16.0443736948
 20
13.4205082195
 30
0.0
  0
SPLINE
  5
315
100
AcDbEntity
  8
AXIS
100
AcDbSpline
 62
7
  6
CONTINUOUS
 70
0
 71
3
 72
15
 73
11
 74
0
 42
0.0000001
 43
0.0000001
 44
0.0000000001
 40
0.0
 40
0.0
 40
0.0
 40
0.0
 40
0.1119792896
 40
0.2253528931
 40
0.3414511859
 40
0.4614936968
 40
0.5865467547
 40
0.7175170507
 40
0.8551408697
 40
1.0
 40
1.0
 40
1.0
 40
1.0
 10
16.0757890111
 20
11.0105553852
 30
0.0
 10
16.0850405859
 20
11.0105551784
 30
0.0
 10
16.1036784913
 20
11.0116969749
 30
0.0
 10
16.131484026
 20
11.016819521
 30
0.0
 10
16.159143185
 20
11.0253307689
 30
0.0
 10
16.1865810821
 20
11.0372043431
 30
0.0
 10
16.2137393638
 20
11.0523972208
 30
0.0
 10
16.240558317
 20
11.070870344
 30
0.0
 10
16.2669830862
 20
11.0925722688
 30
0.0
 10
16.2838548836
 20
11.1087319242
 30
0.0
 10
16.2922158403
 20
11.1172951544
 30
0.0
  0
SPLINE
  5
316
100
AcDbEntity
  8
AXIS
100
AcDbSpline
 62
7
  6
CONTINUOUS
 70
0
 71
3
 72
9
 73
5
 74
0
 42
0.0000001
 43
0.0000001
 44
0.0000000001
 40
0.0
 40
0.0
 40
0.0
 40
0.0
 40
0.4868610786
 40
1.0
 40
1.0
 40
1.0
 40
1.0
 10
16.3164672147
 20
11.1437759423
 30
0.0
 10
16.3256059444
 20
11.1543857006
 30
0.0
 10
16.3436430478
 20
11.1768167696
 30
0.0
 10
16.3603174218
 20
11.2002719642
 30
0.0
 10
16.3685534417
 20
11.2125189787
 30
0.0
  0
SPLINE
  5
317
100
AcDbEntity
  8
AXIS
100
AcDbSpline
 62
7
  6
CONTINUOUS
 70
0
 71
3
 72
9
 73
5
 74
0
 42
0.0000001
 43
0.0000001
 44
0.0000000001
 40
0.0
 40
0.0
 40
0.0
 40
0.0
 40
0.4821149721
 40
1.0
 40
1.0
 40
1.0
 40
1.0
 10
16.3690677651
 20
11.2132846781
 30
0.0
 10
16.3824776004
 20
11.2332719885
 30
0.0
 10
16.4085501769
 20
11.2759118928
 30
0.0
 10
16.4315711904
 20
11.3202534236
 30
0.0
 10
16.4428030963
 20
11.3435410419
 30
0.0
  0
SPLINE
  5
318
100
AcDbEntity
  8
AXIS
100
AcDbSpline
 62
7
  6
CONTINUOUS
 70
0
 71
3
 72
11
 73
7
 74
0
 42
0.0000001
 43
0.0000001
 44
0.0000000001
 40
0.0
 40
0.0
 40
0.0
 40
0.0
 40
0.2346569148
 40
0.4798191881
 40
0.7351240269
 40
1.0
 40
1.0
 40
1.0
 40
1.0
 10
16.4428030963
 20
11.3435410419
 30
0.0
 10
16.4513593071
 20
11.3612810205
 30
0.0
 10
16.4680381883
 20
11.3979534709
 30
0.0
 10
16.4913094037
 20
11.4551138034
 30
0.0
 10
16.5133172878
 20
11.5154782664
 30
0.0
 10
16.5268641426
 20
11.5569937565
 30
0.0
 10
16.5334280715
 20
11.578234638
 30
0.0
  0
SPLINE
  5
319
100
AcDbEntity
  8
AXIS
100
AcDbSpline
 62
7
  6
CONTINUOUS
 70
0
 71
3
 72
15
 73
11
 74
0
 42
0.0000001
 43
0.0000001
 44
0.0000000001
 40
0.0
 40
0.0
 40
0.0
 40
0.0
 40
0.1154654097
 40
0.231918294
 40
0.3503169479
 40
0.4715593472
 40
0.5964673062
 40
0.7257722604
 40
0.8601037931
 40
1.0
 40
1.0
 40
1.0
 40
1.0
 10
16.0757890109
 20
14.0110546006
 30
0.0
 10
16.0834417217
 20
14.0110544296
 30
0.0
 10
16.0988236528
 20
14.0102758774
 30
0.0
 10
16.1218137838
 20
14.0067811536
 30
0.0
 10
16.1447243048
 20
14.0009637082
 30
0.0
 10
16.1675144984
 20
13.9928402372
 30
0.0
 10
16.1901485053
 20
13.9824263812
 30
0.0
 10
16.2125910838
 20
13.969741407
 30
0.0
 10
16.2348095213
 20
13.9548116338
 30
0.0
 10
16.2491467195
 20
13.9436142674
 30
0.0
 10
16.2562668902
 20
13.937675283
 30
0.0
  0
SPLINE
  5
31A
100
AcDbEntity
  8
AXIS
100
AcDbSpline
 62
7
  6
CONTINUOUS
 70
0
 71
3
 72
9
 73
5
 74
0
 42
0.0000001
 43
0.0000001
 44
0.0000000001
 40
0.0
 40
0.0
 40
0.0
 40
0.0
 40
0.4883271681
 40
1.0
 40
1.0
 40
1.0
 40
1.0
 10
16.2562668902
 20
13.937675283
 30
0.0
 10
16.2644087908
 20
13.9308840664
 30
0.0
 10
16.2805746741
 20
13.9163610812
 30
0.0
 10
16.295753753
 20
13.9008156687
 30
0.0
 10
16.3032804105
 20
13.892644641
 30
0.0
  0
SPLINE
  5
31B
100
AcDbEntity
  8
AXIS
100
AcDbSpline
 62
7
  6
CONTINUOUS
 70
0
 71
3
 72
15
 73
11
 74
0
 42
0.0000001
 43
0.0000001
 44
0.0000000001
 40
0.0
 40
0.0
 40
0.0
 40
0.0
 40
0.1074279788
 40
0.2198207877
 40
0.3372588342
 40
0.4597730679
 40
0.5873582314
 40
0.7199765911
 40
0.8575551419
 40
1.0
 40
1.0
 40
1.0
 40
1.0
 10
16.311549651
 20
13.8834737255
 30
0.0
 10
16.3193279515
 20
13.8746638782
 30
0.0
 10
16.3347188669
 20
13.856167957
 30
0.0
 10
16.3568154542
 20
13.8266039246
 30
0.0
 10
16.3783979704
 20
13.7946509169
 30
0.0
 10
16.3994290421
 20
13.760368774
 30
0.0
 10
16.4198711875
 20
13.7238184647
 30
0.0
 10
16.4396866786
 20
13.6850653428
 30
0.0
 10
16.458841859
 20
13.64418057
 30
0.0
 10
16.4709411103
 20
13.6160313159
 30
0.0
 10
16.4768823138
 20
13.6016253721
 30
0.0
  0
SPLINE
  5
31C
100
AcDbEntity
  8
AXIS
100
AcDbSpline
 62
7
  6
CONTINUOUS
 70
0
 71
3
 72
9
 73
5
 74
0
 42
0.0000001
 43
0.0000001
 44
0.0000000001
 40
0.0
 40
0.0
 40
0.0
 40
0.0
 40
0.4866417716
 40
1.0
 40
1.0
 40
1.0
 40
1.0
 10
16.4802988054
 20
13.5932739966
 30
0.0
 10
16.4917759103
 20
13.5649914311
 30
0.0
 10
16.513716116
 20
13.5061980353
 30
0.0
 10
16.5327378322
 20
13.4464053189
 30
0.0
 10
16.5418309209
 20
13.4155177307
 30
0.0
  0
SPLINE
  5
31D
100
AcDbEntity
  8
AXIS
100
AcDbSpline
 62
7
  6
CONTINUOUS
 70
0
 71
3
 72
23
 73
19
 74
0
 42
0.0000001
 43
0.0000001
 44
0.0000000001
 40
0.0
 40
0.0
 40
0.0
 40
0.0
 40
0.0565573408
 40
0.1155267027
 40
0.1766061763
 40
0.2394697516
 40
0.3037717962
 40
0.3691515843
 40
0.4352375402
 40
0.5016509934
 40
0.5680099078
 40
0.6339329114
 40
0.6990428428
 40
0.7629709599
 40
0.8253606987
 40
0.8858689927
 40
0.9441845571
 40
1.0
 40
1.0
 40
1.0
 40
1.0
 10
16.5418309209
 20
13.4155177307
 30
0.0
 10
16.5517324402
 20
13.3818840494
 30
0.0
 10
16.5703337925
 20
13.312695999
 30
0.0
 10
16.5942793556
 20
13.2058368791
 30
0.0
 10
16.6147339757
 20
13.0942784405
 30
0.0
 10
16.6315572911
 20
12.9787761618
 30
0.0
 10
16.6446347537
 20
12.8601091089
 30
0.0
 10
16.6538774512
 20
12.7390796154
 30
0.0
 10
16.6592222968
 20
12.616505967
 30
0.0
 10
16.6606324695
 20
12.4932172413
 30
0.0
 10
16.6580982121
 20
12.3700474876
 30
0.0
 10
16.6516371989
 20
12.2478299837
 30
0.0
 10
16.6412937012
 20
12.1273912664
 30
0.0
 10
16.6271380572
 20
12.0095453576
 30
0.0
 10
16.6092662333
 20
11.8950903206
 30
0.0
 10
16.5878015004
 20
11.7847937115
 30
0.0
 10
16.5628885462
 20
11.6794075365
 30
0.0
 10
16.5436439124
 20
11.6112931114
 30
0.0
 10
16.5334280715
 20
11.578234638
 30
0.0
  0
SPLINE
  5
31E
100
AcDbEntity
  8
0
100
AcDbSpline
 62
7
  6
CONTINUOUS
 70
0
 71
3
 72
15
 73
11
 74
0
 42
0.0000001
 43
0.0000001
 44
0.0000000001
 40
0.0
 40
0.0
 40
0.0
 40
0.0
 40
0.1764017742
 40
0.3401457152
 40
0.4889344409
 40
0.6213592689
 40
0.7368562703
 40
0.8362104105
 40
0.9221255
 40
1.0
 40
1.0
 40
1.0
 40
1.0
 10
14.9954532189
 20
14.2227876123
 30
0.0
 10
14.995605171
 20
14.2236147813
 30
0.0
 10
14.995947579
 20
14.2252013905
 30
0.0
 10
14.9966055822
 20
14.2274400914
 30
0.0
 10
14.99737826
 20
14.2294191158
 30
0.0
 10
14.9982500775
 20
14.2311026018
 30
0.0
 10
14.9992078565
 20
14.2324610199
 30
0.0
 10
15.0002396082
 20
14.2334725706
 30
0.0
 10
15.0013408278
 20
14.234108052
 30
0.0
 10
15.0021264942
 20
14.2342600715
 30
0.0
 10
15.0024977671
 20
14.2342604834
 30
0.0
  0
SPLINE
  5
31F
100
AcDbEntity
  8
0
100
AcDbSpline
 62
7
  6
CONTINUOUS
 70
0
 71
3
 72
15
 73
11
 74
0
 42
0.0000001
 43
0.0000001
 44
0.0000000001
 40
0.0
 40
0.0
 40
0.0
 40
0.0
 40
0.1581016779
 40
0.3126845688
 40
0.4597611924
 40
0.5963397401
 40
0.7199319851
 40
0.8287630677
 40
0.9219139073
 40
1.0
 40
1.0
 40
1.0
 40
1.0
 10
14.8069215003
 20
14.1624958376
 30
0.0
 10
14.8069299392
 20
14.163571815
 30
0.0
 10
14.8070141593
 20
14.1656998877
 30
0.0
 10
14.8073366584
 20
14.1688144913
 30
0.0
 10
14.8078508113
 20
14.1717551143
 30
0.0
 10
14.8085393235
 20
14.1744433214
 30
0.0
 10
14.8093860198
 20
14.1768119987
 30
0.0
 10
14.8103687122
 20
14.178805706
 30
0.0
 10
14.8114671655
 20
14.1803732997
 30
0.0
 10
14.8123333013
 20
14.1811768879
 30
0.0
 10
14.8127774273
 20
14.1814687438
 30
0.0
  0
SPLINE
  5
320
100
AcDbEntity
  8
0
100
AcDbSpline
 62
7
  6
CONTINUOUS
 70
0
 71
3
 72
11
 73
7
 74
0
 42
0.0000001
 43
0.0000001
 44
0.0000000001
 40
0.0
 40
0.0
 40
0.0
 40
0.0
 40
0.2854103011
 40
0.5424813093
 40
0.7775096979
 40
1.0
 40
1.0
 40
1.0
 40
1.0
 10
14.7132256386
 20
14.0942109212
 30
0.0
 10
14.7134545547
 20
14.0944645501
 30
0.0
 10
14.7139225837
 20
14.094919005
 30
0.0
 10
14.7146958844
 20
14.0954467851
 30
0.0
 10
14.7154945784
 20
14.0957732313
 30
0.0
 10
14.7160447172
 20
14.095847382
 30
0.0
 10
14.7163110551
 20
14.0958472583
 30
0.0
  0
SPLINE
  5
321
100
AcDbEntity
  8
0
100
AcDbSpline
 62
7
  6
CONTINUOUS
 70
0
 71
3
 72
13
 73
9
 74
0
 42
0.0000001
 43
0.0000001
 44
0.0000000001
 40
0.0
 40
0.0
 40
0.0
 40
0.0
 40
0.2793682462
 40
0.554155587
 40
0.6822625632
 40
0.8006696785
 40
0.9071597857
 40
1.0
 40
1.0
 40
1.0
 40
1.0
 10
14.6327287291
 20
13.9709612022
 30
0.0
 10
14.6325026642
 20
13.9730969555
 30
0.0
 10
14.6323390709
 20
13.977366694
 30
0.0
 10
14.632777926
 20
13.9826092664
 30
0.0
 10
14.6335385839
 20
13.9865474307
 30
0.0
 10
14.6342673013
 20
13.9891655004
 30
0.0
 10
14.6351504431
 20
13.9914471248
 30
0.0
 10
14.6358751833
 20
13.9928046685
 30
0.0
 10
14.6362664524
 20
13.9934015844
 30
0.0
  0
SPLINE
  5
322
100
AcDbEntity
  8
0
100
AcDbSpline
 62
7
  6
CONTINUOUS
 70
0
 71
3
 72
15
 73
11
 74
0
 42
0.0000001
 43
0.0000001
 44
0.0000000001
 40
0.0
 40
0.0
 40
0.0
 40
0.0
 40
0.0972488976
 40
0.2066220639
 40
0.3263262081
 40
0.4542922663
 40
0.5882555579
 40
0.7257275543
 40
0.8640302327
 40
1.0
 40
1.0
 40
1.0
 40
1.0
 10
14.6326870572
 20
13.8710124144
 30
0.0
 10
14.6333786474
 20
13.872265502
 30
0.0
 10
14.6346557684
 20
13.8750349589
 30
0.0
 10
14.6362111821
 20
13.8795851573
 30
0.0
 10
14.6374802567
 20
13.8846902758
 30
0.0
 10
14.6384378681
 20
13.8902290937
 30
0.0
 10
14.6390589689
 20
13.8960782866
 30
0.0
 10
14.6393316511
 20
13.9021061213
 30
0.0
 10
14.6392445752
 20
13.9081686897
 30
0.0
 10
14.6389487499
 20
13.9121974324
 30
0.0
 10
14.6387381097
 20
13.9141874596
 30
0.0
  0
SPLINE
  5
323
100
AcDbEntity
  8
0
100
AcDbSpline
 62
7
  6
CONTINUOUS
 70
0
 71
3
 72
13
 73
9
 74
0
 42
0.0000001
 43
0.0000001
 44
0.0000000001
 40
0.0
 40
0.0
 40
0.0
 40
0.0
 40
0.3169239731
 40
0.5838844697
 40
0.6997895329
 40
0.8059395097
 40
0.904902208
 40
1.0
 40
1.0
 40
1.0
 40
1.0
 10
14.5503165765
 20
13.8376695741
 30
0.0
 10
14.5506361999
 20
13.8383509475
 30
0.0
 10
14.5513034921
 20
13.8395719651
 30
0.0
 10
14.552355875
 20
13.8408786045
 30
0.0
 10
14.5532595091
 20
13.841614686
 30
0.0
 10
14.5539242503
 20
13.8419960124
 30
0.0
 10
14.5546031347
 20
13.8422286666
 30
0.0
 10
14.5550655097
 20
13.8422811851
 30
0.0
 10
14.555291343
 20
13.8422810986
 30
0.0
  0
SPLINE
  5
324
100
AcDbEntity
  8
0
100
AcDbSpline
 62
7
  6
CONTINUOUS
 70
0
 71
3
 72
15
 73
11
 74
0
 42
0.0000001
 43
0.0000001
 44
0.0000000001
 40
0.0
 40
0.0
 40
0.0
 40
0.0
 40
0.1208175788
 40
0.2487932832
 40
0.3807552366
 40
0.5137720539
 40
0.6449767979
 40
0.7715745726
 40
0.8908269467
 40
1.0
 40
1.0
 40
1.0
 40
1.0
 10
14.4865979472
 20
13.6611856058
 30
0.0
 10
14.4863693377
 20
13.6621411104
 30
0.0
 10
14.4859825289
 20
13.6641293319
 30
0.0
 10
14.4856057451
 20
13.6672047619
 30
0.0
 10
14.4854273229
 20
13.6703974788
 30
0.0
 10
14.4854491405
 20
13.6736212171
 30
0.0
 10
14.4856722728
 20
13.676793635
 30
0.0
 10
14.4860890909
 20
13.6798339198
 30
0.0
 10
14.4866913147
 20
13.6826600568
 30
0.0
 10
14.4872286569
 20
13.6844415647
 30
0.0
 10
14.4875309879
 20
13.6852762801
 30
0.0
  0
SPLINE
  5
325
100
AcDbEntity
  8
0
100
AcDbSpline
 62
7
  6
CONTINUOUS
 70
0
 71
3
 72
15
 73
11
 74
0
 42
0.0000001
 43
0.0000001
 44
0.0000000001
 40
0.0
 40
0.0
 40
0.0
 40
0.0
 40
0.1128277319
 40
0.2341488744
 40
0.3614207175
 40
0.4921851551
 40
0.6239711594
 40
0.7542720775
 40
0.8805345874
 40
1.0
 40
1.0
 40
1.0
 40
1.0
 10
14.4975211562
 20
13.5652535174
 30
0.0
 10
14.4980351161
 20
13.5669166922
 30
0.0
 10
14.4989431058
 20
13.5704181879
 30
0.0
 10
14.499944746
 20
13.5759078488
 30
0.0
 10
14.5006103935
 20
13.5817269275
 30
0.0
 10
14.500928734
 20
13.5877364841
 30
0.0
 10
14.5008897397
 20
13.5938010126
 30
0.0
 10
14.5004968642
 20
13.5997835954
 30
0.0
 10
14.4997549296
 20
13.6055412745
 30
0.0
 10
14.4990203052
 20
13.6092646569
 30
0.0
 10
14.4985914176
 20
13.6110572516
 30
0.0
  0
SPLINE
  5
326
100
AcDbEntity
  8
0
100
AcDbSpline
 62
7
  6
CONTINUOUS
 70
0
 71
3
 72
14
 73
10
 74
0
 42
0.0000001
 43
0.0000001
 44
0.0000000001
 40
0.0
 40
0.0
 40
0.0
 40
0.0
 40
0.3351686322
 40
0.4815327307
 40
0.6120574398
 40
0.7270153758
 40
0.8276858288
 40
0.9170435903
 40
1.0
 40
1.0
 40
1.0
 40
1.0
 10
14.4221430992
 20
13.473680995
 30
0.0
 10
14.422471692
 20
13.47493473
 30
0.0
 10
14.4230496453
 20
13.4767150245
 30
0.0
 10
14.4240776537
 20
13.4788505618
 30
0.0
 10
14.4248828609
 20
13.4801386511
 30
0.0
 10
14.425744216
 20
13.4811702002
 30
0.0
 10
14.4266567715
 20
13.4819305374
 30
0.0
 10
14.4276134717
 20
13.4824038336
 30
0.0
 10
14.4282835786
 20
13.4825142391
 30
0.0
 10
14.4286043668
 20
13.482513957
 30
0.0
  0
SPLINE
  5
327
100
AcDbEntity
  8
0
100
AcDbSpline
 62
7
  6
CONTINUOUS
 70
0
 71
3
 72
15
 73
11
 74
0
 42
0.0000001
 43
0.0000001
 44
0.0000000001
 40
0.0
 40
0.0
 40
0.0
 40
0.0
 40
0.1040476347
 40
0.2193814297
 40
0.3435135981
 40
0.4738275075
 40
0.6075881244
 40
0.7419214285
 40
0.8738370288
 40
1.0
 40
1.0
 40
1.0
 40
1.0
 10
14.379956749
 20
13.2561060465
 30
0.0
 10
14.3796242489
 20
13.2568746782
 30
0.0
 10
14.3790244838
 20
13.2585396455
 30
0.0
 10
14.3783286629
 20
13.2612185385
 30
0.0
 10
14.3778100951
 20
13.2641521906
 30
0.0
 10
14.3774797252
 20
13.2672615816
 30
0.0
 10
14.377348059
 20
13.2704677553
 30
0.0
 10
14.3774169394
 20
13.2736888356
 30
0.0
 10
14.3776874819
 20
13.2768377853
 30
0.0
 10
14.3780031871
 20
13.2788930254
 30
0.0
 10
14.3781966174
 20
13.2798899033
 30
0.0
  0
SPLINE
  5
328
100
AcDbEntity
  8
0
100
AcDbSpline
 62
7
  6
CONTINUOUS
 70
0
 71
3
 72
15
 73
11
 74
0
 42
0.0000001
 43
0.0000001
 44
0.0000000001
 40
0.0
 40
0.0
 40
0.0
 40
0.0
 40
0.1289612139
 40
0.2621916108
 40
0.3966808312
 40
0.5297859938
 40
0.6589919086
 40
0.7819230669
 40
0.8963125672
 40
1.0
 40
1.0
 40
1.0
 40
1.0
 10
14.4010060291
 20
13.1720344648
 30
0.0
 10
14.4013092142
 20
13.1739620665
 30
0.0
 10
14.4017901176
 20
13.1779032716
 30
0.0
 10
14.4021528908
 20
13.1838978247
 30
0.0
 10
14.4021567877
 20
13.1899662748
 30
0.0
 10
14.4018063853
 20
13.1959636082
 30
0.0
 10
14.4011073279
 20
13.2017544951
 30
0.0
 10
14.400078627
 20
13.2072090225
 30
0.0
 10
14.3987400415
 20
13.2121972651
 30
0.0
 10
14.3976074131
 20
13.2153034737
 30
0.0
 10
14.3969845178
 20
13.2167434041
 30
0.0
  0
SPLINE
  5
329
100
AcDbEntity
  8
AXIS
100
AcDbSpline
 62
7
  6
CONTINUOUS
 70
0
 71
3
 72
23
 73
19
 74
0
 42
0.0000001
 43
0.0000001
 44
0.0000000001
 40
0.0
 40
0.0
 40
0.0
 40
0.0
 40
0.0879635284
 40
0.1726881091
 40
0.2539734289
 40
0.3316924803
 40
0.4057550317
 40
0.4760978616
 40
0.5426900046
 40
0.6055542264
 40
0.6647665952
 40
0.7204712539
 40
0.77288666
 40
0.8223230416
 40
0.8691890949
 40
0.9140001294
 40
0.9573714259
 40
1.0
 40
1.0
 40
1.0
 40
1.0
 10
15.6746589564
 20
13.3282221012
 30
0.0
 10
15.6805207794
 20
13.3471909672
 30
0.0
 10
15.6926256385
 20
13.3842495443
 30
0.0
 10
15.7123182843
 20
13.4380971358
 30
0.0
 10
15.7331597058
 20
13.4890230524
 30
0.0
 10
15.7550788009
 20
13.5368615241
 30
0.0
 10
15.778010732
 20
13.5814655648
 30
0.0
 10
15.8018818192
 20
13.6226997529
 30
0.0
 10
15.8266228858
 20
13.6604337725
 30
0.0
 10
15.8521560821
 20
13.6945519268
 30
0.0
 10
15.8784091062
 20
13.7249469177
 30
0.0
 10
15.9053041385
 20
13.7515255339
 30
0.0
 10
15.9327683804
 20
13.7741998087
 30
0.0
 10
15.9607247295
 20
13.7928932479
 30
0.0
 10
15.9890959049
 20
13.8075318173
 30
0.0
 10
16.0177985579
 20
13.818049905
 30
0.0
 10
16.0467284699
 20
13.8243886847
 30
0.0
 10
16.066167466
 20
13.8258043136
 30
0.0
 10
16.0757890112
 20
13.8258046112
 30
0.0
  0
SPLINE
  5
32A
100
AcDbEntity
  8
AXIS
100
AcDbSpline
 62
7
  6
CONTINUOUS
 70
0
 71
3
 72
43
 73
39
 74
0
 42
0.0000001
 43
0.0000001
 44
0.0000000001
 40
0.0
 40
0.0
 40
0.0
 40
0.0
 40
0.0330474856
 40
0.0673848497
 40
0.1028737414
 40
0.1393860011
 40
0.1767811256
 40
0.2149089869
 40
0.2536151083
 40
0.2927412727
 40
0.3321255826
 40
0.371604476
 40
0.4110137207
 40
0.45018957
 40
0.4889699872
 40
0.5271956605
 40
0.5647116974
 40
0.6013680823
 40
0.6370219908
 40
0.6715384235
 40
0.7047919461
 40
0.7366690846
 40
0.7670689476
 40
0.7959073385
 40
0.823118307
 40
0.8486582264
 40
0.8725112425
 40
0.8946935919
 40
0.9152632449
 40
0.9249784409
 40
0.9343358938
 40
0.9520632179
 40
0.9605029178
 40
0.9687038383
 40
0.9767070513
 40
0.9845579714
 40
0.9923052436
 40
1.0
 40
1.0
 40
1.0
 40
1.0
 10
15.6746589564
 20
13.3282221012
 30
0.0
 10
15.6670718437
 20
13.3036701954
 30
0.0
 10
15.6526353935
 20
13.253283808
 30
0.0
 10
15.6334784504
 20
13.1756010929
 30
0.0
 10
15.6164804578
 20
13.0946627377
 30
0.0
 10
15.6017249985
 20
13.0108720646
 30
0.0
 10
15.5892818109
 20
12.9246339903
 30
0.0
 10
15.5792152788
 20
12.8363698678
 30
0.0
 10
15.5715728487
 20
12.7465124825
 30
0.0
 10
15.5663931042
 20
12.6555013269
 30
0.0
 10
15.5637018521
 20
12.5637817045
 30
0.0
 10
15.5635110059
 20
12.4718027582
 30
0.0
 10
15.5658235145
 20
12.3800147757
 30
0.0
 10
15.57062611
 20
12.2888670412
 30
0.0
 10
15.577896054
 20
12.1988057802
 30
0.0
 10
15.5875978979
 20
12.1102717134
 30
0.0
 10
15.5996822835
 20
12.0236978888
 30
0.0
 10
15.6140918648
 20
11.9395078104
 30
0.0
 10
15.6307538007
 20
11.8581126447
 30
0.0
 10
15.6495869399
 20
11.779909835
 30
0.0
 10
15.6704994281
 20
11.7052807425
 30
0.0
 10
15.6933868385
 20
11.6345881427
 30
0.0
 10
15.718139899
 20
11.5681757417
 30
0.0
 10
15.7446362476
 20
11.5063642465
 30
0.0
 10
15.7727490788
 20
11.449451266
 30
0.0
 10
15.8023455807
 20
11.3977101314
 30
0.0
 10
15.8332865895
 20
11.351384493
 30
0.0
 10
15.8654326733
 20
11.3106997129
 30
0.0
 10
15.8936290595
 20
11.2811081372
 30
0.0
 10
15.9166758215
 20
11.2606119321
 30
0.0
 10
15.9391398197
 20
11.2428690823
 30
0.0
 10
15.9623954284
 20
11.2277745343
 30
0.0
 10
15.9862951001
 20
11.2157690036
 30
0.0
 10
16.0040484469
 20
11.2085007739
 30
0.0
 10
16.0218976053
 20
11.2028365596
 30
0.0
 10
16.0398203395
 20
11.198782865
 30
0.0
 10
16.0577910476
 20
11.1963468428
 30
0.0
 10
16.0698056259
 20
11.1958051896
 30
0.0
 10
16.0757890109
 20
11.1958053746
 30
0.0
  0
SPLINE
  5
32B
100
AcDbEntity
  8
AXIS
100
AcDbSpline
 62
7
  6
CONTINUOUS
 70
0
 71
3
 72
17
 73
13
 74
0
 42
0.0000001
 43
0.0000001
 44
0.0000000001
 40
0.0
 40
0.0
 40
0.0
 40
0.0
 40
0.094484856
 40
0.1447905447
 40
0.1972394542
 40
0.2518934656
 40
0.3087922366
 40
0.4293850379
 40
0.5590571054
 40
0.6976274547
 40
0.8447865132
 40
1.0
 40
1.0
 40
1.0
 40
1.0
 10
15.9317619061
 20
11.2487209629
 30
0.0
 10
15.9448862197
 20
11.2585817045
 30
0.0
 10
15.9639414667
 20
11.2751387973
 30
0.0
 10
15.9878124832
 20
11.2997365108
 30
0.0
 10
16.0057948411
 20
11.3203601119
 30
0.0
 10
16.0234496367
 20
11.3427383436
 30
0.0
 10
16.0469805963
 20
11.3755104188
 30
0.0
 10
16.0753150751
 20
11.4208048259
 30
0.0
 10
16.106985737
 20
11.4805310431
 30
0.0
 10
16.1367811095
 20
11.5463120112
 30
0.0
 10
16.1645238561
 20
11.6177572621
 30
0.0
 10
16.1811255809
 20
11.6676230887
 30
0.0
 10
16.189087505
 20
11.6933878846
 30
0.0
  0
SPLINE
  5
32C
100
AcDbEntity
  8
AXIS
100
AcDbSpline
 62
7
  6
CONTINUOUS
 70
0
 71
3
 72
23
 73
19
 74
0
 42
0.0000001
 43
0.0000001
 44
0.0000000001
 40
0.0
 40
0.0
 40
0.0
 40
0.0
 40
0.0426285741
 40
0.0859998706
 40
0.1308109051
 40
0.1776769584
 40
0.22711334
 40
0.2795287461
 40
0.3352334048
 40
0.3944457736
 40
0.4573099954
 40
0.5239021384
 40
0.5942449683
 40
0.6683075197
 40
0.7460265711
 40
0.8273118909
 40
0.9120364716
 40
1.0
 40
1.0
 40
1.0
 40
1.0
 10
16.0757890109
 20
11.1958053746
 30
0.0
 10
16.0854105561
 20
11.1958056722
 30
0.0
 10
16.1048495522
 20
11.1972213011
 30
0.0
 10
16.1337794642
 20
11.2035600808
 30
0.0
 10
16.1624821172
 20
11.2140781685
 30
0.0
 10
16.1908532926
 20
11.2287167379
 30
0.0
 10
16.2188096417
 20
11.2474101771
 30
0.0
 10
16.2462738836
 20
11.2700844519
 30
0.0
 10
16.2731689159
 20
11.2966630681
 30
0.0
 10
16.2994219399
 20
11.327058059
 30
0.0
 10
16.3249551363
 20
11.3611762133
 30
0.0
 10
16.3496962029
 20
11.398910233
 30
0.0
 10
16.37356729
 20
11.440144421
 30
0.0
 10
16.3964992212
 20
11.4847484617
 30
0.0
 10
16.4184183162
 20
11.5325869334
 30
0.0
 10
16.4392597377
 20
11.58351285
 30
0.0
 10
16.4589523835
 20
11.6373604415
 30
0.0
 10
16.4710572427
 20
11.6744190186
 30
0.0
 10
16.4769190657
 20
11.6933878846
 30
0.0
  0
SPLINE
  5
32D
100
AcDbEntity
  8
AXIS
100
AcDbSpline
 62
7
  6
CONTINUOUS
 70
0
 71
3
 72
23
 73
19
 74
0
 42
0.0000001
 43
0.0000001
 44
0.0000000001
 40
0.0
 40
0.0
 40
0.0
 40
0.0
 40
0.0424299628
 40
0.0860893157
 40
0.131534567
 40
0.1792388482
 40
0.2295900561
 40
0.2828898424
 40
0.3393613787
 40
0.3991621274
 40
0.4623869878
 40
0.5290850357
 40
0.5992544361
 40
0.6728603823
 40
0.7498424138
 40
0.8301187852
 40
0.9135653751
 40
1.0
 40
1.0
 40
1.0
 40
1.0
 10
15.8097130459
 20
11.3891955618
 30
0.0
 10
15.817519794
 20
11.3901943261
 30
0.0
 10
15.8332390248
 20
11.3933059723
 30
0.0
 10
15.8564186571
 20
11.4011122088
 30
0.0
 10
15.8793705411
 20
11.412071323
 30
0.0
 10
15.9020280506
 20
11.4261326541
 30
0.0
 10
15.9243332287
 20
11.4432498047
 30
0.0
 10
15.9462305311
 20
11.4633674254
 30
0.0
 10
15.9676661765
 20
11.4864259312
 30
0.0
 10
15.9885829822
 20
11.5123618486
 30
0.0
 10
16.008929649
 20
11.5411010427
 30
0.0
 10
16.0286477604
 20
11.5725660525
 30
0.0
 10
16.0476874075
 20
11.6066667824
 30
0.0
 10
16.0659940379
 20
11.6433099133
 30
0.0
 10
16.0835187129
 20
11.6823956364
 30
0.0
 10
16.1002125469
 20
11.723816948
 30
0.0
 10
16.1160254925
 20
11.7674505857
 30
0.0
 10
16.1257858104
 20
11.7974188813
 30
0.0
 10
16.1305194666
 20
11.8127369985
 30
0.0
  0
SPLINE
  5
32E
100
AcDbEntity
  8
AXIS
100
AcDbSpline
 62
7
  6
CONTINUOUS
 70
0
 71
3
 72
35
 73
31
 74
0
 42
0.0000001
 43
0.0000001
 44
0.0000000001
 40
0.0
 40
0.0
 40
0.0
 40
0.0
 40
0.0178539573
 40
0.0369313707
 40
0.0573132813
 40
0.0790483666
 40
0.1021583161
 40
0.1266426239
 40
0.1524815639
 40
0.1796402233
 40
0.2080694683
 40
0.2377095493
 40
0.2684898027
 40
0.3003319777
 40
0.3331493341
 40
0.366849634
 40
0.4013341507
 40
0.4365001923
 40
0.508438889
 40
0.5817796057
 40
0.6555987799
 40
0.7289624427
 40
0.7651863436
 40
0.8009520204
 40
0.8361490252
 40
0.8706695393
 40
0.9044090948
 40
0.9372730958
 40
0.969170387
 40
1.0
 40
1.0
 40
1.0
 40
1.0
 10
15.9323355792
 20
13.7724572306
 30
0.0
 10
15.9426730976
 20
13.7646559584
 30
0.0
 10
15.9631640598
 20
13.7473136092
 30
0.0
 10
15.9922410608
 20
13.71752958
 30
0.0
 10
16.0205363905
 20
13.6832685142
 30
0.0
 10
16.047949186
 20
13.6446601558
 30
0.0
 10
16.0743869573
 20
13.6018442689
 30
0.0
 10
16.0997540961
 20
13.5549765086
 30
0.0
 10
16.1239609454
 20
13.5042288073
 30
0.0
 10
16.1469166763
 20
13.4497866302
 30
0.0
 10
16.1685393369
 20
13.3918513111
 30
0.0
 10
16.188745808
 20
13.3306361498
 30
0.0
 10
16.2074640667
 20
13.2663685313
 30
0.0
 10
16.2246210069
 20
13.1992863082
 30
0.0
 10
16.2401558456
 20
13.1296391631
 30
0.0
 10
16.2540071555
 20
13.0576858374
 30
0.0
 10
16.2661264883
 20
12.9836939468
 30
0.0
 10
16.2800151662
 20
12.8819217275
 30
0.0
 10
16.2926723275
 20
12.7515838838
 30
0.0
 10
16.3003150612
 20
12.5927793395
 30
0.0
 10
16.300407728
 20
12.4327581766
 30
0.0
 10
16.2941676558
 20
12.2998094654
 30
0.0
 10
16.2853580319
 20
12.1947333553
 30
0.0
 10
16.2769269539
 20
12.1174325193
 30
0.0
 10
16.2666754617
 20
12.0415986758
 30
0.0
 10
16.2546441125
 20
11.967514695
 30
0.0
 10
16.2408759824
 20
11.8954554042
 30
0.0
 10
16.2254230962
 20
11.8256850946
 30
0.0
 10
16.2083418551
 20
11.758471261
 30
0.0
 10
16.1956901417
 20
11.7147540247
 30
0.0
 10
16.189087505
 20
11.6933878846
 30
0.0
  0
SPLINE
  5
32F
100
AcDbEntity
  8
AXIS
100
AcDbSpline
 62
7
  6
CONTINUOUS
 70
0
 71
3
 72
43
 73
39
 74
0
 42
0.0000001
 43
0.0000001
 44
0.0000000001
 40
0.0
 40
0.0
 40
0.0
 40
0.0
 40
0.0076947564
 40
0.0154420286
 40
0.0232929487
 40
0.0312961617
 40
0.0394970822
 40
0.0479367821
 40
0.0656641062
 40
0.0750215591
 40
0.0847367551
 40
0.1053064081
 40
0.1274887575
 40
0.1513417736
 40
0.176881693
 40
0.2040926615
 40
0.2329310524
 40
0.2633309154
 40
0.2952080539
 40
0.3284615765
 40
0.3629780092
 40
0.3986319177
 40
0.4352883026
 40
0.4728043395
 40
0.5110300128
 40
0.54981043
 40
0.5889862793
 40
0.628395524
 40
0.6678744174
 40
0.7072587273
 40
0.7463848917
 40
0.7850910131
 40
0.8232188744
 40
0.8606139989
 40
0.8971262586
 40
0.9326151503
 40
0.9669525144
 40
1.0
 40
1.0
 40
1.0
 40
1.0
 10
16.0757890112
 20
13.8258046112
 30
0.0
 10
16.0817723962
 20
13.8258047962
 30
0.0
 10
16.0937869745
 20
13.825263143
 30
0.0
 10
16.1117576826
 20
13.8228271208
 30
0.0
 10
16.1296804167
 20
13.8187734263
 30
0.0
 10
16.1475295752
 20
13.8131092119
 30
0.0
 10
16.1652829219
 20
13.8058409822
 30
0.0
 10
16.1891825937
 20
13.7938354515
 30
0.0
 10
16.2124382023
 20
13.7787409035
 30
0.0
 10
16.2349022006
 20
13.7609980537
 30
0.0
 10
16.2579489626
 20
13.7405018486
 30
0.0
 10
16.2861453488
 20
13.7109102729
 30
0.0
 10
16.3182914325
 20
13.6702254928
 30
0.0
 10
16.3492324414
 20
13.6238998545
 30
0.0
 10
16.3788289433
 20
13.5721587198
 30
0.0
 10
16.4069417745
 20
13.5152457393
 30
0.0
 10
16.433438123
 20
13.4534342441
 30
0.0
 10
16.4581911836
 20
13.3870218431
 30
0.0
 10
16.481078594
 20
13.3163292433
 30
0.0
 10
16.5019910822
 20
13.2417001508
 30
0.0
 10
16.5208242214
 20
13.1634973412
 30
0.0
 10
16.5374861573
 20
13.0821021754
 30
0.0
 10
16.5518957385
 20
12.997912097
 30
0.0
 10
16.5639801242
 20
12.9113382725
 30
0.0
 10
16.5736819681
 20
12.8228042056
 30
0.0
 10
16.580951912
 20
12.7327429446
 30
0.0
 10
16.5857545076
 20
12.6415952101
 30
0.0
 10
16.5880670162
 20
12.5498072276
 30
0.0
 10
16.58787617
 20
12.4578282813
 30
0.0
 10
16.5851849178
 20
12.3661086589
 30
0.0
 10
16.5800051734
 20
12.2750975034
 30
0.0
 10
16.5723627433
 20
12.185240118
 30
0.0
 10
16.5622962112
 20
12.0969759955
 30
0.0
 10
16.5498530235
 20
12.0107379212
 30
0.0
 10
16.5350975643
 20
11.9269472481
 30
0.0
 10
16.5180995717
 20
11.8460088929
 30
0.0
 10
16.4989426286
 20
11.7683261778
 30
0.0
 10
16.4845061784
 20
11.7179397904
 30
0.0
 10
16.4769190657
 20
11.6933878846
 30
0.0
  0
SPLINE
  5
330
100
AcDbEntity
  8
AXIS
100
AcDbSpline
 62
7
  6
CONTINUOUS
 70
0
 71
3
 72
19
 73
15
 74
0
 42
0.0000001
 43
0.0000001
 44
0.0000000001
 40
0.0
 40
0.0
 40
0.0
 40
0.0
 40
0.048736257
 40
0.0982500247
 40
0.1488635791
 40
0.2008727789
 40
0.3100337708
 40
0.3676945464
 40
0.4276184523
 40
0.5547373062
 40
0.6221806845
 40
0.6922958714
 40
0.8406872317
 40
1.0
 40
1.0
 40
1.0
 40
1.0
 10
15.8075913735
 20
13.6326721441
 30
0.0
 10
15.8129133554
 20
13.6320577509
 30
0.0
 10
15.8235907401
 20
13.6303192816
 30
0.0
 10
15.8394588476
 20
13.6262403789
 30
0.0
 10
15.8552532503
 20
13.6206798979
 30
0.0
 10
15.8765191966
 20
13.6111546777
 30
0.0
 10
15.8972431814
 20
13.5987418302
 30
0.0
 10
15.9172511079
 20
13.5838599024
 30
0.0
 10
15.9377989796
 20
13.5664756441
 30
0.0
 10
15.9575200837
 20
13.5465452707
 30
0.0
 10
15.9764339454
 20
13.5244289292
 30
0.0
 10
15.9957546701
 20
13.4996213333
 30
0.0
 10
16.0191287871
 20
13.4652357233
 30
0.0
 10
16.0360764977
 20
13.4359303508
 30
0.0
 10
16.0443736948
 20
13.4205082195
 30
0.0
  0
SPLINE
  5
331
100
AcDbEntity
  8
AXIS
100
AcDbSpline
 62
7
  6
CONTINUOUS
 70
0
 71
3
 72
23
 73
19
 74
0
 42
0.0000001
 43
0.0000001
 44
0.0000000001
 40
0.0
 40
0.0
 40
0.0
 40
0.0
 40
0.0864513123
 40
0.1699030244
 40
0.2501787198
 40
0.3271645011
 40
0.4007757039
 40
0.4709483482
 40
0.537644165
 40
0.6008678312
 40
0.6606646747
 40
0.7171330597
 40
0.7704273347
 40
0.8207733638
 40
0.8684725152
 40
0.9139133853
 40
0.9575702862
 40
1.0
 40
1.0
 40
1.0
 40
1.0
 10
15.6181499506
 20
13.4433753478
 30
0.0
 10
15.6244764389
 20
13.4638478715
 30
0.0
 10
15.6375200231
 20
13.5038976857
 30
0.0
 10
15.6586526507
 20
13.5622069547
 30
0.0
 10
15.6809627555
 20
13.617556346
 30
0.0
 10
15.7043825178
 20
13.6697850522
 30
0.0
 10
15.728849792
 20
13.7187495078
 30
0.0
 10
15.7542941275
 20
13.7643162418
 30
0.0
 10
15.7806491905
 20
13.8063563328
 30
0.0
 10
15.8078398251
 20
13.8447544764
 30
0.0
 10
15.8357966147
 20
13.8794026149
 30
0.0
 10
15.8644432411
 20
13.910206588
 30
0.0
 10
15.8937095087
 20
13.9370765641
 30
0.0
 10
15.9235192686
 20
13.9599363329
 30
0.0
 10
15.953800148
 20
13.9787106118
 30
0.0
 10
15.9844746119
 20
13.9933364392
 30
0.0
 10
16.0154523853
 20
14.0037492639
 30
0.0
 10
16.0364594514
 20
14.007891575
 30
0.0
 10
16.0468919935
 20
14.0092185467
 30
0.0
  0
SPLINE
  5
332
100
AcDbEntity
  8
AXIS
100
AcDbSpline
 62
7
  6
CONTINUOUS
 70
0
 71
3
 72
28
 73
24
 74
0
 42
0.0000001
 43
0.0000001
 44
0.0000000001
 40
0.0
 40
0.0
 40
0.0
 40
0.0
 40
0.0750615316
 40
0.1528307068
 40
0.2321559469
 40
0.312009129
 40
0.391350658
 40
0.4691092574
 40
0.5442641167
 40
0.6158573838
 40
0.683032925
 40
0.7450446098
 40
0.8013352839
 40
0.8272250113
 40
0.8515843159
 40
0.8744228841
 40
0.8957744518
 40
0.9157138681
 40
0.9343587647
 40
0.9518694552
 40
0.9684591583
 40
0.984398843
 40
1.0
 40
1.0
 40
1.0
 40
1.0
 10
16.1276718042
 20
13.2179901867
 30
0.0
 10
16.1287754131
 20
13.2239916876
 30
0.0
 10
16.1306611739
 20
13.2362797412
 30
0.0
 10
16.1325387337
 20
13.2550670168
 30
0.0
 10
16.1334869734
 20
13.2743143623
 30
0.0
 10
16.1334945526
 20
13.2937124467
 30
0.0
 10
16.1325614503
 20
13.3129608091
 30
0.0
 10
16.1307019725
 20
13.3317585021
 30
0.0
 10
16.1279467133
 20
13.3498099431
 30
0.0
 10
16.1243374549
 20
13.3668328549
 30
0.0
 10
16.1199357472
 20
13.3825642194
 30
0.0
 10
16.1148054743
 20
13.3967587595
 30
0.0
 10
16.10986485
 20
13.4074124817
 30
0.0
 10
16.1055718419
 20
13.4149400619
 30
0.0
 10
16.1023137616
 20
13.4199138894
 30
0.0
 10
16.0989401167
 20
13.4243558451
 30
0.0
 10
16.0954612509
 20
13.428247294
 30
0.0
 10
16.0918896335
 20
13.4315729858
 30
0.0
 10
16.0882382575
 20
13.4343206856
 30
0.0
 10
16.0845187592
 20
13.4364773636
 30
0.0
 10
16.0807426431
 20
13.4380278439
 30
0.0
 10
16.0769282424
 20
13.4389637376
 30
0.0
 10
16.0743596211
 20
13.4391741057
 30
0.0
 10
16.0730913249
 20
13.439174534
 30
0.0
  0
SPLINE
  5
333
100
AcDbEntity
  8
AXIS
100
AcDbSpline
 62
7
  6
CONTINUOUS
 70
0
 71
3
 72
23
 73
19
 74
0
 42
0.0000001
 43
0.0000001
 44
0.0000000001
 40
0.0
 40
0.0
 40
0.0
 40
0.0
 40
0.0556865567
 40
0.1139796425
 40
0.1745487355
 40
0.2370706183
 40
0.3011845539
 40
0.3665130127
 40
0.4326675494
 40
0.4992495689
 40
0.5658564363
 40
0.6320852648
 40
0.6975366804
 40
0.7618209246
 40
0.8245586028
 40
0.8853865276
 40
0.9439784792
 40
1.0
 40
1.0
 40
1.0
 40
1.0
 10
16.1276718042
 20
13.2179901867
 30
0.0
 10
16.1356258483
 20
13.1927939357
 30
0.0
 10
16.1506011416
 20
13.1408032116
 30
0.0
 10
16.1699508447
 20
13.0602519851
 30
0.0
 10
16.1865948041
 20
12.9757908756
 30
0.0
 10
16.200414319
 20
12.8880276564
 30
0.0
 10
16.2113109123
 20
12.7975801623
 30
0.0
 10
16.2192062437
 20
12.705092515
 30
0.0
 10
16.2240430384
 20
12.6112226041
 30
0.0
 10
16.2257866508
 20
12.5166380009
 30
0.0
 10
16.2244253028
 20
12.4220118891
 30
0.0
 10
16.2199680249
 20
12.328017752
 30
0.0
 10
16.2124467377
 20
12.2353240645
 30
0.0
 10
16.2019160295
 20
12.1445902297
 30
0.0
 10
16.1884516125
 20
12.056462469
 30
0.0
 10
16.1721494472
 20
11.9715612859
 30
0.0
 10
16.1531257682
 20
11.890497678
 30
0.0
 10
16.1383673935
 20
11.8381328993
 30
0.0
 10
16.1305194666
 20
11.8127369985
 30
0.0
  0
SPLINE
  5
334
100
AcDbEntity
  8
AXIS
100
AcDbSpline
 62
7
  6
CONTINUOUS
 70
0
 71
3
 72
43
 73
39
 74
0
 42
0.0000001
 43
0.0000001
 44
0.0000000001
 40
0.0
 40
0.0
 40
0.0
 40
0.0
 40
0.0326516742
 40
0.0665505345
 40
0.1015681349
 40
0.137584172
 40
0.1744654574
 40
0.2120710825
 40
0.2502560715
 40
0.2888711954
 40
0.3277641223
 40
0.366780558
 40
0.405765513
 40
0.4445640597
 40
0.4830226726
 40
0.520990126
 40
0.5583185458
 40
0.5948648918
 40
0.6304915396
 40
0.6650680849
 40
0.6984725792
 40
0.7305924921
 40
0.7613274167
 40
0.7905902092
 40
0.8183094844
 40
0.8444333641
 40
0.868931979
 40
0.8918031076
 40
0.9026392636
 40
0.9130835747
 40
0.9231462945
 40
0.9328412223
 40
0.951190448
 40
0.9683194427
 40
0.9765068929
 40
0.9844880331
 40
0.9923041835
 40
1.0
 40
1.0
 40
1.0
 40
1.0
 10
15.6181499506
 20
13.4433753478
 30
0.0
 10
15.6096927049
 20
13.4160076906
 30
0.0
 10
15.5935805872
 20
13.3598741
 30
0.0
 10
15.572134988
 20
13.2733720899
 30
0.0
 10
15.5530382174
 20
13.1833022064
 30
0.0
 10
15.5363803262
 20
13.0900922919
 30
0.0
 10
15.5222371629
 20
12.9941731717
 30
0.0
 10
15.5106773759
 20
12.8959932004
 30
0.0
 10
15.5017548037
 20
12.796011938
 30
0.0
 10
15.4955105283
 20
12.6946966673
 30
0.0
 10
15.4919754918
 20
12.5925211375
 30
0.0
 10
15.4911652327
 20
12.4899633566
 30
0.0
 10
15.4930835192
 20
12.3875030882
 30
0.0
 10
15.4977224543
 20
12.2856196135
 30
0.0
 10
15.5050587587
 20
12.1847894345
 30
0.0
 10
15.5150586892
 20
12.0854841427
 30
0.0
 10
15.5276755285
 20
11.9881680155
 30
0.0
 10
15.5428486319
 20
11.8932957308
 30
0.0
 10
15.5605080353
 20
11.8013105635
 30
0.0
 10
15.58057012
 20
11.7126416981
 30
0.0
 10
15.6029400033
 20
11.6277023672
 30
0.0
 10
15.6275144354
 20
11.5468882725
 30
0.0
 10
15.6541770205
 20
11.4705744714
 30
0.0
 10
15.6828039739
 20
11.3991143804
 30
0.0
 10
15.7132638226
 20
11.3328384966
 30
0.0
 10
15.7454157993
 20
11.2720493402
 30
0.0
 10
15.7791144651
 20
11.2170286172
 30
0.0
 10
15.8088797485
 20
11.1754678267
 30
0.0
 10
15.8333891235
 20
11.1454611198
 30
0.0
 10
15.8517263881
 20
11.1249585442
 30
0.0
 10
15.8703304918
 20
11.1060764562
 30
0.0
 10
15.8950074977
 20
11.0835059452
 30
0.0
 10
15.9264258767
 20
11.0591944722
 30
0.0
 10
15.9596098256
 20
11.0397870409
 30
0.0
 10
15.9863411655
 20
11.0279461283
 30
0.0
 10
16.0062058105
 20
11.0209385474
 30
0.0
 10
16.0261576397
 20
11.0156829048
 30
0.0
 10
16.0395828993
 20
11.0133398611
 30
0.0
 10
16.0462780624
 20
11.0124704704
 30
0.0
  0
ENDSEC
  0
SECTION
  2
OBJECTS
  0
DICTIONARY
  5
C
100
AcDbDictionary
280
0
281
1
  3
ACAD_GROUP
350
D
  3
ACAD_MLINESTYLE
350
17
  3
ACAD_LAYOUT
350
1A
  3
ACAD_PLOTSETTINGS
350
19
  3
ACAD_PLOTSTYLENAME
350
E
  0
DICTIONARY
  5
D
102
{ACAD_REACTORS
330
C
102
}
100
AcDbDictionary
280
0
281
1
  0
ACDBDICTIONARYWDFLT
  5
E
102
{ACAD_REACTORS
330
C
102
}
100
AcDbDictionary
281
1
  3
Normal
350
F
100
AcDbDictionaryWithDefault
340
F
  0
DICTIONARY
  5
17
102
{ACAD_REACTORS
330
C
102
}
100
AcDbDictionary
280
0
281
1
  3
Standard
350
18
  0
DICTIONARY
  5
19
102
{ACAD_REACTORS
330
C
102
}
100
AcDbDictionary
281
1
  0
DICTIONARY
  5
1A
102
{ACAD_REACTORS
330
C
102
}
100
AcDbDictionary
281
1
  3
Model
350
335
  3
Layout1
350
336
  0
ACDBPLACEHOLDER
  5
F
102
{ACAD_REACTORS
330
E
102
}
  0
MLINESTYLE
  5
18
102
{ACAD_REACTORS
330
17
102
}
100
AcDbMlineStyle
  2
STANDARD
 70
0
  3

 62
256
 51
90.0
 52
90.0
 71
2
 49
0.5
 62
256
  6
BYLAYER
 49
-0.5
 62
256
  6
BYLAYER
  0
LAYOUT
  5
335
102
{ACAD_REACTORS
330
1A
102
}
100
AcDbPlotSettings
  1

  2
none_device
  4
ANSI_C_(22.00_x_17.00_Inches)
  6

 40
0.0
 41
0.0
 42
0.0
 43
0.0
 44
558.8
 45
431.8
 46
0.0
 47
0.0
 48
0.0
 49
0.0
140
0.0
141
0.0
142
1.0
143
1.0
 70
1024
 72
0
 73
0
 74
0
  7

 75
0
147
1.0
148
0.0
149
0.0
100
AcDbLayout
  1
Model
 70
0
 71
0
 10
0.0
 20
0.0
 11
22.0
 21
17.0
 12
0.0
 22
0.0
 32
0.0
 14
0.0
 24
0.0
 34
0.0
 15
0.0
 25
0.0
 35
0.0
146
0.0
 13
0.0
 23
0.0
 33
0.0
 16
1.0
 26
0.0
 36
0.0
 17
0.0
 27
1.0
 37
0.0
 76
0
330
224
345
0
346
0
  0
LAYOUT
  5
336
102
{ACAD_REACTORS
330
1A
102
}
100
AcDbPlotSettings
  1

  2
none_device
  4
ANSI_C_(22.00_x_17.00_Inches)
  6

 40
0.0
 41
0.0
 42
0.0
 43
0.0
 44
558.8
 45
431.8
 46
0.0
 47
0.0
 48
0.0
 49
0.0
140
0.0
141
0.0
142
1.0
143
1.0
 70
0
 72
0
 73
0
 74
0
  7

 75
0
147
1.0
148
0.0
149
0.0
100
AcDbLayout
  1
Layout1
 70
0
 71
1
 10
0.0
 20
0.0
 11
22.0
 21
17.0
 12
0.0
 22
0.0
 32
0.0
 14
0.0
 24
0.0
 34
0.0
 15
0.0
 25
0.0
 35
0.0
146
0.0
 13
0.0
 23
0.0
 33
0.0
 16
1.0
 26
0.0
 36
0.0
 17
0.0
 27
1.0
 37
0.0
 76
0
330
225
345
0
346
0
  0
ENDSEC
  0
EOF