999
DXF file: _cgs_temp_output.dxf
999
Pro/ENGINEER 2015110 by Parametric Technology Corporation
  0
SECTION
  2
HEADER
  9
$ACADVER
  1
AC1021
  9
$DWGCODEPAGE
  3
ANSI_1252
  9
$EXTMAX
 10
22.0
 20
17.0
 30
0.0
  9
$EXTMIN
 10
0.0
 20
0.0
 30
0.0
  9
$LIMMIN
 10
0.0
 20
0.0
  9
$LIMMAX
 10
22.0
 20
17.0
  9
$VIEWCTR
 10
11.0
 20
8.5
  9
$VIEWSIZE
 40
17.0
  9
$CLAYER
  8
0
  9
$LTSCALE
 40
1.21
  9
$CELTYPE
  6
BYLAYER
  9
$DIMSCALE
 40
1.0
  9
$DIMASZ
 40
0.1875
  9
$DIMEXO
 40
0.0625
  9
$DIMDLI
 40
0.836
  9
$DIMEXE
 40
0.125
  9
$DIMCEN
 40
0.198
  9
$DIMLFAC
 40
1.0
  9
$DIMBLK
  1
_CLOSED
  9
$DIMALT
 70
0
  9
$DIMALTF
 40
25.4
  9
$DIMTXT
 40
0.15625
  9
$DIMTOL
 70
0
  9
$DIMLIM
 70
0
  9
$DIMTFAC
 40
1.0
  9
$DIMGAP
 40
0.09
  9
$DIMDSEP
 70
46
  9
$AUNITS
 70
0
  9
$PDMODE
 70
3
  9
$PDSIZE
 40
0.3125
  9
$HANDSEED
  5
2D1
  9
$TILEMODE
 70
1
  9
$MEASUREMENT
 70
0
  9
$INSUNITS
 70
1
  0
ENDSEC
  0
SECTION
  2
CLASSES
  0
CLASS
  1
ACDBDICTIONARYWDFLT
  2
AcDbDictionaryWithDefault
  3
AutoCAD 2000
 90
0
 91
1
280
0
281
0
  0
CLASS
  1
ACDBPLACEHOLDER
  2
AcDbPlaceHolder
  3
AutoCAD 2000
 90
0
 91
1
280
0
281
0
  0
CLASS
  1
LAYOUT
  2
AcDbLayout
  3
AutoCAD 2000
 90
0
 91
0
280
0
281
0
  0
ENDSEC
  0
SECTION
  2
TABLES
  0
TABLE
  2
VPORT
  5
8
100
AcDbSymbolTable
 70
2
  0
VPORT
  5
1F4
100
AcDbSymbolTableRecord
100
AcDbViewportTableRecord
  2
*ACTIVE
 70
0
 10
0.0
 20
0.0
 11
1.0
 21
1.0
 12
11.0
 22
8.5
 13
0.0
 23
0.0
 14
1.0
 24
1.0
 15
0.0
 25
0.0
 16
0.0
 26
0.0
 36
1.0
 17
0.0
 27
0.0
 37
0.0
 40
17.0
 41
1.2941176471
 42
50.0
 43
0.0
 44
0.0
 50
0.0
 51
0.0
 71
0
 72
100
 73
1
 74
1
 75
0
 76
0
 77
0
 78
0
  0
ENDTAB
  0
TABLE
  2
LTYPE
  5
5
100
AcDbSymbolTable
 70
6
  0
LTYPE
  5
14
100
AcDbSymbolTableRecord
100
AcDbLinetypeTableRecord
  2
BYBLOCK
 70
0
  3

 72
65
 73
0
 40
0.0
  0
LTYPE
  5
15
100
AcDbSymbolTableRecord
100
AcDbLinetypeTableRecord
  2
BYLAYER
 70
0
  3

 72
65
 73
0
 40
0.0
  0
LTYPE
  5
16
100
AcDbSymbolTableRecord
100
AcDbLinetypeTableRecord
  2
CONTINUOUS
 70
64
  3
Solid line
 72
65
 73
0
 40
0.0
  0
LTYPE
  5
1F5
100
AcDbSymbolTableRecord
100
AcDbLinetypeTableRecord
  2
CENTER
 70
64
  3
____ _ ____ _ ____ _ ____ _ ____ _ ____ _ ____
 72
65
 73
4
 40
0.6
 49
0.375
 74
0
 49
-0.075
 74
0
 49
0.075
 74
0
 49
-0.075
 74
0
  0
LTYPE
  5
1F6
100
AcDbSymbolTableRecord
100
AcDbLinetypeTableRecord
  2
HIDDEN
 70
64
  3
- - - - - - - - - - - - - - - - - - - -
 72
65
 73
2
 40
0.2
 49
0.1
 74
0
 49
-0.1
 74
0
  0
LTYPE
  5
1F7
100
AcDbSymbolTableRecord
100
AcDbLinetypeTableRecord
  2
PHANTOM
 70
64
  3
_____ _ _ _____ _ _ _____ _ _ _____
 72
65
 73
6
 40
0.8
 49
0.45
 74
0
 49
-0.05
 74
0
 49
0.1
 74
0
 49
-0.05
 74
0
 49
0.1
 74
0
 49
-0.05
 74
0
  0
LTYPE
  5
1F8
100
AcDbSymbolTableRecord
100
AcDbLinetypeTableRecord
  2
DOT
 70
64
  3
. . . . . . . . . . . . . . . . . . . .
 72
65
 73
2
 40
0.2
 49
0.1
 74
0
 49
-0.1
 74
0
  0
LTYPE
  5
1F9
100
AcDbSymbolTableRecord
100
AcDbLinetypeTableRecord
  2
DASHED
 70
64
  3
- - - - - - - - - - - - - - - - - - - -
 72
65
 73
2
 40
0.2
 49
0.1
 74
0
 49
-0.1
 74
0
  0
ENDTAB
  0
TABLE
  2
LAYER
  5
2
100
AcDbSymbolTable
 70
36
  0
LAYER
  5
10
100
AcDbSymbolTableRecord
100
AcDbLayerTableRecord
  2
0
 70
0
 62
7
  6
CONTINUOUS
370
-3
390
F
  0
LAYER
  5
1FA
100
AcDbSymbolTableRecord
100
AcDbLayerTableRecord
  2
DEFAULT_1
 70
0
 62
7
  6
CENTER
370
-3
390
F
  0
LAYER
  5
1FB
100
AcDbSymbolTableRecord
100
AcDbLayerTableRecord
  2
DEFAULT_2
 70
0
 62
8
  6
HIDDEN
370
-3
390
F
  0
LAYER
  5
1FC
100
AcDbSymbolTableRecord
100
AcDbLayerTableRecord
  2
DEFAULT_3
 70
0
 62
7
  6
PHANTOM
370
-3
390
F
  0
LAYER
  5
1FD
100
AcDbSymbolTableRecord
100
AcDbLayerTableRecord
  2
01_ALL_DTM_PLN
 70
0
 62
7
  6
CONTINUOUS
370
-3
390
F
  0
LAYER
  5
1FE
100
AcDbSymbolTableRecord
100
AcDbLayerTableRecord
  2
01__ASM_ALL_DTM_PLN
 70
0
 62
7
  6
CONTINUOUS
370
-3
390
F
  0
LAYER
  5
1FF
100
AcDbSymbolTableRecord
100
AcDbLayerTableRecord
  2
01__ASM_DEF_DTM_PLN
 70
0
 62
7
  6
CONTINUOUS
370
-3
390
F
  0
LAYER
  5
200
100
AcDbSymbolTableRecord
100
AcDbLayerTableRecord
  2
01___PRT_ALL_DTM_PLN
 70
0
 62
7
  6
CONTINUOUS
370
-3
390
F
  0
LAYER
  5
201
100
AcDbSymbolTableRecord
100
AcDbLayerTableRecord
  2
01___PRT_DEF_DTM_PLN
 70
0
 62
7
  6
CONTINUOUS
370
-3
390
F
  0
LAYER
  5
202
100
AcDbSymbolTableRecord
100
AcDbLayerTableRecord
  2
02_ALL_AXES
 70
0
 62
7
  6
CONTINUOUS
370
-3
390
F
  0
LAYER
  5
203
100
AcDbSymbolTableRecord
100
AcDbLayerTableRecord
  2
02__ASM_ALL_AXES
 70
0
 62
7
  6
CONTINUOUS
370
-3
390
F
  0
LAYER
  5
204
100
AcDbSymbolTableRecord
100
AcDbLayerTableRecord
  2
02___PRT_ALL_AXES
 70
0
 62
7
  6
CONTINUOUS
370
-3
390
F
  0
LAYER
  5
205
100
AcDbSymbolTableRecord
100
AcDbLayerTableRecord
  2
03_ALL_CURVES
 70
0
 62
7
  6
CONTINUOUS
370
-3
390
F
  0
LAYER
  5
206
100
AcDbSymbolTableRecord
100
AcDbLayerTableRecord
  2
03__ASM_ALL_CURVES
 70
0
 62
7
  6
CONTINUOUS
370
-3
390
F
  0
LAYER
  5
207
100
AcDbSymbolTableRecord
100
AcDbLayerTableRecord
  2
03___PRT_ALL_CURVES
 70
0
 62
7
  6
CONTINUOUS
370
-3
390
F
  0
LAYER
  5
208
100
AcDbSymbolTableRecord
100
AcDbLayerTableRecord
  2
04_ALL_DTM_PNT
 70
0
 62
7
  6
CONTINUOUS
370
-3
390
F
  0
LAYER
  5
209
100
AcDbSymbolTableRecord
100
AcDbLayerTableRecord
  2
04__ASM_ALL_DTM_PNT
 70
0
 62
7
  6
CONTINUOUS
370
-3
390
F
  0
LAYER
  5
20A
100
AcDbSymbolTableRecord
100
AcDbLayerTableRecord
  2
04___PRT_ALL_DTM_PNT
 70
0
 62
7
  6
CONTINUOUS
370
-3
390
F
  0
LAYER
  5
20B
100
AcDbSymbolTableRecord
100
AcDbLayerTableRecord
  2
05_ALL_DTM_CSYS
 70
0
 62
7
  6
CONTINUOUS
370
-3
390
F
  0
LAYER
  5
20C
100
AcDbSymbolTableRecord
100
AcDbLayerTableRecord
  2
05__ASM_ALL_DTM_CSYS
 70
0
 62
7
  6
CONTINUOUS
370
-3
390
F
  0
LAYER
  5
20D
100
AcDbSymbolTableRecord
100
AcDbLayerTableRecord
  2
05__ASM_DEF_DTM_CSYS
 70
0
 62
7
  6
CONTINUOUS
370
-3
390
F
  0
LAYER
  5
20E
100
AcDbSymbolTableRecord
100
AcDbLayerTableRecord
  2
05___PRT_ALL_DTM_CSYS
 70
0
 62
7
  6
CONTINUOUS
370
-3
390
F
  0
LAYER
  5
20F
100
AcDbSymbolTableRecord
100
AcDbLayerTableRecord
  2
05___PRT_DEF_DTM_CSYS
 70
0
 62
7
  6
CONTINUOUS
370
-3
390
F
  0
LAYER
  5
210
100
AcDbSymbolTableRecord
100
AcDbLayerTableRecord
  2
06_ALL_SURFS
 70
0
 62
7
  6
CONTINUOUS
370
-3
390
F
  0
LAYER
  5
211
100
AcDbSymbolTableRecord
100
AcDbLayerTableRecord
  2
06__ASM_ALL_SURFS
 70
0
 62
7
  6
CONTINUOUS
370
-3
390
F
  0
LAYER
  5
212
100
AcDbSymbolTableRecord
100
AcDbLayerTableRecord
  2
06___PRT_ALL_SURFS
 70
0
 62
7
  6
CONTINUOUS
370
-3
390
F
  0
LAYER
  5
213
100
AcDbSymbolTableRecord
100
AcDbLayerTableRecord
  2
07__ASM_ALL_SKELETONS
 70
0
 62
7
  6
CONTINUOUS
370
-3
390
F
  0
ENDTAB
  0
TABLE
  2
STYLE
  5
3
100
AcDbSymbolTable
 70
1
  0
STYLE
  5
11
100
AcDbSymbolTableRecord
100
AcDbTextStyleTableRecord
  2
STANDARD
 70
0
 40
0.0
 41
0.8
 50
0.0
 71
0
 42
0.2
  3
txt
  4

  0
STYLE
  5
214
100
AcDbSymbolTableRecord
100
AcDbTextStyleTableRecord
  2
TEXTSTYLE_1
 70
0
 40
0.0
 41
0.8
 50
0.0
 71
0
 42
0.2
  3
gdt
  4

  0
ENDTAB
  0
TABLE
  2
VIEW
  5
6
100
AcDbSymbolTable
 70
0
  0
ENDTAB
  0
TABLE
  2
UCS
  5
7
100
AcDbSymbolTable
 70
0
  0
ENDTAB
  0
TABLE
  2
APPID
  5
9
100
AcDbSymbolTable
 70
1
  0
APPID
  5
215
100
AcDbSymbolTableRecord
100
AcDbRegAppTableRecord
  2
ACAD
 70
0
  0
ENDTAB
  0
TABLE
  2
BLOCK_RECORD
  5
1
100
AcDbSymbolTable
 70
0
  0
BLOCK_RECORD
  5
216
100
AcDbSymbolTableRecord
100
AcDbBlockTableRecord
  2
*Model_Space
  0
BLOCK_RECORD
  5
217
100
AcDbSymbolTableRecord
100
AcDbBlockTableRecord
  2
*Paper_Space
  0
ENDTAB
  0
TABLE
  2
DIMSTYLE
  5
A
100
AcDbSymbolTable
 70
1
100
AcDbDimStyleTable
 71
0
  0
DIMSTYLE
105
218
100
AcDbSymbolTableRecord
100
AcDbDimStyleTableRecord
  2
STANDARD
 70
0
  3

  4

 40
1.0
 41
0.1875
 42
0.0625
 43
0.38
 44
0.125
 45
0.0
 46
0.0
 47
0.0001
 48
0.0001
140
0.15625
141
0.09
142
0.0
143
25.4
144
1.0
145
0.0
146
1.0
147
0.09
 71
0.0
 72
0.0
 73
1
 74
1
 75
0
 76
0
 77
0
 78
4
170
0
171
2
172
0
173
0
174
0
175
0
176
0
177
0
178
0
270
2
271
4
272
4
273
2
274
2
275
0
280
0
281
0
282
0
283
1
284
4
285
0
286
0
287
3
288
0
340
11
278
46
  0
ENDTAB
  0
ENDSEC
  0
SECTION
  2
BLOCKS
  0
BLOCK
  5
20
100
AcDbEntity
  8
0
100
AcDbBlockBegin
  2
*Model_Space
 70
0
 10
0.0
 20
0.0
 30
0.0
  3
*Model_Space
  1

  0
ENDBLK
  5
21
100
AcDbEntity
  8
0
100
AcDbBlockEnd
  0
BLOCK
  5
1C
100
AcDbEntity
  8
0
100
AcDbBlockBegin
  2
*Paper_Space
 70
0
 10
0.0
 20
0.0
 30
0.0
  3
*Paper_Space
  1

  0
ENDBLK
  5
1D
100
AcDbEntity
  8
0
100
AcDbBlockEnd
  0
ENDSEC
  0
SECTION
  2
ENTITIES
  0
MTEXT
  5
219
100
AcDbEntity
  8
0
100
AcDbMText
 62
7
  6
CONTINUOUS
  7
STANDARD
 71
1
 72
1
 10
15.9560215477
 20
0.9479130325
 30
0.0
 11
1.0
 21
0.0
 31
0.0
 44
0.9
  1
SCALE: 1:2.000
 40
0.3
 41
3.36
  0
LINE
  5
21A
100
AcDbEntity
  8
0
100
AcDbLine
 62
7
  6
CONTINUOUS
 10
0.0
 20
0.0
 11
0.0
 21
17.0
  0
LINE
  5
21B
100
AcDbEntity
  8
0
100
AcDbLine
 62
7
  6
CONTINUOUS
 10
0.0
 20
0.0
 11
22.0
 21
0.0
  0
LINE
  5
21C
100
AcDbEntity
  8
0
100
AcDbLine
 62
7
  6
CONTINUOUS
 10
0.0
 20
17.0
 11
22.0
 21
17.0
  0
LINE
  5
21D
100
AcDbEntity
  8
0
100
AcDbLine
 62
7
  6
CONTINUOUS
 10
22.0
 20
0.0
 11
22.0
 21
17.0
  0
LINE
  5
21E
100
AcDbEntity
  8
0
100
AcDbLine
 62
7
  6
CONTINUOUS
 10
4.949264914
 20
5.60673407
 11
4.949264914
 21
5.543741944
  0
LINE
  5
21F
100
AcDbEntity
  8
0
100
AcDbLine
 62
7
  6
CONTINUOUS
 10
5.0445303683
 20
5.5150415531
 11
5.0694927101
 21
5.4464580829
  0
LINE
  5
220
100
AcDbEntity
  8
0
100
AcDbLine
 62
7
  6
CONTINUOUS
 10
5.2227379053
 20
5.4464580829
 11
5.247700247
 21
5.5150415531
  0
LINE
  5
221
100
AcDbEntity
  8
0
100
AcDbLine
 62
7
  6
CONTINUOUS
 10
4.949264914
 20
5.543741944
 11
4.9650129455
 21
5.5279939125
  0
LINE
  5
222
100
AcDbEntity
  8
0
100
AcDbLine
 62
7
  6
CONTINUOUS
 10
5.4382311557
 20
5.5150415531
 11
5.4631934975
 21
5.4464580829
  0
LINE
  5
223
100
AcDbEntity
  8
0
100
AcDbLine
 62
7
  6
CONTINUOUS
 10
5.3272176699
 20
5.5279939125
 11
5.3429657014
 21
5.543741944
  0
LINE
  5
224
100
AcDbEntity
  8
0
100
AcDbLine
 62
7
  6
CONTINUOUS
 10
5.3429657014
 20
5.543741944
 11
5.3587137329
 21
5.5279939125
  0
LINE
  5
225
100
AcDbEntity
  8
0
100
AcDbLine
 62
7
  6
CONTINUOUS
 10
5.6164386927
 20
5.4464580829
 11
5.6414010344
 21
5.5150415531
  0
LINE
  5
226
100
AcDbEntity
  8
0
100
AcDbLine
 62
7
  6
CONTINUOUS
 10
5.7209184573
 20
5.5279939125
 11
5.7366664888
 21
5.543741944
  0
LINE
  5
227
100
AcDbEntity
  8
0
100
AcDbLine
 62
7
  6
CONTINUOUS
 10
5.7366664888
 20
5.543741944
 11
5.7524145203
 21
5.5279939125
  0
LINE
  5
228
100
AcDbEntity
  8
0
100
AcDbLine
 62
7
  6
CONTINUOUS
 10
5.8319319431
 20
5.5150415531
 11
5.8568942849
 21
5.4464580829
  0
LINE
  5
229
100
AcDbEntity
  8
0
100
AcDbLine
 62
7
  6
CONTINUOUS
 10
6.0101394801
 20
5.4464580829
 11
6.0351018218
 21
5.5150415531
  0
LINE
  5
22A
100
AcDbEntity
  8
0
100
AcDbLine
 62
7
  6
CONTINUOUS
 10
5.0879905963
 20
5.4335057235
 11
5.204240019
 21
5.4335057235
  0
LINE
  5
22B
100
AcDbEntity
  8
0
100
AcDbLine
 62
7
  6
CONTINUOUS
 10
5.4816913837
 20
5.4335057235
 11
5.5979408064
 21
5.4335057235
  0
LINE
  5
22C
100
AcDbEntity
  8
0
100
AcDbLine
 62
7
  6
CONTINUOUS
 10
5.8753921711
 20
5.4335057235
 11
5.9916415938
 21
5.4335057235
  0
LINE
  5
22D
100
AcDbEntity
  8
0
100
AcDbLine
 62
7
  6
CONTINUOUS
 10
6.2690929585
 20
5.4335057235
 11
6.3853423812
 21
5.4335057235
  0
LINE
  5
22E
100
AcDbEntity
  8
0
100
AcDbLine
 62
7
  6
CONTINUOUS
 10
6.6627937459
 20
5.4335057235
 11
6.7790431686
 21
5.4335057235
  0
LINE
  5
22F
100
AcDbEntity
  8
0
100
AcDbLine
 62
7
  6
CONTINUOUS
 10
7.0564945333
 20
5.4335057235
 11
7.172743956
 21
5.4335057235
  0
LINE
  5
230
100
AcDbEntity
  8
0
100
AcDbLine
 62
7
  6
CONTINUOUS
 10
6.1146192447
 20
5.5279939125
 11
6.1303672762
 21
5.543741944
  0
LINE
  5
231
100
AcDbEntity
  8
0
100
AcDbLine
 62
7
  6
CONTINUOUS
 10
4.9650129455
 20
5.5279939125
 11
5.0260324821
 21
5.5279939125
  0
LINE
  5
232
100
AcDbEntity
  8
0
100
AcDbLine
 62
7
  6
CONTINUOUS
 10
5.2661981332
 20
5.5279939125
 11
5.3272176699
 21
5.5279939125
  0
LINE
  5
233
100
AcDbEntity
  8
0
100
AcDbLine
 62
7
  6
CONTINUOUS
 10
5.3587137329
 20
5.5279939125
 11
5.4197332695
 21
5.5279939125
  0
LINE
  5
234
100
AcDbEntity
  8
0
100
AcDbLine
 62
7
  6
CONTINUOUS
 10
5.6598989206
 20
5.5279939125
 11
5.7209184573
 21
5.5279939125
  0
LINE
  5
235
100
AcDbEntity
  8
0
100
AcDbLine
 62
7
  6
CONTINUOUS
 10
5.7524145203
 20
5.5279939125
 11
5.8134340569
 21
5.5279939125
  0
LINE
  5
236
100
AcDbEntity
  8
0
100
AcDbLine
 62
7
  6
CONTINUOUS
 10
6.053599708
 20
5.5279939125
 11
6.1146192447
 21
5.5279939125
  0
LINE
  5
237
100
AcDbEntity
  8
0
100
AcDbLine
 62
7
  6
CONTINUOUS
 10
6.1461153077
 20
5.5279939125
 11
6.2071348443
 21
5.5279939125
  0
LINE
  5
238
100
AcDbEntity
  8
0
100
AcDbLine
 62
7
  6
CONTINUOUS
 10
6.4473004954
 20
5.5279939125
 11
6.5083200321
 21
5.5279939125
  0
LINE
  5
239
100
AcDbEntity
  8
0
100
AcDbLine
 62
7
  6
CONTINUOUS
 10
6.5398160951
 20
5.5279939125
 11
6.6008356317
 21
5.5279939125
  0
LINE
  5
23A
100
AcDbEntity
  8
0
100
AcDbLine
 62
7
  6
CONTINUOUS
 10
6.8410012828
 20
5.5279939125
 11
6.9020208195
 21
5.5279939125
  0
LINE
  5
23B
100
AcDbEntity
  8
0
100
AcDbLine
 62
7
  6
CONTINUOUS
 10
6.9335168825
 20
5.5279939125
 11
6.9945364191
 21
5.5279939125
  0
LINE
  5
23C
100
AcDbEntity
  8
0
100
AcDbLine
 62
7
  6
CONTINUOUS
 10
7.2347020702
 20
5.5279939125
 11
7.2957216069
 21
5.5279939125
  0
LINE
  5
23D
100
AcDbEntity
  8
0
100
AcDbLine
 62
7
  6
CONTINUOUS
 10
7.3114696384
 20
5.60673407
 11
4.949264914
 21
5.60673407
  0
LINE
  5
23E
100
AcDbEntity
  8
0
100
AcDbLine
 62
7
  6
CONTINUOUS
 10
6.1303672762
 20
5.543741944
 11
6.1461153077
 21
5.5279939125
  0
LINE
  5
23F
100
AcDbEntity
  8
0
100
AcDbLine
 62
7
  6
CONTINUOUS
 10
6.2256327305
 20
5.5150415531
 11
6.2505950723
 21
5.4464580829
  0
LINE
  5
240
100
AcDbEntity
  8
0
100
AcDbLine
 62
7
  6
CONTINUOUS
 10
6.4038402675
 20
5.4464580829
 11
6.4288026092
 21
5.5150415531
  0
LINE
  5
241
100
AcDbEntity
  8
0
100
AcDbLine
 62
7
  6
CONTINUOUS
 10
6.5083200321
 20
5.5279939125
 11
6.5240680636
 21
5.543741944
  0
LINE
  5
242
100
AcDbEntity
  8
0
100
AcDbLine
 62
7
  6
CONTINUOUS
 10
6.5240680636
 20
5.543741944
 11
6.5398160951
 21
5.5279939125
  0
LINE
  5
243
100
AcDbEntity
  8
0
100
AcDbLine
 62
7
  6
CONTINUOUS
 10
6.6193335179
 20
5.5150415531
 11
6.6442958597
 21
5.4464580829
  0
LINE
  5
244
100
AcDbEntity
  8
0
100
AcDbLine
 62
7
  6
CONTINUOUS
 10
6.9020208195
 20
5.5279939125
 11
6.917768851
 21
5.543741944
  0
LINE
  5
245
100
AcDbEntity
  8
0
100
AcDbLine
 62
7
  6
CONTINUOUS
 10
6.917768851
 20
5.543741944
 11
6.9335168825
 21
5.5279939125
  0
LINE
  5
246
100
AcDbEntity
  8
0
100
AcDbLine
 62
7
  6
CONTINUOUS
 10
6.7975410549
 20
5.4464580829
 11
6.8225033966
 21
5.5150415531
  0
LINE
  5
247
100
AcDbEntity
  8
0
100
AcDbLine
 62
7
  6
CONTINUOUS
 10
7.2957216069
 20
5.5279939125
 11
7.3114696384
 21
5.543741944
  0
LINE
  5
248
100
AcDbEntity
  8
0
100
AcDbLine
 62
7
  6
CONTINUOUS
 10
7.0130343054
 20
5.5150415531
 11
7.0379966471
 21
5.4464580829
  0
LINE
  5
249
100
AcDbEntity
  8
0
100
AcDbLine
 62
7
  6
CONTINUOUS
 10
7.1912418423
 20
5.4464580829
 11
7.216204184
 21
5.5150415531
  0
LINE
  5
24A
100
AcDbEntity
  8
0
100
AcDbLine
 62
7
  6
CONTINUOUS
 10
7.3114696384
 20
5.543741944
 11
7.3114696384
 21
5.60673407
  0
LINE
  5
24B
100
AcDbEntity
  8
0
100
AcDbLine
 62
7
  6
CONTINUOUS
 10
7.2519744461
 20
10.6315438444
 11
4.8897697217
 21
10.6315438444
  0
LINE
  5
24C
100
AcDbEntity
  8
0
100
AcDbLine
 62
7
  6
CONTINUOUS
 10
4.8897697217
 20
14.5685517184
 11
4.8897697217
 21
10.6315438444
  0
LINE
  5
24D
100
AcDbEntity
  8
0
100
AcDbLine
 62
7
  6
CONTINUOUS
 10
7.2519744461
 20
14.5685517184
 11
7.2519744461
 21
10.6315438444
  0
LINE
  5
24E
100
AcDbEntity
  8
0
100
AcDbLine
 62
7
  6
CONTINUOUS
 10
4.8897697217
 20
14.5685517184
 11
7.2519744461
 21
14.5685517184
  0
LINE
  5
24F
100
AcDbEntity
  8
0
100
AcDbLine
 62
7
  6
CONTINUOUS
 10
13.5918513199
 20
5.3740105312
 11
13.5918513199
 21
5.5472388777
  0
LINE
  5
250
100
AcDbEntity
  8
0
100
AcDbLine
 62
7
  6
CONTINUOUS
 10
13.5918513199
 20
5.3740105312
 11
17.5288591939
 21
5.3740105312
  0
LINE
  5
251
100
AcDbEntity
  8
0
100
AcDbLine
 62
7
  6
CONTINUOUS
 10
17.5288591939
 20
5.4684987202
 11
13.5918513199
 21
5.4684987202
  0
LINE
  5
252
100
AcDbEntity
  8
0
100
AcDbLine
 62
7
  6
CONTINUOUS
 10
17.5288591939
 20
5.4842467517
 11
13.5918513199
 21
5.4842467517
  0
LINE
  5
253
100
AcDbEntity
  8
0
100
AcDbLine
 62
7
  6
CONTINUOUS
 10
17.5288591939
 20
5.5472388777
 11
13.5918513199
 21
5.5472388777
  0
LINE
  5
254
100
AcDbEntity
  8
0
100
AcDbLine
 62
7
  6
CONTINUOUS
 10
17.5288591939
 20
5.3740105312
 11
17.5288591939
 21
5.5472388777
  0
LINE
  5
255
100
AcDbEntity
  8
0
100
AcDbLine
 62
7
  6
CONTINUOUS
 10
14.0128443748
 20
10.9656661383
 11
14.0567570439
 21
10.9230339696
  0
LINE
  5
256
100
AcDbEntity
  8
0
100
AcDbLine
 62
7
  6
CONTINUOUS
 10
13.9163442599
 20
10.9835065874
 11
13.9356529664
 21
10.973717454
  0
LINE
  5
257
100
AcDbEntity
  8
0
100
AcDbLine
 62
7
  6
CONTINUOUS
 10
13.8971290242
 20
11.0226631208
 11
13.9163442599
 21
10.9835065874
  0
LINE
  5
258
100
AcDbEntity
  8
0
100
AcDbLine
 62
7
  6
CONTINUOUS
 10
14.2789666985
 20
10.9835065874
 11
14.298275405
 21
10.973717454
  0
LINE
  5
259
100
AcDbEntity
  8
0
100
AcDbLine
 62
7
  6
CONTINUOUS
 10
14.3754668134
 20
10.9656661383
 11
14.4193794825
 21
10.9230339696
  0
LINE
  5
25A
100
AcDbEntity
  8
0
100
AcDbLine
 62
7
  6
CONTINUOUS
 10
14.6415891371
 20
10.9835065874
 11
14.6608978436
 21
10.973717454
  0
LINE
  5
25B
100
AcDbEntity
  8
0
100
AcDbLine
 62
7
  6
CONTINUOUS
 10
14.0777457373
 20
10.9149826539
 11
14.1848185461
 21
10.9149826539
  0
LINE
  5
25C
100
AcDbEntity
  8
0
100
AcDbLine
 62
7
  6
CONTINUOUS
 10
14.4403681758
 20
10.9149826539
 11
14.5474409847
 21
10.9149826539
  0
LINE
  5
25D
100
AcDbEntity
  8
0
100
AcDbLine
 62
7
  6
CONTINUOUS
 10
14.8029906144
 20
10.9149826539
 11
14.9100634233
 21
10.9149826539
  0
LINE
  5
25E
100
AcDbEntity
  8
0
100
AcDbLine
 62
7
  6
CONTINUOUS
 10
15.165613053
 20
10.9149826539
 11
15.2726858619
 21
10.9149826539
  0
LINE
  5
25F
100
AcDbEntity
  8
0
100
AcDbLine
 62
7
  6
CONTINUOUS
 10
15.5282354916
 20
10.9149826539
 11
15.6353083004
 21
10.9149826539
  0
LINE
  5
260
100
AcDbEntity
  8
0
100
AcDbLine
 62
7
  6
CONTINUOUS
 10
15.8908579302
 20
10.9149826539
 11
15.997930739
 21
10.9149826539
  0
LINE
  5
261
100
AcDbEntity
  8
0
100
AcDbLine
 62
7
  6
CONTINUOUS
 10
13.9356529664
 20
10.973717454
 11
13.9918556815
 21
10.973717454
  0
LINE
  5
262
100
AcDbEntity
  8
0
100
AcDbLine
 62
7
  6
CONTINUOUS
 10
14.2130628948
 20
10.973717454
 11
14.2692656099
 21
10.973717454
  0
LINE
  5
263
100
AcDbEntity
  8
0
100
AcDbLine
 62
7
  6
CONTINUOUS
 10
14.298275405
 20
10.973717454
 11
14.3544781201
 21
10.973717454
  0
LINE
  5
264
100
AcDbEntity
  8
0
100
AcDbLine
 62
7
  6
CONTINUOUS
 10
14.5756853334
 20
10.973717454
 11
14.6318880485
 21
10.973717454
  0
LINE
  5
265
100
AcDbEntity
  8
0
100
AcDbLine
 62
7
  6
CONTINUOUS
 10
14.6608978436
 20
10.973717454
 11
14.7171005586
 21
10.973717454
  0
LINE
  5
266
100
AcDbEntity
  8
0
100
AcDbLine
 62
7
  6
CONTINUOUS
 10
14.938307772
 20
10.973717454
 11
14.9945104871
 21
10.973717454
  0
LINE
  5
267
100
AcDbEntity
  8
0
100
AcDbLine
 62
7
  6
CONTINUOUS
 10
15.0235202821
 20
10.973717454
 11
15.0797229972
 21
10.973717454
  0
LINE
  5
268
100
AcDbEntity
  8
0
100
AcDbLine
 62
7
  6
CONTINUOUS
 10
15.3009302106
 20
10.973717454
 11
15.3571329256
 21
10.973717454
  0
LINE
  5
269
100
AcDbEntity
  8
0
100
AcDbLine
 62
7
  6
CONTINUOUS
 10
15.3861427207
 20
10.973717454
 11
15.4423454358
 21
10.973717454
  0
LINE
  5
26A
100
AcDbEntity
  8
0
100
AcDbLine
 62
7
  6
CONTINUOUS
 10
15.6635526491
 20
10.973717454
 11
15.7197553642
 21
10.973717454
  0
LINE
  5
26B
100
AcDbEntity
  8
0
100
AcDbLine
 62
7
  6
CONTINUOUS
 10
15.7487651593
 20
10.973717454
 11
15.8049678744
 21
10.973717454
  0
LINE
  5
26C
100
AcDbEntity
  8
0
100
AcDbLine
 62
7
  6
CONTINUOUS
 10
16.0261750877
 20
10.973717454
 11
16.0823778028
 21
10.973717454
  0
LINE
  5
26D
100
AcDbEntity
  8
0
100
AcDbLine
 62
7
  6
CONTINUOUS
 10
16.0728636557
 20
11.0226631208
 11
13.8971290242
 21
11.0226631208
  0
LINE
  5
26E
100
AcDbEntity
  8
0
100
AcDbLine
 62
7
  6
CONTINUOUS
 10
15.0042115757
 20
10.9835065874
 11
15.0235202821
 21
10.973717454
  0
LINE
  5
26F
100
AcDbEntity
  8
0
100
AcDbLine
 62
7
  6
CONTINUOUS
 10
14.738089252
 20
10.9656661383
 11
14.7820019211
 21
10.9230339696
  0
LINE
  5
270
100
AcDbEntity
  8
0
100
AcDbLine
 62
7
  6
CONTINUOUS
 10
15.3668340143
 20
10.9835065874
 11
15.3861427207
 21
10.973717454
  0
LINE
  5
271
100
AcDbEntity
  8
0
100
AcDbLine
 62
7
  6
CONTINUOUS
 10
15.1007116906
 20
10.9656661383
 11
15.1446243596
 21
10.9230339696
  0
LINE
  5
272
100
AcDbEntity
  8
0
100
AcDbLine
 62
7
  6
CONTINUOUS
 10
14.1979052157
 20
10.9230339696
 11
14.1999762252
 21
10.9656661383
  0
LINE
  5
273
100
AcDbEntity
  8
0
100
AcDbLine
 62
7
  6
CONTINUOUS
 10
15.7294564528
 20
10.9835065874
 11
15.7487651593
 21
10.973717454
  0
LINE
  5
274
100
AcDbEntity
  8
0
100
AcDbLine
 62
7
  6
CONTINUOUS
 10
14.8501460455
 20
14.1066273319
 11
13.8971290242
 21
11.0226631208
  0
LINE
  5
275
100
AcDbEntity
  8
0
100
AcDbLine
 62
7
  6
CONTINUOUS
 10
15.4633341292
 20
10.9656661383
 11
15.5072467982
 21
10.9230339696
  0
LINE
  5
276
100
AcDbEntity
  8
0
100
AcDbLine
 62
7
  6
CONTINUOUS
 10
14.1999762252
 20
10.9656661383
 11
14.2002648973
 21
10.9672915342
  0
LINE
  5
277
100
AcDbEntity
  8
0
100
AcDbLine
 62
7
  6
CONTINUOUS
 10
14.1976154547
 20
10.9214089088
 11
14.1979052157
 21
10.9230339696
  0
LINE
  5
278
100
AcDbEntity
  8
0
100
AcDbLine
 62
7
  6
CONTINUOUS
 10
14.5605276543
 20
10.9230339696
 11
14.5625986638
 21
10.9656661383
  0
LINE
  5
279
100
AcDbEntity
  8
0
100
AcDbLine
 62
7
  6
CONTINUOUS
 10
14.1976212819
 20
10.9214071144
 11
14.2137233308
 21
10.9735133639
  0
LINE
  5
27A
100
AcDbEntity
  8
0
100
AcDbLine
 62
7
  6
CONTINUOUS
 10
15.8259565678
 20
10.9656661383
 11
15.8698692368
 21
10.9230339696
  0
LINE
  5
27B
100
AcDbEntity
  8
0
100
AcDbLine
 62
7
  6
CONTINUOUS
 10
14.5625986638
 20
10.9656661383
 11
14.562888696
 21
10.9672911157
  0
LINE
  5
27C
100
AcDbEntity
  8
0
100
AcDbLine
 62
7
  6
CONTINUOUS
 10
14.5602367413
 20
10.9214092632
 11
14.5605276543
 21
10.9230339696
  0
LINE
  5
27D
100
AcDbEntity
  8
0
100
AcDbLine
 62
7
  6
CONTINUOUS
 10
14.9231500929
 20
10.9230339696
 11
14.9252211024
 21
10.9656661383
  0
LINE
  5
27E
100
AcDbEntity
  8
0
100
AcDbLine
 62
7
  6
CONTINUOUS
 10
14.5602437205
 20
10.9214071144
 11
14.5763457694
 21
10.9735133639
  0
LINE
  5
27F
100
AcDbEntity
  8
0
100
AcDbLine
 62
7
  6
CONTINUOUS
 10
14.9252211024
 20
10.9656661383
 11
14.9255111346
 21
10.9672911157
  0
LINE
  5
280
100
AcDbEntity
  8
0
100
AcDbLine
 62
7
  6
CONTINUOUS
 10
14.9228591799
 20
10.9214092632
 11
14.9231500929
 21
10.9230339696
  0
LINE
  5
281
100
AcDbEntity
  8
0
100
AcDbLine
 62
7
  6
CONTINUOUS
 10
15.2857725315
 20
10.9230339696
 11
15.287843541
 21
10.9656661383
  0
LINE
  5
282
100
AcDbEntity
  8
0
100
AcDbLine
 62
7
  6
CONTINUOUS
 10
14.9228661591
 20
10.9214071144
 11
14.938968208
 21
10.9735133639
  0
LINE
  5
283
100
AcDbEntity
  8
0
100
AcDbLine
 62
7
  6
CONTINUOUS
 10
16.0920788914
 20
10.9835065874
 11
16.0728636557
 21
11.0226631208
  0
LINE
  5
284
100
AcDbEntity
  8
0
100
AcDbLine
 62
7
  6
CONTINUOUS
 10
15.287843541
 20
10.9656661383
 11
15.2881335732
 21
10.9672911157
  0
LINE
  5
285
100
AcDbEntity
  8
0
100
AcDbLine
 62
7
  6
CONTINUOUS
 10
15.2854816185
 20
10.9214092632
 11
15.2857725315
 21
10.9230339696
  0
LINE
  5
286
100
AcDbEntity
  8
0
100
AcDbLine
 62
7
  6
CONTINUOUS
 10
15.64839497
 20
10.9230339696
 11
15.6504659795
 21
10.9656661383
  0
LINE
  5
287
100
AcDbEntity
  8
0
100
AcDbLine
 62
7
  6
CONTINUOUS
 10
15.2854885976
 20
10.9214071144
 11
15.3015906466
 21
10.9735133639
  0
LINE
  5
288
100
AcDbEntity
  8
0
100
AcDbLine
 62
7
  6
CONTINUOUS
 10
14.2692656099
 20
10.973717454
 11
14.2789666985
 21
10.9835065874
  0
LINE
  5
289
100
AcDbEntity
  8
0
100
AcDbLine
 62
7
  6
CONTINUOUS
 10
15.6504659795
 20
10.9656661383
 11
15.6507560118
 21
10.9672911157
  0
LINE
  5
28A
100
AcDbEntity
  8
0
100
AcDbLine
 62
7
  6
CONTINUOUS
 10
15.6481040571
 20
10.9214092632
 11
15.64839497
 21
10.9230339696
  0
LINE
  5
28B
100
AcDbEntity
  8
0
100
AcDbLine
 62
7
  6
CONTINUOUS
 10
16.0110174086
 20
10.9230339696
 11
16.0130884181
 21
10.9656661383
  0
LINE
  5
28C
100
AcDbEntity
  8
0
100
AcDbLine
 62
7
  6
CONTINUOUS
 10
14.6318880485
 20
10.973717454
 11
14.6415891371
 21
10.9835065874
  0
LINE
  5
28D
100
AcDbEntity
  8
0
100
AcDbLine
 62
7
  6
CONTINUOUS
 10
15.6481110362
 20
10.9214071144
 11
15.6642130851
 21
10.9735133639
  0
LINE
  5
28E
100
AcDbEntity
  8
0
100
AcDbLine
 62
7
  6
CONTINUOUS
 10
14.9945104871
 20
10.973717454
 11
15.0042115757
 21
10.9835065874
  0
LINE
  5
28F
100
AcDbEntity
  8
0
100
AcDbLine
 62
7
  6
CONTINUOUS
 10
16.0130884181
 20
10.9656661383
 11
16.0133784504
 21
10.9672911157
  0
LINE
  5
290
100
AcDbEntity
  8
0
100
AcDbLine
 62
7
  6
CONTINUOUS
 10
16.0107264957
 20
10.9214092632
 11
16.0110174086
 21
10.9230339696
  0
LINE
  5
291
100
AcDbEntity
  8
0
100
AcDbLine
 62
7
  6
CONTINUOUS
 10
16.0107334748
 20
10.9214071144
 11
16.0268355237
 21
10.9735133639
  0
LINE
  5
292
100
AcDbEntity
  8
0
100
AcDbLine
 62
7
  6
CONTINUOUS
 10
17.025880677
 20
14.1066273319
 11
16.0728636557
 21
11.0226631208
  0
LINE
  5
293
100
AcDbEntity
  8
0
100
AcDbLine
 62
7
  6
CONTINUOUS
 10
17.0450959127
 20
14.0674707985
 11
16.0920788914
 21
10.9835065874
  0
LINE
  5
294
100
AcDbEntity
  8
0
100
AcDbLine
 62
7
  6
CONTINUOUS
 10
15.3571329256
 20
10.973717454
 11
15.3668340143
 21
10.9835065874
  0
LINE
  5
295
100
AcDbEntity
  8
0
100
AcDbLine
 62
7
  6
CONTINUOUS
 10
15.7197553642
 20
10.973717454
 11
15.7294564528
 21
10.9835065874
  0
LINE
  5
296
100
AcDbEntity
  8
0
100
AcDbLine
 62
7
  6
CONTINUOUS
 10
16.0823778028
 20
10.973717454
 11
16.0920788914
 21
10.9835065874
  0
LINE
  5
297
100
AcDbEntity
  8
0
100
AcDbLine
 62
7
  6
CONTINUOUS
 10
14.8501460455
 20
14.1066273319
 11
17.025880677
 21
14.1066273319
  0
LINE
  5
298
100
AcDbEntity
  8
0
100
AcDbLine
 62
7
  6
CONTINUOUS
 10
17.0450959127
 20
14.0674707985
 11
17.025880677
 21
14.1066273319
  0
ARC
  5
299
100
AcDbEntity
  8
0
100
AcDbCircle
 62
7
  6
CONTINUOUS
 10
7.2347020702
 20
5.5083088731
 40
0.0196850394
100
AcDbArc
 50
90.0
 51
160.0
  0
ARC
  5
29A
100
AcDbEntity
  8
0
100
AcDbCircle
 62
7
  6
CONTINUOUS
 10
6.9945364191
 20
5.5083088731
 40
0.0196850394
100
AcDbArc
 50
20.0
 51
90.0
  0
ARC
  5
29B
100
AcDbEntity
  8
0
100
AcDbCircle
 62
7
  6
CONTINUOUS
 10
6.8410012828
 20
5.5083088731
 40
0.0196850394
100
AcDbArc
 50
90.0
 51
160.0
  0
ARC
  5
29C
100
AcDbEntity
  8
0
100
AcDbCircle
 62
7
  6
CONTINUOUS
 10
6.6008356317
 20
5.5083088731
 40
0.0196850394
100
AcDbArc
 50
20.0
 51
90.0
  0
ARC
  5
29D
100
AcDbEntity
  8
0
100
AcDbCircle
 62
7
  6
CONTINUOUS
 10
6.4473004954
 20
5.5083088731
 40
0.0196850394
100
AcDbArc
 50
90.0
 51
160.0
  0
ARC
  5
29E
100
AcDbEntity
  8
0
100
AcDbCircle
 62
7
  6
CONTINUOUS
 10
6.2071348443
 20
5.5083088731
 40
0.0196850394
100
AcDbArc
 50
20.0
 51
90.0
  0
ARC
  5
29F
100
AcDbEntity
  8
0
100
AcDbCircle
 62
7
  6
CONTINUOUS
 10
6.053599708
 20
5.5083088731
 40
0.0196850394
100
AcDbArc
 50
90.0
 51
160.0
  0
ARC
  5
2A0
100
AcDbEntity
  8
0
100
AcDbCircle
 62
7
  6
CONTINUOUS
 10
5.8134340569
 20
5.5083088731
 40
0.0196850394
100
AcDbArc
 50
20.0
 51
90.0
  0
ARC
  5
2A1
100
AcDbEntity
  8
0
100
AcDbCircle
 62
7
  6
CONTINUOUS
 10
5.6598989206
 20
5.5083088731
 40
0.0196850394
100
AcDbArc
 50
90.0
 51
160.0
  0
ARC
  5
2A2
100
AcDbEntity
  8
0
100
AcDbCircle
 62
7
  6
CONTINUOUS
 10
5.4197332695
 20
5.5083088731
 40
0.0196850394
100
AcDbArc
 50
20.0
 51
90.0
  0
ARC
  5
2A3
100
AcDbEntity
  8
0
100
AcDbCircle
 62
7
  6
CONTINUOUS
 10
5.0260324821
 20
5.5083088731
 40
0.0196850394
100
AcDbArc
 50
20.0
 51
90.0
  0
ARC
  5
2A4
100
AcDbEntity
  8
0
100
AcDbCircle
 62
7
  6
CONTINUOUS
 10
5.2661981332
 20
5.5083088731
 40
0.0196850394
100
AcDbArc
 50
90.0
 51
160.0
  0
ARC
  5
2A5
100
AcDbEntity
  8
0
100
AcDbCircle
 62
7
  6
CONTINUOUS
 10
5.0879905963
 20
5.4531907629
 40
0.0196850394
100
AcDbArc
 50
200.0
 51
270.0
  0
ARC
  5
2A6
100
AcDbEntity
  8
0
100
AcDbCircle
 62
7
  6
CONTINUOUS
 10
5.204240019
 20
5.4531907629
 40
0.0196850394
100
AcDbArc
 50
270.0
 51
340.0
  0
ARC
  5
2A7
100
AcDbEntity
  8
0
100
AcDbCircle
 62
7
  6
CONTINUOUS
 10
5.4816913837
 20
5.4531907629
 40
0.0196850394
100
AcDbArc
 50
200.0
 51
270.0
  0
ARC
  5
2A8
100
AcDbEntity
  8
0
100
AcDbCircle
 62
7
  6
CONTINUOUS
 10
5.5979408064
 20
5.4531907629
 40
0.0196850394
100
AcDbArc
 50
270.0
 51
340.0
  0
ARC
  5
2A9
100
AcDbEntity
  8
0
100
AcDbCircle
 62
7
  6
CONTINUOUS
 10
5.8753921711
 20
5.4531907629
 40
0.0196850394
100
AcDbArc
 50
200.0
 51
270.0
  0
ARC
  5
2AA
100
AcDbEntity
  8
0
100
AcDbCircle
 62
7
  6
CONTINUOUS
 10
5.9916415938
 20
5.4531907629
 40
0.0196850394
100
AcDbArc
 50
270.0
 51
340.0
  0
ARC
  5
2AB
100
AcDbEntity
  8
0
100
AcDbCircle
 62
7
  6
CONTINUOUS
 10
6.2690929585
 20
5.4531907629
 40
0.0196850394
100
AcDbArc
 50
200.0
 51
270.0
  0
ARC
  5
2AC
100
AcDbEntity
  8
0
100
AcDbCircle
 62
7
  6
CONTINUOUS
 10
6.3853423812
 20
5.4531907629
 40
0.0196850394
100
AcDbArc
 50
270.0
 51
340.0
  0
ARC
  5
2AD
100
AcDbEntity
  8
0
100
AcDbCircle
 62
7
  6
CONTINUOUS
 10
6.6627937459
 20
5.4531907629
 40
0.0196850394
100
AcDbArc
 50
200.0
 51
270.0
  0
ARC
  5
2AE
100
AcDbEntity
  8
0
100
AcDbCircle
 62
7
  6
CONTINUOUS
 10
7.172743956
 20
5.4531907629
 40
0.0196850394
100
AcDbArc
 50
270.0
 51
340.0
  0
ARC
  5
2AF
100
AcDbEntity
  8
0
100
AcDbCircle
 62
7
  6
CONTINUOUS
 10
7.0564945333
 20
5.4531907629
 40
0.0196850394
100
AcDbArc
 50
200.0
 51
270.0
  0
ARC
  5
2B0
100
AcDbEntity
  8
0
100
AcDbCircle
 62
7
  6
CONTINUOUS
 10
6.7790431686
 20
5.4531907629
 40
0.0196850394
100
AcDbArc
 50
270.0
 51
340.0
  0
SPLINE
  5
2B1
100
AcDbEntity
  8
0
100
AcDbSpline
 62
7
  6
CONTINUOUS
 70
0
 71
3
 72
10
 73
6
 74
0
 42
0.0000001
 43
0.0000001
 44
0.0000000001
 40
0.0
 40
0.0
 40
0.0
 40
0.0
 40
0.2189064135
 40
0.4528523424
 40
1.0
 40
1.0
 40
1.0
 40
1.0
 10
16.0133732826
 20
10.967292713
 30
0.0
 10
16.0135885672
 20
10.967988858
 30
0.0
 10
16.0142887155
 20
10.9693615164
 30
0.0
 10
16.0166905957
 20
10.9717259582
 30
0.0
 10
16.0192092882
 20
10.9727237397
 30
0.0
 10
16.0209808688
 20
10.9731463504
 30
0.0
  0
SPLINE
  5
2B2
100
AcDbEntity
  8
0
100
AcDbSpline
 62
7
  6
CONTINUOUS
 70
0
 71
3
 72
9
 73
5
 74
0
 42
0.0000001
 43
0.0000001
 44
0.0000000001
 40
0.0
 40
0.0
 40
0.0
 40
0.0
 40
0.2379644852
 40
1.0
 40
1.0
 40
1.0
 40
1.0
 10
16.0209808688
 20
10.9731463504
 30
0.0
 10
16.0213845792
 20
10.9732426555
 30
0.0
 10
16.0230949846
 20
10.9735884772
 30
0.0
 10
16.0248460077
 20
10.973717454
 30
0.0
 10
16.0261750877
 20
10.973717454
 30
0.0
  0
SPLINE
  5
2B3
100
AcDbEntity
  8
0
100
AcDbSpline
 62
7
  6
CONTINUOUS
 70
0
 71
3
 72
10
 73
6
 74
0
 42
0.0000001
 43
0.0000001
 44
0.0000000001
 40
0.0
 40
0.0
 40
0.0
 40
0.0
 40
0.2189064135
 40
0.4528523424
 40
1.0
 40
1.0
 40
1.0
 40
1.0
 10
15.650750844
 20
10.967292713
 30
0.0
 10
15.6509661286
 20
10.967988858
 30
0.0
 10
15.6516662769
 20
10.9693615164
 30
0.0
 10
15.6540681571
 20
10.9717259582
 30
0.0
 10
15.6565868496
 20
10.9727237397
 30
0.0
 10
15.6583584303
 20
10.9731463504
 30
0.0
  0
SPLINE
  5
2B4
100
AcDbEntity
  8
0
100
AcDbSpline
 62
7
  6
CONTINUOUS
 70
0
 71
3
 72
9
 73
5
 74
0
 42
0.0000001
 43
0.0000001
 44
0.0000000001
 40
0.0
 40
0.0
 40
0.0
 40
0.0
 40
0.2379644852
 40
1.0
 40
1.0
 40
1.0
 40
1.0
 10
15.6583584303
 20
10.9731463504
 30
0.0
 10
15.6587621406
 20
10.9732426555
 30
0.0
 10
15.660472546
 20
10.9735884772
 30
0.0
 10
15.6622235691
 20
10.973717454
 30
0.0
 10
15.6635526491
 20
10.973717454
 30
0.0
  0
SPLINE
  5
2B5
100
AcDbEntity
  8
0
100
AcDbSpline
 62
7
  6
CONTINUOUS
 70
0
 71
3
 72
10
 73
6
 74
0
 42
0.0000001
 43
0.0000001
 44
0.0000000001
 40
0.0
 40
0.0
 40
0.0
 40
0.0
 40
0.2189064135
 40
0.4528523424
 40
1.0
 40
1.0
 40
1.0
 40
1.0
 10
15.2881284055
 20
10.967292713
 30
0.0
 10
15.28834369
 20
10.967988858
 30
0.0
 10
15.2890438384
 20
10.9693615164
 30
0.0
 10
15.2914457186
 20
10.9717259582
 30
0.0
 10
15.293964411
 20
10.9727237397
 30
0.0
 10
15.2957359917
 20
10.9731463504
 30
0.0
  0
SPLINE
  5
2B6
100
AcDbEntity
  8
0
100
AcDbSpline
 62
7
  6
CONTINUOUS
 70
0
 71
3
 72
9
 73
5
 74
0
 42
0.0000001
 43
0.0000001
 44
0.0000000001
 40
0.0
 40
0.0
 40
0.0
 40
0.0
 40
0.2379644852
 40
1.0
 40
1.0
 40
1.0
 40
1.0
 10
15.2957359917
 20
10.9731463504
 30
0.0
 10
15.296139702
 20
10.9732426555
 30
0.0
 10
15.2978501075
 20
10.9735884772
 30
0.0
 10
15.2996011305
 20
10.973717454
 30
0.0
 10
15.3009302106
 20
10.973717454
 30
0.0
  0
SPLINE
  5
2B7
100
AcDbEntity
  8
0
100
AcDbSpline
 62
7
  6
CONTINUOUS
 70
0
 71
3
 72
10
 73
6
 74
0
 42
0.0000001
 43
0.0000001
 44
0.0000000001
 40
0.0
 40
0.0
 40
0.0
 40
0.0
 40
0.2189064135
 40
0.4528523424
 40
1.0
 40
1.0
 40
1.0
 40
1.0
 10
14.9255059669
 20
10.967292713
 30
0.0
 10
14.9257212515
 20
10.967988858
 30
0.0
 10
14.9264213998
 20
10.9693615164
 30
0.0
 10
14.92882328
 20
10.9717259582
 30
0.0
 10
14.9313419724
 20
10.9727237397
 30
0.0
 10
14.9331135531
 20
10.9731463504
 30
0.0
  0
SPLINE
  5
2B8
100
AcDbEntity
  8
0
100
AcDbSpline
 62
7
  6
CONTINUOUS
 70
0
 71
3
 72
9
 73
5
 74
0
 42
0.0000001
 43
0.0000001
 44
0.0000000001
 40
0.0
 40
0.0
 40
0.0
 40
0.0
 40
0.2379644852
 40
1.0
 40
1.0
 40
1.0
 40
1.0
 10
14.9331135531
 20
10.9731463504
 30
0.0
 10
14.9335172634
 20
10.9732426555
 30
0.0
 10
14.9352276689
 20
10.9735884772
 30
0.0
 10
14.936978692
 20
10.973717454
 30
0.0
 10
14.938307772
 20
10.973717454
 30
0.0
  0
SPLINE
  5
2B9
100
AcDbEntity
  8
0
100
AcDbSpline
 62
7
  6
CONTINUOUS
 70
0
 71
3
 72
10
 73
6
 74
0
 42
0.0000001
 43
0.0000001
 44
0.0000000001
 40
0.0
 40
0.0
 40
0.0
 40
0.0
 40
0.2189064135
 40
0.4528523424
 40
1.0
 40
1.0
 40
1.0
 40
1.0
 10
14.5628835283
 20
10.967292713
 30
0.0
 10
14.5630988129
 20
10.967988858
 30
0.0
 10
14.5637989612
 20
10.9693615164
 30
0.0
 10
14.5662008414
 20
10.9717259582
 30
0.0
 10
14.5687195338
 20
10.9727237397
 30
0.0
 10
14.5704911145
 20
10.9731463504
 30
0.0
  0
SPLINE
  5
2BA
100
AcDbEntity
  8
0
100
AcDbSpline
 62
7
  6
CONTINUOUS
 70
0
 71
3
 72
9
 73
5
 74
0
 42
0.0000001
 43
0.0000001
 44
0.0000000001
 40
0.0
 40
0.0
 40
0.0
 40
0.0
 40
0.2379644852
 40
1.0
 40
1.0
 40
1.0
 40
1.0
 10
14.5704911145
 20
10.9731463504
 30
0.0
 10
14.5708948248
 20
10.9732426555
 30
0.0
 10
14.5726052303
 20
10.9735884772
 30
0.0
 10
14.5743562534
 20
10.973717454
 30
0.0
 10
14.5756853334
 20
10.973717454
 30
0.0
  0
SPLINE
  5
2BB
100
AcDbEntity
  8
0
100
AcDbSpline
 62
7
  6
CONTINUOUS
 70
0
 71
3
 72
10
 73
6
 74
0
 42
0.0000001
 43
0.0000001
 44
0.0000000001
 40
0.0
 40
0.0
 40
0.0
 40
0.0
 40
0.218872051
 40
0.4528065217
 40
1.0
 40
1.0
 40
1.0
 40
1.0
 10
14.2002610777
 20
10.9672927148
 30
0.0
 10
14.2004765026
 20
10.9679893321
 30
0.0
 10
14.2011773778
 20
10.9693629355
 30
0.0
 10
14.2035820253
 20
10.9717286238
 30
0.0
 10
14.2061034562
 20
10.9727261184
 30
0.0
 10
14.2078768556
 20
10.9731483017
 30
0.0
  0
SPLINE
  5
2BC
100
AcDbEntity
  8
0
100
AcDbSpline
 62
7
  6
CONTINUOUS
 70
0
 71
3
 72
9
 73
5
 74
0
 42
0.0000001
 43
0.0000001
 44
0.0000000001
 40
0.0
 40
0.0
 40
0.0
 40
0.0
 40
0.2379903833
 40
1.0
 40
1.0
 40
1.0
 40
1.0
 10
14.2078768556
 20
10.9731483017
 30
0.0
 10
14.2082800072
 20
10.9732442777
 30
0.0
 10
14.2099877993
 20
10.9735888973
 30
0.0
 10
14.2117359889
 20
10.973717454
 30
0.0
 10
14.2130628948
 20
10.973717454
 30
0.0
  0
SPLINE
  5
2BD
100
AcDbEntity
  8
0
100
AcDbSpline
 62
7
  6
CONTINUOUS
 70
0
 71
3
 72
9
 73
5
 74
0
 42
0.0000001
 43
0.0000001
 44
0.0000000001
 40
0.0
 40
0.0
 40
0.0
 40
0.0
 40
0.5118921557
 40
1.0
 40
1.0
 40
1.0
 40
1.0
 10
15.8049678744
 20
10.973717454
 30
0.0
 10
15.8088668043
 20
10.973717454
 30
0.0
 10
15.8164860973
 20
10.9721529588
 30
0.0
 10
15.8232891019
 20
10.9682558205
 30
0.0
 10
15.8259565678
 20
10.9656661383
 30
0.0
  0
SPLINE
  5
2BE
100
AcDbEntity
  8
0
100
AcDbSpline
 62
7
  6
CONTINUOUS
 70
0
 71
3
 72
9
 73
5
 74
0
 42
0.0000001
 43
0.0000001
 44
0.0000000001
 40
0.0
 40
0.0
 40
0.0
 40
0.0
 40
0.5118921557
 40
1.0
 40
1.0
 40
1.0
 40
1.0
 10
15.4423454358
 20
10.973717454
 30
0.0
 10
15.4462443657
 20
10.973717454
 30
0.0
 10
15.4538636587
 20
10.9721529588
 30
0.0
 10
15.4606666633
 20
10.9682558205
 30
0.0
 10
15.4633341292
 20
10.9656661383
 30
0.0
  0
SPLINE
  5
2BF
100
AcDbEntity
  8
0
100
AcDbSpline
 62
7
  6
CONTINUOUS
 70
0
 71
3
 72
9
 73
5
 74
0
 42
0.0000001
 43
0.0000001
 44
0.0000000001
 40
0.0
 40
0.0
 40
0.0
 40
0.0
 40
0.5118921557
 40
1.0
 40
1.0
 40
1.0
 40
1.0
 10
15.0797229972
 20
10.973717454
 30
0.0
 10
15.0836219271
 20
10.973717454
 30
0.0
 10
15.0912412201
 20
10.9721529588
 30
0.0
 10
15.0980442247
 20
10.9682558205
 30
0.0
 10
15.1007116906
 20
10.9656661383
 30
0.0
  0
SPLINE
  5
2C0
100
AcDbEntity
  8
0
100
AcDbSpline
 62
7
  6
CONTINUOUS
 70
0
 71
3
 72
9
 73
5
 74
0
 42
0.0000001
 43
0.0000001
 44
0.0000000001
 40
0.0
 40
0.0
 40
0.0
 40
0.0
 40
0.5118921557
 40
1.0
 40
1.0
 40
1.0
 40
1.0
 10
14.7171005586
 20
10.973717454
 30
0.0
 10
14.7209994886
 20
10.973717454
 30
0.0
 10
14.7286187815
 20
10.9721529588
 30
0.0
 10
14.7354217861
 20
10.9682558205
 30
0.0
 10
14.738089252
 20
10.9656661383
 30
0.0
  0
SPLINE
  5
2C1
100
AcDbEntity
  8
0
100
AcDbSpline
 62
7
  6
CONTINUOUS
 70
0
 71
3
 72
9
 73
5
 74
0
 42
0.0000001
 43
0.0000001
 44
0.0000000001
 40
0.0
 40
0.0
 40
0.0
 40
0.0
 40
0.5118921557
 40
1.0
 40
1.0
 40
1.0
 40
1.0
 10
14.3544781201
 20
10.973717454
 30
0.0
 10
14.35837705
 20
10.973717454
 30
0.0
 10
14.3659963429
 20
10.9721529588
 30
0.0
 10
14.3727993475
 20
10.9682558205
 30
0.0
 10
14.3754668134
 20
10.9656661383
 30
0.0
  0
SPLINE
  5
2C2
100
AcDbEntity
  8
0
100
AcDbSpline
 62
7
  6
CONTINUOUS
 70
0
 71
3
 72
11
 73
7
 74
0
 42
0.0000001
 43
0.0000001
 44
0.0000000001
 40
0.0
 40
0.0
 40
0.0
 40
0.0
 40
0.3037153327
 40
0.5698867833
 40
0.7976231003
 40
1.0
 40
1.0
 40
1.0
 40
1.0
 10
15.997930739
 20
10.9149826539
 30
0.0
 10
15.9994713001
 20
10.9149826539
 30
0.0
 10
16.0023733376
 20
10.9152271478
 30
0.0
 10
16.0062720731
 20
10.9164526622
 30
0.0
 10
16.0092464758
 20
10.9184875179
 30
0.0
 10
16.0104292428
 20
10.9204266901
 30
0.0
 10
16.0107325349
 20
10.9214073965
 30
0.0
  0
SPLINE
  5
2C3
100
AcDbEntity
  8
0
100
AcDbSpline
 62
7
  6
CONTINUOUS
 70
0
 71
3
 72
9
 73
5
 74
0
 42
0.0000001
 43
0.0000001
 44
0.0000000001
 40
0.0
 40
0.0
 40
0.0
 40
0.0
 40
0.4881091797
 40
1.0
 40
1.0
 40
1.0
 40
1.0
 10
15.8698692368
 20
10.9230339696
 30
0.0
 10
15.87253671
 20
10.9204442803
 30
0.0
 10
15.8793397181
 20
10.9165471454
 30
0.0
 10
15.8869590104
 20
10.9149826539
 30
0.0
 10
15.8908579302
 20
10.9149826539
 30
0.0
  0
SPLINE
  5
2C4
100
AcDbEntity
  8
0
100
AcDbSpline
 62
7
  6
CONTINUOUS
 70
0
 71
3
 72
11
 73
7
 74
0
 42
0.0000001
 43
0.0000001
 44
0.0000000001
 40
0.0
 40
0.0
 40
0.0
 40
0.0
 40
0.3037153327
 40
0.5698867833
 40
0.7976231003
 40
1.0
 40
1.0
 40
1.0
 40
1.0
 10
15.6353083004
 20
10.9149826539
 30
0.0
 10
15.6368488615
 20
10.9149826539
 30
0.0
 10
15.639750899
 20
10.9152271478
 30
0.0
 10
15.6436496345
 20
10.9164526622
 30
0.0
 10
15.6466240372
 20
10.9184875179
 30
0.0
 10
15.6478068042
 20
10.9204266901
 30
0.0
 10
15.6481100963
 20
10.9214073965
 30
0.0
  0
SPLINE
  5
2C5
100
AcDbEntity
  8
0
100
AcDbSpline
 62
7
  6
CONTINUOUS
 70
0
 71
3
 72
9
 73
5
 74
0
 42
0.0000001
 43
0.0000001
 44
0.0000000001
 40
0.0
 40
0.0
 40
0.0
 40
0.0
 40
0.4881091797
 40
1.0
 40
1.0
 40
1.0
 40
1.0
 10
15.5072467982
 20
10.9230339696
 30
0.0
 10
15.5099142714
 20
10.9204442803
 30
0.0
 10
15.5167172795
 20
10.9165471454
 30
0.0
 10
15.5243365719
 20
10.9149826539
 30
0.0
 10
15.5282354916
 20
10.9149826539
 30
0.0
  0
SPLINE
  5
2C6
100
AcDbEntity
  8
0
100
AcDbSpline
 62
7
  6
CONTINUOUS
 70
0
 71
3
 72
11
 73
7
 74
0
 42
0.0000001
 43
0.0000001
 44
0.0000000001
 40
0.0
 40
0.0
 40
0.0
 40
0.0
 40
0.3037153327
 40
0.5698867833
 40
0.7976231003
 40
1.0
 40
1.0
 40
1.0
 40
1.0
 10
15.2726858619
 20
10.9149826539
 30
0.0
 10
15.2742264229
 20
10.9149826539
 30
0.0
 10
15.2771284604
 20
10.9152271478
 30
0.0
 10
15.2810271959
 20
10.9164526622
 30
0.0
 10
15.2840015986
 20
10.9184875179
 30
0.0
 10
15.2851843657
 20
10.9204266901
 30
0.0
 10
15.2854876577
 20
10.9214073965
 30
0.0
  0
SPLINE
  5
2C7
100
AcDbEntity
  8
0
100
AcDbSpline
 62
7
  6
CONTINUOUS
 70
0
 71
3
 72
9
 73
5
 74
0
 42
0.0000001
 43
0.0000001
 44
0.0000000001
 40
0.0
 40
0.0
 40
0.0
 40
0.0
 40
0.4881091797
 40
1.0
 40
1.0
 40
1.0
 40
1.0
 10
15.1446243596
 20
10.9230339696
 30
0.0
 10
15.1472918328
 20
10.9204442803
 30
0.0
 10
15.1540948409
 20
10.9165471454
 30
0.0
 10
15.1617141333
 20
10.9149826539
 30
0.0
 10
15.165613053
 20
10.9149826539
 30
0.0
  0
SPLINE
  5
2C8
100
AcDbEntity
  8
0
100
AcDbSpline
 62
7
  6
CONTINUOUS
 70
0
 71
3
 72
11
 73
7
 74
0
 42
0.0000001
 43
0.0000001
 44
0.0000000001
 40
0.0
 40
0.0
 40
0.0
 40
0.0
 40
0.3037153327
 40
0.5698867833
 40
0.7976231003
 40
1.0
 40
1.0
 40
1.0
 40
1.0
 10
14.9100634233
 20
10.9149826539
 30
0.0
 10
14.9116039843
 20
10.9149826539
 30
0.0
 10
14.9145060218
 20
10.9152271478
 30
0.0
 10
14.9184047573
 20
10.9164526622
 30
0.0
 10
14.92137916
 20
10.9184875179
 30
0.0
 10
14.9225619271
 20
10.9204266901
 30
0.0
 10
14.9228652191
 20
10.9214073965
 30
0.0
  0
SPLINE
  5
2C9
100
AcDbEntity
  8
0
100
AcDbSpline
 62
7
  6
CONTINUOUS
 70
0
 71
3
 72
9
 73
5
 74
0
 42
0.0000001
 43
0.0000001
 44
0.0000000001
 40
0.0
 40
0.0
 40
0.0
 40
0.0
 40
0.4881091797
 40
1.0
 40
1.0
 40
1.0
 40
1.0
 10
14.7820019211
 20
10.9230339696
 30
0.0
 10
14.7846693942
 20
10.9204442803
 30
0.0
 10
14.7914724023
 20
10.9165471454
 30
0.0
 10
14.7990916947
 20
10.9149826539
 30
0.0
 10
14.8029906144
 20
10.9149826539
 30
0.0
  0
SPLINE
  5
2CA
100
AcDbEntity
  8
0
100
AcDbSpline
 62
7
  6
CONTINUOUS
 70
0
 71
3
 72
11
 73
7
 74
0
 42
0.0000001
 43
0.0000001
 44
0.0000000001
 40
0.0
 40
0.0
 40
0.0
 40
0.0
 40
0.3037153327
 40
0.5698867833
 40
0.7976231003
 40
1.0
 40
1.0
 40
1.0
 40
1.0
 10
14.5474409847
 20
10.9149826539
 30
0.0
 10
14.5489815458
 20
10.9149826539
 30
0.0
 10
14.5518835833
 20
10.9152271478
 30
0.0
 10
14.5557823187
 20
10.9164526622
 30
0.0
 10
14.5587567214
 20
10.9184875179
 30
0.0
 10
14.5599394885
 20
10.9204266901
 30
0.0
 10
14.5602427805
 20
10.9214073965
 30
0.0
  0
SPLINE
  5
2CB
100
AcDbEntity
  8
0
100
AcDbSpline
 62
7
  6
CONTINUOUS
 70
0
 71
3
 72
9
 73
5
 74
0
 42
0.0000001
 43
0.0000001
 44
0.0000000001
 40
0.0
 40
0.0
 40
0.0
 40
0.0
 40
0.4881091797
 40
1.0
 40
1.0
 40
1.0
 40
1.0
 10
14.4193794825
 20
10.9230339696
 30
0.0
 10
14.4220469557
 20
10.9204442803
 30
0.0
 10
14.4288499637
 20
10.9165471454
 30
0.0
 10
14.4364692561
 20
10.9149826539
 30
0.0
 10
14.4403681758
 20
10.9149826539
 30
0.0
  0
SPLINE
  5
2CC
100
AcDbEntity
  8
0
100
AcDbSpline
 62
7
  6
CONTINUOUS
 70
0
 71
3
 72
11
 73
7
 74
0
 42
0.0000001
 43
0.0000001
 44
0.0000000001
 40
0.0
 40
0.0
 40
0.0
 40
0.0
 40
0.3037113486
 40
0.5698846854
 40
0.7976248982
 40
1.0
 40
1.0
 40
1.0
 40
1.0
 10
14.1848185461
 20
10.9149826539
 30
0.0
 10
14.1863590871
 20
10.9149826539
 30
0.0
 10
14.1892611147
 20
10.9152271306
 30
0.0
 10
14.1931598623
 20
10.9164526528
 30
0.0
 10
14.1961342714
 20
10.9184875266
 30
0.0
 10
14.1973170683
 20
10.9204266955
 30
0.0
 10
14.1976203516
 20
10.9214073951
 30
0.0
  0
SPLINE
  5
2CD
100
AcDbEntity
  8
0
100
AcDbSpline
 62
7
  6
CONTINUOUS
 70
0
 71
3
 72
9
 73
5
 74
0
 42
0.0000001
 43
0.0000001
 44
0.0000000001
 40
0.0
 40
0.0
 40
0.0
 40
0.0
 40
0.4881092096
 40
1.0
 40
1.0
 40
1.0
 40
1.0
 10
14.0567570439
 20
10.9230339696
 30
0.0
 10
14.0594245172
 20
10.9204442802
 30
0.0
 10
14.0662275254
 20
10.9165471453
 30
0.0
 10
14.0738468177
 20
10.9149826539
 30
0.0
 10
14.0777457373
 20
10.9149826539
 30
0.0
  0
SPLINE
  5
2CE
100
AcDbEntity
  8
0
100
AcDbSpline
 62
7
  6
CONTINUOUS
 70
0
 71
3
 72
9
 73
5
 74
0
 42
0.0000001
 43
0.0000001
 44
0.0000000001
 40
0.0
 40
0.0
 40
0.0
 40
0.0
 40
0.5118921856
 40
1.0
 40
1.0
 40
1.0
 40
1.0
 10
13.9918556815
 20
10.973717454
 30
0.0
 10
13.9957546116
 20
10.973717454
 30
0.0
 10
14.0033739046
 20
10.9721529587
 30
0.0
 10
14.0101769091
 20
10.9682558203
 30
0.0
 10
14.0128443748
 20
10.9656661383
 30
0.0
  0
ENDSEC
  0
SECTION
  2
OBJECTS
  0
DICTIONARY
  5
C
100
AcDbDictionary
280
0
281
1
  3
ACAD_GROUP
350
D
  3
ACAD_MLINESTYLE
350
17
  3
ACAD_LAYOUT
350
1A
  3
ACAD_PLOTSETTINGS
350
19
  3
ACAD_PLOTSTYLENAME
350
E
  0
DICTIONARY
  5
D
102
{ACAD_REACTORS
330
C
102
}
100
AcDbDictionary
280
0
281
1
  0
ACDBDICTIONARYWDFLT
  5
E
102
{ACAD_REACTORS
330
C
102
}
100
AcDbDictionary
281
1
  3
Normal
350
F
100
AcDbDictionaryWithDefault
340
F
  0
DICTIONARY
  5
17
102
{ACAD_REACTORS
330
C
102
}
100
AcDbDictionary
280
0
281
1
  3
Standard
350
18
  0
DICTIONARY
  5
19
102
{ACAD_REACTORS
330
C
102
}
100
AcDbDictionary
281
1
  0
DICTIONARY
  5
1A
102
{ACAD_REACTORS
330
C
102
}
100
AcDbDictionary
281
1
  3
Model
350
2CF
  3
Layout1
350
2D0
  0
ACDBPLACEHOLDER
  5
F
102
{ACAD_REACTORS
330
E
102
}
  0
MLINESTYLE
  5
18
102
{ACAD_REACTORS
330
17
102
}
100
AcDbMlineStyle
  2
STANDARD
 70
0
  3

 62
256
 51
90.0
 52
90.0
 71
2
 49
0.5
 62
256
  6
BYLAYER
 49
-0.5
 62
256
  6
BYLAYER
  0
LAYOUT
  5
2CF
102
{ACAD_REACTORS
330
1A
102
}
100
AcDbPlotSettings
  1

  2
none_device
  4
ANSI_C_(22.00_x_17.00_Inches)
  6

 40
0.0
 41
0.0
 42
0.0
 43
0.0
 44
558.8
 45
431.8
 46
0.0
 47
0.0
 48
0.0
 49
0.0
140
0.0
141
0.0
142
1.0
143
1.0
 70
1024
 72
0
 73
0
 74
0
  7

 75
0
147
1.0
148
0.0
149
0.0
100
AcDbLayout
  1
Model
 70
0
 71
0
 10
0.0
 20
0.0
 11
22.0
 21
17.0
 12
0.0
 22
0.0
 32
0.0
 14
0.0
 24
0.0
 34
0.0
 15
0.0
 25
0.0
 35
0.0
146
0.0
 13
0.0
 23
0.0
 33
0.0
 16
1.0
 26
0.0
 36
0.0
 17
0.0
 27
1.0
 37
0.0
 76
0
330
216
345
0
346
0
  0
LAYOUT
  5
2D0
102
{ACAD_REACTORS
330
1A
102
}
100
AcDbPlotSettings
  1

  2
none_device
  4
ANSI_C_(22.00_x_17.00_Inches)
  6

 40
0.0
 41
0.0
 42
0.0
 43
0.0
 44
558.8
 45
431.8
 46
0.0
 47
0.0
 48
0.0
 49
0.0
140
0.0
141
0.0
142
1.0
143
1.0
 70
0
 72
0
 73
0
 74
0
  7

 75
0
147
1.0
148
0.0
149
0.0
100
AcDbLayout
  1
Layout1
 70
0
 71
1
 10
0.0
 20
0.0
 11
22.0
 21
17.0
 12
0.0
 22
0.0
 32
0.0
 14
0.0
 24
0.0
 34
0.0
 15
0.0
 25
0.0
 35
0.0
146
0.0
 13
0.0
 23
0.0
 33
0.0
 16
1.0
 26
0.0
 36
0.0
 17
0.0
 27
1.0
 37
0.0
 76
0
330
217
345
0
346
0
  0
ENDSEC
  0
EOF