999
DXF file: _cgs_temp_output.dxf
999
Pro/ENGINEER 2015110 by Parametric Technology Corporation
  0
SECTION
  2
HEADER
  9
$ACADVER
  1
AC1021
  9
$DWGCODEPAGE
  3
ANSI_1252
  9
$EXTMAX
 10
22.0
 20
17.0
 30
0.0
  9
$EXTMIN
 10
0.0
 20
0.0
 30
0.0
  9
$LIMMIN
 10
0.0
 20
0.0
  9
$LIMMAX
 10
22.0
 20
17.0
  9
$VIEWCTR
 10
11.0
 20
8.5
  9
$VIEWSIZE
 40
17.0
  9
$CLAYER
  8
0
  9
$LTSCALE
 40
1.21
  9
$CELTYPE
  6
BYLAYER
  9
$DIMSCALE
 40
1.0
  9
$DIMASZ
 40
0.1875
  9
$DIMEXO
 40
0.0625
  9
$DIMDLI
 40
0.836
  9
$DIMEXE
 40
0.125
  9
$DIMCEN
 40
0.198
  9
$DIMLFAC
 40
1.0
  9
$DIMBLK
  1
_CLOSED
  9
$DIMALT
 70
0
  9
$DIMALTF
 40
25.4
  9
$DIMTXT
 40
0.15625
  9
$DIMTOL
 70
0
  9
$DIMLIM
 70
0
  9
$DIMTFAC
 40
1.0
  9
$DIMGAP
 40
0.09
  9
$DIMDSEP
 70
46
  9
$AUNITS
 70
0
  9
$PDMODE
 70
3
  9
$PDSIZE
 40
0.3125
  9
$HANDSEED
  5
2D1
  9
$TILEMODE
 70
1
  9
$MEASUREMENT
 70
0
  9
$INSUNITS
 70
1
  0
ENDSEC
  0
SECTION
  2
CLASSES
  0
CLASS
  1
ACDBDICTIONARYWDFLT
  2
AcDbDictionaryWithDefault
  3
AutoCAD 2000
 90
0
 91
1
280
0
281
0
  0
CLASS
  1
ACDBPLACEHOLDER
  2
AcDbPlaceHolder
  3
AutoCAD 2000
 90
0
 91
1
280
0
281
0
  0
CLASS
  1
LAYOUT
  2
AcDbLayout
  3
AutoCAD 2000
 90
0
 91
0
280
0
281
0
  0
ENDSEC
  0
SECTION
  2
TABLES
  0
TABLE
  2
VPORT
  5
8
100
AcDbSymbolTable
 70
2
  0
VPORT
  5
1F4
100
AcDbSymbolTableRecord
100
AcDbViewportTableRecord
  2
*ACTIVE
 70
0
 10
0.0
 20
0.0
 11
1.0
 21
1.0
 12
11.0
 22
8.5
 13
0.0
 23
0.0
 14
1.0
 24
1.0
 15
0.0
 25
0.0
 16
0.0
 26
0.0
 36
1.0
 17
0.0
 27
0.0
 37
0.0
 40
17.0
 41
1.2941176471
 42
50.0
 43
0.0
 44
0.0
 50
0.0
 51
0.0
 71
0
 72
100
 73
1
 74
1
 75
0
 76
0
 77
0
 78
0
  0
ENDTAB
  0
TABLE
  2
LTYPE
  5
5
100
AcDbSymbolTable
 70
6
  0
LTYPE
  5
14
100
AcDbSymbolTableRecord
100
AcDbLinetypeTableRecord
  2
BYBLOCK
 70
0
  3

 72
65
 73
0
 40
0.0
  0
LTYPE
  5
15
100
AcDbSymbolTableRecord
100
AcDbLinetypeTableRecord
  2
BYLAYER
 70
0
  3

 72
65
 73
0
 40
0.0
  0
LTYPE
  5
16
100
AcDbSymbolTableRecord
100
AcDbLinetypeTableRecord
  2
CONTINUOUS
 70
64
  3
Solid line
 72
65
 73
0
 40
0.0
  0
LTYPE
  5
1F5
100
AcDbSymbolTableRecord
100
AcDbLinetypeTableRecord
  2
CENTER
 70
64
  3
____ _ ____ _ ____ _ ____ _ ____ _ ____ _ ____
 72
65
 73
4
 40
0.6
 49
0.375
 74
0
 49
-0.075
 74
0
 49
0.075
 74
0
 49
-0.075
 74
0
  0
LTYPE
  5
1F6
100
AcDbSymbolTableRecord
100
AcDbLinetypeTableRecord
  2
HIDDEN
 70
64
  3
- - - - - - - - - - - - - - - - - - - -
 72
65
 73
2
 40
0.2
 49
0.1
 74
0
 49
-0.1
 74
0
  0
LTYPE
  5
1F7
100
AcDbSymbolTableRecord
100
AcDbLinetypeTableRecord
  2
PHANTOM
 70
64
  3
_____ _ _ _____ _ _ _____ _ _ _____
 72
65
 73
6
 40
0.8
 49
0.45
 74
0
 49
-0.05
 74
0
 49
0.1
 74
0
 49
-0.05
 74
0
 49
0.1
 74
0
 49
-0.05
 74
0
  0
LTYPE
  5
1F8
100
AcDbSymbolTableRecord
100
AcDbLinetypeTableRecord
  2
DOT
 70
64
  3
. . . . . . . . . . . . . . . . . . . .
 72
65
 73
2
 40
0.2
 49
0.1
 74
0
 49
-0.1
 74
0
  0
LTYPE
  5
1F9
100
AcDbSymbolTableRecord
100
AcDbLinetypeTableRecord
  2
DASHED
 70
64
  3
- - - - - - - - - - - - - - - - - - - -
 72
65
 73
2
 40
0.2
 49
0.1
 74
0
 49
-0.1
 74
0
  0
ENDTAB
  0
TABLE
  2
LAYER
  5
2
100
AcDbSymbolTable
 70
36
  0
LAYER
  5
10
100
AcDbSymbolTableRecord
100
AcDbLayerTableRecord
  2
0
 70
0
 62
7
  6
CONTINUOUS
370
-3
390
F
  0
LAYER
  5
1FA
100
AcDbSymbolTableRecord
100
AcDbLayerTableRecord
  2
DEFAULT_1
 70
0
 62
7
  6
CENTER
370
-3
390
F
  0
LAYER
  5
1FB
100
AcDbSymbolTableRecord
100
AcDbLayerTableRecord
  2
DEFAULT_2
 70
0
 62
8
  6
HIDDEN
370
-3
390
F
  0
LAYER
  5
1FC
100
AcDbSymbolTableRecord
100
AcDbLayerTableRecord
  2
DEFAULT_3
 70
0
 62
7
  6
PHANTOM
370
-3
390
F
  0
LAYER
  5
1FD
100
AcDbSymbolTableRecord
100
AcDbLayerTableRecord
  2
01_ALL_DTM_PLN
 70
0
 62
7
  6
CONTINUOUS
370
-3
390
F
  0
LAYER
  5
1FE
100
AcDbSymbolTableRecord
100
AcDbLayerTableRecord
  2
01__ASM_ALL_DTM_PLN
 70
0
 62
7
  6
CONTINUOUS
370
-3
390
F
  0
LAYER
  5
1FF
100
AcDbSymbolTableRecord
100
AcDbLayerTableRecord
  2
01__ASM_DEF_DTM_PLN
 70
0
 62
7
  6
CONTINUOUS
370
-3
390
F
  0
LAYER
  5
200
100
AcDbSymbolTableRecord
100
AcDbLayerTableRecord
  2
01___PRT_ALL_DTM_PLN
 70
0
 62
7
  6
CONTINUOUS
370
-3
390
F
  0
LAYER
  5
201
100
AcDbSymbolTableRecord
100
AcDbLayerTableRecord
  2
01___PRT_DEF_DTM_PLN
 70
0
 62
7
  6
CONTINUOUS
370
-3
390
F
  0
LAYER
  5
202
100
AcDbSymbolTableRecord
100
AcDbLayerTableRecord
  2
02_ALL_AXES
 70
0
 62
7
  6
CONTINUOUS
370
-3
390
F
  0
LAYER
  5
203
100
AcDbSymbolTableRecord
100
AcDbLayerTableRecord
  2
02__ASM_ALL_AXES
 70
0
 62
7
  6
CONTINUOUS
370
-3
390
F
  0
LAYER
  5
204
100
AcDbSymbolTableRecord
100
AcDbLayerTableRecord
  2
02___PRT_ALL_AXES
 70
0
 62
7
  6
CONTINUOUS
370
-3
390
F
  0
LAYER
  5
205
100
AcDbSymbolTableRecord
100
AcDbLayerTableRecord
  2
03_ALL_CURVES
 70
0
 62
7
  6
CONTINUOUS
370
-3
390
F
  0
LAYER
  5
206
100
AcDbSymbolTableRecord
100
AcDbLayerTableRecord
  2
03__ASM_ALL_CURVES
 70
0
 62
7
  6
CONTINUOUS
370
-3
390
F
  0
LAYER
  5
207
100
AcDbSymbolTableRecord
100
AcDbLayerTableRecord
  2
03___PRT_ALL_CURVES
 70
0
 62
7
  6
CONTINUOUS
370
-3
390
F
  0
LAYER
  5
208
100
AcDbSymbolTableRecord
100
AcDbLayerTableRecord
  2
04_ALL_DTM_PNT
 70
0
 62
7
  6
CONTINUOUS
370
-3
390
F
  0
LAYER
  5
209
100
AcDbSymbolTableRecord
100
AcDbLayerTableRecord
  2
04__ASM_ALL_DTM_PNT
 70
0
 62
7
  6
CONTINUOUS
370
-3
390
F
  0
LAYER
  5
20A
100
AcDbSymbolTableRecord
100
AcDbLayerTableRecord
  2
04___PRT_ALL_DTM_PNT
 70
0
 62
7
  6
CONTINUOUS
370
-3
390
F
  0
LAYER
  5
20B
100
AcDbSymbolTableRecord
100
AcDbLayerTableRecord
  2
05_ALL_DTM_CSYS
 70
0
 62
7
  6
CONTINUOUS
370
-3
390
F
  0
LAYER
  5
20C
100
AcDbSymbolTableRecord
100
AcDbLayerTableRecord
  2
05__ASM_ALL_DTM_CSYS
 70
0
 62
7
  6
CONTINUOUS
370
-3
390
F
  0
LAYER
  5
20D
100
AcDbSymbolTableRecord
100
AcDbLayerTableRecord
  2
05__ASM_DEF_DTM_CSYS
 70
0
 62
7
  6
CONTINUOUS
370
-3
390
F
  0
LAYER
  5
20E
100
AcDbSymbolTableRecord
100
AcDbLayerTableRecord
  2
05___PRT_ALL_DTM_CSYS
 70
0
 62
7
  6
CONTINUOUS
370
-3
390
F
  0
LAYER
  5
20F
100
AcDbSymbolTableRecord
100
AcDbLayerTableRecord
  2
05___PRT_DEF_DTM_CSYS
 70
0
 62
7
  6
CONTINUOUS
370
-3
390
F
  0
LAYER
  5
210
100
AcDbSymbolTableRecord
100
AcDbLayerTableRecord
  2
06_ALL_SURFS
 70
0
 62
7
  6
CONTINUOUS
370
-3
390
F
  0
LAYER
  5
211
100
AcDbSymbolTableRecord
100
AcDbLayerTableRecord
  2
06__ASM_ALL_SURFS
 70
0
 62
7
  6
CONTINUOUS
370
-3
390
F
  0
LAYER
  5
212
100
AcDbSymbolTableRecord
100
AcDbLayerTableRecord
  2
06___PRT_ALL_SURFS
 70
0
 62
7
  6
CONTINUOUS
370
-3
390
F
  0
LAYER
  5
213
100
AcDbSymbolTableRecord
100
AcDbLayerTableRecord
  2
07__ASM_ALL_SKELETONS
 70
0
 62
7
  6
CONTINUOUS
370
-3
390
F
  0
ENDTAB
  0
TABLE
  2
STYLE
  5
3
100
AcDbSymbolTable
 70
1
  0
STYLE
  5
11
100
AcDbSymbolTableRecord
100
AcDbTextStyleTableRecord
  2
STANDARD
 70
0
 40
0.0
 41
0.8
 50
0.0
 71
0
 42
0.2
  3
txt
  4

  0
STYLE
  5
214
100
AcDbSymbolTableRecord
100
AcDbTextStyleTableRecord
  2
TEXTSTYLE_1
 70
0
 40
0.0
 41
0.8
 50
0.0
 71
0
 42
0.2
  3
gdt
  4

  0
ENDTAB
  0
TABLE
  2
VIEW
  5
6
100
AcDbSymbolTable
 70
0
  0
ENDTAB
  0
TABLE
  2
UCS
  5
7
100
AcDbSymbolTable
 70
0
  0
ENDTAB
  0
TABLE
  2
APPID
  5
9
100
AcDbSymbolTable
 70
1
  0
APPID
  5
215
100
AcDbSymbolTableRecord
100
AcDbRegAppTableRecord
  2
ACAD
 70
0
  0
ENDTAB
  0
TABLE
  2
BLOCK_RECORD
  5
1
100
AcDbSymbolTable
 70
0
  0
BLOCK_RECORD
  5
216
100
AcDbSymbolTableRecord
100
AcDbBlockTableRecord
  2
*Model_Space
  0
BLOCK_RECORD
  5
217
100
AcDbSymbolTableRecord
100
AcDbBlockTableRecord
  2
*Paper_Space
  0
ENDTAB
  0
TABLE
  2
DIMSTYLE
  5
A
100
AcDbSymbolTable
 70
1
100
AcDbDimStyleTable
 71
0
  0
DIMSTYLE
105
218
100
AcDbSymbolTableRecord
100
AcDbDimStyleTableRecord
  2
STANDARD
 70
0
  3

  4

 40
1.0
 41
0.1875
 42
0.0625
 43
0.38
 44
0.125
 45
0.0
 46
0.0
 47
0.0001
 48
0.0001
140
0.15625
141
0.09
142
0.0
143
25.4
144
1.0
145
0.0
146
1.0
147
0.09
 71
0.0
 72
0.0
 73
1
 74
1
 75
0
 76
0
 77
0
 78
4
170
0
171
2
172
0
173
0
174
0
175
0
176
0
177
0
178
0
270
2
271
4
272
4
273
2
274
2
275
0
280
0
281
0
282
0
283
1
284
4
285
0
286
0
287
3
288
0
340
11
278
46
  0
ENDTAB
  0
ENDSEC
  0
SECTION
  2
BLOCKS
  0
BLOCK
  5
20
100
AcDbEntity
  8
0
100
AcDbBlockBegin
  2
*Model_Space
 70
0
 10
0.0
 20
0.0
 30
0.0
  3
*Model_Space
  1

  0
ENDBLK
  5
21
100
AcDbEntity
  8
0
100
AcDbBlockEnd
  0
BLOCK
  5
1C
100
AcDbEntity
  8
0
100
AcDbBlockBegin
  2
*Paper_Space
 70
0
 10
0.0
 20
0.0
 30
0.0
  3
*Paper_Space
  1

  0
ENDBLK
  5
1D
100
AcDbEntity
  8
0
100
AcDbBlockEnd
  0
ENDSEC
  0
SECTION
  2
ENTITIES
  0
MTEXT
  5
219
100
AcDbEntity
  8
0
100
AcDbMText
 62
7
  6
CONTINUOUS
  7
STANDARD
 71
1
 72
1
 10
15.9560215477
 20
0.9479130325
 30
0.0
 11
1.0
 21
0.0
 31
0.0
 44
0.9
  1
SCALE: 1:3.000
 40
0.3
 41
3.36
  0
LINE
  5
21A
100
AcDbEntity
  8
0
100
AcDbLine
 62
7
  6
CONTINUOUS
 10
0.0
 20
0.0
 11
0.0
 21
17.0
  0
LINE
  5
21B
100
AcDbEntity
  8
0
100
AcDbLine
 62
7
  6
CONTINUOUS
 10
0.0
 20
0.0
 11
22.0
 21
0.0
  0
LINE
  5
21C
100
AcDbEntity
  8
0
100
AcDbLine
 62
7
  6
CONTINUOUS
 10
0.0
 20
17.0
 11
22.0
 21
17.0
  0
LINE
  5
21D
100
AcDbEntity
  8
0
100
AcDbLine
 62
7
  6
CONTINUOUS
 10
22.0
 20
0.0
 11
22.0
 21
17.0
  0
LINE
  5
21E
100
AcDbEntity
  8
0
100
AcDbLine
 62
7
  6
CONTINUOUS
 10
4.3587137329
 20
5.6500411566
 11
4.3587137329
 21
5.5555529676
  0
LINE
  5
21F
100
AcDbEntity
  8
0
100
AcDbLine
 62
7
  6
CONTINUOUS
 10
4.5016119144
 20
5.5125023813
 11
4.539055427
 21
5.409627176
  0
LINE
  5
220
100
AcDbEntity
  8
0
100
AcDbLine
 62
7
  6
CONTINUOUS
 10
4.7689232198
 20
5.409627176
 11
4.8063667324
 21
5.5125023813
  0
LINE
  5
221
100
AcDbEntity
  8
0
100
AcDbLine
 62
7
  6
CONTINUOUS
 10
4.3587137329
 20
5.5555529676
 11
4.3823357801
 21
5.5319309204
  0
LINE
  5
222
100
AcDbEntity
  8
0
100
AcDbLine
 62
7
  6
CONTINUOUS
 10
5.0921630955
 20
5.5125023813
 11
5.1296066081
 21
5.409627176
  0
LINE
  5
223
100
AcDbEntity
  8
0
100
AcDbLine
 62
7
  6
CONTINUOUS
 10
4.9256428667
 20
5.5319309204
 11
4.949264914
 21
5.5555529676
  0
LINE
  5
224
100
AcDbEntity
  8
0
100
AcDbLine
 62
7
  6
CONTINUOUS
 10
4.949264914
 20
5.5555529676
 11
4.9728869612
 21
5.5319309204
  0
LINE
  5
225
100
AcDbEntity
  8
0
100
AcDbLine
 62
7
  6
CONTINUOUS
 10
5.3594744009
 20
5.409627176
 11
5.3969179135
 21
5.5125023813
  0
LINE
  5
226
100
AcDbEntity
  8
0
100
AcDbLine
 62
7
  6
CONTINUOUS
 10
5.5161940478
 20
5.5319309204
 11
5.5398160951
 21
5.5555529676
  0
LINE
  5
227
100
AcDbEntity
  8
0
100
AcDbLine
 62
7
  6
CONTINUOUS
 10
5.5398160951
 20
5.5555529676
 11
5.5634381423
 21
5.5319309204
  0
LINE
  5
228
100
AcDbEntity
  8
0
100
AcDbLine
 62
7
  6
CONTINUOUS
 10
5.6827142766
 20
5.5125023813
 11
5.7201577892
 21
5.409627176
  0
LINE
  5
229
100
AcDbEntity
  8
0
100
AcDbLine
 62
7
  6
CONTINUOUS
 10
5.950025582
 20
5.409627176
 11
5.9874690946
 21
5.5125023813
  0
LINE
  5
22A
100
AcDbEntity
  8
0
100
AcDbLine
 62
7
  6
CONTINUOUS
 10
4.5668022564
 20
5.3901986369
 11
4.7411763905
 21
5.3901986369
  0
LINE
  5
22B
100
AcDbEntity
  8
0
100
AcDbLine
 62
7
  6
CONTINUOUS
 10
5.1573534375
 20
5.3901986369
 11
5.3317275716
 21
5.3901986369
  0
LINE
  5
22C
100
AcDbEntity
  8
0
100
AcDbLine
 62
7
  6
CONTINUOUS
 10
5.7479046186
 20
5.3901986369
 11
5.9222787527
 21
5.3901986369
  0
LINE
  5
22D
100
AcDbEntity
  8
0
100
AcDbLine
 62
7
  6
CONTINUOUS
 10
6.3384557997
 20
5.3901986369
 11
6.5128299338
 21
5.3901986369
  0
LINE
  5
22E
100
AcDbEntity
  8
0
100
AcDbLine
 62
7
  6
CONTINUOUS
 10
6.9290069808
 20
5.3901986369
 11
7.1033811149
 21
5.3901986369
  0
LINE
  5
22F
100
AcDbEntity
  8
0
100
AcDbLine
 62
7
  6
CONTINUOUS
 10
7.5195581619
 20
5.3901986369
 11
7.693932296
 21
5.3901986369
  0
LINE
  5
230
100
AcDbEntity
  8
0
100
AcDbLine
 62
7
  6
CONTINUOUS
 10
6.1067452289
 20
5.5319309204
 11
6.1303672762
 21
5.5555529676
  0
LINE
  5
231
100
AcDbEntity
  8
0
100
AcDbLine
 62
7
  6
CONTINUOUS
 10
4.3823357801
 20
5.5319309204
 11
4.4738650851
 21
5.5319309204
  0
LINE
  5
232
100
AcDbEntity
  8
0
100
AcDbLine
 62
7
  6
CONTINUOUS
 10
4.8341135617
 20
5.5319309204
 11
4.9256428667
 21
5.5319309204
  0
LINE
  5
233
100
AcDbEntity
  8
0
100
AcDbLine
 62
7
  6
CONTINUOUS
 10
4.9728869612
 20
5.5319309204
 11
5.0644162662
 21
5.5319309204
  0
LINE
  5
234
100
AcDbEntity
  8
0
100
AcDbLine
 62
7
  6
CONTINUOUS
 10
5.4246647428
 20
5.5319309204
 11
5.5161940478
 21
5.5319309204
  0
LINE
  5
235
100
AcDbEntity
  8
0
100
AcDbLine
 62
7
  6
CONTINUOUS
 10
5.5634381423
 20
5.5319309204
 11
5.6549674473
 21
5.5319309204
  0
LINE
  5
236
100
AcDbEntity
  8
0
100
AcDbLine
 62
7
  6
CONTINUOUS
 10
6.0152159239
 20
5.5319309204
 11
6.1067452289
 21
5.5319309204
  0
LINE
  5
237
100
AcDbEntity
  8
0
100
AcDbLine
 62
7
  6
CONTINUOUS
 10
6.1539893234
 20
5.5319309204
 11
6.2455186284
 21
5.5319309204
  0
LINE
  5
238
100
AcDbEntity
  8
0
100
AcDbLine
 62
7
  6
CONTINUOUS
 10
6.6057671051
 20
5.5319309204
 11
6.69729641
 21
5.5319309204
  0
LINE
  5
239
100
AcDbEntity
  8
0
100
AcDbLine
 62
7
  6
CONTINUOUS
 10
6.7445405045
 20
5.5319309204
 11
6.8360698095
 21
5.5319309204
  0
LINE
  5
23A
100
AcDbEntity
  8
0
100
AcDbLine
 62
7
  6
CONTINUOUS
 10
7.1963182862
 20
5.5319309204
 11
7.2878475911
 21
5.5319309204
  0
LINE
  5
23B
100
AcDbEntity
  8
0
100
AcDbLine
 62
7
  6
CONTINUOUS
 10
7.3350916856
 20
5.5319309204
 11
7.4266209906
 21
5.5319309204
  0
LINE
  5
23C
100
AcDbEntity
  8
0
100
AcDbLine
 62
7
  6
CONTINUOUS
 10
7.7868694673
 20
5.5319309204
 11
7.8783987722
 21
5.5319309204
  0
LINE
  5
23D
100
AcDbEntity
  8
0
100
AcDbLine
 62
7
  6
CONTINUOUS
 10
7.9020208195
 20
5.6500411566
 11
4.3587137329
 21
5.6500411566
  0
LINE
  5
23E
100
AcDbEntity
  8
0
100
AcDbLine
 62
7
  6
CONTINUOUS
 10
6.1303672762
 20
5.5555529676
 11
6.1539893234
 21
5.5319309204
  0
LINE
  5
23F
100
AcDbEntity
  8
0
100
AcDbLine
 62
7
  6
CONTINUOUS
 10
6.2732654577
 20
5.5125023813
 11
6.3107089703
 21
5.409627176
  0
LINE
  5
240
100
AcDbEntity
  8
0
100
AcDbLine
 62
7
  6
CONTINUOUS
 10
6.5405767631
 20
5.409627176
 11
6.5780202757
 21
5.5125023813
  0
LINE
  5
241
100
AcDbEntity
  8
0
100
AcDbLine
 62
7
  6
CONTINUOUS
 10
6.69729641
 20
5.5319309204
 11
6.7209184573
 21
5.5555529676
  0
LINE
  5
242
100
AcDbEntity
  8
0
100
AcDbLine
 62
7
  6
CONTINUOUS
 10
6.7209184573
 20
5.5555529676
 11
6.7445405045
 21
5.5319309204
  0
LINE
  5
243
100
AcDbEntity
  8
0
100
AcDbLine
 62
7
  6
CONTINUOUS
 10
6.8638166388
 20
5.5125023813
 11
6.9012601514
 21
5.409627176
  0
LINE
  5
244
100
AcDbEntity
  8
0
100
AcDbLine
 62
7
  6
CONTINUOUS
 10
7.2878475911
 20
5.5319309204
 11
7.3114696384
 21
5.5555529676
  0
LINE
  5
245
100
AcDbEntity
  8
0
100
AcDbLine
 62
7
  6
CONTINUOUS
 10
7.3114696384
 20
5.5555529676
 11
7.3350916856
 21
5.5319309204
  0
LINE
  5
246
100
AcDbEntity
  8
0
100
AcDbLine
 62
7
  6
CONTINUOUS
 10
7.1311279442
 20
5.409627176
 11
7.1685714568
 21
5.5125023813
  0
LINE
  5
247
100
AcDbEntity
  8
0
100
AcDbLine
 62
7
  6
CONTINUOUS
 10
7.8783987722
 20
5.5319309204
 11
7.9020208195
 21
5.5555529676
  0
LINE
  5
248
100
AcDbEntity
  8
0
100
AcDbLine
 62
7
  6
CONTINUOUS
 10
7.4543678199
 20
5.5125023813
 11
7.4918113325
 21
5.409627176
  0
LINE
  5
249
100
AcDbEntity
  8
0
100
AcDbLine
 62
7
  6
CONTINUOUS
 10
7.7216791253
 20
5.409627176
 11
7.7591226379
 21
5.5125023813
  0
LINE
  5
24A
100
AcDbEntity
  8
0
100
AcDbLine
 62
7
  6
CONTINUOUS
 10
7.9020208195
 20
5.5555529676
 11
7.9020208195
 21
5.6500411566
  0
LINE
  5
24B
100
AcDbEntity
  8
0
100
AcDbLine
 62
7
  6
CONTINUOUS
 10
7.8425256272
 20
10.7102840018
 11
4.2992185406
 21
10.7102840018
  0
LINE
  5
24C
100
AcDbEntity
  8
0
100
AcDbLine
 62
7
  6
CONTINUOUS
 10
4.2992185406
 20
14.4898115609
 11
4.2992185406
 21
10.7102840018
  0
LINE
  5
24D
100
AcDbEntity
  8
0
100
AcDbLine
 62
7
  6
CONTINUOUS
 10
7.8425256272
 20
14.4898115609
 11
7.8425256272
 21
10.7102840018
  0
LINE
  5
24E
100
AcDbEntity
  8
0
100
AcDbLine
 62
7
  6
CONTINUOUS
 10
4.2992185406
 20
14.4898115609
 11
7.8425256272
 21
14.4898115609
  0
LINE
  5
24F
100
AcDbEntity
  8
0
100
AcDbLine
 62
7
  6
CONTINUOUS
 10
13.6705914774
 20
5.3307034446
 11
13.6705914774
 21
5.5905459643
  0
LINE
  5
250
100
AcDbEntity
  8
0
100
AcDbLine
 62
7
  6
CONTINUOUS
 10
13.6705914774
 20
5.3307034446
 11
17.4501190365
 21
5.3307034446
  0
LINE
  5
251
100
AcDbEntity
  8
0
100
AcDbLine
 62
7
  6
CONTINUOUS
 10
17.4501190365
 20
5.4724357281
 11
13.6705914774
 21
5.4724357281
  0
LINE
  5
252
100
AcDbEntity
  8
0
100
AcDbLine
 62
7
  6
CONTINUOUS
 10
17.4501190365
 20
5.4960577753
 11
13.6705914774
 21
5.4960577753
  0
LINE
  5
253
100
AcDbEntity
  8
0
100
AcDbLine
 62
7
  6
CONTINUOUS
 10
17.4501190365
 20
5.5905459643
 11
13.6705914774
 21
5.5905459643
  0
LINE
  5
254
100
AcDbEntity
  8
0
100
AcDbLine
 62
7
  6
CONTINUOUS
 10
17.4501190365
 20
5.3307034446
 11
17.4501190365
 21
5.5905459643
  0
LINE
  5
255
100
AcDbEntity
  8
0
100
AcDbLine
 62
7
  6
CONTINUOUS
 10
13.3674518979
 20
11.1112625218
 11
13.3962747514
 21
11.0525277216
  0
LINE
  5
256
100
AcDbEntity
  8
0
100
AcDbLine
 62
7
  6
CONTINUOUS
 10
13.5410249238
 20
11.025767048
 11
13.6068939273
 21
10.9618187949
  0
LINE
  5
257
100
AcDbEntity
  8
0
100
AcDbLine
 62
7
  6
CONTINUOUS
 10
13.3962747514
 20
11.0525277216
 11
13.4252378111
 21
11.0378440216
  0
LINE
  5
258
100
AcDbEntity
  8
0
100
AcDbLine
 62
7
  6
CONTINUOUS
 10
13.9402084093
 20
11.0525277216
 11
13.969171469
 21
11.0378440216
  0
LINE
  5
259
100
AcDbEntity
  8
0
100
AcDbLine
 62
7
  6
CONTINUOUS
 10
14.0849585816
 20
11.025767048
 11
14.1508275852
 21
10.9618187949
  0
LINE
  5
25A
100
AcDbEntity
  8
0
100
AcDbLine
 62
7
  6
CONTINUOUS
 10
14.4841420672
 20
11.0525277216
 11
14.5131051269
 21
11.0378440216
  0
LINE
  5
25B
100
AcDbEntity
  8
0
100
AcDbLine
 62
7
  6
CONTINUOUS
 10
13.8186161851
 20
10.9618187949
 11
13.8217226993
 21
11.025767048
  0
LINE
  5
25C
100
AcDbEntity
  8
0
100
AcDbLine
 62
7
  6
CONTINUOUS
 10
14.2823482383
 20
14.0718681645
 11
13.3674518979
 21
11.1112625218
  0
LINE
  5
25D
100
AcDbEntity
  8
0
100
AcDbLine
 62
7
  6
CONTINUOUS
 10
13.6383769674
 20
10.9497418214
 11
13.7989861807
 21
10.9497418214
  0
LINE
  5
25E
100
AcDbEntity
  8
0
100
AcDbLine
 62
7
  6
CONTINUOUS
 10
14.1823106253
 20
10.9497418214
 11
14.3429198385
 21
10.9497418214
  0
LINE
  5
25F
100
AcDbEntity
  8
0
100
AcDbLine
 62
7
  6
CONTINUOUS
 10
14.7262442831
 20
10.9497418214
 11
14.8868534964
 21
10.9497418214
  0
LINE
  5
260
100
AcDbEntity
  8
0
100
AcDbLine
 62
7
  6
CONTINUOUS
 10
15.270177941
 20
10.9497418214
 11
15.4307871543
 21
10.9497418214
  0
LINE
  5
261
100
AcDbEntity
  8
0
100
AcDbLine
 62
7
  6
CONTINUOUS
 10
15.8141115989
 20
10.9497418214
 11
15.9747208122
 21
10.9497418214
  0
LINE
  5
262
100
AcDbEntity
  8
0
100
AcDbLine
 62
7
  6
CONTINUOUS
 10
16.3580452568
 20
10.9497418214
 11
16.51865447
 21
10.9497418214
  0
LINE
  5
263
100
AcDbEntity
  8
0
100
AcDbLine
 62
7
  6
CONTINUOUS
 10
14.6288922395
 20
11.025767048
 11
14.6947612431
 21
10.9618187949
  0
LINE
  5
264
100
AcDbEntity
  8
0
100
AcDbLine
 62
7
  6
CONTINUOUS
 10
13.4252378111
 20
11.0378440216
 11
13.5095418837
 21
11.0378440216
  0
LINE
  5
265
100
AcDbEntity
  8
0
100
AcDbLine
 62
7
  6
CONTINUOUS
 10
13.8413527037
 20
11.0378440216
 11
13.9256567763
 21
11.0378440216
  0
LINE
  5
266
100
AcDbEntity
  8
0
100
AcDbLine
 62
7
  6
CONTINUOUS
 10
13.969171469
 20
11.0378440216
 11
14.0534755416
 21
11.0378440216
  0
LINE
  5
267
100
AcDbEntity
  8
0
100
AcDbLine
 62
7
  6
CONTINUOUS
 10
14.3852863616
 20
11.0378440216
 11
14.4695904342
 21
11.0378440216
  0
LINE
  5
268
100
AcDbEntity
  8
0
100
AcDbLine
 62
7
  6
CONTINUOUS
 10
14.5131051269
 20
11.0378440216
 11
14.5974091995
 21
11.0378440216
  0
LINE
  5
269
100
AcDbEntity
  8
0
100
AcDbLine
 62
7
  6
CONTINUOUS
 10
14.9292200195
 20
11.0378440216
 11
15.0135240921
 21
11.0378440216
  0
LINE
  5
26A
100
AcDbEntity
  8
0
100
AcDbLine
 62
7
  6
CONTINUOUS
 10
15.0570387847
 20
11.0378440216
 11
15.1413428573
 21
11.0378440216
  0
LINE
  5
26B
100
AcDbEntity
  8
0
100
AcDbLine
 62
7
  6
CONTINUOUS
 10
15.4731536774
 20
11.0378440216
 11
15.55745775
 21
11.0378440216
  0
LINE
  5
26C
100
AcDbEntity
  8
0
100
AcDbLine
 62
7
  6
CONTINUOUS
 10
15.6009724426
 20
11.0378440216
 11
15.6852765152
 21
11.0378440216
  0
LINE
  5
26D
100
AcDbEntity
  8
0
100
AcDbLine
 62
7
  6
CONTINUOUS
 10
16.0170873352
 20
11.0378440216
 11
16.1013914078
 21
11.0378440216
  0
LINE
  5
26E
100
AcDbEntity
  8
0
100
AcDbLine
 62
7
  6
CONTINUOUS
 10
16.1449061005
 20
11.0378440216
 11
16.2292101731
 21
11.0378440216
  0
LINE
  5
26F
100
AcDbEntity
  8
0
100
AcDbLine
 62
7
  6
CONTINUOUS
 10
16.5610209931
 20
11.0378440216
 11
16.6453250657
 21
11.0378440216
  0
LINE
  5
270
100
AcDbEntity
  8
0
100
AcDbLine
 62
7
  6
CONTINUOUS
 10
16.6310538451
 20
11.1112625218
 11
13.3674518979
 21
11.1112625218
  0
LINE
  5
271
100
AcDbEntity
  8
0
100
AcDbLine
 62
7
  6
CONTINUOUS
 10
15.028075725
 20
11.0525277216
 11
15.0570387847
 21
11.0378440216
  0
LINE
  5
272
100
AcDbEntity
  8
0
100
AcDbLine
 62
7
  6
CONTINUOUS
 10
13.8217226993
 20
11.025767048
 11
13.8221519582
 21
11.0282062962
  0
LINE
  5
273
100
AcDbEntity
  8
0
100
AcDbLine
 62
7
  6
CONTINUOUS
 10
13.8181856067
 20
10.9593799531
 11
13.8186161851
 21
10.9618187949
  0
LINE
  5
274
100
AcDbEntity
  8
0
100
AcDbLine
 62
7
  6
CONTINUOUS
 10
15.5720093829
 20
11.0525277216
 11
15.6009724426
 21
11.0378440216
  0
LINE
  5
275
100
AcDbEntity
  8
0
100
AcDbLine
 62
7
  6
CONTINUOUS
 10
15.1728258974
 20
11.025767048
 11
15.238694901
 21
10.9618187949
  0
LINE
  5
276
100
AcDbEntity
  8
0
100
AcDbLine
 62
7
  6
CONTINUOUS
 10
14.3625498429
 20
10.9618187949
 11
14.3656563572
 21
11.025767048
  0
LINE
  5
277
100
AcDbEntity
  8
0
100
AcDbLine
 62
7
  6
CONTINUOUS
 10
13.8189157789
 20
10.9617262134
 11
13.8423433577
 21
11.0375378863
  0
LINE
  5
278
100
AcDbEntity
  8
0
100
AcDbLine
 62
7
  6
CONTINUOUS
 10
16.1159430408
 20
11.0525277216
 11
16.1449061005
 21
11.0378440216
  0
LINE
  5
279
100
AcDbEntity
  8
0
100
AcDbLine
 62
7
  6
CONTINUOUS
 10
15.7167595553
 20
11.025767048
 11
15.7826285588
 21
10.9618187949
  0
LINE
  5
27A
100
AcDbEntity
  8
0
100
AcDbLine
 62
7
  6
CONTINUOUS
 10
14.3656563572
 20
11.025767048
 11
14.366087855
 21
11.0282056068
  0
LINE
  5
27B
100
AcDbEntity
  8
0
100
AcDbLine
 62
7
  6
CONTINUOUS
 10
14.3621166837
 20
10.9593807476
 11
14.3625498429
 21
10.9618187949
  0
LINE
  5
27C
100
AcDbEntity
  8
0
100
AcDbLine
 62
7
  6
CONTINUOUS
 10
14.3628494368
 20
10.9617262134
 11
14.3862770156
 21
11.0375378863
  0
LINE
  5
27D
100
AcDbEntity
  8
0
100
AcDbLine
 62
7
  6
CONTINUOUS
 10
16.2606932131
 20
11.025767048
 11
16.3265622167
 21
10.9618187949
  0
LINE
  5
27E
100
AcDbEntity
  8
0
100
AcDbLine
 62
7
  6
CONTINUOUS
 10
14.9064835008
 20
10.9618187949
 11
14.9095900151
 21
11.025767048
  0
LINE
  5
27F
100
AcDbEntity
  8
0
100
AcDbLine
 62
7
  6
CONTINUOUS
 10
14.9095900151
 20
11.025767048
 11
14.9100215129
 21
11.0282056068
  0
LINE
  5
280
100
AcDbEntity
  8
0
100
AcDbLine
 62
7
  6
CONTINUOUS
 10
14.9060503416
 20
10.9593807476
 11
14.9064835008
 21
10.9618187949
  0
LINE
  5
281
100
AcDbEntity
  8
0
100
AcDbLine
 62
7
  6
CONTINUOUS
 10
14.9067830946
 20
10.9617262134
 11
14.9302106735
 21
11.0375378863
  0
LINE
  5
282
100
AcDbEntity
  8
0
100
AcDbLine
 62
7
  6
CONTINUOUS
 10
13.9256567763
 20
11.0378440216
 11
13.9402084093
 21
11.0525277216
  0
LINE
  5
283
100
AcDbEntity
  8
0
100
AcDbLine
 62
7
  6
CONTINUOUS
 10
15.4504171587
 20
10.9618187949
 11
15.453523673
 21
11.025767048
  0
LINE
  5
284
100
AcDbEntity
  8
0
100
AcDbLine
 62
7
  6
CONTINUOUS
 10
15.453523673
 20
11.025767048
 11
15.4539551708
 21
11.0282056068
  0
LINE
  5
285
100
AcDbEntity
  8
0
100
AcDbLine
 62
7
  6
CONTINUOUS
 10
15.4499839995
 20
10.9593807476
 11
15.4504171587
 21
10.9618187949
  0
LINE
  5
286
100
AcDbEntity
  8
0
100
AcDbLine
 62
7
  6
CONTINUOUS
 10
14.4695904342
 20
11.0378440216
 11
14.4841420672
 21
11.0525277216
  0
LINE
  5
287
100
AcDbEntity
  8
0
100
AcDbLine
 62
7
  6
CONTINUOUS
 10
15.4507167525
 20
10.9617262134
 11
15.4741443314
 21
11.0375378863
  0
LINE
  5
288
100
AcDbEntity
  8
0
100
AcDbLine
 62
7
  6
CONTINUOUS
 10
16.6598766987
 20
11.0525277216
 11
16.6310538451
 21
11.1112625218
  0
LINE
  5
289
100
AcDbEntity
  8
0
100
AcDbLine
 62
7
  6
CONTINUOUS
 10
15.9943508166
 20
10.9618187949
 11
15.9974573308
 21
11.025767048
  0
LINE
  5
28A
100
AcDbEntity
  8
0
100
AcDbLine
 62
7
  6
CONTINUOUS
 10
15.0135240921
 20
11.0378440216
 11
15.028075725
 21
11.0525277216
  0
LINE
  5
28B
100
AcDbEntity
  8
0
100
AcDbLine
 62
7
  6
CONTINUOUS
 10
15.9974573308
 20
11.025767048
 11
15.9978888286
 21
11.0282056068
  0
LINE
  5
28C
100
AcDbEntity
  8
0
100
AcDbLine
 62
7
  6
CONTINUOUS
 10
15.9939176573
 20
10.9593807476
 11
15.9943508166
 21
10.9618187949
  0
LINE
  5
28D
100
AcDbEntity
  8
0
100
AcDbLine
 62
7
  6
CONTINUOUS
 10
15.9946504104
 20
10.9617262134
 11
16.0180779892
 21
11.0375378863
  0
LINE
  5
28E
100
AcDbEntity
  8
0
100
AcDbLine
 62
7
  6
CONTINUOUS
 10
16.5382844744
 20
10.9618187949
 11
16.5413909887
 21
11.025767048
  0
LINE
  5
28F
100
AcDbEntity
  8
0
100
AcDbLine
 62
7
  6
CONTINUOUS
 10
15.55745775
 20
11.0378440216
 11
15.5720093829
 21
11.0525277216
  0
LINE
  5
290
100
AcDbEntity
  8
0
100
AcDbLine
 62
7
  6
CONTINUOUS
 10
16.5413909887
 20
11.025767048
 11
16.5418224865
 21
11.0282056068
  0
LINE
  5
291
100
AcDbEntity
  8
0
100
AcDbLine
 62
7
  6
CONTINUOUS
 10
16.5378513152
 20
10.9593807476
 11
16.5382844744
 21
10.9618187949
  0
LINE
  5
292
100
AcDbEntity
  8
0
100
AcDbLine
 62
7
  6
CONTINUOUS
 10
16.5385840683
 20
10.9617262134
 11
16.5620116471
 21
11.0375378863
  0
LINE
  5
293
100
AcDbEntity
  8
0
100
AcDbLine
 62
7
  6
CONTINUOUS
 10
17.5459501855
 20
14.0718681645
 11
16.6310538451
 21
11.1112625218
  0
LINE
  5
294
100
AcDbEntity
  8
0
100
AcDbLine
 62
7
  6
CONTINUOUS
 10
17.5747730391
 20
14.0131333643
 11
16.6598766987
 21
11.0525277216
  0
LINE
  5
295
100
AcDbEntity
  8
0
100
AcDbLine
 62
7
  6
CONTINUOUS
 10
16.1013914078
 20
11.0378440216
 11
16.1159430408
 21
11.0525277216
  0
LINE
  5
296
100
AcDbEntity
  8
0
100
AcDbLine
 62
7
  6
CONTINUOUS
 10
14.2823482383
 20
14.0718681645
 11
17.5459501855
 21
14.0718681645
  0
LINE
  5
297
100
AcDbEntity
  8
0
100
AcDbLine
 62
7
  6
CONTINUOUS
 10
16.6453250657
 20
11.0378440216
 11
16.6598766987
 21
11.0525277216
  0
LINE
  5
298
100
AcDbEntity
  8
0
100
AcDbLine
 62
7
  6
CONTINUOUS
 10
17.5747730391
 20
14.0131333643
 11
17.5459501855
 21
14.0718681645
  0
ARC
  5
299
100
AcDbEntity
  8
0
100
AcDbCircle
 62
7
  6
CONTINUOUS
 10
7.7868694673
 20
5.5024033613
 40
0.0295275591
100
AcDbArc
 50
90.0
 51
160.0
  0
ARC
  5
29A
100
AcDbEntity
  8
0
100
AcDbCircle
 62
7
  6
CONTINUOUS
 10
7.4266209906
 20
5.5024033613
 40
0.0295275591
100
AcDbArc
 50
20.0
 51
90.0
  0
ARC
  5
29B
100
AcDbEntity
  8
0
100
AcDbCircle
 62
7
  6
CONTINUOUS
 10
7.1963182862
 20
5.5024033613
 40
0.0295275591
100
AcDbArc
 50
90.0
 51
160.0
  0
ARC
  5
29C
100
AcDbEntity
  8
0
100
AcDbCircle
 62
7
  6
CONTINUOUS
 10
6.8360698095
 20
5.5024033613
 40
0.0295275591
100
AcDbArc
 50
20.0
 51
90.0
  0
ARC
  5
29D
100
AcDbEntity
  8
0
100
AcDbCircle
 62
7
  6
CONTINUOUS
 10
6.6057671051
 20
5.5024033613
 40
0.0295275591
100
AcDbArc
 50
90.0
 51
160.0
  0
ARC
  5
29E
100
AcDbEntity
  8
0
100
AcDbCircle
 62
7
  6
CONTINUOUS
 10
6.2455186284
 20
5.5024033613
 40
0.0295275591
100
AcDbArc
 50
20.0
 51
90.0
  0
ARC
  5
29F
100
AcDbEntity
  8
0
100
AcDbCircle
 62
7
  6
CONTINUOUS
 10
6.0152159239
 20
5.5024033613
 40
0.0295275591
100
AcDbArc
 50
90.0
 51
160.0
  0
ARC
  5
2A0
100
AcDbEntity
  8
0
100
AcDbCircle
 62
7
  6
CONTINUOUS
 10
5.6549674473
 20
5.5024033613
 40
0.0295275591
100
AcDbArc
 50
20.0
 51
90.0
  0
ARC
  5
2A1
100
AcDbEntity
  8
0
100
AcDbCircle
 62
7
  6
CONTINUOUS
 10
5.4246647428
 20
5.5024033613
 40
0.0295275591
100
AcDbArc
 50
90.0
 51
160.0
  0
ARC
  5
2A2
100
AcDbEntity
  8
0
100
AcDbCircle
 62
7
  6
CONTINUOUS
 10
5.0644162662
 20
5.5024033613
 40
0.0295275591
100
AcDbArc
 50
20.0
 51
90.0
  0
ARC
  5
2A3
100
AcDbEntity
  8
0
100
AcDbCircle
 62
7
  6
CONTINUOUS
 10
4.4738650851
 20
5.5024033613
 40
0.0295275591
100
AcDbArc
 50
20.0
 51
90.0
  0
ARC
  5
2A4
100
AcDbEntity
  8
0
100
AcDbCircle
 62
7
  6
CONTINUOUS
 10
4.8341135617
 20
5.5024033613
 40
0.0295275591
100
AcDbArc
 50
90.0
 51
160.0
  0
ARC
  5
2A5
100
AcDbEntity
  8
0
100
AcDbCircle
 62
7
  6
CONTINUOUS
 10
4.5668022564
 20
5.419726196
 40
0.0295275591
100
AcDbArc
 50
200.0
 51
270.0
  0
ARC
  5
2A6
100
AcDbEntity
  8
0
100
AcDbCircle
 62
7
  6
CONTINUOUS
 10
4.7411763905
 20
5.419726196
 40
0.0295275591
100
AcDbArc
 50
270.0
 51
340.0
  0
ARC
  5
2A7
100
AcDbEntity
  8
0
100
AcDbCircle
 62
7
  6
CONTINUOUS
 10
5.1573534375
 20
5.419726196
 40
0.0295275591
100
AcDbArc
 50
200.0
 51
270.0
  0
ARC
  5
2A8
100
AcDbEntity
  8
0
100
AcDbCircle
 62
7
  6
CONTINUOUS
 10
5.3317275716
 20
5.419726196
 40
0.0295275591
100
AcDbArc
 50
270.0
 51
340.0
  0
ARC
  5
2A9
100
AcDbEntity
  8
0
100
AcDbCircle
 62
7
  6
CONTINUOUS
 10
5.7479046186
 20
5.419726196
 40
0.0295275591
100
AcDbArc
 50
200.0
 51
270.0
  0
ARC
  5
2AA
100
AcDbEntity
  8
0
100
AcDbCircle
 62
7
  6
CONTINUOUS
 10
5.9222787527
 20
5.419726196
 40
0.0295275591
100
AcDbArc
 50
270.0
 51
340.0
  0
ARC
  5
2AB
100
AcDbEntity
  8
0
100
AcDbCircle
 62
7
  6
CONTINUOUS
 10
6.3384557997
 20
5.419726196
 40
0.0295275591
100
AcDbArc
 50
200.0
 51
270.0
  0
ARC
  5
2AC
100
AcDbEntity
  8
0
100
AcDbCircle
 62
7
  6
CONTINUOUS
 10
6.5128299338
 20
5.419726196
 40
0.0295275591
100
AcDbArc
 50
270.0
 51
340.0
  0
ARC
  5
2AD
100
AcDbEntity
  8
0
100
AcDbCircle
 62
7
  6
CONTINUOUS
 10
6.9290069808
 20
5.419726196
 40
0.0295275591
100
AcDbArc
 50
200.0
 51
270.0
  0
ARC
  5
2AE
100
AcDbEntity
  8
0
100
AcDbCircle
 62
7
  6
CONTINUOUS
 10
7.693932296
 20
5.419726196
 40
0.0295275591
100
AcDbArc
 50
270.0
 51
340.0
  0
ARC
  5
2AF
100
AcDbEntity
  8
0
100
AcDbCircle
 62
7
  6
CONTINUOUS
 10
7.5195581619
 20
5.419726196
 40
0.0295275591
100
AcDbArc
 50
200.0
 51
270.0
  0
ARC
  5
2B0
100
AcDbEntity
  8
0
100
AcDbCircle
 62
7
  6
CONTINUOUS
 10
7.1033811149
 20
5.419726196
 40
0.0295275591
100
AcDbArc
 50
270.0
 51
340.0
  0
SPLINE
  5
2B1
100
AcDbEntity
  8
0
100
AcDbSpline
 62
7
  6
CONTINUOUS
 70
0
 71
3
 72
11
 73
7
 74
0
 42
0.0000001
 43
0.0000001
 44
0.0000000001
 40
0.0
 40
0.0
 40
0.0
 40
0.0
 40
0.2181893839
 40
0.45141519
 40
0.7103749696
 40
1.0
 40
1.0
 40
1.0
 40
1.0
 10
16.5418182546
 20
11.0282069149
 30
0.0
 10
16.5421415756
 20
11.0292524554
 30
0.0
 10
16.543193461
 20
11.0313134282
 30
0.0
 10
16.5457678083
 20
11.0338461805
 30
0.0
 10
16.5492036387
 20
11.0358057166
 30
0.0
 10
16.5518392158
 20
11.036656949
 30
0.0
 10
16.5532525515
 20
11.036992821
 30
0.0
  0
SPLINE
  5
2B2
100
AcDbEntity
  8
0
100
AcDbSpline
 62
7
  6
CONTINUOUS
 70
0
 71
3
 72
9
 73
5
 74
0
 42
0.0000001
 43
0.0000001
 44
0.0000000001
 40
0.0
 40
0.0
 40
0.0
 40
0.0
 40
0.2380127794
 40
1.0
 40
1.0
 40
1.0
 40
1.0
 10
16.5532525515
 20
11.036992821
 30
0.0
 10
16.5538565533
 20
11.0371363589
 30
0.0
 10
16.5564148485
 20
11.0376517315
 30
0.0
 10
16.5590334557
 20
11.0378440216
 30
0.0
 10
16.5610209931
 20
11.0378440216
 30
0.0
  0
SPLINE
  5
2B3
100
AcDbEntity
  8
0
100
AcDbSpline
 62
7
  6
CONTINUOUS
 70
0
 71
3
 72
11
 73
7
 74
0
 42
0.0000001
 43
0.0000001
 44
0.0000000001
 40
0.0
 40
0.0
 40
0.0
 40
0.0
 40
0.2181893839
 40
0.45141519
 40
0.7103749696
 40
1.0
 40
1.0
 40
1.0
 40
1.0
 10
15.9978845967
 20
11.0282069149
 30
0.0
 10
15.9982079178
 20
11.0292524554
 30
0.0
 10
15.9992598032
 20
11.0313134282
 30
0.0
 10
16.0018341504
 20
11.0338461805
 30
0.0
 10
16.0052699809
 20
11.0358057166
 30
0.0
 10
16.0079055579
 20
11.036656949
 30
0.0
 10
16.0093188936
 20
11.036992821
 30
0.0
  0
SPLINE
  5
2B4
100
AcDbEntity
  8
0
100
AcDbSpline
 62
7
  6
CONTINUOUS
 70
0
 71
3
 72
9
 73
5
 74
0
 42
0.0000001
 43
0.0000001
 44
0.0000000001
 40
0.0
 40
0.0
 40
0.0
 40
0.0
 40
0.2380127794
 40
1.0
 40
1.0
 40
1.0
 40
1.0
 10
16.0093188936
 20
11.036992821
 30
0.0
 10
16.0099228955
 20
11.0371363589
 30
0.0
 10
16.0124811907
 20
11.0376517315
 30
0.0
 10
16.0150997978
 20
11.0378440216
 30
0.0
 10
16.0170873352
 20
11.0378440216
 30
0.0
  0
SPLINE
  5
2B5
100
AcDbEntity
  8
0
100
AcDbSpline
 62
7
  6
CONTINUOUS
 70
0
 71
3
 72
11
 73
7
 74
0
 42
0.0000001
 43
0.0000001
 44
0.0000000001
 40
0.0
 40
0.0
 40
0.0
 40
0.0
 40
0.2181893839
 40
0.45141519
 40
0.7103749696
 40
1.0
 40
1.0
 40
1.0
 40
1.0
 10
15.4539509388
 20
11.0282069149
 30
0.0
 10
15.4542742599
 20
11.0292524554
 30
0.0
 10
15.4553261453
 20
11.0313134282
 30
0.0
 10
15.4579004925
 20
11.0338461805
 30
0.0
 10
15.461336323
 20
11.0358057166
 30
0.0
 10
15.4639719
 20
11.036656949
 30
0.0
 10
15.4653852357
 20
11.036992821
 30
0.0
  0
SPLINE
  5
2B6
100
AcDbEntity
  8
0
100
AcDbSpline
 62
7
  6
CONTINUOUS
 70
0
 71
3
 72
9
 73
5
 74
0
 42
0.0000001
 43
0.0000001
 44
0.0000000001
 40
0.0
 40
0.0
 40
0.0
 40
0.0
 40
0.2380127794
 40
1.0
 40
1.0
 40
1.0
 40
1.0
 10
15.4653852357
 20
11.036992821
 30
0.0
 10
15.4659892376
 20
11.0371363589
 30
0.0
 10
15.4685475328
 20
11.0376517315
 30
0.0
 10
15.4711661399
 20
11.0378440216
 30
0.0
 10
15.4731536774
 20
11.0378440216
 30
0.0
  0
SPLINE
  5
2B7
100
AcDbEntity
  8
0
100
AcDbSpline
 62
7
  6
CONTINUOUS
 70
0
 71
3
 72
11
 73
7
 74
0
 42
0.0000001
 43
0.0000001
 44
0.0000000001
 40
0.0
 40
0.0
 40
0.0
 40
0.0
 40
0.2181893839
 40
0.45141519
 40
0.7103749696
 40
1.0
 40
1.0
 40
1.0
 40
1.0
 10
14.9100172809
 20
11.0282069149
 30
0.0
 10
14.910340602
 20
11.0292524554
 30
0.0
 10
14.9113924874
 20
11.0313134282
 30
0.0
 10
14.9139668346
 20
11.0338461805
 30
0.0
 10
14.9174026651
 20
11.0358057166
 30
0.0
 10
14.9200382421
 20
11.036656949
 30
0.0
 10
14.9214515778
 20
11.036992821
 30
0.0
  0
SPLINE
  5
2B8
100
AcDbEntity
  8
0
100
AcDbSpline
 62
7
  6
CONTINUOUS
 70
0
 71
3
 72
9
 73
5
 74
0
 42
0.0000001
 43
0.0000001
 44
0.0000000001
 40
0.0
 40
0.0
 40
0.0
 40
0.0
 40
0.2380127794
 40
1.0
 40
1.0
 40
1.0
 40
1.0
 10
14.9214515778
 20
11.036992821
 30
0.0
 10
14.9220555797
 20
11.0371363589
 30
0.0
 10
14.9246138749
 20
11.0376517315
 30
0.0
 10
14.927232482
 20
11.0378440216
 30
0.0
 10
14.9292200195
 20
11.0378440216
 30
0.0
  0
SPLINE
  5
2B9
100
AcDbEntity
  8
0
100
AcDbSpline
 62
7
  6
CONTINUOUS
 70
0
 71
3
 72
11
 73
7
 74
0
 42
0.0000001
 43
0.0000001
 44
0.0000000001
 40
0.0
 40
0.0
 40
0.0
 40
0.0
 40
0.2181893839
 40
0.45141519
 40
0.7103749696
 40
1.0
 40
1.0
 40
1.0
 40
1.0
 10
14.3660836231
 20
11.0282069149
 30
0.0
 10
14.3664069441
 20
11.0292524554
 30
0.0
 10
14.3674588295
 20
11.0313134282
 30
0.0
 10
14.3700331768
 20
11.0338461805
 30
0.0
 10
14.3734690072
 20
11.0358057166
 30
0.0
 10
14.3761045843
 20
11.036656949
 30
0.0
 10
14.37751792
 20
11.036992821
 30
0.0
  0
SPLINE
  5
2BA
100
AcDbEntity
  8
0
100
AcDbSpline
 62
7
  6
CONTINUOUS
 70
0
 71
3
 72
9
 73
5
 74
0
 42
0.0000001
 43
0.0000001
 44
0.0000000001
 40
0.0
 40
0.0
 40
0.0
 40
0.0
 40
0.2380127794
 40
1.0
 40
1.0
 40
1.0
 40
1.0
 10
14.37751792
 20
11.036992821
 30
0.0
 10
14.3781219218
 20
11.0371363589
 30
0.0
 10
14.380680217
 20
11.0376517315
 30
0.0
 10
14.3832988242
 20
11.0378440216
 30
0.0
 10
14.3852863616
 20
11.0378440216
 30
0.0
  0
SPLINE
  5
2BB
100
AcDbEntity
  8
0
100
AcDbSpline
 62
7
  6
CONTINUOUS
 70
0
 71
3
 72
11
 73
7
 74
0
 42
0.0000001
 43
0.0000001
 44
0.0000000001
 40
0.0
 40
0.0
 40
0.0
 40
0.0
 40
0.2181383899
 40
0.4513451956
 40
0.7103266535
 40
1.0
 40
1.0
 40
1.0
 40
1.0
 10
13.8221499467
 20
11.0282069179
 30
0.0
 10
13.8224735932
 20
11.0292535394
 30
0.0
 10
13.8235271213
 20
11.0313166696
 30
0.0
 10
13.8261057936
 20
11.0338512851
 30
0.0
 10
13.829547464
 20
11.0358112715
 30
0.0
 10
13.8321873024
 20
11.0366618788
 30
0.0
 10
13.8336028965
 20
11.0369972469
 30
0.0
  0
SPLINE
  5
2BC
100
AcDbEntity
  8
0
100
AcDbSpline
 62
7
  6
CONTINUOUS
 70
0
 71
3
 72
9
 73
5
 74
0
 42
0.0000001
 43
0.0000001
 44
0.0000000001
 40
0.0
 40
0.0
 40
0.0
 40
0.0
 40
0.2380520534
 40
1.0
 40
1.0
 40
1.0
 40
1.0
 10
13.8336028965
 20
11.0369972469
 30
0.0
 10
13.8342056237
 20
11.0371400389
 30
0.0
 10
13.8367579628
 20
11.0376526865
 30
0.0
 10
13.8393701173
 20
11.0378440216
 30
0.0
 10
13.8413527037
 20
11.0378440216
 30
0.0
  0
SPLINE
  5
2BD
100
AcDbEntity
  8
0
100
AcDbSpline
 62
7
  6
CONTINUOUS
 70
0
 71
3
 72
11
 73
7
 74
0
 42
0.0000001
 43
0.0000001
 44
0.0000000001
 40
0.0
 40
0.0
 40
0.0
 40
0.0
 40
0.2508626954
 40
0.5116788556
 40
0.7663562378
 40
1.0
 40
1.0
 40
1.0
 40
1.0
 10
16.2292101731
 20
11.0378440216
 30
0.0
 10
16.2320891526
 20
11.0378440216
 30
0.0
 10
16.2379702079
 20
11.0372247225
 30
0.0
 10
16.2464633123
 20
11.034787715
 30
0.0
 10
16.2542384993
 20
11.0310226806
 30
0.0
 10
16.258769356
 20
11.0276348052
 30
0.0
 10
16.2606932131
 20
11.025767048
 30
0.0
  0
SPLINE
  5
2BE
100
AcDbEntity
  8
0
100
AcDbSpline
 62
7
  6
CONTINUOUS
 70
0
 71
3
 72
11
 73
7
 74
0
 42
0.0000001
 43
0.0000001
 44
0.0000000001
 40
0.0
 40
0.0
 40
0.0
 40
0.0
 40
0.2508626954
 40
0.5116788556
 40
0.7663562378
 40
1.0
 40
1.0
 40
1.0
 40
1.0
 10
15.6852765152
 20
11.0378440216
 30
0.0
 10
15.6881554947
 20
11.0378440216
 30
0.0
 10
15.69403655
 20
11.0372247225
 30
0.0
 10
15.7025296544
 20
11.034787715
 30
0.0
 10
15.7103048414
 20
11.0310226806
 30
0.0
 10
15.7148356982
 20
11.0276348052
 30
0.0
 10
15.7167595553
 20
11.025767048
 30
0.0
  0
SPLINE
  5
2BF
100
AcDbEntity
  8
0
100
AcDbSpline
 62
7
  6
CONTINUOUS
 70
0
 71
3
 72
11
 73
7
 74
0
 42
0.0000001
 43
0.0000001
 44
0.0000000001
 40
0.0
 40
0.0
 40
0.0
 40
0.0
 40
0.2508626954
 40
0.5116788556
 40
0.7663562378
 40
1.0
 40
1.0
 40
1.0
 40
1.0
 10
15.1413428573
 20
11.0378440216
 30
0.0
 10
15.1442218369
 20
11.0378440216
 30
0.0
 10
15.1501028922
 20
11.0372247225
 30
0.0
 10
15.1585959965
 20
11.034787715
 30
0.0
 10
15.1663711836
 20
11.0310226806
 30
0.0
 10
15.1709020403
 20
11.0276348052
 30
0.0
 10
15.1728258974
 20
11.025767048
 30
0.0
  0
SPLINE
  5
2C0
100
AcDbEntity
  8
0
100
AcDbSpline
 62
7
  6
CONTINUOUS
 70
0
 71
3
 72
11
 73
7
 74
0
 42
0.0000001
 43
0.0000001
 44
0.0000000001
 40
0.0
 40
0.0
 40
0.0
 40
0.0
 40
0.2508626954
 40
0.5116788556
 40
0.7663562378
 40
1.0
 40
1.0
 40
1.0
 40
1.0
 10
14.5974091995
 20
11.0378440216
 30
0.0
 10
14.600288179
 20
11.0378440216
 30
0.0
 10
14.6061692343
 20
11.0372247225
 30
0.0
 10
14.6146623386
 20
11.034787715
 30
0.0
 10
14.6224375257
 20
11.0310226806
 30
0.0
 10
14.6269683824
 20
11.0276348052
 30
0.0
 10
14.6288922395
 20
11.025767048
 30
0.0
  0
SPLINE
  5
2C1
100
AcDbEntity
  8
0
100
AcDbSpline
 62
7
  6
CONTINUOUS
 70
0
 71
3
 72
11
 73
7
 74
0
 42
0.0000001
 43
0.0000001
 44
0.0000000001
 40
0.0
 40
0.0
 40
0.0
 40
0.0
 40
0.2508626954
 40
0.5116788556
 40
0.7663562378
 40
1.0
 40
1.0
 40
1.0
 40
1.0
 10
14.0534755416
 20
11.0378440216
 30
0.0
 10
14.0563545211
 20
11.0378440216
 30
0.0
 10
14.0622355764
 20
11.0372247225
 30
0.0
 10
14.0707286808
 20
11.034787715
 30
0.0
 10
14.0785038678
 20
11.0310226806
 30
0.0
 10
14.0830347245
 20
11.0276348052
 30
0.0
 10
14.0849585816
 20
11.025767048
 30
0.0
  0
SPLINE
  5
2C2
100
AcDbEntity
  8
0
100
AcDbSpline
 62
7
  6
CONTINUOUS
 70
0
 71
3
 72
11
 73
7
 74
0
 42
0.0000001
 43
0.0000001
 44
0.0000000001
 40
0.0
 40
0.0
 40
0.0
 40
0.0
 40
0.303708363
 40
0.5698830815
 40
0.7976264167
 40
1.0
 40
1.0
 40
1.0
 40
1.0
 10
16.51865447
 20
10.9497418214
 30
0.0
 10
16.520965259
 20
10.9497418214
 30
0.0
 10
16.5253182883
 20
10.9501085185
 30
0.0
 10
16.5311664271
 20
10.951946807
 30
0.0
 10
16.535628042
 20
10.9549991446
 30
0.0
 10
16.5374022773
 20
10.9579078904
 30
0.0
 10
16.5378571911
 20
10.9593789314
 30
0.0
  0
SPLINE
  5
2C3
100
AcDbEntity
  8
0
100
AcDbSpline
 62
7
  6
CONTINUOUS
 70
0
 71
3
 72
11
 73
7
 74
0
 42
0.0000001
 43
0.0000001
 44
0.0000000001
 40
0.0
 40
0.0
 40
0.0
 40
0.0
 40
0.2336415419
 40
0.4883227108
 40
0.7491349871
 40
1.0
 40
1.0
 40
1.0
 40
1.0
 10
16.3265622167
 20
10.9618187949
 30
0.0
 10
16.3284860556
 20
10.9599510555
 30
0.0
 10
16.3330169201
 20
10.956563162
 30
0.0
 10
16.3407920865
 20
10.9527981402
 30
0.0
 10
16.3492852132
 20
10.9503611271
 30
0.0
 10
16.3551662506
 20
10.9497418214
 30
0.0
 10
16.3580452568
 20
10.9497418214
 30
0.0
  0
SPLINE
  5
2C4
100
AcDbEntity
  8
0
100
AcDbSpline
 62
7
  6
CONTINUOUS
 70
0
 71
3
 72
11
 73
7
 74
0
 42
0.0000001
 43
0.0000001
 44
0.0000000001
 40
0.0
 40
0.0
 40
0.0
 40
0.0
 40
0.303708363
 40
0.5698830815
 40
0.7976264167
 40
1.0
 40
1.0
 40
1.0
 40
1.0
 10
15.9747208122
 20
10.9497418214
 30
0.0
 10
15.9770316011
 20
10.9497418214
 30
0.0
 10
15.9813846305
 20
10.9501085185
 30
0.0
 10
15.9872327692
 20
10.951946807
 30
0.0
 10
15.9916943841
 20
10.9549991446
 30
0.0
 10
15.9934686195
 20
10.9579078904
 30
0.0
 10
15.9939235332
 20
10.9593789314
 30
0.0
  0
SPLINE
  5
2C5
100
AcDbEntity
  8
0
100
AcDbSpline
 62
7
  6
CONTINUOUS
 70
0
 71
3
 72
11
 73
7
 74
0
 42
0.0000001
 43
0.0000001
 44
0.0000000001
 40
0.0
 40
0.0
 40
0.0
 40
0.0
 40
0.2336415419
 40
0.4883227108
 40
0.7491349871
 40
1.0
 40
1.0
 40
1.0
 40
1.0
 10
15.7826285588
 20
10.9618187949
 30
0.0
 10
15.7845523977
 20
10.9599510555
 30
0.0
 10
15.7890832622
 20
10.956563162
 30
0.0
 10
15.7968584286
 20
10.9527981402
 30
0.0
 10
15.8053515554
 20
10.9503611271
 30
0.0
 10
15.8112325928
 20
10.9497418214
 30
0.0
 10
15.8141115989
 20
10.9497418214
 30
0.0
  0
SPLINE
  5
2C6
100
AcDbEntity
  8
0
100
AcDbSpline
 62
7
  6
CONTINUOUS
 70
0
 71
3
 72
11
 73
7
 74
0
 42
0.0000001
 43
0.0000001
 44
0.0000000001
 40
0.0
 40
0.0
 40
0.0
 40
0.0
 40
0.303708363
 40
0.5698830815
 40
0.7976264167
 40
1.0
 40
1.0
 40
1.0
 40
1.0
 10
15.4307871543
 20
10.9497418214
 30
0.0
 10
15.4330979433
 20
10.9497418214
 30
0.0
 10
15.4374509726
 20
10.9501085185
 30
0.0
 10
15.4432991114
 20
10.951946807
 30
0.0
 10
15.4477607262
 20
10.9549991446
 30
0.0
 10
15.4495349616
 20
10.9579078904
 30
0.0
 10
15.4499898753
 20
10.9593789314
 30
0.0
  0
SPLINE
  5
2C7
100
AcDbEntity
  8
0
100
AcDbSpline
 62
7
  6
CONTINUOUS
 70
0
 71
3
 72
11
 73
7
 74
0
 42
0.0000001
 43
0.0000001
 44
0.0000000001
 40
0.0
 40
0.0
 40
0.0
 40
0.0
 40
0.2336415419
 40
0.4883227108
 40
0.7491349871
 40
1.0
 40
1.0
 40
1.0
 40
1.0
 10
15.238694901
 20
10.9618187949
 30
0.0
 10
15.2406187398
 20
10.9599510555
 30
0.0
 10
15.2451496043
 20
10.956563162
 30
0.0
 10
15.2529247708
 20
10.9527981402
 30
0.0
 10
15.2614178975
 20
10.9503611271
 30
0.0
 10
15.2672989349
 20
10.9497418214
 30
0.0
 10
15.270177941
 20
10.9497418214
 30
0.0
  0
SPLINE
  5
2C8
100
AcDbEntity
  8
0
100
AcDbSpline
 62
7
  6
CONTINUOUS
 70
0
 71
3
 72
11
 73
7
 74
0
 42
0.0000001
 43
0.0000001
 44
0.0000000001
 40
0.0
 40
0.0
 40
0.0
 40
0.0
 40
0.303708363
 40
0.5698830815
 40
0.7976264167
 40
1.0
 40
1.0
 40
1.0
 40
1.0
 10
14.8868534964
 20
10.9497418214
 30
0.0
 10
14.8891642854
 20
10.9497418214
 30
0.0
 10
14.8935173147
 20
10.9501085185
 30
0.0
 10
14.8993654535
 20
10.951946807
 30
0.0
 10
14.9038270683
 20
10.9549991446
 30
0.0
 10
14.9056013037
 20
10.9579078904
 30
0.0
 10
14.9060562174
 20
10.9593789314
 30
0.0
  0
SPLINE
  5
2C9
100
AcDbEntity
  8
0
100
AcDbSpline
 62
7
  6
CONTINUOUS
 70
0
 71
3
 72
11
 73
7
 74
0
 42
0.0000001
 43
0.0000001
 44
0.0000000001
 40
0.0
 40
0.0
 40
0.0
 40
0.0
 40
0.2336415419
 40
0.4883227108
 40
0.7491349871
 40
1.0
 40
1.0
 40
1.0
 40
1.0
 10
14.6947612431
 20
10.9618187949
 30
0.0
 10
14.6966850819
 20
10.9599510555
 30
0.0
 10
14.7012159465
 20
10.956563162
 30
0.0
 10
14.7089911129
 20
10.9527981402
 30
0.0
 10
14.7174842396
 20
10.9503611271
 30
0.0
 10
14.723365277
 20
10.9497418214
 30
0.0
 10
14.7262442831
 20
10.9497418214
 30
0.0
  0
SPLINE
  5
2CA
100
AcDbEntity
  8
0
100
AcDbSpline
 62
7
  6
CONTINUOUS
 70
0
 71
3
 72
11
 73
7
 74
0
 42
0.0000001
 43
0.0000001
 44
0.0000000001
 40
0.0
 40
0.0
 40
0.0
 40
0.0
 40
0.303708363
 40
0.5698830815
 40
0.7976264167
 40
1.0
 40
1.0
 40
1.0
 40
1.0
 10
14.3429198385
 20
10.9497418214
 30
0.0
 10
14.3452306275
 20
10.9497418214
 30
0.0
 10
14.3495836568
 20
10.9501085185
 30
0.0
 10
14.3554317956
 20
10.951946807
 30
0.0
 10
14.3598934105
 20
10.9549991446
 30
0.0
 10
14.3616676458
 20
10.9579078904
 30
0.0
 10
14.3621225595
 20
10.9593789314
 30
0.0
  0
SPLINE
  5
2CB
100
AcDbEntity
  8
0
100
AcDbSpline
 62
7
  6
CONTINUOUS
 70
0
 71
3
 72
11
 73
7
 74
0
 42
0.0000001
 43
0.0000001
 44
0.0000000001
 40
0.0
 40
0.0
 40
0.0
 40
0.0
 40
0.2336415419
 40
0.4883227108
 40
0.7491349871
 40
1.0
 40
1.0
 40
1.0
 40
1.0
 10
14.1508275852
 20
10.9618187949
 30
0.0
 10
14.1527514241
 20
10.9599510555
 30
0.0
 10
14.1572822886
 20
10.956563162
 30
0.0
 10
14.165057455
 20
10.9527981402
 30
0.0
 10
14.1735505817
 20
10.9503611271
 30
0.0
 10
14.1794316191
 20
10.9497418214
 30
0.0
 10
14.1823106253
 20
10.9497418214
 30
0.0
  0
SPLINE
  5
2CC
100
AcDbEntity
  8
0
100
AcDbSpline
 62
7
  6
CONTINUOUS
 70
0
 71
3
 72
11
 73
7
 74
0
 42
0.0000001
 43
0.0000001
 44
0.0000000001
 40
0.0
 40
0.0
 40
0.0
 40
0.0
 40
0.3037038631
 40
0.5698805848
 40
0.7976290061
 40
1.0
 40
1.0
 40
1.0
 40
1.0
 10
13.7989861807
 20
10.9497418214
 30
0.0
 10
13.8012969356
 20
10.9497418214
 30
0.0
 10
13.8056499447
 20
10.9501084943
 30
0.0
 10
13.8114981168
 20
10.9519467836
 30
0.0
 10
13.8159597219
 20
10.9549991739
 30
0.0
 10
13.8177340305
 20
10.957907901
 30
0.0
 10
13.8181889243
 20
10.9593789276
 30
0.0
  0
SPLINE
  5
2CD
100
AcDbEntity
  8
0
100
AcDbSpline
 62
7
  6
CONTINUOUS
 70
0
 71
3
 72
11
 73
7
 74
0
 42
0.0000001
 43
0.0000001
 44
0.0000000001
 40
0.0
 40
0.0
 40
0.0
 40
0.0
 40
0.2336378064
 40
0.4883228958
 40
0.7491396374
 40
1.0
 40
1.0
 40
1.0
 40
1.0
 10
13.6068939273
 20
10.9618187949
 30
0.0
 10
13.6088177355
 20
10.9599510853
 30
0.0
 10
13.6133485908
 20
10.9565631778
 30
0.0
 10
13.6211238073
 20
10.9527981311
 30
0.0
 10
13.6296169784
 20
10.9503611091
 30
0.0
 10
13.6354980145
 20
10.9497418214
 30
0.0
 10
13.6383769674
 20
10.9497418214
 30
0.0
  0
SPLINE
  5
2CE
100
AcDbEntity
  8
0
100
AcDbSpline
 62
7
  6
CONTINUOUS
 70
0
 71
3
 72
11
 73
7
 74
0
 42
0.0000001
 43
0.0000001
 44
0.0000000001
 40
0.0
 40
0.0
 40
0.0
 40
0.0
 40
0.2508587922
 40
0.5116790351
 40
0.7663606902
 40
1.0
 40
1.0
 40
1.0
 40
1.0
 10
13.5095418837
 20
11.0378440216
 30
0.0
 10
13.5124208186
 20
11.0378440216
 30
0.0
 10
13.5183018767
 20
11.0372247371
 30
0.0
 10
13.5267950324
 20
11.0347877165
 30
0.0
 10
13.5345702614
 20
11.0310226591
 30
0.0
 10
13.5391011032
 20
11.0276347697
 30
0.0
 10
13.5410249238
 20
11.025767048
 30
0.0
  0
ENDSEC
  0
SECTION
  2
OBJECTS
  0
DICTIONARY
  5
C
100
AcDbDictionary
280
0
281
1
  3
ACAD_GROUP
350
D
  3
ACAD_MLINESTYLE
350
17
  3
ACAD_LAYOUT
350
1A
  3
ACAD_PLOTSETTINGS
350
19
  3
ACAD_PLOTSTYLENAME
350
E
  0
DICTIONARY
  5
D
102
{ACAD_REACTORS
330
C
102
}
100
AcDbDictionary
280
0
281
1
  0
ACDBDICTIONARYWDFLT
  5
E
102
{ACAD_REACTORS
330
C
102
}
100
AcDbDictionary
281
1
  3
Normal
350
F
100
AcDbDictionaryWithDefault
340
F
  0
DICTIONARY
  5
17
102
{ACAD_REACTORS
330
C
102
}
100
AcDbDictionary
280
0
281
1
  3
Standard
350
18
  0
DICTIONARY
  5
19
102
{ACAD_REACTORS
330
C
102
}
100
AcDbDictionary
281
1
  0
DICTIONARY
  5
1A
102
{ACAD_REACTORS
330
C
102
}
100
AcDbDictionary
281
1
  3
Model
350
2CF
  3
Layout1
350
2D0
  0
ACDBPLACEHOLDER
  5
F
102
{ACAD_REACTORS
330
E
102
}
  0
MLINESTYLE
  5
18
102
{ACAD_REACTORS
330
17
102
}
100
AcDbMlineStyle
  2
STANDARD
 70
0
  3

 62
256
 51
90.0
 52
90.0
 71
2
 49
0.5
 62
256
  6
BYLAYER
 49
-0.5
 62
256
  6
BYLAYER
  0
LAYOUT
  5
2CF
102
{ACAD_REACTORS
330
1A
102
}
100
AcDbPlotSettings
  1

  2
none_device
  4
ANSI_C_(22.00_x_17.00_Inches)
  6

 40
0.0
 41
0.0
 42
0.0
 43
0.0
 44
558.8
 45
431.8
 46
0.0
 47
0.0
 48
0.0
 49
0.0
140
0.0
141
0.0
142
1.0
143
1.0
 70
1024
 72
0
 73
0
 74
0
  7

 75
0
147
1.0
148
0.0
149
0.0
100
AcDbLayout
  1
Model
 70
0
 71
0
 10
0.0
 20
0.0
 11
22.0
 21
17.0
 12
0.0
 22
0.0
 32
0.0
 14
0.0
 24
0.0
 34
0.0
 15
0.0
 25
0.0
 35
0.0
146
0.0
 13
0.0
 23
0.0
 33
0.0
 16
1.0
 26
0.0
 36
0.0
 17
0.0
 27
1.0
 37
0.0
 76
0
330
216
345
0
346
0
  0
LAYOUT
  5
2D0
102
{ACAD_REACTORS
330
1A
102
}
100
AcDbPlotSettings
  1

  2
none_device
  4
ANSI_C_(22.00_x_17.00_Inches)
  6

 40
0.0
 41
0.0
 42
0.0
 43
0.0
 44
558.8
 45
431.8
 46
0.0
 47
0.0
 48
0.0
 49
0.0
140
0.0
141
0.0
142
1.0
143
1.0
 70
0
 72
0
 73
0
 74
0
  7

 75
0
147
1.0
148
0.0
149
0.0
100
AcDbLayout
  1
Layout1
 70
0
 71
1
 10
0.0
 20
0.0
 11
22.0
 21
17.0
 12
0.0
 22
0.0
 32
0.0
 14
0.0
 24
0.0
 34
0.0
 15
0.0
 25
0.0
 35
0.0
146
0.0
 13
0.0
 23
0.0
 33
0.0
 16
1.0
 26
0.0
 36
0.0
 17
0.0
 27
1.0
 37
0.0
 76
0
330
217
345
0
346
0
  0
ENDSEC
  0
EOF