999
DXF file: _cgs_temp_output.dxf
999
Pro/ENGINEER 2016360 by Parametric Technology Corporation
  0
SECTION
  2
HEADER
  9
$ACADVER
  1
AC1021
  9
$DWGCODEPAGE
  3
ANSI_1252
  9
$EXTMAX
 10
22.0
 20
17.0
 30
0.0
  9
$EXTMIN
 10
0.0
 20
0.0
 30
0.0
  9
$LIMMIN
 10
0.0
 20
0.0
  9
$LIMMAX
 10
22.0
 20
17.0
  9
$VIEWCTR
 10
11.0
 20
8.5
  9
$VIEWSIZE
 40
17.0
  9
$CLAYER
  8
0
  9
$LTSCALE
 40
1.21
  9
$CELTYPE
  6
BYLAYER
  9
$DIMSCALE
 40
1.0
  9
$DIMASZ
 40
0.1875
  9
$DIMEXO
 40
0.0625
  9
$DIMDLI
 40
0.836
  9
$DIMEXE
 40
0.125
  9
$DIMCEN
 40
0.198
  9
$DIMLFAC
 40
1.0
  9
$DIMBLK
  1
_CLOSED
  9
$DIMALT
 70
0
  9
$DIMALTF
 40
25.4
  9
$DIMTXT
 40
0.15625
  9
$DIMTOL
 70
0
  9
$DIMLIM
 70
0
  9
$DIMTFAC
 40
1.0
  9
$DIMGAP
 40
0.09
  9
$DIMDSEP
 70
46
  9
$AUNITS
 70
0
  9
$PDMODE
 70
3
  9
$PDSIZE
 40
0.3125
  9
$HANDSEED
  5
2D1
  9
$TILEMODE
 70
1
  9
$MEASUREMENT
 70
0
  9
$INSUNITS
 70
1
  0
ENDSEC
  0
SECTION
  2
CLASSES
  0
CLASS
  1
ACDBDICTIONARYWDFLT
  2
AcDbDictionaryWithDefault
  3
AutoCAD 2000
 90
0
 91
1
280
0
281
0
  0
CLASS
  1
ACDBPLACEHOLDER
  2
AcDbPlaceHolder
  3
AutoCAD 2000
 90
0
 91
1
280
0
281
0
  0
CLASS
  1
LAYOUT
  2
AcDbLayout
  3
AutoCAD 2000
 90
0
 91
0
280
0
281
0
  0
ENDSEC
  0
SECTION
  2
TABLES
  0
TABLE
  2
VPORT
  5
8
100
AcDbSymbolTable
 70
2
  0
VPORT
  5
1F4
100
AcDbSymbolTableRecord
100
AcDbViewportTableRecord
  2
*ACTIVE
 70
0
 10
0.0
 20
0.0
 11
1.0
 21
1.0
 12
11.0
 22
8.5
 13
0.0
 23
0.0
 14
1.0
 24
1.0
 15
0.0
 25
0.0
 16
0.0
 26
0.0
 36
1.0
 17
0.0
 27
0.0
 37
0.0
 40
17.0
 41
1.2941176471
 42
50.0
 43
0.0
 44
0.0
 50
0.0
 51
0.0
 71
0
 72
100
 73
1
 74
1
 75
0
 76
0
 77
0
 78
0
  0
ENDTAB
  0
TABLE
  2
LTYPE
  5
5
100
AcDbSymbolTable
 70
6
  0
LTYPE
  5
14
100
AcDbSymbolTableRecord
100
AcDbLinetypeTableRecord
  2
BYBLOCK
 70
0
  3

 72
65
 73
0
 40
0.0
  0
LTYPE
  5
15
100
AcDbSymbolTableRecord
100
AcDbLinetypeTableRecord
  2
BYLAYER
 70
0
  3

 72
65
 73
0
 40
0.0
  0
LTYPE
  5
16
100
AcDbSymbolTableRecord
100
AcDbLinetypeTableRecord
  2
CONTINUOUS
 70
64
  3
Solid line
 72
65
 73
0
 40
0.0
  0
LTYPE
  5
1F5
100
AcDbSymbolTableRecord
100
AcDbLinetypeTableRecord
  2
CENTER
 70
64
  3
____ _ ____ _ ____ _ ____ _ ____ _ ____ _ ____
 72
65
 73
4
 40
0.6
 49
0.375
 74
0
 49
-0.075
 74
0
 49
0.075
 74
0
 49
-0.075
 74
0
  0
LTYPE
  5
1F6
100
AcDbSymbolTableRecord
100
AcDbLinetypeTableRecord
  2
HIDDEN
 70
64
  3
- - - - - - - - - - - - - - - - - - - -
 72
65
 73
2
 40
0.2
 49
0.1
 74
0
 49
-0.1
 74
0
  0
LTYPE
  5
1F7
100
AcDbSymbolTableRecord
100
AcDbLinetypeTableRecord
  2
PHANTOM
 70
64
  3
_____ _ _ _____ _ _ _____ _ _ _____
 72
65
 73
6
 40
0.8
 49
0.45
 74
0
 49
-0.05
 74
0
 49
0.1
 74
0
 49
-0.05
 74
0
 49
0.1
 74
0
 49
-0.05
 74
0
  0
LTYPE
  5
1F8
100
AcDbSymbolTableRecord
100
AcDbLinetypeTableRecord
  2
DOT
 70
64
  3
. . . . . . . . . . . . . . . . . . . .
 72
65
 73
2
 40
0.2
 49
0.1
 74
0
 49
-0.1
 74
0
  0
LTYPE
  5
1F9
100
AcDbSymbolTableRecord
100
AcDbLinetypeTableRecord
  2
DASHED
 70
64
  3
- - - - - - - - - - - - - - - - - - - -
 72
65
 73
2
 40
0.2
 49
0.1
 74
0
 49
-0.1
 74
0
  0
ENDTAB
  0
TABLE
  2
LAYER
  5
2
100
AcDbSymbolTable
 70
36
  0
LAYER
  5
10
100
AcDbSymbolTableRecord
100
AcDbLayerTableRecord
  2
0
 70
0
 62
7
  6
CONTINUOUS
370
-3
390
F
  0
LAYER
  5
1FA
100
AcDbSymbolTableRecord
100
AcDbLayerTableRecord
  2
DEFAULT_1
 70
0
 62
7
  6
CENTER
370
-3
390
F
  0
LAYER
  5
1FB
100
AcDbSymbolTableRecord
100
AcDbLayerTableRecord
  2
DEFAULT_2
 70
0
 62
8
  6
HIDDEN
370
-3
390
F
  0
LAYER
  5
1FC
100
AcDbSymbolTableRecord
100
AcDbLayerTableRecord
  2
DEFAULT_3
 70
0
 62
7
  6
PHANTOM
370
-3
390
F
  0
LAYER
  5
1FD
100
AcDbSymbolTableRecord
100
AcDbLayerTableRecord
  2
01_ALL_DTM_PLN
 70
0
 62
7
  6
CONTINUOUS
370
-3
390
F
  0
LAYER
  5
1FE
100
AcDbSymbolTableRecord
100
AcDbLayerTableRecord
  2
01__ASM_ALL_DTM_PLN
 70
0
 62
7
  6
CONTINUOUS
370
-3
390
F
  0
LAYER
  5
1FF
100
AcDbSymbolTableRecord
100
AcDbLayerTableRecord
  2
01__ASM_DEF_DTM_PLN
 70
0
 62
7
  6
CONTINUOUS
370
-3
390
F
  0
LAYER
  5
200
100
AcDbSymbolTableRecord
100
AcDbLayerTableRecord
  2
01___PRT_ALL_DTM_PLN
 70
0
 62
7
  6
CONTINUOUS
370
-3
390
F
  0
LAYER
  5
201
100
AcDbSymbolTableRecord
100
AcDbLayerTableRecord
  2
01___PRT_DEF_DTM_PLN
 70
0
 62
7
  6
CONTINUOUS
370
-3
390
F
  0
LAYER
  5
202
100
AcDbSymbolTableRecord
100
AcDbLayerTableRecord
  2
02_ALL_AXES
 70
0
 62
7
  6
CONTINUOUS
370
-3
390
F
  0
LAYER
  5
203
100
AcDbSymbolTableRecord
100
AcDbLayerTableRecord
  2
02__ASM_ALL_AXES
 70
0
 62
7
  6
CONTINUOUS
370
-3
390
F
  0
LAYER
  5
204
100
AcDbSymbolTableRecord
100
AcDbLayerTableRecord
  2
02___PRT_ALL_AXES
 70
0
 62
7
  6
CONTINUOUS
370
-3
390
F
  0
LAYER
  5
205
100
AcDbSymbolTableRecord
100
AcDbLayerTableRecord
  2
03_ALL_CURVES
 70
0
 62
7
  6
CONTINUOUS
370
-3
390
F
  0
LAYER
  5
206
100
AcDbSymbolTableRecord
100
AcDbLayerTableRecord
  2
03__ASM_ALL_CURVES
 70
0
 62
7
  6
CONTINUOUS
370
-3
390
F
  0
LAYER
  5
207
100
AcDbSymbolTableRecord
100
AcDbLayerTableRecord
  2
03___PRT_ALL_CURVES
 70
0
 62
7
  6
CONTINUOUS
370
-3
390
F
  0
LAYER
  5
208
100
AcDbSymbolTableRecord
100
AcDbLayerTableRecord
  2
04_ALL_DTM_PNT
 70
0
 62
7
  6
CONTINUOUS
370
-3
390
F
  0
LAYER
  5
209
100
AcDbSymbolTableRecord
100
AcDbLayerTableRecord
  2
04__ASM_ALL_DTM_PNT
 70
0
 62
7
  6
CONTINUOUS
370
-3
390
F
  0
LAYER
  5
20A
100
AcDbSymbolTableRecord
100
AcDbLayerTableRecord
  2
04___PRT_ALL_DTM_PNT
 70
0
 62
7
  6
CONTINUOUS
370
-3
390
F
  0
LAYER
  5
20B
100
AcDbSymbolTableRecord
100
AcDbLayerTableRecord
  2
05_ALL_DTM_CSYS
 70
0
 62
7
  6
CONTINUOUS
370
-3
390
F
  0
LAYER
  5
20C
100
AcDbSymbolTableRecord
100
AcDbLayerTableRecord
  2
05__ASM_ALL_DTM_CSYS
 70
0
 62
7
  6
CONTINUOUS
370
-3
390
F
  0
LAYER
  5
20D
100
AcDbSymbolTableRecord
100
AcDbLayerTableRecord
  2
05__ASM_DEF_DTM_CSYS
 70
0
 62
7
  6
CONTINUOUS
370
-3
390
F
  0
LAYER
  5
20E
100
AcDbSymbolTableRecord
100
AcDbLayerTableRecord
  2
05___PRT_ALL_DTM_CSYS
 70
0
 62
7
  6
CONTINUOUS
370
-3
390
F
  0
LAYER
  5
20F
100
AcDbSymbolTableRecord
100
AcDbLayerTableRecord
  2
05___PRT_DEF_DTM_CSYS
 70
0
 62
7
  6
CONTINUOUS
370
-3
390
F
  0
LAYER
  5
210
100
AcDbSymbolTableRecord
100
AcDbLayerTableRecord
  2
06_ALL_SURFS
 70
0
 62
7
  6
CONTINUOUS
370
-3
390
F
  0
LAYER
  5
211
100
AcDbSymbolTableRecord
100
AcDbLayerTableRecord
  2
06__ASM_ALL_SURFS
 70
0
 62
7
  6
CONTINUOUS
370
-3
390
F
  0
LAYER
  5
212
100
AcDbSymbolTableRecord
100
AcDbLayerTableRecord
  2
06___PRT_ALL_SURFS
 70
0
 62
7
  6
CONTINUOUS
370
-3
390
F
  0
LAYER
  5
213
100
AcDbSymbolTableRecord
100
AcDbLayerTableRecord
  2
07__ASM_ALL_SKELETONS
 70
0
 62
7
  6
CONTINUOUS
370
-3
390
F
  0
ENDTAB
  0
TABLE
  2
STYLE
  5
3
100
AcDbSymbolTable
 70
1
  0
STYLE
  5
11
100
AcDbSymbolTableRecord
100
AcDbTextStyleTableRecord
  2
STANDARD
 70
0
 40
0.0
 41
0.8
 50
0.0
 71
0
 42
0.2
  3
txt
  4

  0
STYLE
  5
214
100
AcDbSymbolTableRecord
100
AcDbTextStyleTableRecord
  2
TEXTSTYLE_1
 70
0
 40
0.0
 41
0.8
 50
0.0
 71
0
 42
0.2
  3
gdt
  4

  0
ENDTAB
  0
TABLE
  2
VIEW
  5
6
100
AcDbSymbolTable
 70
0
  0
ENDTAB
  0
TABLE
  2
UCS
  5
7
100
AcDbSymbolTable
 70
0
  0
ENDTAB
  0
TABLE
  2
APPID
  5
9
100
AcDbSymbolTable
 70
1
  0
APPID
  5
215
100
AcDbSymbolTableRecord
100
AcDbRegAppTableRecord
  2
ACAD
 70
0
  0
ENDTAB
  0
TABLE
  2
BLOCK_RECORD
  5
1
100
AcDbSymbolTable
 70
0
  0
BLOCK_RECORD
  5
216
100
AcDbSymbolTableRecord
100
AcDbBlockTableRecord
  2
*Model_Space
  0
BLOCK_RECORD
  5
217
100
AcDbSymbolTableRecord
100
AcDbBlockTableRecord
  2
*Paper_Space
  0
ENDTAB
  0
TABLE
  2
DIMSTYLE
  5
A
100
AcDbSymbolTable
 70
1
100
AcDbDimStyleTable
 71
0
  0
DIMSTYLE
105
218
100
AcDbSymbolTableRecord
100
AcDbDimStyleTableRecord
  2
STANDARD
 70
0
  3

  4

 40
1.0
 41
0.1875
 42
0.0625
 43
0.38
 44
0.125
 45
0.0
 46
0.0
 47
0.0001
 48
0.0001
140
0.15625
141
0.09
142
0.0
143
25.4
144
1.0
145
0.0
146
1.0
147
0.09
 71
0.0
 72
0.0
 73
1
 74
1
 75
0
 76
0
 77
0
 78
4
 79
1
170
0
171
3
172
0
173
0
174
0
175
0
176
0
177
0
178
0
270
2
179
4
271
4
272
4
273
2
274
2
275
0
280
0
281
0
282
0
283
1
284
4
285
0
286
0
287
3
288
0
340
11
278
46
  0
ENDTAB
  0
ENDSEC
  0
SECTION
  2
BLOCKS
  0
BLOCK
  5
20
100
AcDbEntity
  8
0
100
AcDbBlockBegin
  2
*Model_Space
 70
0
 10
0.0
 20
0.0
 30
0.0
  3
*Model_Space
  1

  0
ENDBLK
  5
21
100
AcDbEntity
  8
0
100
AcDbBlockEnd
  0
BLOCK
  5
1C
100
AcDbEntity
  8
0
100
AcDbBlockBegin
  2
*Paper_Space
 70
0
 10
0.0
 20
0.0
 30
0.0
  3
*Paper_Space
  1

  0
ENDBLK
  5
1D
100
AcDbEntity
  8
0
100
AcDbBlockEnd
  0
ENDSEC
  0
SECTION
  2
ENTITIES
  0
MTEXT
  5
219
100
AcDbEntity
  8
0
100
AcDbMText
 62
7
  6
CONTINUOUS
  7
STANDARD
 71
1
 72
1
 10
15.9560215477
 20
0.9479130325
 30
0.0
 11
1.0
 21
0.0
 31
0.0
 44
0.9
  1
SCALE: 1:3.000
 40
0.3
 41
3.36
  0
LINE
  5
21A
100
AcDbEntity
  8
0
100
AcDbLine
 62
7
  6
CONTINUOUS
 10
0.0
 20
0.0
 11
0.0
 21
17.0
  0
LINE
  5
21B
100
AcDbEntity
  8
0
100
AcDbLine
 62
7
  6
CONTINUOUS
 10
0.0
 20
0.0
 11
22.0
 21
0.0
  0
LINE
  5
21C
100
AcDbEntity
  8
0
100
AcDbLine
 62
7
  6
CONTINUOUS
 10
0.0
 20
17.0
 11
22.0
 21
17.0
  0
LINE
  5
21D
100
AcDbEntity
  8
0
100
AcDbLine
 62
7
  6
CONTINUOUS
 10
22.0
 20
0.0
 11
22.0
 21
17.0
  0
LINE
  5
21E
100
AcDbEntity
  8
0
100
AcDbLine
 62
7
  6
CONTINUOUS
 10
4.3587137329
 20
5.6500411566
 11
4.3587137329
 21
5.5555529676
  0
LINE
  5
21F
100
AcDbEntity
  8
0
100
AcDbLine
 62
7
  6
CONTINUOUS
 10
4.5016119144
 20
5.5125023813
 11
4.539055427
 21
5.409627176
  0
LINE
  5
220
100
AcDbEntity
  8
0
100
AcDbLine
 62
7
  6
CONTINUOUS
 10
4.7689232198
 20
5.409627176
 11
4.8063667324
 21
5.5125023813
  0
LINE
  5
221
100
AcDbEntity
  8
0
100
AcDbLine
 62
7
  6
CONTINUOUS
 10
4.3587137329
 20
5.5555529676
 11
4.3823357801
 21
5.5319309204
  0
LINE
  5
222
100
AcDbEntity
  8
0
100
AcDbLine
 62
7
  6
CONTINUOUS
 10
5.0921630955
 20
5.5125023813
 11
5.1296066081
 21
5.409627176
  0
LINE
  5
223
100
AcDbEntity
  8
0
100
AcDbLine
 62
7
  6
CONTINUOUS
 10
4.9256428667
 20
5.5319309204
 11
4.949264914
 21
5.5555529676
  0
LINE
  5
224
100
AcDbEntity
  8
0
100
AcDbLine
 62
7
  6
CONTINUOUS
 10
4.949264914
 20
5.5555529676
 11
4.9728869612
 21
5.5319309204
  0
LINE
  5
225
100
AcDbEntity
  8
0
100
AcDbLine
 62
7
  6
CONTINUOUS
 10
5.3594744009
 20
5.409627176
 11
5.3969179135
 21
5.5125023813
  0
LINE
  5
226
100
AcDbEntity
  8
0
100
AcDbLine
 62
7
  6
CONTINUOUS
 10
5.5161940478
 20
5.5319309204
 11
5.5398160951
 21
5.5555529676
  0
LINE
  5
227
100
AcDbEntity
  8
0
100
AcDbLine
 62
7
  6
CONTINUOUS
 10
5.5398160951
 20
5.5555529676
 11
5.5634381423
 21
5.5319309204
  0
LINE
  5
228
100
AcDbEntity
  8
0
100
AcDbLine
 62
7
  6
CONTINUOUS
 10
5.6827142766
 20
5.5125023813
 11
5.7201577892
 21
5.409627176
  0
LINE
  5
229
100
AcDbEntity
  8
0
100
AcDbLine
 62
7
  6
CONTINUOUS
 10
5.950025582
 20
5.409627176
 11
5.9874690946
 21
5.5125023813
  0
LINE
  5
22A
100
AcDbEntity
  8
0
100
AcDbLine
 62
7
  6
CONTINUOUS
 10
4.5668022564
 20
5.3901986369
 11
4.7411763905
 21
5.3901986369
  0
LINE
  5
22B
100
AcDbEntity
  8
0
100
AcDbLine
 62
7
  6
CONTINUOUS
 10
5.1573534375
 20
5.3901986369
 11
5.3317275716
 21
5.3901986369
  0
LINE
  5
22C
100
AcDbEntity
  8
0
100
AcDbLine
 62
7
  6
CONTINUOUS
 10
5.7479046186
 20
5.3901986369
 11
5.9222787527
 21
5.3901986369
  0
LINE
  5
22D
100
AcDbEntity
  8
0
100
AcDbLine
 62
7
  6
CONTINUOUS
 10
6.3384557997
 20
5.3901986369
 11
6.5128299338
 21
5.3901986369
  0
LINE
  5
22E
100
AcDbEntity
  8
0
100
AcDbLine
 62
7
  6
CONTINUOUS
 10
6.9290069808
 20
5.3901986369
 11
7.1033811149
 21
5.3901986369
  0
LINE
  5
22F
100
AcDbEntity
  8
0
100
AcDbLine
 62
7
  6
CONTINUOUS
 10
7.5195581619
 20
5.3901986369
 11
7.693932296
 21
5.3901986369
  0
LINE
  5
230
100
AcDbEntity
  8
0
100
AcDbLine
 62
7
  6
CONTINUOUS
 10
6.1067452289
 20
5.5319309204
 11
6.1303672762
 21
5.5555529676
  0
LINE
  5
231
100
AcDbEntity
  8
0
100
AcDbLine
 62
7
  6
CONTINUOUS
 10
4.3823357801
 20
5.5319309204
 11
4.4738650851
 21
5.5319309204
  0
LINE
  5
232
100
AcDbEntity
  8
0
100
AcDbLine
 62
7
  6
CONTINUOUS
 10
4.8341135617
 20
5.5319309204
 11
4.9256428667
 21
5.5319309204
  0
LINE
  5
233
100
AcDbEntity
  8
0
100
AcDbLine
 62
7
  6
CONTINUOUS
 10
4.9728869612
 20
5.5319309204
 11
5.0644162662
 21
5.5319309204
  0
LINE
  5
234
100
AcDbEntity
  8
0
100
AcDbLine
 62
7
  6
CONTINUOUS
 10
5.4246647428
 20
5.5319309204
 11
5.5161940478
 21
5.5319309204
  0
LINE
  5
235
100
AcDbEntity
  8
0
100
AcDbLine
 62
7
  6
CONTINUOUS
 10
5.5634381423
 20
5.5319309204
 11
5.6549674473
 21
5.5319309204
  0
LINE
  5
236
100
AcDbEntity
  8
0
100
AcDbLine
 62
7
  6
CONTINUOUS
 10
6.0152159239
 20
5.5319309204
 11
6.1067452289
 21
5.5319309204
  0
LINE
  5
237
100
AcDbEntity
  8
0
100
AcDbLine
 62
7
  6
CONTINUOUS
 10
6.1539893234
 20
5.5319309204
 11
6.2455186284
 21
5.5319309204
  0
LINE
  5
238
100
AcDbEntity
  8
0
100
AcDbLine
 62
7
  6
CONTINUOUS
 10
6.6057671051
 20
5.5319309204
 11
6.69729641
 21
5.5319309204
  0
LINE
  5
239
100
AcDbEntity
  8
0
100
AcDbLine
 62
7
  6
CONTINUOUS
 10
6.7445405045
 20
5.5319309204
 11
6.8360698095
 21
5.5319309204
  0
LINE
  5
23A
100
AcDbEntity
  8
0
100
AcDbLine
 62
7
  6
CONTINUOUS
 10
7.1963182862
 20
5.5319309204
 11
7.2878475911
 21
5.5319309204
  0
LINE
  5
23B
100
AcDbEntity
  8
0
100
AcDbLine
 62
7
  6
CONTINUOUS
 10
7.3350916856
 20
5.5319309204
 11
7.4266209906
 21
5.5319309204
  0
LINE
  5
23C
100
AcDbEntity
  8
0
100
AcDbLine
 62
7
  6
CONTINUOUS
 10
7.7868694673
 20
5.5319309204
 11
7.8783987722
 21
5.5319309204
  0
LINE
  5
23D
100
AcDbEntity
  8
0
100
AcDbLine
 62
7
  6
CONTINUOUS
 10
7.9020208195
 20
5.6500411566
 11
4.3587137329
 21
5.6500411566
  0
LINE
  5
23E
100
AcDbEntity
  8
0
100
AcDbLine
 62
7
  6
CONTINUOUS
 10
6.1303672762
 20
5.5555529676
 11
6.1539893234
 21
5.5319309204
  0
LINE
  5
23F
100
AcDbEntity
  8
0
100
AcDbLine
 62
7
  6
CONTINUOUS
 10
6.2732654577
 20
5.5125023813
 11
6.3107089703
 21
5.409627176
  0
LINE
  5
240
100
AcDbEntity
  8
0
100
AcDbLine
 62
7
  6
CONTINUOUS
 10
6.5405767631
 20
5.409627176
 11
6.5780202757
 21
5.5125023813
  0
LINE
  5
241
100
AcDbEntity
  8
0
100
AcDbLine
 62
7
  6
CONTINUOUS
 10
6.69729641
 20
5.5319309204
 11
6.7209184573
 21
5.5555529676
  0
LINE
  5
242
100
AcDbEntity
  8
0
100
AcDbLine
 62
7
  6
CONTINUOUS
 10
6.7209184573
 20
5.5555529676
 11
6.7445405045
 21
5.5319309204
  0
LINE
  5
243
100
AcDbEntity
  8
0
100
AcDbLine
 62
7
  6
CONTINUOUS
 10
6.8638166388
 20
5.5125023813
 11
6.9012601514
 21
5.409627176
  0
LINE
  5
244
100
AcDbEntity
  8
0
100
AcDbLine
 62
7
  6
CONTINUOUS
 10
7.2878475911
 20
5.5319309204
 11
7.3114696384
 21
5.5555529676
  0
LINE
  5
245
100
AcDbEntity
  8
0
100
AcDbLine
 62
7
  6
CONTINUOUS
 10
7.3114696384
 20
5.5555529676
 11
7.3350916856
 21
5.5319309204
  0
LINE
  5
246
100
AcDbEntity
  8
0
100
AcDbLine
 62
7
  6
CONTINUOUS
 10
7.1311279442
 20
5.409627176
 11
7.1685714568
 21
5.5125023813
  0
LINE
  5
247
100
AcDbEntity
  8
0
100
AcDbLine
 62
7
  6
CONTINUOUS
 10
7.8783987722
 20
5.5319309204
 11
7.9020208195
 21
5.5555529676
  0
LINE
  5
248
100
AcDbEntity
  8
0
100
AcDbLine
 62
7
  6
CONTINUOUS
 10
7.4543678199
 20
5.5125023813
 11
7.4918113325
 21
5.409627176
  0
LINE
  5
249
100
AcDbEntity
  8
0
100
AcDbLine
 62
7
  6
CONTINUOUS
 10
7.7216791253
 20
5.409627176
 11
7.7591226379
 21
5.5125023813
  0
LINE
  5
24A
100
AcDbEntity
  8
0
100
AcDbLine
 62
7
  6
CONTINUOUS
 10
7.9020208195
 20
5.5555529676
 11
7.9020208195
 21
5.6500411566
  0
LINE
  5
24B
100
AcDbEntity
  8
0
100
AcDbLine
 62
7
  6
CONTINUOUS
 10
4.2992185406
 20
14.0764257341
 11
4.2992185406
 21
11.1236698286
  0
LINE
  5
24C
100
AcDbEntity
  8
0
100
AcDbLine
 62
7
  6
CONTINUOUS
 10
7.8425256272
 20
11.1236698286
 11
4.2992185406
 21
11.1236698286
  0
LINE
  5
24D
100
AcDbEntity
  8
0
100
AcDbLine
 62
7
  6
CONTINUOUS
 10
4.2992185406
 20
14.0764257341
 11
7.8425256272
 21
14.0764257341
  0
LINE
  5
24E
100
AcDbEntity
  8
0
100
AcDbLine
 62
7
  6
CONTINUOUS
 10
7.8425256272
 20
14.0764257341
 11
7.8425256272
 21
11.1236698286
  0
LINE
  5
24F
100
AcDbEntity
  8
0
100
AcDbLine
 62
7
  6
CONTINUOUS
 10
14.0839773042
 20
5.3307034446
 11
14.0839773042
 21
5.5905459643
  0
LINE
  5
250
100
AcDbEntity
  8
0
100
AcDbLine
 62
7
  6
CONTINUOUS
 10
14.0839773042
 20
5.3307034446
 11
17.0367332097
 21
5.3307034446
  0
LINE
  5
251
100
AcDbEntity
  8
0
100
AcDbLine
 62
7
  6
CONTINUOUS
 10
17.0367332097
 20
5.4724357281
 11
14.0839773042
 21
5.4724357281
  0
LINE
  5
252
100
AcDbEntity
  8
0
100
AcDbLine
 62
7
  6
CONTINUOUS
 10
17.0367332097
 20
5.4960577753
 11
14.0839773042
 21
5.4960577753
  0
LINE
  5
253
100
AcDbEntity
  8
0
100
AcDbLine
 62
7
  6
CONTINUOUS
 10
17.0367332097
 20
5.5905459643
 11
14.0839773042
 21
5.5905459643
  0
LINE
  5
254
100
AcDbEntity
  8
0
100
AcDbLine
 62
7
  6
CONTINUOUS
 10
17.0367332097
 20
5.3307034446
 11
17.0367332097
 21
5.5905459643
  0
LINE
  5
255
100
AcDbEntity
  8
0
100
AcDbLine
 62
7
  6
CONTINUOUS
 10
13.4675186851
 20
11.4350787639
 11
13.4963415386
 21
11.3763439638
  0
LINE
  5
256
100
AcDbEntity
  8
0
100
AcDbLine
 62
7
  6
CONTINUOUS
 10
13.641091711
 20
11.3495832902
 11
13.7069607146
 21
11.2856350371
  0
LINE
  5
257
100
AcDbEntity
  8
0
100
AcDbLine
 62
7
  6
CONTINUOUS
 10
13.4963415386
 20
11.3763439638
 11
13.5253045983
 21
11.3616602638
  0
LINE
  5
258
100
AcDbEntity
  8
0
100
AcDbLine
 62
7
  6
CONTINUOUS
 10
14.1850253689
 20
11.3495832902
 11
14.2508943725
 21
11.2856350371
  0
LINE
  5
259
100
AcDbEntity
  8
0
100
AcDbLine
 62
7
  6
CONTINUOUS
 10
14.1822814511
 20
13.7480519223
 11
13.4675186851
 21
11.4350787639
  0
LINE
  5
25A
100
AcDbEntity
  8
0
100
AcDbLine
 62
7
  6
CONTINUOUS
 10
14.0402751965
 20
11.3763439638
 11
14.0692382562
 21
11.3616602638
  0
LINE
  5
25B
100
AcDbEntity
  8
0
100
AcDbLine
 62
7
  6
CONTINUOUS
 10
13.9186829723
 20
11.2856350371
 11
13.9217894866
 21
11.3495832902
  0
LINE
  5
25C
100
AcDbEntity
  8
0
100
AcDbLine
 62
7
  6
CONTINUOUS
 10
14.5842088544
 20
11.3763439638
 11
14.6131719141
 21
11.3616602638
  0
LINE
  5
25D
100
AcDbEntity
  8
0
100
AcDbLine
 62
7
  6
CONTINUOUS
 10
13.9217894866
 20
11.3495832902
 11
13.9222178629
 21
11.3520228102
  0
LINE
  5
25E
100
AcDbEntity
  8
0
100
AcDbLine
 62
7
  6
CONTINUOUS
 10
13.9182536407
 20
11.2831958113
 11
13.9186829723
 21
11.2856350371
  0
LINE
  5
25F
100
AcDbEntity
  8
0
100
AcDbLine
 62
7
  6
CONTINUOUS
 10
13.7384437546
 20
11.2735580635
 11
13.8990529679
 21
11.2735580635
  0
LINE
  5
260
100
AcDbEntity
  8
0
100
AcDbLine
 62
7
  6
CONTINUOUS
 10
14.2823774125
 20
11.2735580635
 11
14.4429866258
 21
11.2735580635
  0
LINE
  5
261
100
AcDbEntity
  8
0
100
AcDbLine
 62
7
  6
CONTINUOUS
 10
14.8263110704
 20
11.2735580635
 11
14.9869202837
 21
11.2735580635
  0
LINE
  5
262
100
AcDbEntity
  8
0
100
AcDbLine
 62
7
  6
CONTINUOUS
 10
15.3702447283
 20
11.2735580635
 11
15.5308539415
 21
11.2735580635
  0
LINE
  5
263
100
AcDbEntity
  8
0
100
AcDbLine
 62
7
  6
CONTINUOUS
 10
15.9141783861
 20
11.2735580635
 11
16.0747875994
 21
11.2735580635
  0
LINE
  5
264
100
AcDbEntity
  8
0
100
AcDbLine
 62
7
  6
CONTINUOUS
 10
16.458112044
 20
11.2735580635
 11
16.6187212573
 21
11.2735580635
  0
LINE
  5
265
100
AcDbEntity
  8
0
100
AcDbLine
 62
7
  6
CONTINUOUS
 10
14.7289590268
 20
11.3495832902
 11
14.7948280303
 21
11.2856350371
  0
LINE
  5
266
100
AcDbEntity
  8
0
100
AcDbLine
 62
7
  6
CONTINUOUS
 10
13.9189825661
 20
11.2855424556
 11
13.942410145
 21
11.3613541285
  0
LINE
  5
267
100
AcDbEntity
  8
0
100
AcDbLine
 62
7
  6
CONTINUOUS
 10
13.5253045983
 20
11.3616602638
 11
13.609608671
 21
11.3616602638
  0
LINE
  5
268
100
AcDbEntity
  8
0
100
AcDbLine
 62
7
  6
CONTINUOUS
 10
13.941419491
 20
11.3616602638
 11
14.0257235636
 21
11.3616602638
  0
LINE
  5
269
100
AcDbEntity
  8
0
100
AcDbLine
 62
7
  6
CONTINUOUS
 10
14.0692382562
 20
11.3616602638
 11
14.1535423288
 21
11.3616602638
  0
LINE
  5
26A
100
AcDbEntity
  8
0
100
AcDbLine
 62
7
  6
CONTINUOUS
 10
14.4853531488
 20
11.3616602638
 11
14.5696572215
 21
11.3616602638
  0
LINE
  5
26B
100
AcDbEntity
  8
0
100
AcDbLine
 62
7
  6
CONTINUOUS
 10
14.6131719141
 20
11.3616602638
 11
14.6974759867
 21
11.3616602638
  0
LINE
  5
26C
100
AcDbEntity
  8
0
100
AcDbLine
 62
7
  6
CONTINUOUS
 10
15.0292868067
 20
11.3616602638
 11
15.1135908793
 21
11.3616602638
  0
LINE
  5
26D
100
AcDbEntity
  8
0
100
AcDbLine
 62
7
  6
CONTINUOUS
 10
15.157105572
 20
11.3616602638
 11
15.2414096446
 21
11.3616602638
  0
LINE
  5
26E
100
AcDbEntity
  8
0
100
AcDbLine
 62
7
  6
CONTINUOUS
 10
15.5732204646
 20
11.3616602638
 11
15.6575245372
 21
11.3616602638
  0
LINE
  5
26F
100
AcDbEntity
  8
0
100
AcDbLine
 62
7
  6
CONTINUOUS
 10
15.7010392298
 20
11.3616602638
 11
15.7853433025
 21
11.3616602638
  0
LINE
  5
270
100
AcDbEntity
  8
0
100
AcDbLine
 62
7
  6
CONTINUOUS
 10
16.1171541225
 20
11.3616602638
 11
16.2014581951
 21
11.3616602638
  0
LINE
  5
271
100
AcDbEntity
  8
0
100
AcDbLine
 62
7
  6
CONTINUOUS
 10
16.2449728877
 20
11.3616602638
 11
16.3292769603
 21
11.3616602638
  0
LINE
  5
272
100
AcDbEntity
  8
0
100
AcDbLine
 62
7
  6
CONTINUOUS
 10
16.6610877803
 20
11.3616602638
 11
16.745391853
 21
11.3616602638
  0
LINE
  5
273
100
AcDbEntity
  8
0
100
AcDbLine
 62
7
  6
CONTINUOUS
 10
15.1281425123
 20
11.3763439638
 11
15.157105572
 21
11.3616602638
  0
LINE
  5
274
100
AcDbEntity
  8
0
100
AcDbLine
 62
7
  6
CONTINUOUS
 10
14.4626166302
 20
11.2856350371
 11
14.4657231444
 21
11.3495832902
  0
LINE
  5
275
100
AcDbEntity
  8
0
100
AcDbLine
 62
7
  6
CONTINUOUS
 10
16.7311206323
 20
11.4350787639
 11
13.4675186851
 21
11.4350787639
  0
LINE
  5
276
100
AcDbEntity
  8
0
100
AcDbLine
 62
7
  6
CONTINUOUS
 10
15.6720761701
 20
11.3763439638
 11
15.7010392298
 21
11.3616602638
  0
LINE
  5
277
100
AcDbEntity
  8
0
100
AcDbLine
 62
7
  6
CONTINUOUS
 10
15.2728926846
 20
11.3495832902
 11
15.3387616882
 21
11.2856350371
  0
LINE
  5
278
100
AcDbEntity
  8
0
100
AcDbLine
 62
7
  6
CONTINUOUS
 10
14.4657231444
 20
11.3495832902
 11
14.466153611
 21
11.3520221665
  0
LINE
  5
279
100
AcDbEntity
  8
0
100
AcDbLine
 62
7
  6
CONTINUOUS
 10
14.4621845925
 20
11.2831966445
 11
14.4626166302
 21
11.2856350371
  0
LINE
  5
27A
100
AcDbEntity
  8
0
100
AcDbLine
 62
7
  6
CONTINUOUS
 10
16.216009828
 20
11.3763439638
 11
16.2449728877
 21
11.3616602638
  0
LINE
  5
27B
100
AcDbEntity
  8
0
100
AcDbLine
 62
7
  6
CONTINUOUS
 10
14.462916224
 20
11.2855424556
 11
14.4863438028
 21
11.3613541285
  0
LINE
  5
27C
100
AcDbEntity
  8
0
100
AcDbLine
 62
7
  6
CONTINUOUS
 10
15.8168263425
 20
11.3495832902
 11
15.8826953461
 21
11.2856350371
  0
LINE
  5
27D
100
AcDbEntity
  8
0
100
AcDbLine
 62
7
  6
CONTINUOUS
 10
15.0065502881
 20
11.2856350371
 11
15.0096568023
 21
11.3495832902
  0
LINE
  5
27E
100
AcDbEntity
  8
0
100
AcDbLine
 62
7
  6
CONTINUOUS
 10
15.0096568023
 20
11.3495832902
 11
15.0100872689
 21
11.3520221665
  0
LINE
  5
27F
100
AcDbEntity
  8
0
100
AcDbLine
 62
7
  6
CONTINUOUS
 10
15.0061182503
 20
11.2831966445
 11
15.0065502881
 21
11.2856350371
  0
LINE
  5
280
100
AcDbEntity
  8
0
100
AcDbLine
 62
7
  6
CONTINUOUS
 10
14.0257235636
 20
11.3616602638
 11
14.0402751965
 21
11.3763439638
  0
LINE
  5
281
100
AcDbEntity
  8
0
100
AcDbLine
 62
7
  6
CONTINUOUS
 10
16.3607600004
 20
11.3495832902
 11
16.426629004
 21
11.2856350371
  0
LINE
  5
282
100
AcDbEntity
  8
0
100
AcDbLine
 62
7
  6
CONTINUOUS
 10
15.0068498819
 20
11.2855424556
 11
15.0302774607
 21
11.3613541285
  0
LINE
  5
283
100
AcDbEntity
  8
0
100
AcDbLine
 62
7
  6
CONTINUOUS
 10
15.5504839459
 20
11.2856350371
 11
15.5535904602
 21
11.3495832902
  0
LINE
  5
284
100
AcDbEntity
  8
0
100
AcDbLine
 62
7
  6
CONTINUOUS
 10
14.5696572215
 20
11.3616602638
 11
14.5842088544
 21
11.3763439638
  0
LINE
  5
285
100
AcDbEntity
  8
0
100
AcDbLine
 62
7
  6
CONTINUOUS
 10
15.5535904602
 20
11.3495832902
 11
15.5540209267
 21
11.3520221665
  0
LINE
  5
286
100
AcDbEntity
  8
0
100
AcDbLine
 62
7
  6
CONTINUOUS
 10
15.5500519082
 20
11.2831966445
 11
15.5504839459
 21
11.2856350371
  0
LINE
  5
287
100
AcDbEntity
  8
0
100
AcDbLine
 62
7
  6
CONTINUOUS
 10
15.5507835398
 20
11.2855424556
 11
15.5742111186
 21
11.3613541285
  0
LINE
  5
288
100
AcDbEntity
  8
0
100
AcDbLine
 62
7
  6
CONTINUOUS
 10
15.1135908793
 20
11.3616602638
 11
15.1281425123
 21
11.3763439638
  0
LINE
  5
289
100
AcDbEntity
  8
0
100
AcDbLine
 62
7
  6
CONTINUOUS
 10
16.0944176038
 20
11.2856350371
 11
16.0975241181
 21
11.3495832902
  0
LINE
  5
28A
100
AcDbEntity
  8
0
100
AcDbLine
 62
7
  6
CONTINUOUS
 10
16.7599434859
 20
11.3763439638
 11
16.7311206323
 21
11.4350787639
  0
LINE
  5
28B
100
AcDbEntity
  8
0
100
AcDbLine
 62
7
  6
CONTINUOUS
 10
16.0975241181
 20
11.3495832902
 11
16.0979545846
 21
11.3520221665
  0
LINE
  5
28C
100
AcDbEntity
  8
0
100
AcDbLine
 62
7
  6
CONTINUOUS
 10
16.0939855661
 20
11.2831966445
 11
16.0944176038
 21
11.2856350371
  0
LINE
  5
28D
100
AcDbEntity
  8
0
100
AcDbLine
 62
7
  6
CONTINUOUS
 10
16.0947171976
 20
11.2855424556
 11
16.1181447765
 21
11.3613541285
  0
LINE
  5
28E
100
AcDbEntity
  8
0
100
AcDbLine
 62
7
  6
CONTINUOUS
 10
15.6575245372
 20
11.3616602638
 11
15.6720761701
 21
11.3763439638
  0
LINE
  5
28F
100
AcDbEntity
  8
0
100
AcDbLine
 62
7
  6
CONTINUOUS
 10
16.6383512617
 20
11.2856350371
 11
16.6414577759
 21
11.3495832902
  0
LINE
  5
290
100
AcDbEntity
  8
0
100
AcDbLine
 62
7
  6
CONTINUOUS
 10
14.1822814511
 20
13.7480519223
 11
17.4458833983
 21
13.7480519223
  0
LINE
  5
291
100
AcDbEntity
  8
0
100
AcDbLine
 62
7
  6
CONTINUOUS
 10
16.6414577759
 20
11.3495832902
 11
16.6418882425
 21
11.3520221665
  0
LINE
  5
292
100
AcDbEntity
  8
0
100
AcDbLine
 62
7
  6
CONTINUOUS
 10
16.637919224
 20
11.2831966445
 11
16.6383512617
 21
11.2856350371
  0
LINE
  5
293
100
AcDbEntity
  8
0
100
AcDbLine
 62
7
  6
CONTINUOUS
 10
16.2014581951
 20
11.3616602638
 11
16.216009828
 21
11.3763439638
  0
LINE
  5
294
100
AcDbEntity
  8
0
100
AcDbLine
 62
7
  6
CONTINUOUS
 10
16.6386508555
 20
11.2855424556
 11
16.6620784343
 21
11.3613541285
  0
LINE
  5
295
100
AcDbEntity
  8
0
100
AcDbLine
 62
7
  6
CONTINUOUS
 10
17.4458833983
 20
13.7480519223
 11
16.7311206323
 21
11.4350787639
  0
LINE
  5
296
100
AcDbEntity
  8
0
100
AcDbLine
 62
7
  6
CONTINUOUS
 10
17.4747062519
 20
13.6893171221
 11
16.7599434859
 21
11.3763439638
  0
LINE
  5
297
100
AcDbEntity
  8
0
100
AcDbLine
 62
7
  6
CONTINUOUS
 10
16.745391853
 20
11.3616602638
 11
16.7599434859
 21
11.3763439638
  0
LINE
  5
298
100
AcDbEntity
  8
0
100
AcDbLine
 62
7
  6
CONTINUOUS
 10
17.4747062519
 20
13.6893171221
 11
17.4458833983
 21
13.7480519223
  0
ARC
  5
299
100
AcDbEntity
  8
0
100
AcDbCircle
 62
7
  6
CONTINUOUS
 10
7.7868694673
 20
5.5024033613
 40
0.0295275591
100
AcDbArc
 50
90.0
 51
160.0
  0
ARC
  5
29A
100
AcDbEntity
  8
0
100
AcDbCircle
 62
7
  6
CONTINUOUS
 10
7.4266209906
 20
5.5024033613
 40
0.0295275591
100
AcDbArc
 50
20.0
 51
90.0
  0
ARC
  5
29B
100
AcDbEntity
  8
0
100
AcDbCircle
 62
7
  6
CONTINUOUS
 10
7.1963182862
 20
5.5024033613
 40
0.0295275591
100
AcDbArc
 50
90.0
 51
160.0
  0
ARC
  5
29C
100
AcDbEntity
  8
0
100
AcDbCircle
 62
7
  6
CONTINUOUS
 10
6.8360698095
 20
5.5024033613
 40
0.0295275591
100
AcDbArc
 50
20.0
 51
90.0
  0
ARC
  5
29D
100
AcDbEntity
  8
0
100
AcDbCircle
 62
7
  6
CONTINUOUS
 10
6.6057671051
 20
5.5024033613
 40
0.0295275591
100
AcDbArc
 50
90.0
 51
160.0
  0
ARC
  5
29E
100
AcDbEntity
  8
0
100
AcDbCircle
 62
7
  6
CONTINUOUS
 10
6.2455186284
 20
5.5024033613
 40
0.0295275591
100
AcDbArc
 50
20.0
 51
90.0
  0
ARC
  5
29F
100
AcDbEntity
  8
0
100
AcDbCircle
 62
7
  6
CONTINUOUS
 10
6.0152159239
 20
5.5024033613
 40
0.0295275591
100
AcDbArc
 50
90.0
 51
160.0
  0
ARC
  5
2A0
100
AcDbEntity
  8
0
100
AcDbCircle
 62
7
  6
CONTINUOUS
 10
5.6549674473
 20
5.5024033613
 40
0.0295275591
100
AcDbArc
 50
20.0
 51
90.0
  0
ARC
  5
2A1
100
AcDbEntity
  8
0
100
AcDbCircle
 62
7
  6
CONTINUOUS
 10
5.4246647428
 20
5.5024033613
 40
0.0295275591
100
AcDbArc
 50
90.0
 51
160.0
  0
ARC
  5
2A2
100
AcDbEntity
  8
0
100
AcDbCircle
 62
7
  6
CONTINUOUS
 10
5.0644162662
 20
5.5024033613
 40
0.0295275591
100
AcDbArc
 50
20.0
 51
90.0
  0
ARC
  5
2A3
100
AcDbEntity
  8
0
100
AcDbCircle
 62
7
  6
CONTINUOUS
 10
4.4738650851
 20
5.5024033613
 40
0.0295275591
100
AcDbArc
 50
20.0
 51
90.0
  0
ARC
  5
2A4
100
AcDbEntity
  8
0
100
AcDbCircle
 62
7
  6
CONTINUOUS
 10
4.8341135617
 20
5.5024033613
 40
0.0295275591
100
AcDbArc
 50
90.0
 51
160.0
  0
ARC
  5
2A5
100
AcDbEntity
  8
0
100
AcDbCircle
 62
7
  6
CONTINUOUS
 10
4.5668022564
 20
5.419726196
 40
0.0295275591
100
AcDbArc
 50
200.0
 51
270.0
  0
ARC
  5
2A6
100
AcDbEntity
  8
0
100
AcDbCircle
 62
7
  6
CONTINUOUS
 10
4.7411763905
 20
5.419726196
 40
0.0295275591
100
AcDbArc
 50
270.0
 51
340.0
  0
ARC
  5
2A7
100
AcDbEntity
  8
0
100
AcDbCircle
 62
7
  6
CONTINUOUS
 10
5.1573534375
 20
5.419726196
 40
0.0295275591
100
AcDbArc
 50
200.0
 51
270.0
  0
ARC
  5
2A8
100
AcDbEntity
  8
0
100
AcDbCircle
 62
7
  6
CONTINUOUS
 10
5.3317275716
 20
5.419726196
 40
0.0295275591
100
AcDbArc
 50
270.0
 51
340.0
  0
ARC
  5
2A9
100
AcDbEntity
  8
0
100
AcDbCircle
 62
7
  6
CONTINUOUS
 10
5.7479046186
 20
5.419726196
 40
0.0295275591
100
AcDbArc
 50
200.0
 51
270.0
  0
ARC
  5
2AA
100
AcDbEntity
  8
0
100
AcDbCircle
 62
7
  6
CONTINUOUS
 10
5.9222787527
 20
5.419726196
 40
0.0295275591
100
AcDbArc
 50
270.0
 51
340.0
  0
ARC
  5
2AB
100
AcDbEntity
  8
0
100
AcDbCircle
 62
7
  6
CONTINUOUS
 10
6.3384557997
 20
5.419726196
 40
0.0295275591
100
AcDbArc
 50
200.0
 51
270.0
  0
ARC
  5
2AC
100
AcDbEntity
  8
0
100
AcDbCircle
 62
7
  6
CONTINUOUS
 10
6.5128299338
 20
5.419726196
 40
0.0295275591
100
AcDbArc
 50
270.0
 51
340.0
  0
ARC
  5
2AD
100
AcDbEntity
  8
0
100
AcDbCircle
 62
7
  6
CONTINUOUS
 10
6.9290069808
 20
5.419726196
 40
0.0295275591
100
AcDbArc
 50
200.0
 51
270.0
  0
ARC
  5
2AE
100
AcDbEntity
  8
0
100
AcDbCircle
 62
7
  6
CONTINUOUS
 10
7.693932296
 20
5.419726196
 40
0.0295275591
100
AcDbArc
 50
270.0
 51
340.0
  0
ARC
  5
2AF
100
AcDbEntity
  8
0
100
AcDbCircle
 62
7
  6
CONTINUOUS
 10
7.5195581619
 20
5.419726196
 40
0.0295275591
100
AcDbArc
 50
200.0
 51
270.0
  0
ARC
  5
2B0
100
AcDbEntity
  8
0
100
AcDbCircle
 62
7
  6
CONTINUOUS
 10
7.1033811149
 20
5.419726196
 40
0.0295275591
100
AcDbArc
 50
270.0
 51
340.0
  0
SPLINE
  5
2B1
100
AcDbEntity
  8
0
100
AcDbSpline
 62
7
  6
CONTINUOUS
 70
0
 71
3
 72
9
 73
5
 74
0
 42
0.0000001
 43
0.0000001
 44
0.0000000001
 40
0.0
 40
0.0
 40
0.0
 40
0.0
 40
0.4768465862
 40
1.0
 40
1.0
 40
1.0
 40
1.0
 10
16.6418850332
 20
11.3520231584
 30
0.0
 10
16.6422768373
 20
11.3532901726
 30
0.0
 10
16.643677691
 20
11.3557910365
 30
0.0
 10
16.6458800276
 20
11.357579886
 30
0.0
 10
16.6471193842
 20
11.3583421327
 30
0.0
  0
SPLINE
  5
2B2
100
AcDbEntity
  8
0
100
AcDbSpline
 62
7
  6
CONTINUOUS
 70
0
 71
3
 72
9
 73
5
 74
0
 42
0.0000001
 43
0.0000001
 44
0.0000000001
 40
0.0
 40
0.0
 40
0.0
 40
0.0
 40
0.4611780227
 40
1.0
 40
1.0
 40
1.0
 40
1.0
 10
16.6471193842
 20
11.3583421327
 30
0.0
 10
16.6490164309
 20
11.3595088814
 30
0.0
 10
16.6536391961
 20
11.3612084034
 30
0.0
 10
16.6584856957
 20
11.3616602638
 30
0.0
 10
16.6610877803
 20
11.3616602638
 30
0.0
  0
SPLINE
  5
2B3
100
AcDbEntity
  8
0
100
AcDbSpline
 62
7
  6
CONTINUOUS
 70
0
 71
3
 72
9
 73
5
 74
0
 42
0.0000001
 43
0.0000001
 44
0.0000000001
 40
0.0
 40
0.0
 40
0.0
 40
0.0
 40
0.4768465862
 40
1.0
 40
1.0
 40
1.0
 40
1.0
 10
16.0979513753
 20
11.3520231584
 30
0.0
 10
16.0983431794
 20
11.3532901726
 30
0.0
 10
16.0997440331
 20
11.3557910365
 30
0.0
 10
16.1019463697
 20
11.357579886
 30
0.0
 10
16.1031857263
 20
11.3583421327
 30
0.0
  0
SPLINE
  5
2B4
100
AcDbEntity
  8
0
100
AcDbSpline
 62
7
  6
CONTINUOUS
 70
0
 71
3
 72
9
 73
5
 74
0
 42
0.0000001
 43
0.0000001
 44
0.0000000001
 40
0.0
 40
0.0
 40
0.0
 40
0.0
 40
0.4611780227
 40
1.0
 40
1.0
 40
1.0
 40
1.0
 10
16.1031857263
 20
11.3583421327
 30
0.0
 10
16.105082773
 20
11.3595088814
 30
0.0
 10
16.1097055383
 20
11.3612084034
 30
0.0
 10
16.1145520378
 20
11.3616602638
 30
0.0
 10
16.1171541225
 20
11.3616602638
 30
0.0
  0
SPLINE
  5
2B5
100
AcDbEntity
  8
0
100
AcDbSpline
 62
7
  6
CONTINUOUS
 70
0
 71
3
 72
9
 73
5
 74
0
 42
0.0000001
 43
0.0000001
 44
0.0000000001
 40
0.0
 40
0.0
 40
0.0
 40
0.0
 40
0.4768465862
 40
1.0
 40
1.0
 40
1.0
 40
1.0
 10
15.5540177174
 20
11.3520231584
 30
0.0
 10
15.5544095216
 20
11.3532901726
 30
0.0
 10
15.5558103752
 20
11.3557910365
 30
0.0
 10
15.5580127118
 20
11.357579886
 30
0.0
 10
15.5592520684
 20
11.3583421327
 30
0.0
  0
SPLINE
  5
2B6
100
AcDbEntity
  8
0
100
AcDbSpline
 62
7
  6
CONTINUOUS
 70
0
 71
3
 72
9
 73
5
 74
0
 42
0.0000001
 43
0.0000001
 44
0.0000000001
 40
0.0
 40
0.0
 40
0.0
 40
0.0
 40
0.4611780227
 40
1.0
 40
1.0
 40
1.0
 40
1.0
 10
15.5592520684
 20
11.3583421327
 30
0.0
 10
15.5611491151
 20
11.3595088814
 30
0.0
 10
15.5657718804
 20
11.3612084034
 30
0.0
 10
15.57061838
 20
11.3616602638
 30
0.0
 10
15.5732204646
 20
11.3616602638
 30
0.0
  0
SPLINE
  5
2B7
100
AcDbEntity
  8
0
100
AcDbSpline
 62
7
  6
CONTINUOUS
 70
0
 71
3
 72
9
 73
5
 74
0
 42
0.0000001
 43
0.0000001
 44
0.0000000001
 40
0.0
 40
0.0
 40
0.0
 40
0.0
 40
0.4768465862
 40
1.0
 40
1.0
 40
1.0
 40
1.0
 10
15.0100840596
 20
11.3520231584
 30
0.0
 10
15.0104758637
 20
11.3532901726
 30
0.0
 10
15.0118767173
 20
11.3557910365
 30
0.0
 10
15.014079054
 20
11.357579886
 30
0.0
 10
15.0153184105
 20
11.3583421327
 30
0.0
  0
SPLINE
  5
2B8
100
AcDbEntity
  8
0
100
AcDbSpline
 62
7
  6
CONTINUOUS
 70
0
 71
3
 72
9
 73
5
 74
0
 42
0.0000001
 43
0.0000001
 44
0.0000000001
 40
0.0
 40
0.0
 40
0.0
 40
0.0
 40
0.4611780227
 40
1.0
 40
1.0
 40
1.0
 40
1.0
 10
15.0153184105
 20
11.3583421327
 30
0.0
 10
15.0172154573
 20
11.3595088814
 30
0.0
 10
15.0218382225
 20
11.3612084034
 30
0.0
 10
15.0266847221
 20
11.3616602638
 30
0.0
 10
15.0292868067
 20
11.3616602638
 30
0.0
  0
SPLINE
  5
2B9
100
AcDbEntity
  8
0
100
AcDbSpline
 62
7
  6
CONTINUOUS
 70
0
 71
3
 72
9
 73
5
 74
0
 42
0.0000001
 43
0.0000001
 44
0.0000000001
 40
0.0
 40
0.0
 40
0.0
 40
0.0
 40
0.4768465862
 40
1.0
 40
1.0
 40
1.0
 40
1.0
 10
14.4661504017
 20
11.3520231584
 30
0.0
 10
14.4665422058
 20
11.3532901726
 30
0.0
 10
14.4679430594
 20
11.3557910365
 30
0.0
 10
14.4701453961
 20
11.357579886
 30
0.0
 10
14.4713847527
 20
11.3583421327
 30
0.0
  0
SPLINE
  5
2BA
100
AcDbEntity
  8
0
100
AcDbSpline
 62
7
  6
CONTINUOUS
 70
0
 71
3
 72
9
 73
5
 74
0
 42
0.0000001
 43
0.0000001
 44
0.0000000001
 40
0.0
 40
0.0
 40
0.0
 40
0.0
 40
0.4611780227
 40
1.0
 40
1.0
 40
1.0
 40
1.0
 10
14.4713847527
 20
11.3583421327
 30
0.0
 10
14.4732817994
 20
11.3595088814
 30
0.0
 10
14.4779045646
 20
11.3612084034
 30
0.0
 10
14.4827510642
 20
11.3616602638
 30
0.0
 10
14.4853531488
 20
11.3616602638
 30
0.0
  0
SPLINE
  5
2BB
100
AcDbEntity
  8
0
100
AcDbSpline
 62
7
  6
CONTINUOUS
 70
0
 71
3
 72
9
 73
5
 74
0
 42
0.0000001
 43
0.0000001
 44
0.0000000001
 40
0.0
 40
0.0
 40
0.0
 40
0.0
 40
0.4768369001
 40
1.0
 40
1.0
 40
1.0
 40
1.0
 10
13.922216727
 20
11.3520231613
 30
0.0
 10
13.922608539
 20
11.3532902322
 30
0.0
 10
13.9240095601
 20
11.355791218
 30
0.0
 10
13.9262120627
 20
11.357580145
 30
0.0
 10
13.9274515468
 20
11.3583424107
 30
0.0
  0
SPLINE
  5
2BC
100
AcDbEntity
  8
0
100
AcDbSpline
 62
7
  6
CONTINUOUS
 70
0
 71
3
 72
9
 73
5
 74
0
 42
0.0000001
 43
0.0000001
 44
0.0000000001
 40
0.0
 40
0.0
 40
0.0
 40
0.0
 40
0.4611892329
 40
1.0
 40
1.0
 40
1.0
 40
1.0
 10
13.9274515468
 20
11.3583424107
 30
0.0
 10
13.9293486118
 20
11.3595090796
 30
0.0
 10
13.9339712308
 20
11.3612084535
 30
0.0
 10
13.9388175544
 20
11.3616602638
 30
0.0
 10
13.941419491
 20
11.3616602638
 30
0.0
  0
SPLINE
  5
2BD
100
AcDbEntity
  8
0
100
AcDbSpline
 62
7
  6
CONTINUOUS
 70
0
 71
3
 72
11
 73
7
 74
0
 42
0.0000001
 43
0.0000001
 44
0.0000000001
 40
0.0
 40
0.0
 40
0.0
 40
0.0
 40
0.2508608962
 40
0.5116789286
 40
0.7663581683
 40
1.0
 40
1.0
 40
1.0
 40
1.0
 10
16.3292769603
 20
11.3616602638
 30
0.0
 10
16.3321559193
 20
11.3616602638
 30
0.0
 10
16.3380369757
 20
11.3610409714
 30
0.0
 10
16.3465301025
 20
11.3586039583
 30
0.0
 10
16.3543053089
 20
11.3548389136
 30
0.0
 10
16.3588361591
 20
11.3514510319
 30
0.0
 10
16.3607600004
 20
11.3495832902
 30
0.0
  0
SPLINE
  5
2BE
100
AcDbEntity
  8
0
100
AcDbSpline
 62
7
  6
CONTINUOUS
 70
0
 71
3
 72
11
 73
7
 74
0
 42
0.0000001
 43
0.0000001
 44
0.0000000001
 40
0.0
 40
0.0
 40
0.0
 40
0.0
 40
0.2508608962
 40
0.5116789286
 40
0.7663581683
 40
1.0
 40
1.0
 40
1.0
 40
1.0
 10
15.7853433025
 20
11.3616602638
 30
0.0
 10
15.7882222614
 20
11.3616602638
 30
0.0
 10
15.7941033179
 20
11.3610409714
 30
0.0
 10
15.8025964446
 20
11.3586039583
 30
0.0
 10
15.810371651
 20
11.3548389136
 30
0.0
 10
15.8149025012
 20
11.3514510319
 30
0.0
 10
15.8168263425
 20
11.3495832902
 30
0.0
  0
SPLINE
  5
2BF
100
AcDbEntity
  8
0
100
AcDbSpline
 62
7
  6
CONTINUOUS
 70
0
 71
3
 72
11
 73
7
 74
0
 42
0.0000001
 43
0.0000001
 44
0.0000000001
 40
0.0
 40
0.0
 40
0.0
 40
0.0
 40
0.2508608962
 40
0.5116789286
 40
0.7663581683
 40
1.0
 40
1.0
 40
1.0
 40
1.0
 10
15.2414096446
 20
11.3616602638
 30
0.0
 10
15.2442886035
 20
11.3616602638
 30
0.0
 10
15.25016966
 20
11.3610409714
 30
0.0
 10
15.2586627867
 20
11.3586039583
 30
0.0
 10
15.2664379931
 20
11.3548389136
 30
0.0
 10
15.2709688434
 20
11.3514510319
 30
0.0
 10
15.2728926846
 20
11.3495832902
 30
0.0
  0
SPLINE
  5
2C0
100
AcDbEntity
  8
0
100
AcDbSpline
 62
7
  6
CONTINUOUS
 70
0
 71
3
 72
11
 73
7
 74
0
 42
0.0000001
 43
0.0000001
 44
0.0000000001
 40
0.0
 40
0.0
 40
0.0
 40
0.0
 40
0.2508608962
 40
0.5116789286
 40
0.7663581683
 40
1.0
 40
1.0
 40
1.0
 40
1.0
 10
14.6974759867
 20
11.3616602638
 30
0.0
 10
14.7003549456
 20
11.3616602638
 30
0.0
 10
14.7062360021
 20
11.3610409714
 30
0.0
 10
14.7147291288
 20
11.3586039583
 30
0.0
 10
14.7225043352
 20
11.3548389136
 30
0.0
 10
14.7270351855
 20
11.3514510319
 30
0.0
 10
14.7289590268
 20
11.3495832902
 30
0.0
  0
SPLINE
  5
2C1
100
AcDbEntity
  8
0
100
AcDbSpline
 62
7
  6
CONTINUOUS
 70
0
 71
3
 72
11
 73
7
 74
0
 42
0.0000001
 43
0.0000001
 44
0.0000000001
 40
0.0
 40
0.0
 40
0.0
 40
0.0
 40
0.2508608962
 40
0.5116789286
 40
0.7663581683
 40
1.0
 40
1.0
 40
1.0
 40
1.0
 10
14.1535423288
 20
11.3616602638
 30
0.0
 10
14.1564212878
 20
11.3616602638
 30
0.0
 10
14.1623023442
 20
11.3610409714
 30
0.0
 10
14.1707954709
 20
11.3586039583
 30
0.0
 10
14.1785706774
 20
11.3548389136
 30
0.0
 10
14.1831015276
 20
11.3514510319
 30
0.0
 10
14.1850253689
 20
11.3495832902
 30
0.0
  0
SPLINE
  5
2C2
100
AcDbEntity
  8
0
100
AcDbSpline
 62
7
  6
CONTINUOUS
 70
0
 71
3
 72
11
 73
7
 74
0
 42
0.0000001
 43
0.0000001
 44
0.0000000001
 40
0.0
 40
0.0
 40
0.0
 40
0.0
 40
0.3037063039
 40
0.5698819552
 40
0.7976275518
 40
1.0
 40
1.0
 40
1.0
 40
1.0
 10
16.6187212573
 20
11.2735580635
 30
0.0
 10
16.6210320307
 20
11.2735580635
 30
0.0
 10
16.6253850511
 20
11.2739247492
 30
0.0
 10
16.6312332039
 20
11.2757630392
 30
0.0
 10
16.6356948163
 20
11.2788153989
 30
0.0
 10
16.637469083
 20
11.2817241373
 30
0.0
 10
16.6379239881
 20
11.283195172
 30
0.0
  0
SPLINE
  5
2C3
100
AcDbEntity
  8
0
100
AcDbSpline
 62
7
  6
CONTINUOUS
 70
0
 71
3
 72
11
 73
7
 74
0
 42
0.0000001
 43
0.0000001
 44
0.0000000001
 40
0.0
 40
0.0
 40
0.0
 40
0.0
 40
0.2336398198
 40
0.4883227863
 40
0.7491370032
 40
1.0
 40
1.0
 40
1.0
 40
1.0
 10
16.426629004
 20
11.2856350371
 30
0.0
 10
16.4285528287
 20
11.2837673114
 30
0.0
 10
16.4330836888
 20
11.2803794115
 30
0.0
 10
16.440858877
 20
11.2766143789
 30
0.0
 10
16.449352024
 20
11.2741773614
 30
0.0
 10
16.455233061
 20
11.2735580635
 30
0.0
 10
16.458112044
 20
11.2735580635
 30
0.0
  0
SPLINE
  5
2C4
100
AcDbEntity
  8
0
100
AcDbSpline
 62
7
  6
CONTINUOUS
 70
0
 71
3
 72
11
 73
7
 74
0
 42
0.0000001
 43
0.0000001
 44
0.0000000001
 40
0.0
 40
0.0
 40
0.0
 40
0.0
 40
0.3037063039
 40
0.5698819552
 40
0.7976275518
 40
1.0
 40
1.0
 40
1.0
 40
1.0
 10
16.0747875994
 20
11.2735580635
 30
0.0
 10
16.0770983728
 20
11.2735580635
 30
0.0
 10
16.0814513933
 20
11.2739247492
 30
0.0
 10
16.0872995461
 20
11.2757630392
 30
0.0
 10
16.0917611584
 20
11.2788153989
 30
0.0
 10
16.0935354251
 20
11.2817241373
 30
0.0
 10
16.0939903302
 20
11.283195172
 30
0.0
  0
SPLINE
  5
2C5
100
AcDbEntity
  8
0
100
AcDbSpline
 62
7
  6
CONTINUOUS
 70
0
 71
3
 72
11
 73
7
 74
0
 42
0.0000001
 43
0.0000001
 44
0.0000000001
 40
0.0
 40
0.0
 40
0.0
 40
0.0
 40
0.2336398198
 40
0.4883227863
 40
0.7491370032
 40
1.0
 40
1.0
 40
1.0
 40
1.0
 10
15.8826953461
 20
11.2856350371
 30
0.0
 10
15.8846191708
 20
11.2837673114
 30
0.0
 10
15.8891500309
 20
11.2803794115
 30
0.0
 10
15.8969252191
 20
11.2766143789
 30
0.0
 10
15.9054183662
 20
11.2741773614
 30
0.0
 10
15.9112994031
 20
11.2735580635
 30
0.0
 10
15.9141783861
 20
11.2735580635
 30
0.0
  0
SPLINE
  5
2C6
100
AcDbEntity
  8
0
100
AcDbSpline
 62
7
  6
CONTINUOUS
 70
0
 71
3
 72
11
 73
7
 74
0
 42
0.0000001
 43
0.0000001
 44
0.0000000001
 40
0.0
 40
0.0
 40
0.0
 40
0.0
 40
0.3037063039
 40
0.5698819552
 40
0.7976275518
 40
1.0
 40
1.0
 40
1.0
 40
1.0
 10
15.5308539415
 20
11.2735580635
 30
0.0
 10
15.5331647149
 20
11.2735580635
 30
0.0
 10
15.5375177354
 20
11.2739247492
 30
0.0
 10
15.5433658882
 20
11.2757630392
 30
0.0
 10
15.5478275005
 20
11.2788153989
 30
0.0
 10
15.5496017672
 20
11.2817241373
 30
0.0
 10
15.5500566723
 20
11.283195172
 30
0.0
  0
SPLINE
  5
2C7
100
AcDbEntity
  8
0
100
AcDbSpline
 62
7
  6
CONTINUOUS
 70
0
 71
3
 72
11
 73
7
 74
0
 42
0.0000001
 43
0.0000001
 44
0.0000000001
 40
0.0
 40
0.0
 40
0.0
 40
0.0
 40
0.2336398198
 40
0.4883227863
 40
0.7491370032
 40
1.0
 40
1.0
 40
1.0
 40
1.0
 10
15.3387616882
 20
11.2856350371
 30
0.0
 10
15.3406855129
 20
11.2837673114
 30
0.0
 10
15.3452163731
 20
11.2803794115
 30
0.0
 10
15.3529915612
 20
11.2766143789
 30
0.0
 10
15.3614847083
 20
11.2741773614
 30
0.0
 10
15.3673657452
 20
11.2735580635
 30
0.0
 10
15.3702447283
 20
11.2735580635
 30
0.0
  0
SPLINE
  5
2C8
100
AcDbEntity
  8
0
100
AcDbSpline
 62
7
  6
CONTINUOUS
 70
0
 71
3
 72
11
 73
7
 74
0
 42
0.0000001
 43
0.0000001
 44
0.0000000001
 40
0.0
 40
0.0
 40
0.0
 40
0.0
 40
0.3037063039
 40
0.5698819552
 40
0.7976275518
 40
1.0
 40
1.0
 40
1.0
 40
1.0
 10
14.9869202837
 20
11.2735580635
 30
0.0
 10
14.9892310571
 20
11.2735580635
 30
0.0
 10
14.9935840775
 20
11.2739247492
 30
0.0
 10
14.9994322303
 20
11.2757630392
 30
0.0
 10
15.0038938427
 20
11.2788153989
 30
0.0
 10
15.0056681093
 20
11.2817241373
 30
0.0
 10
15.0061230144
 20
11.283195172
 30
0.0
  0
SPLINE
  5
2C9
100
AcDbEntity
  8
0
100
AcDbSpline
 62
7
  6
CONTINUOUS
 70
0
 71
3
 72
11
 73
7
 74
0
 42
0.0000001
 43
0.0000001
 44
0.0000000001
 40
0.0
 40
0.0
 40
0.0
 40
0.0
 40
0.2336398198
 40
0.4883227863
 40
0.7491370032
 40
1.0
 40
1.0
 40
1.0
 40
1.0
 10
14.7948280303
 20
11.2856350371
 30
0.0
 10
14.796751855
 20
11.2837673114
 30
0.0
 10
14.8012827152
 20
11.2803794115
 30
0.0
 10
14.8090579033
 20
11.2766143789
 30
0.0
 10
14.8175510504
 20
11.2741773614
 30
0.0
 10
14.8234320873
 20
11.2735580635
 30
0.0
 10
14.8263110704
 20
11.2735580635
 30
0.0
  0
SPLINE
  5
2CA
100
AcDbEntity
  8
0
100
AcDbSpline
 62
7
  6
CONTINUOUS
 70
0
 71
3
 72
11
 73
7
 74
0
 42
0.0000001
 43
0.0000001
 44
0.0000000001
 40
0.0
 40
0.0
 40
0.0
 40
0.0
 40
0.3037063039
 40
0.5698819552
 40
0.7976275518
 40
1.0
 40
1.0
 40
1.0
 40
1.0
 10
14.4429866258
 20
11.2735580635
 30
0.0
 10
14.4452973992
 20
11.2735580635
 30
0.0
 10
14.4496504196
 20
11.2739247492
 30
0.0
 10
14.4554985724
 20
11.2757630392
 30
0.0
 10
14.4599601848
 20
11.2788153989
 30
0.0
 10
14.4617344515
 20
11.2817241373
 30
0.0
 10
14.4621893566
 20
11.283195172
 30
0.0
  0
SPLINE
  5
2CB
100
AcDbEntity
  8
0
100
AcDbSpline
 62
7
  6
CONTINUOUS
 70
0
 71
3
 72
11
 73
7
 74
0
 42
0.0000001
 43
0.0000001
 44
0.0000000001
 40
0.0
 40
0.0
 40
0.0
 40
0.0
 40
0.2336398198
 40
0.4883227863
 40
0.7491370032
 40
1.0
 40
1.0
 40
1.0
 40
1.0
 10
14.2508943725
 20
11.2856350371
 30
0.0
 10
14.2528181972
 20
11.2837673114
 30
0.0
 10
14.2573490573
 20
11.2803794115
 30
0.0
 10
14.2651242455
 20
11.2766143789
 30
0.0
 10
14.2736173925
 20
11.2741773614
 30
0.0
 10
14.2794984295
 20
11.2735580635
 30
0.0
 10
14.2823774125
 20
11.2735580635
 30
0.0
  0
SPLINE
  5
2CC
100
AcDbEntity
  8
0
100
AcDbSpline
 62
7
  6
CONTINUOUS
 70
0
 71
3
 72
11
 73
7
 74
0
 42
0.0000001
 43
0.0000001
 44
0.0000000001
 40
0.0
 40
0.0
 40
0.0
 40
0.0
 40
0.3037020406
 40
0.5698795005
 40
0.7976302107
 40
1.0
 40
1.0
 40
1.0
 40
1.0
 10
13.8990529679
 20
11.2735580635
 30
0.0
 10
13.9013637091
 20
11.2735580635
 30
0.0
 10
13.9057167086
 20
11.2739247282
 30
0.0
 10
13.9115648982
 20
11.2757630135
 30
0.0
 10
13.9160264926
 20
11.2788154323
 30
0.0
 10
13.9178008385
 20
11.2817241477
 30
0.0
 10
13.9182557227
 20
11.2831951678
 30
0.0
  0
SPLINE
  5
2CD
100
AcDbEntity
  8
0
100
AcDbSpline
 62
7
  6
CONTINUOUS
 70
0
 71
3
 72
11
 73
7
 74
0
 42
0.0000001
 43
0.0000001
 44
0.0000000001
 40
0.0
 40
0.0
 40
0.0
 40
0.0
 40
0.2336363328
 40
0.4883229796
 40
0.7491418888
 40
1.0
 40
1.0
 40
1.0
 40
1.0
 10
13.7069607146
 20
11.2856350371
 30
0.0
 10
13.7088845106
 20
11.2837673392
 30
0.0
 10
13.7134153625
 20
11.2803794262
 30
0.0
 10
13.7211906029
 20
11.2766143676
 30
0.0
 10
13.7296837921
 20
11.2741773428
 30
0.0
 10
13.7355648275
 20
11.2735580635
 30
0.0
 10
13.7384437546
 20
11.2735580635
 30
0.0
  0
SPLINE
  5
2CE
100
AcDbEntity
  8
0
100
AcDbSpline
 62
7
  6
CONTINUOUS
 70
0
 71
3
 72
11
 73
7
 74
0
 42
0.0000001
 43
0.0000001
 44
0.0000000001
 40
0.0
 40
0.0
 40
0.0
 40
0.0
 40
0.250857252
 40
0.5116791165
 40
0.7663628451
 40
1.0
 40
1.0
 40
1.0
 40
1.0
 10
13.609608671
 20
11.3616602638
 30
0.0
 10
13.6124875882
 20
11.3616602638
 30
0.0
 10
13.6183686476
 20
11.3610409849
 30
0.0
 10
13.6268618279
 20
11.358603958
 30
0.0
 10
13.6346370734
 20
11.3548388907
 30
0.0
 10
13.6391679082
 20
11.3514509946
 30
0.0
 10
13.641091711
 20
11.3495832902
 30
0.0
  0
ENDSEC
  0
SECTION
  2
OBJECTS
  0
DICTIONARY
  5
C
100
AcDbDictionary
280
0
281
1
  3
ACAD_GROUP
350
D
  3
ACAD_MLINESTYLE
350
17
  3
ACAD_LAYOUT
350
1A
  3
ACAD_PLOTSETTINGS
350
19
  3
ACAD_PLOTSTYLENAME
350
E
  0
DICTIONARY
  5
D
102
{ACAD_REACTORS
330
C
102
}
100
AcDbDictionary
280
0
281
1
  0
ACDBDICTIONARYWDFLT
  5
E
102
{ACAD_REACTORS
330
C
102
}
100
AcDbDictionary
281
1
  3
Normal
350
F
100
AcDbDictionaryWithDefault
340
F
  0
DICTIONARY
  5
17
102
{ACAD_REACTORS
330
C
102
}
100
AcDbDictionary
280
0
281
1
  3
Standard
350
18
  0
DICTIONARY
  5
19
102
{ACAD_REACTORS
330
C
102
}
100
AcDbDictionary
281
1
  0
DICTIONARY
  5
1A
102
{ACAD_REACTORS
330
C
102
}
100
AcDbDictionary
281
1
  3
Model
350
2CF
  3
Layout1
350
2D0
  0
ACDBPLACEHOLDER
  5
F
102
{ACAD_REACTORS
330
E
102
}
  0
MLINESTYLE
  5
18
102
{ACAD_REACTORS
330
17
102
}
100
AcDbMlineStyle
  2
STANDARD
 70
0
  3

 62
256
 51
90.0
 52
90.0
 71
2
 49
0.5
 62
256
  6
BYLAYER
 49
-0.5
 62
256
  6
BYLAYER
  0
LAYOUT
  5
2CF
102
{ACAD_REACTORS
330
1A
102
}
100
AcDbPlotSettings
  1

  2
none_device
  4
ANSI_C_(22.00_x_17.00_Inches)
  6

 40
0.0
 41
0.0
 42
0.0
 43
0.0
 44
558.8
 45
431.8
 46
0.0
 47
0.0
 48
0.0
 49
0.0
140
0.0
141
0.0
142
1.0
143
1.0
 70
1024
 72
0
 73
0
 74
0
  7

 75
0
147
1.0
148
0.0
149
0.0
100
AcDbLayout
  1
Model
 70
0
 71
0
 10
0.0
 20
0.0
 11
22.0
 21
17.0
 12
0.0
 22
0.0
 32
0.0
 14
0.0
 24
0.0
 34
0.0
 15
0.0
 25
0.0
 35
0.0
146
0.0
 13
0.0
 23
0.0
 33
0.0
 16
1.0
 26
0.0
 36
0.0
 17
0.0
 27
1.0
 37
0.0
 76
0
330
216
345
0
346
0
  0
LAYOUT
  5
2D0
102
{ACAD_REACTORS
330
1A
102
}
100
AcDbPlotSettings
  1

  2
none_device
  4
ANSI_C_(22.00_x_17.00_Inches)
  6

 40
0.0
 41
0.0
 42
0.0
 43
0.0
 44
558.8
 45
431.8
 46
0.0
 47
0.0
 48
0.0
 49
0.0
140
0.0
141
0.0
142
1.0
143
1.0
 70
0
 72
0
 73
0
 74
0
  7

 75
0
147
1.0
148
0.0
149
0.0
100
AcDbLayout
  1
Layout1
 70
0
 71
1
 10
0.0
 20
0.0
 11
22.0
 21
17.0
 12
0.0
 22
0.0
 32
0.0
 14
0.0
 24
0.0
 34
0.0
 15
0.0
 25
0.0
 35
0.0
146
0.0
 13
0.0
 23
0.0
 33
0.0
 16
1.0
 26
0.0
 36
0.0
 17
0.0
 27
1.0
 37
0.0
 76
0
330
217
345
0
346
0
  0
ENDSEC
  0
EOF