999
DXF file: _cgs_temp_output.dxf
999
Pro/ENGINEER 2015110 by Parametric Technology Corporation
  0
SECTION
  2
HEADER
  9
$ACADVER
  1
AC1021
  9
$DWGCODEPAGE
  3
ANSI_1252
  9
$EXTMAX
 10
22.0
 20
17.0
 30
0.0
  9
$EXTMIN
 10
0.0
 20
0.0
 30
0.0
  9
$LIMMIN
 10
0.0
 20
0.0
  9
$LIMMAX
 10
22.0
 20
17.0
  9
$VIEWCTR
 10
11.0
 20
8.5
  9
$VIEWSIZE
 40
17.0
  9
$CLAYER
  8
0
  9
$LTSCALE
 40
1.21
  9
$CELTYPE
  6
BYLAYER
  9
$DIMSCALE
 40
1.0
  9
$DIMASZ
 40
0.1875
  9
$DIMEXO
 40
0.0625
  9
$DIMDLI
 40
0.836
  9
$DIMEXE
 40
0.125
  9
$DIMCEN
 40
0.198
  9
$DIMLFAC
 40
1.0
  9
$DIMBLK
  1
_CLOSED
  9
$DIMALT
 70
0
  9
$DIMALTF
 40
25.4
  9
$DIMTXT
 40
0.15625
  9
$DIMTOL
 70
0
  9
$DIMLIM
 70
0
  9
$DIMTFAC
 40
1.0
  9
$DIMGAP
 40
0.09
  9
$DIMDSEP
 70
46
  9
$AUNITS
 70
0
  9
$PDMODE
 70
3
  9
$PDSIZE
 40
0.3125
  9
$HANDSEED
  5
2D1
  9
$TILEMODE
 70
1
  9
$MEASUREMENT
 70
0
  9
$INSUNITS
 70
1
  0
ENDSEC
  0
SECTION
  2
CLASSES
  0
CLASS
  1
ACDBDICTIONARYWDFLT
  2
AcDbDictionaryWithDefault
  3
AutoCAD 2000
 90
0
 91
1
280
0
281
0
  0
CLASS
  1
ACDBPLACEHOLDER
  2
AcDbPlaceHolder
  3
AutoCAD 2000
 90
0
 91
1
280
0
281
0
  0
CLASS
  1
LAYOUT
  2
AcDbLayout
  3
AutoCAD 2000
 90
0
 91
0
280
0
281
0
  0
ENDSEC
  0
SECTION
  2
TABLES
  0
TABLE
  2
VPORT
  5
8
100
AcDbSymbolTable
 70
2
  0
VPORT
  5
1F4
100
AcDbSymbolTableRecord
100
AcDbViewportTableRecord
  2
*ACTIVE
 70
0
 10
0.0
 20
0.0
 11
1.0
 21
1.0
 12
11.0
 22
8.5
 13
0.0
 23
0.0
 14
1.0
 24
1.0
 15
0.0
 25
0.0
 16
0.0
 26
0.0
 36
1.0
 17
0.0
 27
0.0
 37
0.0
 40
17.0
 41
1.2941176471
 42
50.0
 43
0.0
 44
0.0
 50
0.0
 51
0.0
 71
0
 72
100
 73
1
 74
1
 75
0
 76
0
 77
0
 78
0
  0
ENDTAB
  0
TABLE
  2
LTYPE
  5
5
100
AcDbSymbolTable
 70
6
  0
LTYPE
  5
14
100
AcDbSymbolTableRecord
100
AcDbLinetypeTableRecord
  2
BYBLOCK
 70
0
  3

 72
65
 73
0
 40
0.0
  0
LTYPE
  5
15
100
AcDbSymbolTableRecord
100
AcDbLinetypeTableRecord
  2
BYLAYER
 70
0
  3

 72
65
 73
0
 40
0.0
  0
LTYPE
  5
16
100
AcDbSymbolTableRecord
100
AcDbLinetypeTableRecord
  2
CONTINUOUS
 70
64
  3
Solid line
 72
65
 73
0
 40
0.0
  0
LTYPE
  5
1F5
100
AcDbSymbolTableRecord
100
AcDbLinetypeTableRecord
  2
CENTER
 70
64
  3
____ _ ____ _ ____ _ ____ _ ____ _ ____ _ ____
 72
65
 73
4
 40
0.6
 49
0.375
 74
0
 49
-0.075
 74
0
 49
0.075
 74
0
 49
-0.075
 74
0
  0
LTYPE
  5
1F6
100
AcDbSymbolTableRecord
100
AcDbLinetypeTableRecord
  2
HIDDEN
 70
64
  3
- - - - - - - - - - - - - - - - - - - -
 72
65
 73
2
 40
0.2
 49
0.1
 74
0
 49
-0.1
 74
0
  0
LTYPE
  5
1F7
100
AcDbSymbolTableRecord
100
AcDbLinetypeTableRecord
  2
PHANTOM
 70
64
  3
_____ _ _ _____ _ _ _____ _ _ _____
 72
65
 73
6
 40
0.8
 49
0.45
 74
0
 49
-0.05
 74
0
 49
0.1
 74
0
 49
-0.05
 74
0
 49
0.1
 74
0
 49
-0.05
 74
0
  0
LTYPE
  5
1F8
100
AcDbSymbolTableRecord
100
AcDbLinetypeTableRecord
  2
DOT
 70
64
  3
. . . . . . . . . . . . . . . . . . . .
 72
65
 73
2
 40
0.2
 49
0.1
 74
0
 49
-0.1
 74
0
  0
LTYPE
  5
1F9
100
AcDbSymbolTableRecord
100
AcDbLinetypeTableRecord
  2
DASHED
 70
64
  3
- - - - - - - - - - - - - - - - - - - -
 72
65
 73
2
 40
0.2
 49
0.1
 74
0
 49
-0.1
 74
0
  0
ENDTAB
  0
TABLE
  2
LAYER
  5
2
100
AcDbSymbolTable
 70
36
  0
LAYER
  5
10
100
AcDbSymbolTableRecord
100
AcDbLayerTableRecord
  2
0
 70
0
 62
7
  6
CONTINUOUS
370
-3
390
F
  0
LAYER
  5
1FA
100
AcDbSymbolTableRecord
100
AcDbLayerTableRecord
  2
DEFAULT_1
 70
0
 62
7
  6
CENTER
370
-3
390
F
  0
LAYER
  5
1FB
100
AcDbSymbolTableRecord
100
AcDbLayerTableRecord
  2
DEFAULT_2
 70
0
 62
8
  6
HIDDEN
370
-3
390
F
  0
LAYER
  5
1FC
100
AcDbSymbolTableRecord
100
AcDbLayerTableRecord
  2
DEFAULT_3
 70
0
 62
7
  6
PHANTOM
370
-3
390
F
  0
LAYER
  5
1FD
100
AcDbSymbolTableRecord
100
AcDbLayerTableRecord
  2
01_ALL_DTM_PLN
 70
0
 62
7
  6
CONTINUOUS
370
-3
390
F
  0
LAYER
  5
1FE
100
AcDbSymbolTableRecord
100
AcDbLayerTableRecord
  2
01__ASM_ALL_DTM_PLN
 70
0
 62
7
  6
CONTINUOUS
370
-3
390
F
  0
LAYER
  5
1FF
100
AcDbSymbolTableRecord
100
AcDbLayerTableRecord
  2
01__ASM_DEF_DTM_PLN
 70
0
 62
7
  6
CONTINUOUS
370
-3
390
F
  0
LAYER
  5
200
100
AcDbSymbolTableRecord
100
AcDbLayerTableRecord
  2
01___PRT_ALL_DTM_PLN
 70
0
 62
7
  6
CONTINUOUS
370
-3
390
F
  0
LAYER
  5
201
100
AcDbSymbolTableRecord
100
AcDbLayerTableRecord
  2
01___PRT_DEF_DTM_PLN
 70
0
 62
7
  6
CONTINUOUS
370
-3
390
F
  0
LAYER
  5
202
100
AcDbSymbolTableRecord
100
AcDbLayerTableRecord
  2
02_ALL_AXES
 70
0
 62
7
  6
CONTINUOUS
370
-3
390
F
  0
LAYER
  5
203
100
AcDbSymbolTableRecord
100
AcDbLayerTableRecord
  2
02__ASM_ALL_AXES
 70
0
 62
7
  6
CONTINUOUS
370
-3
390
F
  0
LAYER
  5
204
100
AcDbSymbolTableRecord
100
AcDbLayerTableRecord
  2
02___PRT_ALL_AXES
 70
0
 62
7
  6
CONTINUOUS
370
-3
390
F
  0
LAYER
  5
205
100
AcDbSymbolTableRecord
100
AcDbLayerTableRecord
  2
03_ALL_CURVES
 70
0
 62
7
  6
CONTINUOUS
370
-3
390
F
  0
LAYER
  5
206
100
AcDbSymbolTableRecord
100
AcDbLayerTableRecord
  2
03__ASM_ALL_CURVES
 70
0
 62
7
  6
CONTINUOUS
370
-3
390
F
  0
LAYER
  5
207
100
AcDbSymbolTableRecord
100
AcDbLayerTableRecord
  2
03___PRT_ALL_CURVES
 70
0
 62
7
  6
CONTINUOUS
370
-3
390
F
  0
LAYER
  5
208
100
AcDbSymbolTableRecord
100
AcDbLayerTableRecord
  2
04_ALL_DTM_PNT
 70
0
 62
7
  6
CONTINUOUS
370
-3
390
F
  0
LAYER
  5
209
100
AcDbSymbolTableRecord
100
AcDbLayerTableRecord
  2
04__ASM_ALL_DTM_PNT
 70
0
 62
7
  6
CONTINUOUS
370
-3
390
F
  0
LAYER
  5
20A
100
AcDbSymbolTableRecord
100
AcDbLayerTableRecord
  2
04___PRT_ALL_DTM_PNT
 70
0
 62
7
  6
CONTINUOUS
370
-3
390
F
  0
LAYER
  5
20B
100
AcDbSymbolTableRecord
100
AcDbLayerTableRecord
  2
05_ALL_DTM_CSYS
 70
0
 62
7
  6
CONTINUOUS
370
-3
390
F
  0
LAYER
  5
20C
100
AcDbSymbolTableRecord
100
AcDbLayerTableRecord
  2
05__ASM_ALL_DTM_CSYS
 70
0
 62
7
  6
CONTINUOUS
370
-3
390
F
  0
LAYER
  5
20D
100
AcDbSymbolTableRecord
100
AcDbLayerTableRecord
  2
05__ASM_DEF_DTM_CSYS
 70
0
 62
7
  6
CONTINUOUS
370
-3
390
F
  0
LAYER
  5
20E
100
AcDbSymbolTableRecord
100
AcDbLayerTableRecord
  2
05___PRT_ALL_DTM_CSYS
 70
0
 62
7
  6
CONTINUOUS
370
-3
390
F
  0
LAYER
  5
20F
100
AcDbSymbolTableRecord
100
AcDbLayerTableRecord
  2
05___PRT_DEF_DTM_CSYS
 70
0
 62
7
  6
CONTINUOUS
370
-3
390
F
  0
LAYER
  5
210
100
AcDbSymbolTableRecord
100
AcDbLayerTableRecord
  2
06_ALL_SURFS
 70
0
 62
7
  6
CONTINUOUS
370
-3
390
F
  0
LAYER
  5
211
100
AcDbSymbolTableRecord
100
AcDbLayerTableRecord
  2
06__ASM_ALL_SURFS
 70
0
 62
7
  6
CONTINUOUS
370
-3
390
F
  0
LAYER
  5
212
100
AcDbSymbolTableRecord
100
AcDbLayerTableRecord
  2
06___PRT_ALL_SURFS
 70
0
 62
7
  6
CONTINUOUS
370
-3
390
F
  0
LAYER
  5
213
100
AcDbSymbolTableRecord
100
AcDbLayerTableRecord
  2
07__ASM_ALL_SKELETONS
 70
0
 62
7
  6
CONTINUOUS
370
-3
390
F
  0
ENDTAB
  0
TABLE
  2
STYLE
  5
3
100
AcDbSymbolTable
 70
1
  0
STYLE
  5
11
100
AcDbSymbolTableRecord
100
AcDbTextStyleTableRecord
  2
STANDARD
 70
0
 40
0.0
 41
0.8
 50
0.0
 71
0
 42
0.2
  3
txt
  4

  0
STYLE
  5
214
100
AcDbSymbolTableRecord
100
AcDbTextStyleTableRecord
  2
TEXTSTYLE_1
 70
0
 40
0.0
 41
0.8
 50
0.0
 71
0
 42
0.2
  3
gdt
  4

  0
ENDTAB
  0
TABLE
  2
VIEW
  5
6
100
AcDbSymbolTable
 70
0
  0
ENDTAB
  0
TABLE
  2
UCS
  5
7
100
AcDbSymbolTable
 70
0
  0
ENDTAB
  0
TABLE
  2
APPID
  5
9
100
AcDbSymbolTable
 70
1
  0
APPID
  5
215
100
AcDbSymbolTableRecord
100
AcDbRegAppTableRecord
  2
ACAD
 70
0
  0
ENDTAB
  0
TABLE
  2
BLOCK_RECORD
  5
1
100
AcDbSymbolTable
 70
0
  0
BLOCK_RECORD
  5
216
100
AcDbSymbolTableRecord
100
AcDbBlockTableRecord
  2
*Model_Space
  0
BLOCK_RECORD
  5
217
100
AcDbSymbolTableRecord
100
AcDbBlockTableRecord
  2
*Paper_Space
  0
ENDTAB
  0
TABLE
  2
DIMSTYLE
  5
A
100
AcDbSymbolTable
 70
1
100
AcDbDimStyleTable
 71
0
  0
DIMSTYLE
105
218
100
AcDbSymbolTableRecord
100
AcDbDimStyleTableRecord
  2
STANDARD
 70
0
  3

  4

 40
1.0
 41
0.1875
 42
0.0625
 43
0.38
 44
0.125
 45
0.0
 46
0.0
 47
0.0001
 48
0.0001
140
0.15625
141
0.09
142
0.0
143
25.4
144
1.0
145
0.0
146
1.0
147
0.09
 71
0.0
 72
0.0
 73
1
 74
1
 75
0
 76
0
 77
0
 78
4
170
0
171
2
172
0
173
0
174
0
175
0
176
0
177
0
178
0
270
2
271
4
272
4
273
2
274
2
275
0
280
0
281
0
282
0
283
1
284
4
285
0
286
0
287
3
288
0
340
11
278
46
  0
ENDTAB
  0
ENDSEC
  0
SECTION
  2
BLOCKS
  0
BLOCK
  5
20
100
AcDbEntity
  8
0
100
AcDbBlockBegin
  2
*Model_Space
 70
0
 10
0.0
 20
0.0
 30
0.0
  3
*Model_Space
  1

  0
ENDBLK
  5
21
100
AcDbEntity
  8
0
100
AcDbBlockEnd
  0
BLOCK
  5
1C
100
AcDbEntity
  8
0
100
AcDbBlockBegin
  2
*Paper_Space
 70
0
 10
0.0
 20
0.0
 30
0.0
  3
*Paper_Space
  1

  0
ENDBLK
  5
1D
100
AcDbEntity
  8
0
100
AcDbBlockEnd
  0
ENDSEC
  0
SECTION
  2
ENTITIES
  0
MTEXT
  5
219
100
AcDbEntity
  8
0
100
AcDbMText
 62
7
  6
CONTINUOUS
  7
STANDARD
 71
1
 72
1
 10
15.9560215477
 20
0.9479130325
 30
0.0
 11
1.0
 21
0.0
 31
0.0
 44
0.9
  1
SCALE: 1:3.000
 40
0.3
 41
3.36
  0
LINE
  5
21A
100
AcDbEntity
  8
0
100
AcDbLine
 62
7
  6
CONTINUOUS
 10
0.0
 20
0.0
 11
0.0
 21
17.0
  0
LINE
  5
21B
100
AcDbEntity
  8
0
100
AcDbLine
 62
7
  6
CONTINUOUS
 10
0.0
 20
0.0
 11
22.0
 21
0.0
  0
LINE
  5
21C
100
AcDbEntity
  8
0
100
AcDbLine
 62
7
  6
CONTINUOUS
 10
0.0
 20
17.0
 11
22.0
 21
17.0
  0
LINE
  5
21D
100
AcDbEntity
  8
0
100
AcDbLine
 62
7
  6
CONTINUOUS
 10
22.0
 20
0.0
 11
22.0
 21
17.0
  0
LINE
  5
21E
100
AcDbEntity
  8
0
100
AcDbLine
 62
7
  6
CONTINUOUS
 10
4.3587137329
 20
5.6500411566
 11
4.3587137329
 21
5.5555529676
  0
LINE
  5
21F
100
AcDbEntity
  8
0
100
AcDbLine
 62
7
  6
CONTINUOUS
 10
4.5016119144
 20
5.5125023813
 11
4.539055427
 21
5.409627176
  0
LINE
  5
220
100
AcDbEntity
  8
0
100
AcDbLine
 62
7
  6
CONTINUOUS
 10
4.7689232198
 20
5.409627176
 11
4.8063667324
 21
5.5125023813
  0
LINE
  5
221
100
AcDbEntity
  8
0
100
AcDbLine
 62
7
  6
CONTINUOUS
 10
4.3587137329
 20
5.5555529676
 11
4.3823357801
 21
5.5319309204
  0
LINE
  5
222
100
AcDbEntity
  8
0
100
AcDbLine
 62
7
  6
CONTINUOUS
 10
5.0921630955
 20
5.5125023813
 11
5.1296066081
 21
5.409627176
  0
LINE
  5
223
100
AcDbEntity
  8
0
100
AcDbLine
 62
7
  6
CONTINUOUS
 10
4.9256428667
 20
5.5319309204
 11
4.949264914
 21
5.5555529676
  0
LINE
  5
224
100
AcDbEntity
  8
0
100
AcDbLine
 62
7
  6
CONTINUOUS
 10
4.949264914
 20
5.5555529676
 11
4.9728869612
 21
5.5319309204
  0
LINE
  5
225
100
AcDbEntity
  8
0
100
AcDbLine
 62
7
  6
CONTINUOUS
 10
5.3594744009
 20
5.409627176
 11
5.3969179135
 21
5.5125023813
  0
LINE
  5
226
100
AcDbEntity
  8
0
100
AcDbLine
 62
7
  6
CONTINUOUS
 10
5.5161940478
 20
5.5319309204
 11
5.5398160951
 21
5.5555529676
  0
LINE
  5
227
100
AcDbEntity
  8
0
100
AcDbLine
 62
7
  6
CONTINUOUS
 10
5.5398160951
 20
5.5555529676
 11
5.5634381423
 21
5.5319309204
  0
LINE
  5
228
100
AcDbEntity
  8
0
100
AcDbLine
 62
7
  6
CONTINUOUS
 10
5.6827142766
 20
5.5125023813
 11
5.7201577892
 21
5.409627176
  0
LINE
  5
229
100
AcDbEntity
  8
0
100
AcDbLine
 62
7
  6
CONTINUOUS
 10
5.950025582
 20
5.409627176
 11
5.9874690946
 21
5.5125023813
  0
LINE
  5
22A
100
AcDbEntity
  8
0
100
AcDbLine
 62
7
  6
CONTINUOUS
 10
4.5668022564
 20
5.3901986369
 11
4.7411763905
 21
5.3901986369
  0
LINE
  5
22B
100
AcDbEntity
  8
0
100
AcDbLine
 62
7
  6
CONTINUOUS
 10
5.1573534375
 20
5.3901986369
 11
5.3317275716
 21
5.3901986369
  0
LINE
  5
22C
100
AcDbEntity
  8
0
100
AcDbLine
 62
7
  6
CONTINUOUS
 10
5.7479046186
 20
5.3901986369
 11
5.9222787527
 21
5.3901986369
  0
LINE
  5
22D
100
AcDbEntity
  8
0
100
AcDbLine
 62
7
  6
CONTINUOUS
 10
6.3384557997
 20
5.3901986369
 11
6.5128299338
 21
5.3901986369
  0
LINE
  5
22E
100
AcDbEntity
  8
0
100
AcDbLine
 62
7
  6
CONTINUOUS
 10
6.9290069808
 20
5.3901986369
 11
7.1033811149
 21
5.3901986369
  0
LINE
  5
22F
100
AcDbEntity
  8
0
100
AcDbLine
 62
7
  6
CONTINUOUS
 10
7.5195581619
 20
5.3901986369
 11
7.693932296
 21
5.3901986369
  0
LINE
  5
230
100
AcDbEntity
  8
0
100
AcDbLine
 62
7
  6
CONTINUOUS
 10
6.1067452289
 20
5.5319309204
 11
6.1303672762
 21
5.5555529676
  0
LINE
  5
231
100
AcDbEntity
  8
0
100
AcDbLine
 62
7
  6
CONTINUOUS
 10
4.3823357801
 20
5.5319309204
 11
4.4738650851
 21
5.5319309204
  0
LINE
  5
232
100
AcDbEntity
  8
0
100
AcDbLine
 62
7
  6
CONTINUOUS
 10
4.8341135617
 20
5.5319309204
 11
4.9256428667
 21
5.5319309204
  0
LINE
  5
233
100
AcDbEntity
  8
0
100
AcDbLine
 62
7
  6
CONTINUOUS
 10
4.9728869612
 20
5.5319309204
 11
5.0644162662
 21
5.5319309204
  0
LINE
  5
234
100
AcDbEntity
  8
0
100
AcDbLine
 62
7
  6
CONTINUOUS
 10
5.4246647428
 20
5.5319309204
 11
5.5161940478
 21
5.5319309204
  0
LINE
  5
235
100
AcDbEntity
  8
0
100
AcDbLine
 62
7
  6
CONTINUOUS
 10
5.5634381423
 20
5.5319309204
 11
5.6549674473
 21
5.5319309204
  0
LINE
  5
236
100
AcDbEntity
  8
0
100
AcDbLine
 62
7
  6
CONTINUOUS
 10
6.0152159239
 20
5.5319309204
 11
6.1067452289
 21
5.5319309204
  0
LINE
  5
237
100
AcDbEntity
  8
0
100
AcDbLine
 62
7
  6
CONTINUOUS
 10
6.1539893234
 20
5.5319309204
 11
6.2455186284
 21
5.5319309204
  0
LINE
  5
238
100
AcDbEntity
  8
0
100
AcDbLine
 62
7
  6
CONTINUOUS
 10
6.6057671051
 20
5.5319309204
 11
6.69729641
 21
5.5319309204
  0
LINE
  5
239
100
AcDbEntity
  8
0
100
AcDbLine
 62
7
  6
CONTINUOUS
 10
6.7445405045
 20
5.5319309204
 11
6.8360698095
 21
5.5319309204
  0
LINE
  5
23A
100
AcDbEntity
  8
0
100
AcDbLine
 62
7
  6
CONTINUOUS
 10
7.1963182862
 20
5.5319309204
 11
7.2878475911
 21
5.5319309204
  0
LINE
  5
23B
100
AcDbEntity
  8
0
100
AcDbLine
 62
7
  6
CONTINUOUS
 10
7.3350916856
 20
5.5319309204
 11
7.4266209906
 21
5.5319309204
  0
LINE
  5
23C
100
AcDbEntity
  8
0
100
AcDbLine
 62
7
  6
CONTINUOUS
 10
7.7868694673
 20
5.5319309204
 11
7.8783987722
 21
5.5319309204
  0
LINE
  5
23D
100
AcDbEntity
  8
0
100
AcDbLine
 62
7
  6
CONTINUOUS
 10
7.9020208195
 20
5.6500411566
 11
4.3587137329
 21
5.6500411566
  0
LINE
  5
23E
100
AcDbEntity
  8
0
100
AcDbLine
 62
7
  6
CONTINUOUS
 10
6.1303672762
 20
5.5555529676
 11
6.1539893234
 21
5.5319309204
  0
LINE
  5
23F
100
AcDbEntity
  8
0
100
AcDbLine
 62
7
  6
CONTINUOUS
 10
6.2732654577
 20
5.5125023813
 11
6.3107089703
 21
5.409627176
  0
LINE
  5
240
100
AcDbEntity
  8
0
100
AcDbLine
 62
7
  6
CONTINUOUS
 10
6.5405767631
 20
5.409627176
 11
6.5780202757
 21
5.5125023813
  0
LINE
  5
241
100
AcDbEntity
  8
0
100
AcDbLine
 62
7
  6
CONTINUOUS
 10
6.69729641
 20
5.5319309204
 11
6.7209184573
 21
5.5555529676
  0
LINE
  5
242
100
AcDbEntity
  8
0
100
AcDbLine
 62
7
  6
CONTINUOUS
 10
6.7209184573
 20
5.5555529676
 11
6.7445405045
 21
5.5319309204
  0
LINE
  5
243
100
AcDbEntity
  8
0
100
AcDbLine
 62
7
  6
CONTINUOUS
 10
6.8638166388
 20
5.5125023813
 11
6.9012601514
 21
5.409627176
  0
LINE
  5
244
100
AcDbEntity
  8
0
100
AcDbLine
 62
7
  6
CONTINUOUS
 10
7.2878475911
 20
5.5319309204
 11
7.3114696384
 21
5.5555529676
  0
LINE
  5
245
100
AcDbEntity
  8
0
100
AcDbLine
 62
7
  6
CONTINUOUS
 10
7.3114696384
 20
5.5555529676
 11
7.3350916856
 21
5.5319309204
  0
LINE
  5
246
100
AcDbEntity
  8
0
100
AcDbLine
 62
7
  6
CONTINUOUS
 10
7.1311279442
 20
5.409627176
 11
7.1685714568
 21
5.5125023813
  0
LINE
  5
247
100
AcDbEntity
  8
0
100
AcDbLine
 62
7
  6
CONTINUOUS
 10
7.8783987722
 20
5.5319309204
 11
7.9020208195
 21
5.5555529676
  0
LINE
  5
248
100
AcDbEntity
  8
0
100
AcDbLine
 62
7
  6
CONTINUOUS
 10
7.4543678199
 20
5.5125023813
 11
7.4918113325
 21
5.409627176
  0
LINE
  5
249
100
AcDbEntity
  8
0
100
AcDbLine
 62
7
  6
CONTINUOUS
 10
7.7216791253
 20
5.409627176
 11
7.7591226379
 21
5.5125023813
  0
LINE
  5
24A
100
AcDbEntity
  8
0
100
AcDbLine
 62
7
  6
CONTINUOUS
 10
7.9020208195
 20
5.5555529676
 11
7.9020208195
 21
5.6500411566
  0
LINE
  5
24B
100
AcDbEntity
  8
0
100
AcDbLine
 62
7
  6
CONTINUOUS
 10
4.2992185406
 20
13.485874553
 11
4.2992185406
 21
11.7142210097
  0
LINE
  5
24C
100
AcDbEntity
  8
0
100
AcDbLine
 62
7
  6
CONTINUOUS
 10
7.8425256272
 20
11.7142210097
 11
4.2992185406
 21
11.7142210097
  0
LINE
  5
24D
100
AcDbEntity
  8
0
100
AcDbLine
 62
7
  6
CONTINUOUS
 10
4.2992185406
 20
13.485874553
 11
7.8425256272
 21
13.485874553
  0
LINE
  5
24E
100
AcDbEntity
  8
0
100
AcDbLine
 62
7
  6
CONTINUOUS
 10
7.8425256272
 20
13.485874553
 11
7.8425256272
 21
11.7142210097
  0
LINE
  5
24F
100
AcDbEntity
  8
0
100
AcDbLine
 62
7
  6
CONTINUOUS
 10
14.6745284853
 20
5.3307034446
 11
14.6745284853
 21
5.5905459643
  0
LINE
  5
250
100
AcDbEntity
  8
0
100
AcDbLine
 62
7
  6
CONTINUOUS
 10
14.6745284853
 20
5.3307034446
 11
16.4461820286
 21
5.3307034446
  0
LINE
  5
251
100
AcDbEntity
  8
0
100
AcDbLine
 62
7
  6
CONTINUOUS
 10
16.4461820286
 20
5.4724357281
 11
14.6745284853
 21
5.4724357281
  0
LINE
  5
252
100
AcDbEntity
  8
0
100
AcDbLine
 62
7
  6
CONTINUOUS
 10
16.4461820286
 20
5.4960577753
 11
14.6745284853
 21
5.4960577753
  0
LINE
  5
253
100
AcDbEntity
  8
0
100
AcDbLine
 62
7
  6
CONTINUOUS
 10
16.4461820286
 20
5.5905459643
 11
14.6745284853
 21
5.5905459643
  0
LINE
  5
254
100
AcDbEntity
  8
0
100
AcDbLine
 62
7
  6
CONTINUOUS
 10
16.4461820286
 20
5.3307034446
 11
16.4461820286
 21
5.5905459643
  0
LINE
  5
255
100
AcDbEntity
  8
0
100
AcDbLine
 62
7
  6
CONTINUOUS
 10
13.6104712383
 20
11.8976733956
 11
13.6392940918
 21
11.8389385955
  0
LINE
  5
256
100
AcDbEntity
  8
0
100
AcDbLine
 62
7
  6
CONTINUOUS
 10
14.0393288979
 20
13.2854572906
 11
13.6104712383
 21
11.8976733956
  0
LINE
  5
257
100
AcDbEntity
  8
0
100
AcDbLine
 62
7
  6
CONTINUOUS
 10
13.7840442642
 20
11.8121779219
 11
13.8499132678
 21
11.7482296688
  0
LINE
  5
258
100
AcDbEntity
  8
0
100
AcDbLine
 62
7
  6
CONTINUOUS
 10
14.0616355255
 20
11.7482296688
 11
14.0647420398
 21
11.8121779219
  0
LINE
  5
259
100
AcDbEntity
  8
0
100
AcDbLine
 62
7
  6
CONTINUOUS
 10
13.6392940918
 20
11.8389385955
 11
13.6682571515
 21
11.8242548954
  0
LINE
  5
25A
100
AcDbEntity
  8
0
100
AcDbLine
 62
7
  6
CONTINUOUS
 10
14.0647420398
 20
11.8121779219
 11
14.0651644366
 21
11.8146192878
  0
LINE
  5
25B
100
AcDbEntity
  8
0
100
AcDbLine
 62
7
  6
CONTINUOUS
 10
14.0612128707
 20
11.7457883827
 11
14.0616355255
 21
11.7482296688
  0
LINE
  5
25C
100
AcDbEntity
  8
0
100
AcDbLine
 62
7
  6
CONTINUOUS
 10
14.3279779221
 20
11.8121779219
 11
14.3938469256
 21
11.7482296688
  0
LINE
  5
25D
100
AcDbEntity
  8
0
100
AcDbLine
 62
7
  6
CONTINUOUS
 10
14.0619351193
 20
11.7481370873
 11
14.0853626982
 21
11.8239487602
  0
LINE
  5
25E
100
AcDbEntity
  8
0
100
AcDbLine
 62
7
  6
CONTINUOUS
 10
14.1832277497
 20
11.8389385955
 11
14.2121908094
 21
11.8242548954
  0
LINE
  5
25F
100
AcDbEntity
  8
0
100
AcDbLine
 62
7
  6
CONTINUOUS
 10
14.7271614076
 20
11.8389385955
 11
14.7561244673
 21
11.8242548954
  0
LINE
  5
260
100
AcDbEntity
  8
0
100
AcDbLine
 62
7
  6
CONTINUOUS
 10
14.6055691834
 20
11.7482296688
 11
14.6086756976
 21
11.8121779219
  0
LINE
  5
261
100
AcDbEntity
  8
0
100
AcDbLine
 62
7
  6
CONTINUOUS
 10
14.8719115799
 20
11.8121779219
 11
14.9377805835
 21
11.7482296688
  0
LINE
  5
262
100
AcDbEntity
  8
0
100
AcDbLine
 62
7
  6
CONTINUOUS
 10
14.6086756976
 20
11.8121779219
 11
14.6091051435
 21
11.8146171124
  0
LINE
  5
263
100
AcDbEntity
  8
0
100
AcDbLine
 62
7
  6
CONTINUOUS
 10
14.6051383657
 20
11.7457909006
 11
14.6055691834
 21
11.7482296688
  0
LINE
  5
264
100
AcDbEntity
  8
0
100
AcDbLine
 62
7
  6
CONTINUOUS
 10
13.8813963078
 20
11.7361526952
 11
14.0420055211
 21
11.7361526952
  0
LINE
  5
265
100
AcDbEntity
  8
0
100
AcDbLine
 62
7
  6
CONTINUOUS
 10
14.4253299657
 20
11.7361526952
 11
14.585939179
 21
11.7361526952
  0
LINE
  5
266
100
AcDbEntity
  8
0
100
AcDbLine
 62
7
  6
CONTINUOUS
 10
14.9692636236
 20
11.7361526952
 11
15.1298728369
 21
11.7361526952
  0
LINE
  5
267
100
AcDbEntity
  8
0
100
AcDbLine
 62
7
  6
CONTINUOUS
 10
15.5131972814
 20
11.7361526952
 11
15.6738064947
 21
11.7361526952
  0
LINE
  5
268
100
AcDbEntity
  8
0
100
AcDbLine
 62
7
  6
CONTINUOUS
 10
16.0571309393
 20
11.7361526952
 11
16.2177401526
 21
11.7361526952
  0
LINE
  5
269
100
AcDbEntity
  8
0
100
AcDbLine
 62
7
  6
CONTINUOUS
 10
16.6010645972
 20
11.7361526952
 11
16.7616738105
 21
11.7361526952
  0
LINE
  5
26A
100
AcDbEntity
  8
0
100
AcDbLine
 62
7
  6
CONTINUOUS
 10
13.6682571515
 20
11.8242548954
 11
13.7525612241
 21
11.8242548954
  0
LINE
  5
26B
100
AcDbEntity
  8
0
100
AcDbLine
 62
7
  6
CONTINUOUS
 10
14.0843720442
 20
11.8242548954
 11
14.1686761168
 21
11.8242548954
  0
LINE
  5
26C
100
AcDbEntity
  8
0
100
AcDbLine
 62
7
  6
CONTINUOUS
 10
14.2121908094
 20
11.8242548954
 11
14.296494882
 21
11.8242548954
  0
LINE
  5
26D
100
AcDbEntity
  8
0
100
AcDbLine
 62
7
  6
CONTINUOUS
 10
14.628305702
 20
11.8242548954
 11
14.7126097746
 21
11.8242548954
  0
LINE
  5
26E
100
AcDbEntity
  8
0
100
AcDbLine
 62
7
  6
CONTINUOUS
 10
14.7561244673
 20
11.8242548954
 11
14.8404285399
 21
11.8242548954
  0
LINE
  5
26F
100
AcDbEntity
  8
0
100
AcDbLine
 62
7
  6
CONTINUOUS
 10
15.1722393599
 20
11.8242548954
 11
15.2565434325
 21
11.8242548954
  0
LINE
  5
270
100
AcDbEntity
  8
0
100
AcDbLine
 62
7
  6
CONTINUOUS
 10
15.3000581252
 20
11.8242548954
 11
15.3843621978
 21
11.8242548954
  0
LINE
  5
271
100
AcDbEntity
  8
0
100
AcDbLine
 62
7
  6
CONTINUOUS
 10
15.7161730178
 20
11.8242548954
 11
15.8004770904
 21
11.8242548954
  0
LINE
  5
272
100
AcDbEntity
  8
0
100
AcDbLine
 62
7
  6
CONTINUOUS
 10
15.843991783
 20
11.8242548954
 11
15.9282958557
 21
11.8242548954
  0
LINE
  5
273
100
AcDbEntity
  8
0
100
AcDbLine
 62
7
  6
CONTINUOUS
 10
16.2601066757
 20
11.8242548954
 11
16.3444107483
 21
11.8242548954
  0
LINE
  5
274
100
AcDbEntity
  8
0
100
AcDbLine
 62
7
  6
CONTINUOUS
 10
16.3879254409
 20
11.8242548954
 11
16.4722295135
 21
11.8242548954
  0
LINE
  5
275
100
AcDbEntity
  8
0
100
AcDbLine
 62
7
  6
CONTINUOUS
 10
16.8040403335
 20
11.8242548954
 11
16.8883444062
 21
11.8242548954
  0
LINE
  5
276
100
AcDbEntity
  8
0
100
AcDbLine
 62
7
  6
CONTINUOUS
 10
15.2710950655
 20
11.8389385955
 11
15.3000581252
 21
11.8242548954
  0
LINE
  5
277
100
AcDbEntity
  8
0
100
AcDbLine
 62
7
  6
CONTINUOUS
 10
14.6058687772
 20
11.7481370873
 11
14.629296356
 21
11.8239487602
  0
LINE
  5
278
100
AcDbEntity
  8
0
100
AcDbLine
 62
7
  6
CONTINUOUS
 10
16.8740731855
 20
11.8976733956
 11
13.6104712383
 21
11.8976733956
  0
LINE
  5
279
100
AcDbEntity
  8
0
100
AcDbLine
 62
7
  6
CONTINUOUS
 10
15.4158452378
 20
11.8121779219
 11
15.4817142414
 21
11.7482296688
  0
LINE
  5
27A
100
AcDbEntity
  8
0
100
AcDbLine
 62
7
  6
CONTINUOUS
 10
14.1686761168
 20
11.8242548954
 11
14.1832277497
 21
11.8389385955
  0
LINE
  5
27B
100
AcDbEntity
  8
0
100
AcDbLine
 62
7
  6
CONTINUOUS
 10
15.8150287233
 20
11.8389385955
 11
15.843991783
 21
11.8242548954
  0
LINE
  5
27C
100
AcDbEntity
  8
0
100
AcDbLine
 62
7
  6
CONTINUOUS
 10
15.1495028413
 20
11.7482296688
 11
15.1526093555
 21
11.8121779219
  0
LINE
  5
27D
100
AcDbEntity
  8
0
100
AcDbLine
 62
7
  6
CONTINUOUS
 10
15.1526093555
 20
11.8121779219
 11
15.1530388014
 21
11.8146171124
  0
LINE
  5
27E
100
AcDbEntity
  8
0
100
AcDbLine
 62
7
  6
CONTINUOUS
 10
15.1490720236
 20
11.7457909006
 11
15.1495028413
 21
11.7482296688
  0
LINE
  5
27F
100
AcDbEntity
  8
0
100
AcDbLine
 62
7
  6
CONTINUOUS
 10
16.3589623812
 20
11.8389385955
 11
16.3879254409
 21
11.8242548954
  0
LINE
  5
280
100
AcDbEntity
  8
0
100
AcDbLine
 62
7
  6
CONTINUOUS
 10
15.9597788957
 20
11.8121779219
 11
16.0256478993
 21
11.7482296688
  0
LINE
  5
281
100
AcDbEntity
  8
0
100
AcDbLine
 62
7
  6
CONTINUOUS
 10
15.1498024351
 20
11.7481370873
 11
15.1732300139
 21
11.8239487602
  0
LINE
  5
282
100
AcDbEntity
  8
0
100
AcDbLine
 62
7
  6
CONTINUOUS
 10
14.7126097746
 20
11.8242548954
 11
14.7271614076
 21
11.8389385955
  0
LINE
  5
283
100
AcDbEntity
  8
0
100
AcDbLine
 62
7
  6
CONTINUOUS
 10
15.6934364991
 20
11.7482296688
 11
15.6965430134
 21
11.8121779219
  0
LINE
  5
284
100
AcDbEntity
  8
0
100
AcDbLine
 62
7
  6
CONTINUOUS
 10
16.5037125536
 20
11.8121779219
 11
16.5695815572
 21
11.7482296688
  0
LINE
  5
285
100
AcDbEntity
  8
0
100
AcDbLine
 62
7
  6
CONTINUOUS
 10
15.6965430134
 20
11.8121779219
 11
15.6969724593
 21
11.8146171124
  0
LINE
  5
286
100
AcDbEntity
  8
0
100
AcDbLine
 62
7
  6
CONTINUOUS
 10
15.6930056815
 20
11.7457909006
 11
15.6934364991
 21
11.7482296688
  0
LINE
  5
287
100
AcDbEntity
  8
0
100
AcDbLine
 62
7
  6
CONTINUOUS
 10
15.2565434325
 20
11.8242548954
 11
15.2710950655
 21
11.8389385955
  0
LINE
  5
288
100
AcDbEntity
  8
0
100
AcDbLine
 62
7
  6
CONTINUOUS
 10
15.6937360929
 20
11.7481370873
 11
15.7171636718
 21
11.8239487602
  0
LINE
  5
289
100
AcDbEntity
  8
0
100
AcDbLine
 62
7
  6
CONTINUOUS
 10
16.237370157
 20
11.7482296688
 11
16.2404766713
 21
11.8121779219
  0
LINE
  5
28A
100
AcDbEntity
  8
0
100
AcDbLine
 62
7
  6
CONTINUOUS
 10
15.8004770904
 20
11.8242548954
 11
15.8150287233
 21
11.8389385955
  0
LINE
  5
28B
100
AcDbEntity
  8
0
100
AcDbLine
 62
7
  6
CONTINUOUS
 10
14.0393288979
 20
13.2854572906
 11
17.3029308451
 21
13.2854572906
  0
LINE
  5
28C
100
AcDbEntity
  8
0
100
AcDbLine
 62
7
  6
CONTINUOUS
 10
16.2404766713
 20
11.8121779219
 11
16.2409061172
 21
11.8146171124
  0
LINE
  5
28D
100
AcDbEntity
  8
0
100
AcDbLine
 62
7
  6
CONTINUOUS
 10
16.2369393393
 20
11.7457909006
 11
16.237370157
 21
11.7482296688
  0
LINE
  5
28E
100
AcDbEntity
  8
0
100
AcDbLine
 62
7
  6
CONTINUOUS
 10
16.2376697508
 20
11.7481370873
 11
16.2610973297
 21
11.8239487602
  0
LINE
  5
28F
100
AcDbEntity
  8
0
100
AcDbLine
 62
7
  6
CONTINUOUS
 10
16.9028960391
 20
11.8389385955
 11
16.8740731855
 21
11.8976733956
  0
LINE
  5
290
100
AcDbEntity
  8
0
100
AcDbLine
 62
7
  6
CONTINUOUS
 10
16.3444107483
 20
11.8242548954
 11
16.3589623812
 21
11.8389385955
  0
LINE
  5
291
100
AcDbEntity
  8
0
100
AcDbLine
 62
7
  6
CONTINUOUS
 10
16.7813038149
 20
11.7482296688
 11
16.7844103291
 21
11.8121779219
  0
LINE
  5
292
100
AcDbEntity
  8
0
100
AcDbLine
 62
7
  6
CONTINUOUS
 10
16.7844103291
 20
11.8121779219
 11
16.784839775
 21
11.8146171124
  0
LINE
  5
293
100
AcDbEntity
  8
0
100
AcDbLine
 62
7
  6
CONTINUOUS
 10
16.7808729972
 20
11.7457909006
 11
16.7813038149
 21
11.7482296688
  0
LINE
  5
294
100
AcDbEntity
  8
0
100
AcDbLine
 62
7
  6
CONTINUOUS
 10
16.7816034087
 20
11.7481370873
 11
16.8050309875
 21
11.8239487602
  0
LINE
  5
295
100
AcDbEntity
  8
0
100
AcDbLine
 62
7
  6
CONTINUOUS
 10
16.8883444062
 20
11.8242548954
 11
16.9028960391
 21
11.8389385955
  0
LINE
  5
296
100
AcDbEntity
  8
0
100
AcDbLine
 62
7
  6
CONTINUOUS
 10
17.3029308451
 20
13.2854572906
 11
16.8740731855
 21
11.8976733956
  0
LINE
  5
297
100
AcDbEntity
  8
0
100
AcDbLine
 62
7
  6
CONTINUOUS
 10
17.3317536987
 20
13.2267224905
 11
16.9028960391
 21
11.8389385955
  0
LINE
  5
298
100
AcDbEntity
  8
0
100
AcDbLine
 62
7
  6
CONTINUOUS
 10
17.3317536987
 20
13.2267224905
 11
17.3029308451
 21
13.2854572906
  0
ARC
  5
299
100
AcDbEntity
  8
0
100
AcDbCircle
 62
7
  6
CONTINUOUS
 10
7.7868694673
 20
5.5024033613
 40
0.0295275591
100
AcDbArc
 50
90.0
 51
160.0
  0
ARC
  5
29A
100
AcDbEntity
  8
0
100
AcDbCircle
 62
7
  6
CONTINUOUS
 10
7.4266209906
 20
5.5024033613
 40
0.0295275591
100
AcDbArc
 50
20.0
 51
90.0
  0
ARC
  5
29B
100
AcDbEntity
  8
0
100
AcDbCircle
 62
7
  6
CONTINUOUS
 10
7.1963182862
 20
5.5024033613
 40
0.0295275591
100
AcDbArc
 50
90.0
 51
160.0
  0
ARC
  5
29C
100
AcDbEntity
  8
0
100
AcDbCircle
 62
7
  6
CONTINUOUS
 10
6.8360698095
 20
5.5024033613
 40
0.0295275591
100
AcDbArc
 50
20.0
 51
90.0
  0
ARC
  5
29D
100
AcDbEntity
  8
0
100
AcDbCircle
 62
7
  6
CONTINUOUS
 10
6.6057671051
 20
5.5024033613
 40
0.0295275591
100
AcDbArc
 50
90.0
 51
160.0
  0
ARC
  5
29E
100
AcDbEntity
  8
0
100
AcDbCircle
 62
7
  6
CONTINUOUS
 10
6.2455186284
 20
5.5024033613
 40
0.0295275591
100
AcDbArc
 50
20.0
 51
90.0
  0
ARC
  5
29F
100
AcDbEntity
  8
0
100
AcDbCircle
 62
7
  6
CONTINUOUS
 10
6.0152159239
 20
5.5024033613
 40
0.0295275591
100
AcDbArc
 50
90.0
 51
160.0
  0
ARC
  5
2A0
100
AcDbEntity
  8
0
100
AcDbCircle
 62
7
  6
CONTINUOUS
 10
5.6549674473
 20
5.5024033613
 40
0.0295275591
100
AcDbArc
 50
20.0
 51
90.0
  0
ARC
  5
2A1
100
AcDbEntity
  8
0
100
AcDbCircle
 62
7
  6
CONTINUOUS
 10
5.4246647428
 20
5.5024033613
 40
0.0295275591
100
AcDbArc
 50
90.0
 51
160.0
  0
ARC
  5
2A2
100
AcDbEntity
  8
0
100
AcDbCircle
 62
7
  6
CONTINUOUS
 10
5.0644162662
 20
5.5024033613
 40
0.0295275591
100
AcDbArc
 50
20.0
 51
90.0
  0
ARC
  5
2A3
100
AcDbEntity
  8
0
100
AcDbCircle
 62
7
  6
CONTINUOUS
 10
4.4738650851
 20
5.5024033613
 40
0.0295275591
100
AcDbArc
 50
20.0
 51
90.0
  0
ARC
  5
2A4
100
AcDbEntity
  8
0
100
AcDbCircle
 62
7
  6
CONTINUOUS
 10
4.8341135617
 20
5.5024033613
 40
0.0295275591
100
AcDbArc
 50
90.0
 51
160.0
  0
ARC
  5
2A5
100
AcDbEntity
  8
0
100
AcDbCircle
 62
7
  6
CONTINUOUS
 10
4.5668022564
 20
5.419726196
 40
0.0295275591
100
AcDbArc
 50
200.0
 51
270.0
  0
ARC
  5
2A6
100
AcDbEntity
  8
0
100
AcDbCircle
 62
7
  6
CONTINUOUS
 10
4.7411763905
 20
5.419726196
 40
0.0295275591
100
AcDbArc
 50
270.0
 51
340.0
  0
ARC
  5
2A7
100
AcDbEntity
  8
0
100
AcDbCircle
 62
7
  6
CONTINUOUS
 10
5.1573534375
 20
5.419726196
 40
0.0295275591
100
AcDbArc
 50
200.0
 51
270.0
  0
ARC
  5
2A8
100
AcDbEntity
  8
0
100
AcDbCircle
 62
7
  6
CONTINUOUS
 10
5.3317275716
 20
5.419726196
 40
0.0295275591
100
AcDbArc
 50
270.0
 51
340.0
  0
ARC
  5
2A9
100
AcDbEntity
  8
0
100
AcDbCircle
 62
7
  6
CONTINUOUS
 10
5.7479046186
 20
5.419726196
 40
0.0295275591
100
AcDbArc
 50
200.0
 51
270.0
  0
ARC
  5
2AA
100
AcDbEntity
  8
0
100
AcDbCircle
 62
7
  6
CONTINUOUS
 10
5.9222787527
 20
5.419726196
 40
0.0295275591
100
AcDbArc
 50
270.0
 51
340.0
  0
ARC
  5
2AB
100
AcDbEntity
  8
0
100
AcDbCircle
 62
7
  6
CONTINUOUS
 10
6.3384557997
 20
5.419726196
 40
0.0295275591
100
AcDbArc
 50
200.0
 51
270.0
  0
ARC
  5
2AC
100
AcDbEntity
  8
0
100
AcDbCircle
 62
7
  6
CONTINUOUS
 10
6.5128299338
 20
5.419726196
 40
0.0295275591
100
AcDbArc
 50
270.0
 51
340.0
  0
ARC
  5
2AD
100
AcDbEntity
  8
0
100
AcDbCircle
 62
7
  6
CONTINUOUS
 10
6.9290069808
 20
5.419726196
 40
0.0295275591
100
AcDbArc
 50
200.0
 51
270.0
  0
ARC
  5
2AE
100
AcDbEntity
  8
0
100
AcDbCircle
 62
7
  6
CONTINUOUS
 10
7.693932296
 20
5.419726196
 40
0.0295275591
100
AcDbArc
 50
270.0
 51
340.0
  0
ARC
  5
2AF
100
AcDbEntity
  8
0
100
AcDbCircle
 62
7
  6
CONTINUOUS
 10
7.5195581619
 20
5.419726196
 40
0.0295275591
100
AcDbArc
 50
200.0
 51
270.0
  0
ARC
  5
2B0
100
AcDbEntity
  8
0
100
AcDbCircle
 62
7
  6
CONTINUOUS
 10
7.1033811149
 20
5.419726196
 40
0.0295275591
100
AcDbArc
 50
270.0
 51
340.0
  0
SPLINE
  5
2B1
100
AcDbEntity
  8
0
100
AcDbSpline
 62
7
  6
CONTINUOUS
 70
0
 71
3
 72
9
 73
5
 74
0
 42
0.0000001
 43
0.0000001
 44
0.0000000001
 40
0.0
 40
0.0
 40
0.0
 40
0.0
 40
0.476841975
 40
1.0
 40
1.0
 40
1.0
 40
1.0
 10
16.784837578
 20
11.8146177915
 30
0.0
 10
16.7852293851
 20
11.8158848309
 30
0.0
 10
16.7866303169
 20
11.818385749
 30
0.0
 10
16.7888327275
 20
11.8201746344
 30
0.0
 10
16.7900721422
 20
11.8209368904
 30
0.0
  0
SPLINE
  5
2B2
100
AcDbEntity
  8
0
100
AcDbSpline
 62
7
  6
CONTINUOUS
 70
0
 71
3
 72
9
 73
5
 74
0
 42
0.0000001
 43
0.0000001
 44
0.0000000001
 40
0.0
 40
0.0
 40
0.0
 40
0.0
 40
0.4611830736
 40
1.0
 40
1.0
 40
1.0
 40
1.0
 10
16.7900721422
 20
11.8209368904
 30
0.0
 10
16.7919691968
 20
11.8221036034
 30
0.0
 10
16.7965918962
 20
11.8238030575
 30
0.0
 10
16.8014383159
 20
11.8242548954
 30
0.0
 10
16.8040403335
 20
11.8242548954
 30
0.0
  0
SPLINE
  5
2B3
100
AcDbEntity
  8
0
100
AcDbSpline
 62
7
  6
CONTINUOUS
 70
0
 71
3
 72
9
 73
5
 74
0
 42
0.0000001
 43
0.0000001
 44
0.0000000001
 40
0.0
 40
0.0
 40
0.0
 40
0.0
 40
0.476841975
 40
1.0
 40
1.0
 40
1.0
 40
1.0
 10
16.2409039202
 20
11.8146177915
 30
0.0
 10
16.2412957273
 20
11.8158848309
 30
0.0
 10
16.242696659
 20
11.818385749
 30
0.0
 10
16.2448990697
 20
11.8201746344
 30
0.0
 10
16.2461384844
 20
11.8209368904
 30
0.0
  0
SPLINE
  5
2B4
100
AcDbEntity
  8
0
100
AcDbSpline
 62
7
  6
CONTINUOUS
 70
0
 71
3
 72
9
 73
5
 74
0
 42
0.0000001
 43
0.0000001
 44
0.0000000001
 40
0.0
 40
0.0
 40
0.0
 40
0.0
 40
0.4611830736
 40
1.0
 40
1.0
 40
1.0
 40
1.0
 10
16.2461384844
 20
11.8209368904
 30
0.0
 10
16.2480355389
 20
11.8221036034
 30
0.0
 10
16.2526582384
 20
11.8238030575
 30
0.0
 10
16.257504658
 20
11.8242548954
 30
0.0
 10
16.2601066757
 20
11.8242548954
 30
0.0
  0
SPLINE
  5
2B5
100
AcDbEntity
  8
0
100
AcDbSpline
 62
7
  6
CONTINUOUS
 70
0
 71
3
 72
9
 73
5
 74
0
 42
0.0000001
 43
0.0000001
 44
0.0000000001
 40
0.0
 40
0.0
 40
0.0
 40
0.0
 40
0.476841975
 40
1.0
 40
1.0
 40
1.0
 40
1.0
 10
15.6969702623
 20
11.8146177915
 30
0.0
 10
15.6973620694
 20
11.8158848309
 30
0.0
 10
15.6987630011
 20
11.818385749
 30
0.0
 10
15.7009654118
 20
11.8201746344
 30
0.0
 10
15.7022048265
 20
11.8209368904
 30
0.0
  0
SPLINE
  5
2B6
100
AcDbEntity
  8
0
100
AcDbSpline
 62
7
  6
CONTINUOUS
 70
0
 71
3
 72
9
 73
5
 74
0
 42
0.0000001
 43
0.0000001
 44
0.0000000001
 40
0.0
 40
0.0
 40
0.0
 40
0.0
 40
0.4611830736
 40
1.0
 40
1.0
 40
1.0
 40
1.0
 10
15.7022048265
 20
11.8209368904
 30
0.0
 10
15.704101881
 20
11.8221036034
 30
0.0
 10
15.7087245805
 20
11.8238030575
 30
0.0
 10
15.7135710001
 20
11.8242548954
 30
0.0
 10
15.7161730178
 20
11.8242548954
 30
0.0
  0
SPLINE
  5
2B7
100
AcDbEntity
  8
0
100
AcDbSpline
 62
7
  6
CONTINUOUS
 70
0
 71
3
 72
9
 73
5
 74
0
 42
0.0000001
 43
0.0000001
 44
0.0000000001
 40
0.0
 40
0.0
 40
0.0
 40
0.0
 40
0.476841975
 40
1.0
 40
1.0
 40
1.0
 40
1.0
 10
15.1530366044
 20
11.8146177915
 30
0.0
 10
15.1534284115
 20
11.8158848309
 30
0.0
 10
15.1548293432
 20
11.818385749
 30
0.0
 10
15.1570317539
 20
11.8201746344
 30
0.0
 10
15.1582711686
 20
11.8209368904
 30
0.0
  0
SPLINE
  5
2B8
100
AcDbEntity
  8
0
100
AcDbSpline
 62
7
  6
CONTINUOUS
 70
0
 71
3
 72
9
 73
5
 74
0
 42
0.0000001
 43
0.0000001
 44
0.0000000001
 40
0.0
 40
0.0
 40
0.0
 40
0.0
 40
0.4611830736
 40
1.0
 40
1.0
 40
1.0
 40
1.0
 10
15.1582711686
 20
11.8209368904
 30
0.0
 10
15.1601682231
 20
11.8221036034
 30
0.0
 10
15.1647909226
 20
11.8238030575
 30
0.0
 10
15.1696373422
 20
11.8242548954
 30
0.0
 10
15.1722393599
 20
11.8242548954
 30
0.0
  0
SPLINE
  5
2B9
100
AcDbEntity
  8
0
100
AcDbSpline
 62
7
  6
CONTINUOUS
 70
0
 71
3
 72
9
 73
5
 74
0
 42
0.0000001
 43
0.0000001
 44
0.0000000001
 40
0.0
 40
0.0
 40
0.0
 40
0.0
 40
0.476841975
 40
1.0
 40
1.0
 40
1.0
 40
1.0
 10
14.6091029465
 20
11.8146177915
 30
0.0
 10
14.6094947536
 20
11.8158848309
 30
0.0
 10
14.6108956854
 20
11.818385749
 30
0.0
 10
14.613098096
 20
11.8201746344
 30
0.0
 10
14.6143375107
 20
11.8209368904
 30
0.0
  0
SPLINE
  5
2BA
100
AcDbEntity
  8
0
100
AcDbSpline
 62
7
  6
CONTINUOUS
 70
0
 71
3
 72
9
 73
5
 74
0
 42
0.0000001
 43
0.0000001
 44
0.0000000001
 40
0.0
 40
0.0
 40
0.0
 40
0.0
 40
0.4611830736
 40
1.0
 40
1.0
 40
1.0
 40
1.0
 10
14.6143375107
 20
11.8209368904
 30
0.0
 10
14.6162345653
 20
11.8221036034
 30
0.0
 10
14.6208572647
 20
11.8238030575
 30
0.0
 10
14.6257036844
 20
11.8242548954
 30
0.0
 10
14.628305702
 20
11.8242548954
 30
0.0
  0
SPLINE
  5
2BB
100
AcDbEntity
  8
0
100
AcDbSpline
 62
7
  6
CONTINUOUS
 70
0
 71
3
 72
9
 73
5
 74
0
 42
0.0000001
 43
0.0000001
 44
0.0000000001
 40
0.0
 40
0.0
 40
0.0
 40
0.0
 40
0.486422896
 40
1.0
 40
1.0
 40
1.0
 40
1.0
 10
14.0651684875
 20
11.8146180361
 30
0.0
 10
14.0654558652
 20
11.8155484683
 30
0.0
 10
14.0663465338
 20
11.8173793696
 30
0.0
 10
14.0677170188
 20
11.8188745084
 30
0.0
 10
14.0684948831
 20
11.8195468531
 30
0.0
  0
SPLINE
  5
2BC
100
AcDbEntity
  8
0
100
AcDbSpline
 62
7
  6
CONTINUOUS
 70
0
 71
3
 72
9
 73
5
 74
0
 42
0.0000001
 43
0.0000001
 44
0.0000000001
 40
0.0
 40
0.0
 40
0.0
 40
0.0
 40
0.4512680731
 40
1.0
 40
1.0
 40
1.0
 40
1.0
 10
14.0684948831
 20
11.8195468531
 30
0.0
 10
14.0704077709
 20
11.8212002519
 30
0.0
 10
14.0756654748
 20
11.823653691
 30
0.0
 10
14.0812975515
 20
11.8242548954
 30
0.0
 10
14.0843720442
 20
11.8242548954
 30
0.0
  0
SPLINE
  5
2BD
100
AcDbEntity
  8
0
100
AcDbSpline
 62
7
  6
CONTINUOUS
 70
0
 71
3
 72
11
 73
7
 74
0
 42
0.0000001
 43
0.0000001
 44
0.0000000001
 40
0.0
 40
0.0
 40
0.0
 40
0.0
 40
0.250859118
 40
0.5116790175
 40
0.7663602762
 40
1.0
 40
1.0
 40
1.0
 40
1.0
 10
16.4722295135
 20
11.8242548954
 30
0.0
 10
16.4751084521
 20
11.8242548954
 30
0.0
 10
16.48098951
 20
11.8236356097
 30
0.0
 10
16.4894826609
 20
11.8211985904
 30
0.0
 10
16.4972578864
 20
11.817433535
 30
0.0
 10
16.5017887296
 20
11.8140456468
 30
0.0
 10
16.5037125536
 20
11.8121779219
 30
0.0
  0
SPLINE
  5
2BE
100
AcDbEntity
  8
0
100
AcDbSpline
 62
7
  6
CONTINUOUS
 70
0
 71
3
 72
11
 73
7
 74
0
 42
0.0000001
 43
0.0000001
 44
0.0000000001
 40
0.0
 40
0.0
 40
0.0
 40
0.0
 40
0.250859118
 40
0.5116790175
 40
0.7663602762
 40
1.0
 40
1.0
 40
1.0
 40
1.0
 10
15.9282958557
 20
11.8242548954
 30
0.0
 10
15.9311747942
 20
11.8242548954
 30
0.0
 10
15.9370558521
 20
11.8236356097
 30
0.0
 10
15.9455490031
 20
11.8211985904
 30
0.0
 10
15.9533242285
 20
11.817433535
 30
0.0
 10
15.9578550718
 20
11.8140456468
 30
0.0
 10
15.9597788957
 20
11.8121779219
 30
0.0
  0
SPLINE
  5
2BF
100
AcDbEntity
  8
0
100
AcDbSpline
 62
7
  6
CONTINUOUS
 70
0
 71
3
 72
11
 73
7
 74
0
 42
0.0000001
 43
0.0000001
 44
0.0000000001
 40
0.0
 40
0.0
 40
0.0
 40
0.0
 40
0.250859118
 40
0.5116790175
 40
0.7663602762
 40
1.0
 40
1.0
 40
1.0
 40
1.0
 10
15.3843621978
 20
11.8242548954
 30
0.0
 10
15.3872411364
 20
11.8242548954
 30
0.0
 10
15.3931221942
 20
11.8236356097
 30
0.0
 10
15.4016153452
 20
11.8211985904
 30
0.0
 10
15.4093905707
 20
11.817433535
 30
0.0
 10
15.4139214139
 20
11.8140456468
 30
0.0
 10
15.4158452378
 20
11.8121779219
 30
0.0
  0
SPLINE
  5
2C0
100
AcDbEntity
  8
0
100
AcDbSpline
 62
7
  6
CONTINUOUS
 70
0
 71
3
 72
11
 73
7
 74
0
 42
0.0000001
 43
0.0000001
 44
0.0000000001
 40
0.0
 40
0.0
 40
0.0
 40
0.0
 40
0.250859118
 40
0.5116790175
 40
0.7663602762
 40
1.0
 40
1.0
 40
1.0
 40
1.0
 10
14.8404285399
 20
11.8242548954
 30
0.0
 10
14.8433074785
 20
11.8242548954
 30
0.0
 10
14.8491885363
 20
11.8236356097
 30
0.0
 10
14.8576816873
 20
11.8211985904
 30
0.0
 10
14.8654569128
 20
11.817433535
 30
0.0
 10
14.869987756
 20
11.8140456468
 30
0.0
 10
14.8719115799
 20
11.8121779219
 30
0.0
  0
SPLINE
  5
2C1
100
AcDbEntity
  8
0
100
AcDbSpline
 62
7
  6
CONTINUOUS
 70
0
 71
3
 72
11
 73
7
 74
0
 42
0.0000001
 43
0.0000001
 44
0.0000000001
 40
0.0
 40
0.0
 40
0.0
 40
0.0
 40
0.250859118
 40
0.5116790175
 40
0.7663602762
 40
1.0
 40
1.0
 40
1.0
 40
1.0
 10
14.296494882
 20
11.8242548954
 30
0.0
 10
14.2993738206
 20
11.8242548954
 30
0.0
 10
14.3052548785
 20
11.8236356097
 30
0.0
 10
14.3137480294
 20
11.8211985904
 30
0.0
 10
14.3215232549
 20
11.817433535
 30
0.0
 10
14.3260540981
 20
11.8140456468
 30
0.0
 10
14.3279779221
 20
11.8121779219
 30
0.0
  0
SPLINE
  5
2C2
100
AcDbEntity
  8
0
100
AcDbSpline
 62
7
  6
CONTINUOUS
 70
0
 71
3
 72
11
 73
7
 74
0
 42
0.0000001
 43
0.0000001
 44
0.0000000001
 40
0.0
 40
0.0
 40
0.0
 40
0.0
 40
0.3037042439
 40
0.5698808024
 40
0.7976287699
 40
1.0
 40
1.0
 40
1.0
 40
1.0
 10
16.7616738105
 20
11.7361526952
 30
0.0
 10
16.7639845683
 20
11.7361526952
 30
0.0
 10
16.7683375793
 20
11.73651937
 30
0.0
 10
16.7741857481
 20
11.7383576596
 30
0.0
 10
16.7786473547
 20
11.7414100448
 30
0.0
 10
16.7804216563
 20
11.7443187739
 30
0.0
 10
16.780876552
 20
11.7457898018
 30
0.0
  0
SPLINE
  5
2C3
100
AcDbEntity
  8
0
100
AcDbSpline
 62
7
  6
CONTINUOUS
 70
0
 71
3
 72
11
 73
7
 74
0
 42
0.0000001
 43
0.0000001
 44
0.0000000001
 40
0.0
 40
0.0
 40
0.0
 40
0.0
 40
0.2336381181
 40
0.4883228777
 40
0.7491392049
 40
1.0
 40
1.0
 40
1.0
 40
1.0
 10
16.5695815572
 20
11.7482296688
 30
0.0
 10
16.5715053679
 20
11.7463619567
 30
0.0
 10
16.5760362239
 20
11.7429740504
 30
0.0
 10
16.5838114357
 20
11.7392090059
 30
0.0
 10
16.5923046031
 20
11.7367719846
 30
0.0
 10
16.5981856394
 20
11.7361526952
 30
0.0
 10
16.6010645972
 20
11.7361526952
 30
0.0
  0
SPLINE
  5
2C4
100
AcDbEntity
  8
0
100
AcDbSpline
 62
7
  6
CONTINUOUS
 70
0
 71
3
 72
11
 73
7
 74
0
 42
0.0000001
 43
0.0000001
 44
0.0000000001
 40
0.0
 40
0.0
 40
0.0
 40
0.0
 40
0.3037042439
 40
0.5698808024
 40
0.7976287699
 40
1.0
 40
1.0
 40
1.0
 40
1.0
 10
16.2177401526
 20
11.7361526952
 30
0.0
 10
16.2200509104
 20
11.7361526952
 30
0.0
 10
16.2244039214
 20
11.73651937
 30
0.0
 10
16.2302520902
 20
11.7383576596
 30
0.0
 10
16.2347136968
 20
11.7414100448
 30
0.0
 10
16.2364879984
 20
11.7443187739
 30
0.0
 10
16.2369428941
 20
11.7457898018
 30
0.0
  0
SPLINE
  5
2C5
100
AcDbEntity
  8
0
100
AcDbSpline
 62
7
  6
CONTINUOUS
 70
0
 71
3
 72
11
 73
7
 74
0
 42
0.0000001
 43
0.0000001
 44
0.0000000001
 40
0.0
 40
0.0
 40
0.0
 40
0.0
 40
0.2336381181
 40
0.4883228777
 40
0.7491392049
 40
1.0
 40
1.0
 40
1.0
 40
1.0
 10
16.0256478993
 20
11.7482296688
 30
0.0
 10
16.02757171
 20
11.7463619567
 30
0.0
 10
16.032102566
 20
11.7429740504
 30
0.0
 10
16.0398777779
 20
11.7392090059
 30
0.0
 10
16.0483709453
 20
11.7367719846
 30
0.0
 10
16.0542519815
 20
11.7361526952
 30
0.0
 10
16.0571309393
 20
11.7361526952
 30
0.0
  0
SPLINE
  5
2C6
100
AcDbEntity
  8
0
100
AcDbSpline
 62
7
  6
CONTINUOUS
 70
0
 71
3
 72
11
 73
7
 74
0
 42
0.0000001
 43
0.0000001
 44
0.0000000001
 40
0.0
 40
0.0
 40
0.0
 40
0.0
 40
0.3037042439
 40
0.5698808024
 40
0.7976287699
 40
1.0
 40
1.0
 40
1.0
 40
1.0
 10
15.6738064947
 20
11.7361526952
 30
0.0
 10
15.6761172526
 20
11.7361526952
 30
0.0
 10
15.6804702635
 20
11.73651937
 30
0.0
 10
15.6863184323
 20
11.7383576596
 30
0.0
 10
15.6907800389
 20
11.7414100448
 30
0.0
 10
15.6925543406
 20
11.7443187739
 30
0.0
 10
15.6930092363
 20
11.7457898018
 30
0.0
  0
SPLINE
  5
2C7
100
AcDbEntity
  8
0
100
AcDbSpline
 62
7
  6
CONTINUOUS
 70
0
 71
3
 72
11
 73
7
 74
0
 42
0.0000001
 43
0.0000001
 44
0.0000000001
 40
0.0
 40
0.0
 40
0.0
 40
0.0
 40
0.2336381181
 40
0.4883228777
 40
0.7491392049
 40
1.0
 40
1.0
 40
1.0
 40
1.0
 10
15.4817142414
 20
11.7482296688
 30
0.0
 10
15.4836380521
 20
11.7463619567
 30
0.0
 10
15.4881689082
 20
11.7429740504
 30
0.0
 10
15.49594412
 20
11.7392090059
 30
0.0
 10
15.5044372874
 20
11.7367719846
 30
0.0
 10
15.5103183236
 20
11.7361526952
 30
0.0
 10
15.5131972814
 20
11.7361526952
 30
0.0
  0
SPLINE
  5
2C8
100
AcDbEntity
  8
0
100
AcDbSpline
 62
7
  6
CONTINUOUS
 70
0
 71
3
 72
11
 73
7
 74
0
 42
0.0000001
 43
0.0000001
 44
0.0000000001
 40
0.0
 40
0.0
 40
0.0
 40
0.0
 40
0.3037042439
 40
0.5698808024
 40
0.7976287699
 40
1.0
 40
1.0
 40
1.0
 40
1.0
 10
15.1298728369
 20
11.7361526952
 30
0.0
 10
15.1321835947
 20
11.7361526952
 30
0.0
 10
15.1365366056
 20
11.73651937
 30
0.0
 10
15.1423847745
 20
11.7383576596
 30
0.0
 10
15.1468463811
 20
11.7414100448
 30
0.0
 10
15.1486206827
 20
11.7443187739
 30
0.0
 10
15.1490755784
 20
11.7457898018
 30
0.0
  0
SPLINE
  5
2C9
100
AcDbEntity
  8
0
100
AcDbSpline
 62
7
  6
CONTINUOUS
 70
0
 71
3
 72
11
 73
7
 74
0
 42
0.0000001
 43
0.0000001
 44
0.0000000001
 40
0.0
 40
0.0
 40
0.0
 40
0.0
 40
0.2336381181
 40
0.4883228777
 40
0.7491392049
 40
1.0
 40
1.0
 40
1.0
 40
1.0
 10
14.9377805835
 20
11.7482296688
 30
0.0
 10
14.9397043942
 20
11.7463619567
 30
0.0
 10
14.9442352503
 20
11.7429740504
 30
0.0
 10
14.9520104621
 20
11.7392090059
 30
0.0
 10
14.9605036295
 20
11.7367719846
 30
0.0
 10
14.9663846657
 20
11.7361526952
 30
0.0
 10
14.9692636236
 20
11.7361526952
 30
0.0
  0
SPLINE
  5
2CA
100
AcDbEntity
  8
0
100
AcDbSpline
 62
7
  6
CONTINUOUS
 70
0
 71
3
 72
11
 73
7
 74
0
 42
0.0000001
 43
0.0000001
 44
0.0000000001
 40
0.0
 40
0.0
 40
0.0
 40
0.0
 40
0.3037042439
 40
0.5698808024
 40
0.7976287699
 40
1.0
 40
1.0
 40
1.0
 40
1.0
 10
14.585939179
 20
11.7361526952
 30
0.0
 10
14.5882499368
 20
11.7361526952
 30
0.0
 10
14.5926029478
 20
11.73651937
 30
0.0
 10
14.5984511166
 20
11.7383576596
 30
0.0
 10
14.6029127232
 20
11.7414100448
 30
0.0
 10
14.6046870248
 20
11.7443187739
 30
0.0
 10
14.6051419205
 20
11.7457898018
 30
0.0
  0
SPLINE
  5
2CB
100
AcDbEntity
  8
0
100
AcDbSpline
 62
7
  6
CONTINUOUS
 70
0
 71
3
 72
11
 73
7
 74
0
 42
0.0000001
 43
0.0000001
 44
0.0000000001
 40
0.0
 40
0.0
 40
0.0
 40
0.0
 40
0.2336381181
 40
0.4883228777
 40
0.7491392049
 40
1.0
 40
1.0
 40
1.0
 40
1.0
 10
14.3938469256
 20
11.7482296688
 30
0.0
 10
14.3957707364
 20
11.7463619567
 30
0.0
 10
14.4003015924
 20
11.7429740504
 30
0.0
 10
14.4080768042
 20
11.7392090059
 30
0.0
 10
14.4165699716
 20
11.7367719846
 30
0.0
 10
14.4224510079
 20
11.7361526952
 30
0.0
 10
14.4253299657
 20
11.7361526952
 30
0.0
  0
SPLINE
  5
2CC
100
AcDbEntity
  8
0
100
AcDbSpline
 62
7
  6
CONTINUOUS
 70
0
 71
3
 72
11
 73
7
 74
0
 42
0.0000001
 43
0.0000001
 44
0.0000000001
 40
0.0
 40
0.0
 40
0.0
 40
0.0
 40
0.3037900823
 40
0.5698929642
 40
0.7977141674
 40
1.0
 40
1.0
 40
1.0
 40
1.0
 10
14.0420055211
 20
11.7361526952
 30
0.0
 10
14.0443169675
 20
11.7361526952
 30
0.0
 10
14.0486702045
 20
11.7365189189
 30
0.0
 10
14.0545189452
 20
11.7383583722
 30
0.0
 10
14.0589793814
 20
11.7414108525
 30
0.0
 10
14.0607548661
 20
11.7443189707
 30
0.0
 10
14.0612090773
 20
11.7457895548
 30
0.0
  0
SPLINE
  5
2CD
100
AcDbEntity
  8
0
100
AcDbSpline
 62
7
  6
CONTINUOUS
 70
0
 71
3
 72
11
 73
7
 74
0
 42
0.0000001
 43
0.0000001
 44
0.0000000001
 40
0.0
 40
0.0
 40
0.0
 40
0.0
 40
0.2336538884
 40
0.4883237762
 40
0.7491246699
 40
1.0
 40
1.0
 40
1.0
 40
1.0
 10
13.8499132678
 20
11.7482296688
 30
0.0
 10
13.8518372062
 20
11.7463618326
 30
0.0
 10
13.8563680228
 20
11.7429738071
 30
0.0
 10
13.8641433551
 20
11.739209478
 30
0.0
 10
13.8726361175
 20
11.7367718457
 30
0.0
 10
13.8785171863
 20
11.7361526952
 30
0.0
 10
13.8813963078
 20
11.7361526952
 30
0.0
  0
SPLINE
  5
2CE
100
AcDbEntity
  8
0
100
AcDbSpline
 62
7
  6
CONTINUOUS
 70
0
 71
3
 72
11
 73
7
 74
0
 42
0.0000001
 43
0.0000001
 44
0.0000000001
 40
0.0
 40
0.0
 40
0.0
 40
0.0
 40
0.250875846
 40
0.5116778929
 40
0.7663466089
 40
1.0
 40
1.0
 40
1.0
 40
1.0
 10
13.7525612241
 20
11.8242548954
 30
0.0
 10
13.7554403516
 20
11.8242548954
 30
0.0
 10
13.7613214394
 20
11.8236357402
 30
0.0
 10
13.7698142062
 20
11.8211981015
 30
0.0
 10
13.7775895306
 20
11.8174337702
 30
0.0
 10
13.7821203298
 20
11.814045754
 30
0.0
 10
13.7840442642
 20
11.8121779219
 30
0.0
  0
ENDSEC
  0
SECTION
  2
OBJECTS
  0
DICTIONARY
  5
C
100
AcDbDictionary
280
0
281
1
  3
ACAD_GROUP
350
D
  3
ACAD_MLINESTYLE
350
17
  3
ACAD_LAYOUT
350
1A
  3
ACAD_PLOTSETTINGS
350
19
  3
ACAD_PLOTSTYLENAME
350
E
  0
DICTIONARY
  5
D
102
{ACAD_REACTORS
330
C
102
}
100
AcDbDictionary
280
0
281
1
  0
ACDBDICTIONARYWDFLT
  5
E
102
{ACAD_REACTORS
330
C
102
}
100
AcDbDictionary
281
1
  3
Normal
350
F
100
AcDbDictionaryWithDefault
340
F
  0
DICTIONARY
  5
17
102
{ACAD_REACTORS
330
C
102
}
100
AcDbDictionary
280
0
281
1
  3
Standard
350
18
  0
DICTIONARY
  5
19
102
{ACAD_REACTORS
330
C
102
}
100
AcDbDictionary
281
1
  0
DICTIONARY
  5
1A
102
{ACAD_REACTORS
330
C
102
}
100
AcDbDictionary
281
1
  3
Model
350
2CF
  3
Layout1
350
2D0
  0
ACDBPLACEHOLDER
  5
F
102
{ACAD_REACTORS
330
E
102
}
  0
MLINESTYLE
  5
18
102
{ACAD_REACTORS
330
17
102
}
100
AcDbMlineStyle
  2
STANDARD
 70
0
  3

 62
256
 51
90.0
 52
90.0
 71
2
 49
0.5
 62
256
  6
BYLAYER
 49
-0.5
 62
256
  6
BYLAYER
  0
LAYOUT
  5
2CF
102
{ACAD_REACTORS
330
1A
102
}
100
AcDbPlotSettings
  1

  2
none_device
  4
ANSI_C_(22.00_x_17.00_Inches)
  6

 40
0.0
 41
0.0
 42
0.0
 43
0.0
 44
558.8
 45
431.8
 46
0.0
 47
0.0
 48
0.0
 49
0.0
140
0.0
141
0.0
142
1.0
143
1.0
 70
1024
 72
0
 73
0
 74
0
  7

 75
0
147
1.0
148
0.0
149
0.0
100
AcDbLayout
  1
Model
 70
0
 71
0
 10
0.0
 20
0.0
 11
22.0
 21
17.0
 12
0.0
 22
0.0
 32
0.0
 14
0.0
 24
0.0
 34
0.0
 15
0.0
 25
0.0
 35
0.0
146
0.0
 13
0.0
 23
0.0
 33
0.0
 16
1.0
 26
0.0
 36
0.0
 17
0.0
 27
1.0
 37
0.0
 76
0
330
216
345
0
346
0
  0
LAYOUT
  5
2D0
102
{ACAD_REACTORS
330
1A
102
}
100
AcDbPlotSettings
  1

  2
none_device
  4
ANSI_C_(22.00_x_17.00_Inches)
  6

 40
0.0
 41
0.0
 42
0.0
 43
0.0
 44
558.8
 45
431.8
 46
0.0
 47
0.0
 48
0.0
 49
0.0
140
0.0
141
0.0
142
1.0
143
1.0
 70
0
 72
0
 73
0
 74
0
  7

 75
0
147
1.0
148
0.0
149
0.0
100
AcDbLayout
  1
Layout1
 70
0
 71
1
 10
0.0
 20
0.0
 11
22.0
 21
17.0
 12
0.0
 22
0.0
 32
0.0
 14
0.0
 24
0.0
 34
0.0
 15
0.0
 25
0.0
 35
0.0
146
0.0
 13
0.0
 23
0.0
 33
0.0
 16
1.0
 26
0.0
 36
0.0
 17
0.0
 27
1.0
 37
0.0
 76
0
330
217
345
0
346
0
  0
ENDSEC
  0
EOF