999
DXF file: _cgs_temp_output.dxf
999
Pro/ENGINEER 2016360 by Parametric Technology Corporation
  0
SECTION
  2
HEADER
  9
$ACADVER
  1
AC1021
  9
$DWGCODEPAGE
  3
ANSI_1252
  9
$EXTMAX
 10
22.0
 20
17.0
 30
0.0
  9
$EXTMIN
 10
0.0
 20
0.0
 30
0.0
  9
$LIMMIN
 10
0.0
 20
0.0
  9
$LIMMAX
 10
22.0
 20
17.0
  9
$VIEWCTR
 10
11.0
 20
8.5
  9
$VIEWSIZE
 40
17.0
  9
$CLAYER
  8
0
  9
$LTSCALE
 40
1.21
  9
$CELTYPE
  6
BYLAYER
  9
$DIMSCALE
 40
1.0
  9
$DIMASZ
 40
0.1875
  9
$DIMEXO
 40
0.0625
  9
$DIMDLI
 40
0.836
  9
$DIMEXE
 40
0.125
  9
$DIMCEN
 40
0.198
  9
$DIMLFAC
 40
1.0
  9
$DIMBLK
  1
_CLOSED
  9
$DIMALT
 70
0
  9
$DIMALTF
 40
25.4
  9
$DIMTXT
 40
0.15625
  9
$DIMTOL
 70
0
  9
$DIMLIM
 70
0
  9
$DIMTFAC
 40
1.0
  9
$DIMGAP
 40
0.09
  9
$DIMDSEP
 70
46
  9
$AUNITS
 70
0
  9
$PDMODE
 70
3
  9
$PDSIZE
 40
0.3125
  9
$HANDSEED
  5
2D1
  9
$TILEMODE
 70
1
  9
$MEASUREMENT
 70
0
  9
$INSUNITS
 70
1
  0
ENDSEC
  0
SECTION
  2
CLASSES
  0
CLASS
  1
ACDBDICTIONARYWDFLT
  2
AcDbDictionaryWithDefault
  3
AutoCAD 2000
 90
0
 91
1
280
0
281
0
  0
CLASS
  1
ACDBPLACEHOLDER
  2
AcDbPlaceHolder
  3
AutoCAD 2000
 90
0
 91
1
280
0
281
0
  0
CLASS
  1
LAYOUT
  2
AcDbLayout
  3
AutoCAD 2000
 90
0
 91
0
280
0
281
0
  0
ENDSEC
  0
SECTION
  2
TABLES
  0
TABLE
  2
VPORT
  5
8
100
AcDbSymbolTable
 70
2
  0
VPORT
  5
1F4
100
AcDbSymbolTableRecord
100
AcDbViewportTableRecord
  2
*ACTIVE
 70
0
 10
0.0
 20
0.0
 11
1.0
 21
1.0
 12
11.0
 22
8.5
 13
0.0
 23
0.0
 14
1.0
 24
1.0
 15
0.0
 25
0.0
 16
0.0
 26
0.0
 36
1.0
 17
0.0
 27
0.0
 37
0.0
 40
17.0
 41
1.2941176471
 42
50.0
 43
0.0
 44
0.0
 50
0.0
 51
0.0
 71
0
 72
100
 73
1
 74
1
 75
0
 76
0
 77
0
 78
0
  0
ENDTAB
  0
TABLE
  2
LTYPE
  5
5
100
AcDbSymbolTable
 70
6
  0
LTYPE
  5
14
100
AcDbSymbolTableRecord
100
AcDbLinetypeTableRecord
  2
BYBLOCK
 70
0
  3

 72
65
 73
0
 40
0.0
  0
LTYPE
  5
15
100
AcDbSymbolTableRecord
100
AcDbLinetypeTableRecord
  2
BYLAYER
 70
0
  3

 72
65
 73
0
 40
0.0
  0
LTYPE
  5
16
100
AcDbSymbolTableRecord
100
AcDbLinetypeTableRecord
  2
CONTINUOUS
 70
64
  3
Solid line
 72
65
 73
0
 40
0.0
  0
LTYPE
  5
1F5
100
AcDbSymbolTableRecord
100
AcDbLinetypeTableRecord
  2
CENTER
 70
64
  3
____ _ ____ _ ____ _ ____ _ ____ _ ____ _ ____
 72
65
 73
4
 40
0.6
 49
0.375
 74
0
 49
-0.075
 74
0
 49
0.075
 74
0
 49
-0.075
 74
0
  0
LTYPE
  5
1F6
100
AcDbSymbolTableRecord
100
AcDbLinetypeTableRecord
  2
HIDDEN
 70
64
  3
- - - - - - - - - - - - - - - - - - - -
 72
65
 73
2
 40
0.2
 49
0.1
 74
0
 49
-0.1
 74
0
  0
LTYPE
  5
1F7
100
AcDbSymbolTableRecord
100
AcDbLinetypeTableRecord
  2
PHANTOM
 70
64
  3
_____ _ _ _____ _ _ _____ _ _ _____
 72
65
 73
6
 40
0.8
 49
0.45
 74
0
 49
-0.05
 74
0
 49
0.1
 74
0
 49
-0.05
 74
0
 49
0.1
 74
0
 49
-0.05
 74
0
  0
LTYPE
  5
1F8
100
AcDbSymbolTableRecord
100
AcDbLinetypeTableRecord
  2
DOT
 70
64
  3
. . . . . . . . . . . . . . . . . . . .
 72
65
 73
2
 40
0.2
 49
0.1
 74
0
 49
-0.1
 74
0
  0
LTYPE
  5
1F9
100
AcDbSymbolTableRecord
100
AcDbLinetypeTableRecord
  2
DASHED
 70
64
  3
- - - - - - - - - - - - - - - - - - - -
 72
65
 73
2
 40
0.2
 49
0.1
 74
0
 49
-0.1
 74
0
  0
ENDTAB
  0
TABLE
  2
LAYER
  5
2
100
AcDbSymbolTable
 70
36
  0
LAYER
  5
10
100
AcDbSymbolTableRecord
100
AcDbLayerTableRecord
  2
0
 70
0
 62
7
  6
CONTINUOUS
370
-3
390
F
  0
LAYER
  5
1FA
100
AcDbSymbolTableRecord
100
AcDbLayerTableRecord
  2
DEFAULT_1
 70
0
 62
7
  6
CENTER
370
-3
390
F
  0
LAYER
  5
1FB
100
AcDbSymbolTableRecord
100
AcDbLayerTableRecord
  2
DEFAULT_2
 70
0
 62
8
  6
HIDDEN
370
-3
390
F
  0
LAYER
  5
1FC
100
AcDbSymbolTableRecord
100
AcDbLayerTableRecord
  2
DEFAULT_3
 70
0
 62
7
  6
PHANTOM
370
-3
390
F
  0
LAYER
  5
1FD
100
AcDbSymbolTableRecord
100
AcDbLayerTableRecord
  2
01_ALL_DTM_PLN
 70
0
 62
7
  6
CONTINUOUS
370
-3
390
F
  0
LAYER
  5
1FE
100
AcDbSymbolTableRecord
100
AcDbLayerTableRecord
  2
01__ASM_ALL_DTM_PLN
 70
0
 62
7
  6
CONTINUOUS
370
-3
390
F
  0
LAYER
  5
1FF
100
AcDbSymbolTableRecord
100
AcDbLayerTableRecord
  2
01__ASM_DEF_DTM_PLN
 70
0
 62
7
  6
CONTINUOUS
370
-3
390
F
  0
LAYER
  5
200
100
AcDbSymbolTableRecord
100
AcDbLayerTableRecord
  2
01___PRT_ALL_DTM_PLN
 70
0
 62
7
  6
CONTINUOUS
370
-3
390
F
  0
LAYER
  5
201
100
AcDbSymbolTableRecord
100
AcDbLayerTableRecord
  2
01___PRT_DEF_DTM_PLN
 70
0
 62
7
  6
CONTINUOUS
370
-3
390
F
  0
LAYER
  5
202
100
AcDbSymbolTableRecord
100
AcDbLayerTableRecord
  2
02_ALL_AXES
 70
0
 62
7
  6
CONTINUOUS
370
-3
390
F
  0
LAYER
  5
203
100
AcDbSymbolTableRecord
100
AcDbLayerTableRecord
  2
02__ASM_ALL_AXES
 70
0
 62
7
  6
CONTINUOUS
370
-3
390
F
  0
LAYER
  5
204
100
AcDbSymbolTableRecord
100
AcDbLayerTableRecord
  2
02___PRT_ALL_AXES
 70
0
 62
7
  6
CONTINUOUS
370
-3
390
F
  0
LAYER
  5
205
100
AcDbSymbolTableRecord
100
AcDbLayerTableRecord
  2
03_ALL_CURVES
 70
0
 62
7
  6
CONTINUOUS
370
-3
390
F
  0
LAYER
  5
206
100
AcDbSymbolTableRecord
100
AcDbLayerTableRecord
  2
03__ASM_ALL_CURVES
 70
0
 62
7
  6
CONTINUOUS
370
-3
390
F
  0
LAYER
  5
207
100
AcDbSymbolTableRecord
100
AcDbLayerTableRecord
  2
03___PRT_ALL_CURVES
 70
0
 62
7
  6
CONTINUOUS
370
-3
390
F
  0
LAYER
  5
208
100
AcDbSymbolTableRecord
100
AcDbLayerTableRecord
  2
04_ALL_DTM_PNT
 70
0
 62
7
  6
CONTINUOUS
370
-3
390
F
  0
LAYER
  5
209
100
AcDbSymbolTableRecord
100
AcDbLayerTableRecord
  2
04__ASM_ALL_DTM_PNT
 70
0
 62
7
  6
CONTINUOUS
370
-3
390
F
  0
LAYER
  5
20A
100
AcDbSymbolTableRecord
100
AcDbLayerTableRecord
  2
04___PRT_ALL_DTM_PNT
 70
0
 62
7
  6
CONTINUOUS
370
-3
390
F
  0
LAYER
  5
20B
100
AcDbSymbolTableRecord
100
AcDbLayerTableRecord
  2
05_ALL_DTM_CSYS
 70
0
 62
7
  6
CONTINUOUS
370
-3
390
F
  0
LAYER
  5
20C
100
AcDbSymbolTableRecord
100
AcDbLayerTableRecord
  2
05__ASM_ALL_DTM_CSYS
 70
0
 62
7
  6
CONTINUOUS
370
-3
390
F
  0
LAYER
  5
20D
100
AcDbSymbolTableRecord
100
AcDbLayerTableRecord
  2
05__ASM_DEF_DTM_CSYS
 70
0
 62
7
  6
CONTINUOUS
370
-3
390
F
  0
LAYER
  5
20E
100
AcDbSymbolTableRecord
100
AcDbLayerTableRecord
  2
05___PRT_ALL_DTM_CSYS
 70
0
 62
7
  6
CONTINUOUS
370
-3
390
F
  0
LAYER
  5
20F
100
AcDbSymbolTableRecord
100
AcDbLayerTableRecord
  2
05___PRT_DEF_DTM_CSYS
 70
0
 62
7
  6
CONTINUOUS
370
-3
390
F
  0
LAYER
  5
210
100
AcDbSymbolTableRecord
100
AcDbLayerTableRecord
  2
06_ALL_SURFS
 70
0
 62
7
  6
CONTINUOUS
370
-3
390
F
  0
LAYER
  5
211
100
AcDbSymbolTableRecord
100
AcDbLayerTableRecord
  2
06__ASM_ALL_SURFS
 70
0
 62
7
  6
CONTINUOUS
370
-3
390
F
  0
LAYER
  5
212
100
AcDbSymbolTableRecord
100
AcDbLayerTableRecord
  2
06___PRT_ALL_SURFS
 70
0
 62
7
  6
CONTINUOUS
370
-3
390
F
  0
LAYER
  5
213
100
AcDbSymbolTableRecord
100
AcDbLayerTableRecord
  2
07__ASM_ALL_SKELETONS
 70
0
 62
7
  6
CONTINUOUS
370
-3
390
F
  0
ENDTAB
  0
TABLE
  2
STYLE
  5
3
100
AcDbSymbolTable
 70
1
  0
STYLE
  5
11
100
AcDbSymbolTableRecord
100
AcDbTextStyleTableRecord
  2
STANDARD
 70
0
 40
0.0
 41
0.8
 50
0.0
 71
0
 42
0.2
  3
txt
  4

  0
STYLE
  5
214
100
AcDbSymbolTableRecord
100
AcDbTextStyleTableRecord
  2
TEXTSTYLE_1
 70
0
 40
0.0
 41
0.8
 50
0.0
 71
0
 42
0.2
  3
gdt
  4

  0
ENDTAB
  0
TABLE
  2
VIEW
  5
6
100
AcDbSymbolTable
 70
0
  0
ENDTAB
  0
TABLE
  2
UCS
  5
7
100
AcDbSymbolTable
 70
0
  0
ENDTAB
  0
TABLE
  2
APPID
  5
9
100
AcDbSymbolTable
 70
1
  0
APPID
  5
215
100
AcDbSymbolTableRecord
100
AcDbRegAppTableRecord
  2
ACAD
 70
0
  0
ENDTAB
  0
TABLE
  2
BLOCK_RECORD
  5
1
100
AcDbSymbolTable
 70
0
  0
BLOCK_RECORD
  5
216
100
AcDbSymbolTableRecord
100
AcDbBlockTableRecord
  2
*Model_Space
  0
BLOCK_RECORD
  5
217
100
AcDbSymbolTableRecord
100
AcDbBlockTableRecord
  2
*Paper_Space
  0
ENDTAB
  0
TABLE
  2
DIMSTYLE
  5
A
100
AcDbSymbolTable
 70
1
100
AcDbDimStyleTable
 71
0
  0
DIMSTYLE
105
218
100
AcDbSymbolTableRecord
100
AcDbDimStyleTableRecord
  2
STANDARD
 70
0
  3

  4

 40
1.0
 41
0.1875
 42
0.0625
 43
0.38
 44
0.125
 45
0.0
 46
0.0
 47
0.0001
 48
0.0001
140
0.15625
141
0.09
142
0.0
143
25.4
144
1.0
145
0.0
146
1.0
147
0.09
 71
0.0
 72
0.0
 73
1
 74
1
 75
0
 76
0
 77
0
 78
4
 79
1
170
0
171
3
172
0
173
0
174
0
175
0
176
0
177
0
178
0
270
2
179
4
271
4
272
4
273
2
274
2
275
0
280
0
281
0
282
0
283
1
284
4
285
0
286
0
287
3
288
0
340
11
278
46
  0
ENDTAB
  0
ENDSEC
  0
SECTION
  2
BLOCKS
  0
BLOCK
  5
20
100
AcDbEntity
  8
0
100
AcDbBlockBegin
  2
*Model_Space
 70
0
 10
0.0
 20
0.0
 30
0.0
  3
*Model_Space
  1

  0
ENDBLK
  5
21
100
AcDbEntity
  8
0
100
AcDbBlockEnd
  0
BLOCK
  5
1C
100
AcDbEntity
  8
0
100
AcDbBlockBegin
  2
*Paper_Space
 70
0
 10
0.0
 20
0.0
 30
0.0
  3
*Paper_Space
  1

  0
ENDBLK
  5
1D
100
AcDbEntity
  8
0
100
AcDbBlockEnd
  0
ENDSEC
  0
SECTION
  2
ENTITIES
  0
MTEXT
  5
219
100
AcDbEntity
  8
0
100
AcDbMText
 62
7
  6
CONTINUOUS
  7
STANDARD
 71
1
 72
1
 10
15.9560215477
 20
0.9479130325
 30
0.0
 11
1.0
 21
0.0
 31
0.0
 44
0.9
  1
SCALE: 1:1.000
 40
0.3
 41
3.36
  0
LINE
  5
21A
100
AcDbEntity
  8
0
100
AcDbLine
 62
7
  6
CONTINUOUS
 10
0.0
 20
0.0
 11
0.0
 21
17.0
  0
LINE
  5
21B
100
AcDbEntity
  8
0
100
AcDbLine
 62
7
  6
CONTINUOUS
 10
0.0
 20
0.0
 11
22.0
 21
0.0
  0
LINE
  5
21C
100
AcDbEntity
  8
0
100
AcDbLine
 62
7
  6
CONTINUOUS
 10
0.0
 20
17.0
 11
22.0
 21
17.0
  0
LINE
  5
21D
100
AcDbEntity
  8
0
100
AcDbLine
 62
7
  6
CONTINUOUS
 10
22.0
 20
0.0
 11
22.0
 21
17.0
  0
LINE
  5
21E
100
AcDbEntity
  8
0
100
AcDbLine
 62
7
  6
CONTINUOUS
 10
3.7681625518
 20
5.6776002117
 11
3.7681625518
 21
5.5909860385
  0
LINE
  5
21F
100
AcDbEntity
  8
0
100
AcDbLine
 62
7
  6
CONTINUOUS
 10
3.9681473475
 20
5.5400614364
 11
4.0256522116
 21
5.3820681209
  0
LINE
  5
220
100
AcDbEntity
  8
0
100
AcDbLine
 62
7
  6
CONTINUOUS
 10
4.2980744667
 20
5.3820681209
 11
4.3555793308
 21
5.5400614364
  0
LINE
  5
221
100
AcDbEntity
  8
0
100
AcDbLine
 62
7
  6
CONTINUOUS
 10
3.7681625518
 20
5.5909860385
 11
3.7996586147
 21
5.5594899755
  0
LINE
  5
222
100
AcDbEntity
  8
0
100
AcDbLine
 62
7
  6
CONTINUOUS
 10
4.7555489223
 20
5.5400614364
 11
4.8130537864
 21
5.3820681209
  0
LINE
  5
223
100
AcDbEntity
  8
0
100
AcDbLine
 62
7
  6
CONTINUOUS
 10
4.5240680636
 20
5.5594899755
 11
4.5555641266
 21
5.5909860385
  0
LINE
  5
224
100
AcDbEntity
  8
0
100
AcDbLine
 62
7
  6
CONTINUOUS
 10
5.0854760415
 20
5.3820681209
 11
5.1429809056
 21
5.5400614364
  0
LINE
  5
225
100
AcDbEntity
  8
0
100
AcDbLine
 62
7
  6
CONTINUOUS
 10
4.5555641266
 20
5.5909860385
 11
4.5870601896
 21
5.5594899755
  0
LINE
  5
226
100
AcDbEntity
  8
0
100
AcDbLine
 62
7
  6
CONTINUOUS
 10
5.3114696384
 20
5.5594899755
 11
5.3429657014
 21
5.5909860385
  0
LINE
  5
227
100
AcDbEntity
  8
0
100
AcDbLine
 62
7
  6
CONTINUOUS
 10
5.3429657014
 20
5.5909860385
 11
5.3744617644
 21
5.5594899755
  0
LINE
  5
228
100
AcDbEntity
  8
0
100
AcDbLine
 62
7
  6
CONTINUOUS
 10
5.5429504971
 20
5.5400614364
 11
5.6004553612
 21
5.3820681209
  0
LINE
  5
229
100
AcDbEntity
  8
0
100
AcDbLine
 62
7
  6
CONTINUOUS
 10
5.8728776163
 20
5.3820681209
 11
5.9303824804
 21
5.5400614364
  0
LINE
  5
22A
100
AcDbEntity
  8
0
100
AcDbLine
 62
7
  6
CONTINUOUS
 10
4.0533990409
 20
5.3626395818
 11
4.2703276374
 21
5.3626395818
  0
LINE
  5
22B
100
AcDbEntity
  8
0
100
AcDbLine
 62
7
  6
CONTINUOUS
 10
4.8408006157
 20
5.3626395818
 11
5.0577292122
 21
5.3626395818
  0
LINE
  5
22C
100
AcDbEntity
  8
0
100
AcDbLine
 62
7
  6
CONTINUOUS
 10
5.6282021905
 20
5.3626395818
 11
5.845130787
 21
5.3626395818
  0
LINE
  5
22D
100
AcDbEntity
  8
0
100
AcDbLine
 62
7
  6
CONTINUOUS
 10
6.4156037653
 20
5.3626395818
 11
6.6325323618
 21
5.3626395818
  0
LINE
  5
22E
100
AcDbEntity
  8
0
100
AcDbLine
 62
7
  6
CONTINUOUS
 10
7.2030053401
 20
5.3626395818
 11
7.4199339366
 21
5.3626395818
  0
LINE
  5
22F
100
AcDbEntity
  8
0
100
AcDbLine
 62
7
  6
CONTINUOUS
 10
7.9904069149
 20
5.3626395818
 11
8.2073355114
 21
5.3626395818
  0
LINE
  5
230
100
AcDbEntity
  8
0
100
AcDbLine
 62
7
  6
CONTINUOUS
 10
6.0988712132
 20
5.5594899755
 11
6.1303672762
 21
5.5909860385
  0
LINE
  5
231
100
AcDbEntity
  8
0
100
AcDbLine
 62
7
  6
CONTINUOUS
 10
3.7996586147
 20
5.5594899755
 11
3.9404005181
 21
5.5594899755
  0
LINE
  5
232
100
AcDbEntity
  8
0
100
AcDbLine
 62
7
  6
CONTINUOUS
 10
4.3833261602
 20
5.5594899755
 11
4.5240680636
 21
5.5594899755
  0
LINE
  5
233
100
AcDbEntity
  8
0
100
AcDbLine
 62
7
  6
CONTINUOUS
 10
4.5870601896
 20
5.5594899755
 11
4.727802093
 21
5.5594899755
  0
LINE
  5
234
100
AcDbEntity
  8
0
100
AcDbLine
 62
7
  6
CONTINUOUS
 10
5.170727735
 20
5.5594899755
 11
5.3114696384
 21
5.5594899755
  0
LINE
  5
235
100
AcDbEntity
  8
0
100
AcDbLine
 62
7
  6
CONTINUOUS
 10
5.3744617644
 20
5.5594899755
 11
5.5152036678
 21
5.5594899755
  0
LINE
  5
236
100
AcDbEntity
  8
0
100
AcDbLine
 62
7
  6
CONTINUOUS
 10
5.9581293098
 20
5.5594899755
 11
6.0988712132
 21
5.5594899755
  0
LINE
  5
237
100
AcDbEntity
  8
0
100
AcDbLine
 62
7
  6
CONTINUOUS
 10
6.1618633392
 20
5.5594899755
 11
6.3026052426
 21
5.5594899755
  0
LINE
  5
238
100
AcDbEntity
  8
0
100
AcDbLine
 62
7
  6
CONTINUOUS
 10
6.7455308846
 20
5.5594899755
 11
6.886272788
 21
5.5594899755
  0
LINE
  5
239
100
AcDbEntity
  8
0
100
AcDbLine
 62
7
  6
CONTINUOUS
 10
6.949264914
 20
5.5594899755
 11
7.0900068174
 21
5.5594899755
  0
LINE
  5
23A
100
AcDbEntity
  8
0
100
AcDbLine
 62
7
  6
CONTINUOUS
 10
7.5329324594
 20
5.5594899755
 11
7.6736743628
 21
5.5594899755
  0
LINE
  5
23B
100
AcDbEntity
  8
0
100
AcDbLine
 62
7
  6
CONTINUOUS
 10
7.7366664888
 20
5.5594899755
 11
7.8774083922
 21
5.5594899755
  0
LINE
  5
23C
100
AcDbEntity
  8
0
100
AcDbLine
 62
7
  6
CONTINUOUS
 10
8.3203340342
 20
5.5594899755
 11
8.4610759376
 21
5.5594899755
  0
LINE
  5
23D
100
AcDbEntity
  8
0
100
AcDbLine
 62
7
  6
CONTINUOUS
 10
8.4925720006
 20
5.6776002117
 11
3.7681625518
 21
5.6776002117
  0
LINE
  5
23E
100
AcDbEntity
  8
0
100
AcDbLine
 62
7
  6
CONTINUOUS
 10
6.1303672762
 20
5.5909860385
 11
6.1618633392
 21
5.5594899755
  0
LINE
  5
23F
100
AcDbEntity
  8
0
100
AcDbLine
 62
7
  6
CONTINUOUS
 10
6.3303520719
 20
5.5400614364
 11
6.387856936
 21
5.3820681209
  0
LINE
  5
240
100
AcDbEntity
  8
0
100
AcDbLine
 62
7
  6
CONTINUOUS
 10
6.6602791912
 20
5.3820681209
 11
6.7177840552
 21
5.5400614364
  0
LINE
  5
241
100
AcDbEntity
  8
0
100
AcDbLine
 62
7
  6
CONTINUOUS
 10
6.886272788
 20
5.5594899755
 11
6.917768851
 21
5.5909860385
  0
LINE
  5
242
100
AcDbEntity
  8
0
100
AcDbLine
 62
7
  6
CONTINUOUS
 10
6.917768851
 20
5.5909860385
 11
6.949264914
 21
5.5594899755
  0
LINE
  5
243
100
AcDbEntity
  8
0
100
AcDbLine
 62
7
  6
CONTINUOUS
 10
7.1177536467
 20
5.5400614364
 11
7.1752585108
 21
5.3820681209
  0
LINE
  5
244
100
AcDbEntity
  8
0
100
AcDbLine
 62
7
  6
CONTINUOUS
 10
7.6736743628
 20
5.5594899755
 11
7.7051704258
 21
5.5909860385
  0
LINE
  5
245
100
AcDbEntity
  8
0
100
AcDbLine
 62
7
  6
CONTINUOUS
 10
7.7051704258
 20
5.5909860385
 11
7.7366664888
 21
5.5594899755
  0
LINE
  5
246
100
AcDbEntity
  8
0
100
AcDbLine
 62
7
  6
CONTINUOUS
 10
7.447680766
 20
5.3820681209
 11
7.50518563
 21
5.5400614364
  0
LINE
  5
247
100
AcDbEntity
  8
0
100
AcDbLine
 62
7
  6
CONTINUOUS
 10
8.4610759376
 20
5.5594899755
 11
8.4925720006
 21
5.5909860385
  0
LINE
  5
248
100
AcDbEntity
  8
0
100
AcDbLine
 62
7
  6
CONTINUOUS
 10
7.9051552215
 20
5.5400614364
 11
7.9626600856
 21
5.3820681209
  0
LINE
  5
249
100
AcDbEntity
  8
0
100
AcDbLine
 62
7
  6
CONTINUOUS
 10
8.2350823408
 20
5.3820681209
 11
8.2925872048
 21
5.5400614364
  0
LINE
  5
24A
100
AcDbEntity
  8
0
100
AcDbLine
 62
7
  6
CONTINUOUS
 10
8.4925720006
 20
5.5909860385
 11
8.4925720006
 21
5.6776002117
  0
LINE
  5
24B
100
AcDbEntity
  8
0
100
AcDbLine
 62
7
  6
CONTINUOUS
 10
3.7086673594
 20
14.0764257341
 11
3.7086673594
 21
11.1236698286
  0
LINE
  5
24C
100
AcDbEntity
  8
0
100
AcDbLine
 62
7
  6
CONTINUOUS
 10
8.4330768083
 20
11.1236698286
 11
3.7086673594
 21
11.1236698286
  0
LINE
  5
24D
100
AcDbEntity
  8
0
100
AcDbLine
 62
7
  6
CONTINUOUS
 10
3.7086673594
 20
14.0764257341
 11
8.4330768083
 21
14.0764257341
  0
LINE
  5
24E
100
AcDbEntity
  8
0
100
AcDbLine
 62
7
  6
CONTINUOUS
 10
8.4330768083
 20
14.0764257341
 11
8.4330768083
 21
11.1236698286
  0
LINE
  5
24F
100
AcDbEntity
  8
0
100
AcDbLine
 62
7
  6
CONTINUOUS
 10
14.0839773042
 20
5.3031443895
 11
14.0839773042
 21
5.6181050194
  0
LINE
  5
250
100
AcDbEntity
  8
0
100
AcDbLine
 62
7
  6
CONTINUOUS
 10
14.0839773042
 20
5.3031443895
 11
17.0367332097
 21
5.3031443895
  0
LINE
  5
251
100
AcDbEntity
  8
0
100
AcDbLine
 62
7
  6
CONTINUOUS
 10
17.0367332097
 20
5.4999947832
 11
14.0839773042
 21
5.4999947832
  0
LINE
  5
252
100
AcDbEntity
  8
0
100
AcDbLine
 62
7
  6
CONTINUOUS
 10
17.0367332097
 20
5.5314908462
 11
14.0839773042
 21
5.5314908462
  0
LINE
  5
253
100
AcDbEntity
  8
0
100
AcDbLine
 62
7
  6
CONTINUOUS
 10
17.0367332097
 20
5.6181050194
 11
14.0839773042
 21
5.6181050194
  0
LINE
  5
254
100
AcDbEntity
  8
0
100
AcDbLine
 62
7
  6
CONTINUOUS
 10
17.0367332097
 20
5.3031443895
 11
17.0367332097
 21
5.6181050194
  0
LINE
  5
255
100
AcDbEntity
  8
0
100
AcDbLine
 62
7
  6
CONTINUOUS
 10
12.9247859795
 20
11.4522097473
 11
12.9512069285
 21
11.3983695138
  0
LINE
  5
256
100
AcDbEntity
  8
0
100
AcDbLine
 62
7
  6
CONTINUOUS
 10
13.150939259
 20
11.3667142736
 11
13.2520993221
 21
11.2685040537
  0
LINE
  5
257
100
AcDbEntity
  8
0
100
AcDbLine
 62
7
  6
CONTINUOUS
 10
13.6395487454
 20
13.7651829057
 11
12.9247859795
 21
11.4522097473
  0
LINE
  5
258
100
AcDbEntity
  8
0
100
AcDbLine
 62
7
  6
CONTINUOUS
 10
12.9512069285
 20
11.3983695138
 11
12.9898243415
 21
11.3787912471
  0
LINE
  5
259
100
AcDbEntity
  8
0
100
AcDbLine
 62
7
  6
CONTINUOUS
 10
13.5030168352
 20
11.2685040537
 11
13.5077877466
 21
11.3667142736
  0
LINE
  5
25A
100
AcDbEntity
  8
0
100
AcDbLine
 62
7
  6
CONTINUOUS
 10
13.8761841361
 20
11.3667142736
 11
13.9773441993
 21
11.2685040537
  0
LINE
  5
25B
100
AcDbEntity
  8
0
100
AcDbLine
 62
7
  6
CONTINUOUS
 10
13.5077877466
 20
11.3667142736
 11
13.508216164
 21
11.3691537809
  0
LINE
  5
25C
100
AcDbEntity
  8
0
100
AcDbLine
 62
7
  6
CONTINUOUS
 10
13.5025874384
 20
11.2660648481
 11
13.5030168352
 21
11.2685040537
  0
LINE
  5
25D
100
AcDbEntity
  8
0
100
AcDbLine
 62
7
  6
CONTINUOUS
 10
13.6764518057
 20
11.3983695138
 11
13.7150692186
 21
11.3787912471
  0
LINE
  5
25E
100
AcDbEntity
  8
0
100
AcDbLine
 62
7
  6
CONTINUOUS
 10
13.5033164291
 20
11.2684114722
 11
13.5374263594
 21
11.3787912471
  0
LINE
  5
25F
100
AcDbEntity
  8
0
100
AcDbLine
 62
7
  6
CONTINUOUS
 10
14.4016966829
 20
11.3983695138
 11
14.4403140958
 21
11.3787912471
  0
LINE
  5
260
100
AcDbEntity
  8
0
100
AcDbLine
 62
7
  6
CONTINUOUS
 10
14.6014290133
 20
11.3667142736
 11
14.7025890764
 21
11.2685040537
  0
LINE
  5
261
100
AcDbEntity
  8
0
100
AcDbLine
 62
7
  6
CONTINUOUS
 10
14.2282617124
 20
11.2685040537
 11
14.2330326238
 21
11.3667142736
  0
LINE
  5
262
100
AcDbEntity
  8
0
100
AcDbLine
 62
7
  6
CONTINUOUS
 10
13.2835823622
 20
11.2564270801
 11
13.4833868308
 21
11.2564270801
  0
LINE
  5
263
100
AcDbEntity
  8
0
100
AcDbLine
 62
7
  6
CONTINUOUS
 10
14.0088272393
 20
11.2564270801
 11
14.208631708
 21
11.2564270801
  0
LINE
  5
264
100
AcDbEntity
  8
0
100
AcDbLine
 62
7
  6
CONTINUOUS
 10
14.7340721165
 20
11.2564270801
 11
14.9338765852
 21
11.2564270801
  0
LINE
  5
265
100
AcDbEntity
  8
0
100
AcDbLine
 62
7
  6
CONTINUOUS
 10
15.4593169937
 20
11.2564270801
 11
15.6591214623
 21
11.2564270801
  0
LINE
  5
266
100
AcDbEntity
  8
0
100
AcDbLine
 62
7
  6
CONTINUOUS
 10
16.1845618708
 20
11.2564270801
 11
16.3843663395
 21
11.2564270801
  0
LINE
  5
267
100
AcDbEntity
  8
0
100
AcDbLine
 62
7
  6
CONTINUOUS
 10
16.909806748
 20
11.2564270801
 11
17.1096112167
 21
11.2564270801
  0
LINE
  5
268
100
AcDbEntity
  8
0
100
AcDbLine
 62
7
  6
CONTINUOUS
 10
12.9898243415
 20
11.3787912471
 11
13.1194562189
 21
11.3787912471
  0
LINE
  5
269
100
AcDbEntity
  8
0
100
AcDbLine
 62
7
  6
CONTINUOUS
 10
13.527417751
 20
11.3787912471
 11
13.6570496285
 21
11.3787912471
  0
LINE
  5
26A
100
AcDbEntity
  8
0
100
AcDbLine
 62
7
  6
CONTINUOUS
 10
13.7150692186
 20
11.3787912471
 11
13.8447010961
 21
11.3787912471
  0
LINE
  5
26B
100
AcDbEntity
  8
0
100
AcDbLine
 62
7
  6
CONTINUOUS
 10
14.2526626282
 20
11.3787912471
 11
14.3822945056
 21
11.3787912471
  0
LINE
  5
26C
100
AcDbEntity
  8
0
100
AcDbLine
 62
7
  6
CONTINUOUS
 10
14.4403140958
 20
11.3787912471
 11
14.5699459732
 21
11.3787912471
  0
LINE
  5
26D
100
AcDbEntity
  8
0
100
AcDbLine
 62
7
  6
CONTINUOUS
 10
14.9779075053
 20
11.3787912471
 11
15.1075393828
 21
11.3787912471
  0
LINE
  5
26E
100
AcDbEntity
  8
0
100
AcDbLine
 62
7
  6
CONTINUOUS
 10
15.165558973
 20
11.3787912471
 11
15.2951908504
 21
11.3787912471
  0
LINE
  5
26F
100
AcDbEntity
  8
0
100
AcDbLine
 62
7
  6
CONTINUOUS
 10
15.7031523825
 20
11.3787912471
 11
15.83278426
 21
11.3787912471
  0
LINE
  5
270
100
AcDbEntity
  8
0
100
AcDbLine
 62
7
  6
CONTINUOUS
 10
15.8908038501
 20
11.3787912471
 11
16.0204357276
 21
11.3787912471
  0
LINE
  5
271
100
AcDbEntity
  8
0
100
AcDbLine
 62
7
  6
CONTINUOUS
 10
16.4283972597
 20
11.3787912471
 11
16.5580291371
 21
11.3787912471
  0
LINE
  5
272
100
AcDbEntity
  8
0
100
AcDbLine
 62
7
  6
CONTINUOUS
 10
16.6160487273
 20
11.3787912471
 11
16.7456806047
 21
11.3787912471
  0
LINE
  5
273
100
AcDbEntity
  8
0
100
AcDbLine
 62
7
  6
CONTINUOUS
 10
17.1536421369
 20
11.3787912471
 11
17.2832740143
 21
11.3787912471
  0
LINE
  5
274
100
AcDbEntity
  8
0
100
AcDbLine
 62
7
  6
CONTINUOUS
 10
15.12694156
 20
11.3983695138
 11
15.165558973
 21
11.3787912471
  0
LINE
  5
275
100
AcDbEntity
  8
0
100
AcDbLine
 62
7
  6
CONTINUOUS
 10
14.2330326238
 20
11.3667142736
 11
14.233464893
 21
11.3691525949
  0
LINE
  5
276
100
AcDbEntity
  8
0
100
AcDbLine
 62
7
  6
CONTINUOUS
 10
14.2278277738
 20
11.2660662462
 11
14.2282617124
 21
11.2685040537
  0
LINE
  5
277
100
AcDbEntity
  8
0
100
AcDbLine
 62
7
  6
CONTINUOUS
 10
17.2762552425
 20
11.4522097473
 11
12.9247859795
 21
11.4522097473
  0
LINE
  5
278
100
AcDbEntity
  8
0
100
AcDbLine
 62
7
  6
CONTINUOUS
 10
15.3266738905
 20
11.3667142736
 11
15.4278339536
 21
11.2685040537
  0
LINE
  5
279
100
AcDbEntity
  8
0
100
AcDbLine
 62
7
  6
CONTINUOUS
 10
14.2285613062
 20
11.2684114722
 11
14.2626712365
 21
11.3787912471
  0
LINE
  5
27A
100
AcDbEntity
  8
0
100
AcDbLine
 62
7
  6
CONTINUOUS
 10
15.8521864372
 20
11.3983695138
 11
15.8908038501
 21
11.3787912471
  0
LINE
  5
27B
100
AcDbEntity
  8
0
100
AcDbLine
 62
7
  6
CONTINUOUS
 10
14.9535065896
 20
11.2685040537
 11
14.9582775009
 21
11.3667142736
  0
LINE
  5
27C
100
AcDbEntity
  8
0
100
AcDbLine
 62
7
  6
CONTINUOUS
 10
13.6570496285
 20
11.3787912471
 11
13.6764518057
 21
11.3983695138
  0
LINE
  5
27D
100
AcDbEntity
  8
0
100
AcDbLine
 62
7
  6
CONTINUOUS
 10
16.5774313144
 20
11.3983695138
 11
16.6160487273
 21
11.3787912471
  0
LINE
  5
27E
100
AcDbEntity
  8
0
100
AcDbLine
 62
7
  6
CONTINUOUS
 10
16.0519187676
 20
11.3667142736
 11
16.1530788308
 21
11.2685040537
  0
LINE
  5
27F
100
AcDbEntity
  8
0
100
AcDbLine
 62
7
  6
CONTINUOUS
 10
14.9582775009
 20
11.3667142736
 11
14.9587097701
 21
11.3691525949
  0
LINE
  5
280
100
AcDbEntity
  8
0
100
AcDbLine
 62
7
  6
CONTINUOUS
 10
14.953072651
 20
11.2660662462
 11
14.9535065896
 21
11.2685040537
  0
LINE
  5
281
100
AcDbEntity
  8
0
100
AcDbLine
 62
7
  6
CONTINUOUS
 10
14.9538061834
 20
11.2684114722
 11
14.9879161137
 21
11.3787912471
  0
LINE
  5
282
100
AcDbEntity
  8
0
100
AcDbLine
 62
7
  6
CONTINUOUS
 10
14.3822945056
 20
11.3787912471
 11
14.4016966829
 21
11.3983695138
  0
LINE
  5
283
100
AcDbEntity
  8
0
100
AcDbLine
 62
7
  6
CONTINUOUS
 10
16.7771636448
 20
11.3667142736
 11
16.8783237079
 21
11.2685040537
  0
LINE
  5
284
100
AcDbEntity
  8
0
100
AcDbLine
 62
7
  6
CONTINUOUS
 10
15.6787514667
 20
11.2685040537
 11
15.6835223781
 21
11.3667142736
  0
LINE
  5
285
100
AcDbEntity
  8
0
100
AcDbLine
 62
7
  6
CONTINUOUS
 10
15.6835223781
 20
11.3667142736
 11
15.6839546473
 21
11.3691525949
  0
LINE
  5
286
100
AcDbEntity
  8
0
100
AcDbLine
 62
7
  6
CONTINUOUS
 10
15.6783175282
 20
11.2660662462
 11
15.6787514667
 21
11.2685040537
  0
LINE
  5
287
100
AcDbEntity
  8
0
100
AcDbLine
 62
7
  6
CONTINUOUS
 10
15.6790510606
 20
11.2684114722
 11
15.7131609909
 21
11.3787912471
  0
LINE
  5
288
100
AcDbEntity
  8
0
100
AcDbLine
 62
7
  6
CONTINUOUS
 10
15.1075393828
 20
11.3787912471
 11
15.12694156
 21
11.3983695138
  0
LINE
  5
289
100
AcDbEntity
  8
0
100
AcDbLine
 62
7
  6
CONTINUOUS
 10
16.4039963439
 20
11.2685040537
 11
16.4087672553
 21
11.3667142736
  0
LINE
  5
28A
100
AcDbEntity
  8
0
100
AcDbLine
 62
7
  6
CONTINUOUS
 10
16.4087672553
 20
11.3667142736
 11
16.4091995245
 21
11.3691525949
  0
LINE
  5
28B
100
AcDbEntity
  8
0
100
AcDbLine
 62
7
  6
CONTINUOUS
 10
16.4035624054
 20
11.2660662462
 11
16.4039963439
 21
11.2685040537
  0
LINE
  5
28C
100
AcDbEntity
  8
0
100
AcDbLine
 62
7
  6
CONTINUOUS
 10
15.83278426
 20
11.3787912471
 11
15.8521864372
 21
11.3983695138
  0
LINE
  5
28D
100
AcDbEntity
  8
0
100
AcDbLine
 62
7
  6
CONTINUOUS
 10
17.3026761915
 20
11.3983695138
 11
17.2762552425
 21
11.4522097473
  0
LINE
  5
28E
100
AcDbEntity
  8
0
100
AcDbLine
 62
7
  6
CONTINUOUS
 10
16.4042959377
 20
11.2684114722
 11
16.438405868
 21
11.3787912471
  0
LINE
  5
28F
100
AcDbEntity
  8
0
100
AcDbLine
 62
7
  6
CONTINUOUS
 10
13.6395487454
 20
13.7651829057
 11
17.9910180084
 21
13.7651829057
  0
LINE
  5
290
100
AcDbEntity
  8
0
100
AcDbLine
 62
7
  6
CONTINUOUS
 10
17.1292412211
 20
11.2685040537
 11
17.1340121325
 21
11.3667142736
  0
LINE
  5
291
100
AcDbEntity
  8
0
100
AcDbLine
 62
7
  6
CONTINUOUS
 10
16.5580291371
 20
11.3787912471
 11
16.5774313144
 21
11.3983695138
  0
LINE
  5
292
100
AcDbEntity
  8
0
100
AcDbLine
 62
7
  6
CONTINUOUS
 10
17.1340121325
 20
11.3667142736
 11
17.1344444016
 21
11.3691525949
  0
LINE
  5
293
100
AcDbEntity
  8
0
100
AcDbLine
 62
7
  6
CONTINUOUS
 10
17.1288072825
 20
11.2660662462
 11
17.1292412211
 21
11.2685040537
  0
LINE
  5
294
100
AcDbEntity
  8
0
100
AcDbLine
 62
7
  6
CONTINUOUS
 10
17.1295408149
 20
11.2684114722
 11
17.1636507452
 21
11.3787912471
  0
LINE
  5
295
100
AcDbEntity
  8
0
100
AcDbLine
 62
7
  6
CONTINUOUS
 10
17.9910180084
 20
13.7651829057
 11
17.2762552425
 21
11.4522097473
  0
LINE
  5
296
100
AcDbEntity
  8
0
100
AcDbLine
 62
7
  6
CONTINUOUS
 10
18.0174389575
 20
13.7113426722
 11
17.3026761915
 21
11.3983695138
  0
LINE
  5
297
100
AcDbEntity
  8
0
100
AcDbLine
 62
7
  6
CONTINUOUS
 10
17.2832740143
 20
11.3787912471
 11
17.3026761915
 21
11.3983695138
  0
LINE
  5
298
100
AcDbEntity
  8
0
100
AcDbLine
 62
7
  6
CONTINUOUS
 10
18.0174389575
 20
13.7113426722
 11
17.9910180084
 21
13.7651829057
  0
ARC
  5
299
100
AcDbEntity
  8
0
100
AcDbCircle
 62
7
  6
CONTINUOUS
 10
8.3203340342
 20
5.5299624164
 40
0.0295275591
100
AcDbArc
 50
90.0
 51
160.0
  0
ARC
  5
29A
100
AcDbEntity
  8
0
100
AcDbCircle
 62
7
  6
CONTINUOUS
 10
7.8774083922
 20
5.5299624164
 40
0.0295275591
100
AcDbArc
 50
20.0
 51
90.0
  0
ARC
  5
29B
100
AcDbEntity
  8
0
100
AcDbCircle
 62
7
  6
CONTINUOUS
 10
7.5329324594
 20
5.5299624164
 40
0.0295275591
100
AcDbArc
 50
90.0
 51
160.0
  0
ARC
  5
29C
100
AcDbEntity
  8
0
100
AcDbCircle
 62
7
  6
CONTINUOUS
 10
7.0900068174
 20
5.5299624164
 40
0.0295275591
100
AcDbArc
 50
20.0
 51
90.0
  0
ARC
  5
29D
100
AcDbEntity
  8
0
100
AcDbCircle
 62
7
  6
CONTINUOUS
 10
6.7455308846
 20
5.5299624164
 40
0.0295275591
100
AcDbArc
 50
90.0
 51
160.0
  0
ARC
  5
29E
100
AcDbEntity
  8
0
100
AcDbCircle
 62
7
  6
CONTINUOUS
 10
6.3026052426
 20
5.5299624164
 40
0.0295275591
100
AcDbArc
 50
20.0
 51
90.0
  0
ARC
  5
29F
100
AcDbEntity
  8
0
100
AcDbCircle
 62
7
  6
CONTINUOUS
 10
5.9581293098
 20
5.5299624164
 40
0.0295275591
100
AcDbArc
 50
90.0
 51
160.0
  0
ARC
  5
2A0
100
AcDbEntity
  8
0
100
AcDbCircle
 62
7
  6
CONTINUOUS
 10
5.5152036678
 20
5.5299624164
 40
0.0295275591
100
AcDbArc
 50
20.0
 51
90.0
  0
ARC
  5
2A1
100
AcDbEntity
  8
0
100
AcDbCircle
 62
7
  6
CONTINUOUS
 10
5.170727735
 20
5.5299624164
 40
0.0295275591
100
AcDbArc
 50
90.0
 51
160.0
  0
ARC
  5
2A2
100
AcDbEntity
  8
0
100
AcDbCircle
 62
7
  6
CONTINUOUS
 10
4.727802093
 20
5.5299624164
 40
0.0295275591
100
AcDbArc
 50
20.0
 51
90.0
  0
ARC
  5
2A3
100
AcDbEntity
  8
0
100
AcDbCircle
 62
7
  6
CONTINUOUS
 10
3.9404005181
 20
5.5299624164
 40
0.0295275591
100
AcDbArc
 50
20.0
 51
90.0
  0
ARC
  5
2A4
100
AcDbEntity
  8
0
100
AcDbCircle
 62
7
  6
CONTINUOUS
 10
4.3833261602
 20
5.5299624164
 40
0.0295275591
100
AcDbArc
 50
90.0
 51
160.0
  0
ARC
  5
2A5
100
AcDbEntity
  8
0
100
AcDbCircle
 62
7
  6
CONTINUOUS
 10
4.0533990409
 20
5.3921671408
 40
0.0295275591
100
AcDbArc
 50
200.0
 51
270.0
  0
ARC
  5
2A6
100
AcDbEntity
  8
0
100
AcDbCircle
 62
7
  6
CONTINUOUS
 10
4.2703276374
 20
5.3921671408
 40
0.0295275591
100
AcDbArc
 50
270.0
 51
340.0
  0
ARC
  5
2A7
100
AcDbEntity
  8
0
100
AcDbCircle
 62
7
  6
CONTINUOUS
 10
4.8408006157
 20
5.3921671408
 40
0.0295275591
100
AcDbArc
 50
200.0
 51
270.0
  0
ARC
  5
2A8
100
AcDbEntity
  8
0
100
AcDbCircle
 62
7
  6
CONTINUOUS
 10
5.0577292122
 20
5.3921671408
 40
0.0295275591
100
AcDbArc
 50
270.0
 51
340.0
  0
ARC
  5
2A9
100
AcDbEntity
  8
0
100
AcDbCircle
 62
7
  6
CONTINUOUS
 10
5.6282021905
 20
5.3921671408
 40
0.0295275591
100
AcDbArc
 50
200.0
 51
270.0
  0
ARC
  5
2AA
100
AcDbEntity
  8
0
100
AcDbCircle
 62
7
  6
CONTINUOUS
 10
5.845130787
 20
5.3921671408
 40
0.0295275591
100
AcDbArc
 50
270.0
 51
340.0
  0
ARC
  5
2AB
100
AcDbEntity
  8
0
100
AcDbCircle
 62
7
  6
CONTINUOUS
 10
6.4156037653
 20
5.3921671408
 40
0.0295275591
100
AcDbArc
 50
200.0
 51
270.0
  0
ARC
  5
2AC
100
AcDbEntity
  8
0
100
AcDbCircle
 62
7
  6
CONTINUOUS
 10
6.6325323618
 20
5.3921671408
 40
0.0295275591
100
AcDbArc
 50
270.0
 51
340.0
  0
ARC
  5
2AD
100
AcDbEntity
  8
0
100
AcDbCircle
 62
7
  6
CONTINUOUS
 10
7.2030053401
 20
5.3921671408
 40
0.0295275591
100
AcDbArc
 50
200.0
 51
270.0
  0
ARC
  5
2AE
100
AcDbEntity
  8
0
100
AcDbCircle
 62
7
  6
CONTINUOUS
 10
8.2073355114
 20
5.3921671408
 40
0.0295275591
100
AcDbArc
 50
270.0
 51
340.0
  0
ARC
  5
2AF
100
AcDbEntity
  8
0
100
AcDbCircle
 62
7
  6
CONTINUOUS
 10
7.9904069149
 20
5.3921671408
 40
0.0295275591
100
AcDbArc
 50
200.0
 51
270.0
  0
ARC
  5
2B0
100
AcDbEntity
  8
0
100
AcDbCircle
 62
7
  6
CONTINUOUS
 10
7.4199339366
 20
5.3921671408
 40
0.0295275591
100
AcDbArc
 50
270.0
 51
340.0
  0
SPLINE
  5
2B1
100
AcDbEntity
  8
0
100
AcDbSpline
 62
7
  6
CONTINUOUS
 70
0
 71
3
 72
9
 73
5
 74
0
 42
0.0000001
 43
0.0000001
 44
0.0000000001
 40
0.0
 40
0.0
 40
0.0
 40
0.0
 40
0.4497631211
 40
1.0
 40
1.0
 40
1.0
 40
1.0
 10
17.1344394049
 20
11.3691541394
 30
0.0
 10
17.1350999933
 20
11.3712902981
 30
0.0
 10
17.1384117311
 20
11.3754848342
 30
0.0
 10
17.1432068877
 20
11.3773057037
 30
0.0
 10
17.1458681039
 20
11.3779387158
 30
0.0
  0
SPLINE
  5
2B2
100
AcDbEntity
  8
0
100
AcDbSpline
 62
7
  6
CONTINUOUS
 70
0
 71
3
 72
9
 73
5
 74
0
 42
0.0000001
 43
0.0000001
 44
0.0000000001
 40
0.0
 40
0.0
 40
0.0
 40
0.0
 40
0.2380009867
 40
1.0
 40
1.0
 40
1.0
 40
1.0
 10
17.1458681039
 20
11.3779387158
 30
0.0
 10
17.1464724879
 20
11.3780824781
 30
0.0
 10
17.14903257
 20
11.3785986701
 30
0.0
 10
17.1516531136
 20
11.3787912471
 30
0.0
 10
17.1536421369
 20
11.3787912471
 30
0.0
  0
SPLINE
  5
2B3
100
AcDbEntity
  8
0
100
AcDbSpline
 62
7
  6
CONTINUOUS
 70
0
 71
3
 72
9
 73
5
 74
0
 42
0.0000001
 43
0.0000001
 44
0.0000000001
 40
0.0
 40
0.0
 40
0.0
 40
0.0
 40
0.4497631211
 40
1.0
 40
1.0
 40
1.0
 40
1.0
 10
16.4091945277
 20
11.3691541394
 30
0.0
 10
16.4098551161
 20
11.3712902981
 30
0.0
 10
16.4131668539
 20
11.3754848342
 30
0.0
 10
16.4179620105
 20
11.3773057037
 30
0.0
 10
16.4206232267
 20
11.3779387158
 30
0.0
  0
SPLINE
  5
2B4
100
AcDbEntity
  8
0
100
AcDbSpline
 62
7
  6
CONTINUOUS
 70
0
 71
3
 72
9
 73
5
 74
0
 42
0.0000001
 43
0.0000001
 44
0.0000000001
 40
0.0
 40
0.0
 40
0.0
 40
0.0
 40
0.2380009867
 40
1.0
 40
1.0
 40
1.0
 40
1.0
 10
16.4206232267
 20
11.3779387158
 30
0.0
 10
16.4212276107
 20
11.3780824781
 30
0.0
 10
16.4237876928
 20
11.3785986701
 30
0.0
 10
16.4264082364
 20
11.3787912471
 30
0.0
 10
16.4283972597
 20
11.3787912471
 30
0.0
  0
SPLINE
  5
2B5
100
AcDbEntity
  8
0
100
AcDbSpline
 62
7
  6
CONTINUOUS
 70
0
 71
3
 72
9
 73
5
 74
0
 42
0.0000001
 43
0.0000001
 44
0.0000000001
 40
0.0
 40
0.0
 40
0.0
 40
0.0
 40
0.4497631211
 40
1.0
 40
1.0
 40
1.0
 40
1.0
 10
15.6839496505
 20
11.3691541394
 30
0.0
 10
15.6846102389
 20
11.3712902981
 30
0.0
 10
15.6879219768
 20
11.3754848342
 30
0.0
 10
15.6927171333
 20
11.3773057037
 30
0.0
 10
15.6953783495
 20
11.3779387158
 30
0.0
  0
SPLINE
  5
2B6
100
AcDbEntity
  8
0
100
AcDbSpline
 62
7
  6
CONTINUOUS
 70
0
 71
3
 72
9
 73
5
 74
0
 42
0.0000001
 43
0.0000001
 44
0.0000000001
 40
0.0
 40
0.0
 40
0.0
 40
0.0
 40
0.2380009867
 40
1.0
 40
1.0
 40
1.0
 40
1.0
 10
15.6953783495
 20
11.3779387158
 30
0.0
 10
15.6959827336
 20
11.3780824781
 30
0.0
 10
15.6985428156
 20
11.3785986701
 30
0.0
 10
15.7011633593
 20
11.3787912471
 30
0.0
 10
15.7031523825
 20
11.3787912471
 30
0.0
  0
SPLINE
  5
2B7
100
AcDbEntity
  8
0
100
AcDbSpline
 62
7
  6
CONTINUOUS
 70
0
 71
3
 72
9
 73
5
 74
0
 42
0.0000001
 43
0.0000001
 44
0.0000000001
 40
0.0
 40
0.0
 40
0.0
 40
0.0
 40
0.4497631211
 40
1.0
 40
1.0
 40
1.0
 40
1.0
 10
14.9587047734
 20
11.3691541394
 30
0.0
 10
14.9593653617
 20
11.3712902981
 30
0.0
 10
14.9626770996
 20
11.3754848342
 30
0.0
 10
14.9674722562
 20
11.3773057037
 30
0.0
 10
14.9701334724
 20
11.3779387158
 30
0.0
  0
SPLINE
  5
2B8
100
AcDbEntity
  8
0
100
AcDbSpline
 62
7
  6
CONTINUOUS
 70
0
 71
3
 72
9
 73
5
 74
0
 42
0.0000001
 43
0.0000001
 44
0.0000000001
 40
0.0
 40
0.0
 40
0.0
 40
0.0
 40
0.2380009867
 40
1.0
 40
1.0
 40
1.0
 40
1.0
 10
14.9701334724
 20
11.3779387158
 30
0.0
 10
14.9707378564
 20
11.3780824781
 30
0.0
 10
14.9732979385
 20
11.3785986701
 30
0.0
 10
14.9759184821
 20
11.3787912471
 30
0.0
 10
14.9779075053
 20
11.3787912471
 30
0.0
  0
SPLINE
  5
2B9
100
AcDbEntity
  8
0
100
AcDbSpline
 62
7
  6
CONTINUOUS
 70
0
 71
3
 72
9
 73
5
 74
0
 42
0.0000001
 43
0.0000001
 44
0.0000000001
 40
0.0
 40
0.0
 40
0.0
 40
0.0
 40
0.4497631211
 40
1.0
 40
1.0
 40
1.0
 40
1.0
 10
14.2334598962
 20
11.3691541394
 30
0.0
 10
14.2341204846
 20
11.3712902981
 30
0.0
 10
14.2374322224
 20
11.3754848342
 30
0.0
 10
14.242227379
 20
11.3773057037
 30
0.0
 10
14.2448885952
 20
11.3779387158
 30
0.0
  0
SPLINE
  5
2BA
100
AcDbEntity
  8
0
100
AcDbSpline
 62
7
  6
CONTINUOUS
 70
0
 71
3
 72
9
 73
5
 74
0
 42
0.0000001
 43
0.0000001
 44
0.0000000001
 40
0.0
 40
0.0
 40
0.0
 40
0.0
 40
0.2380009867
 40
1.0
 40
1.0
 40
1.0
 40
1.0
 10
14.2448885952
 20
11.3779387158
 30
0.0
 10
14.2454929792
 20
11.3780824781
 30
0.0
 10
14.2480530613
 20
11.3785986701
 30
0.0
 10
14.2506736049
 20
11.3787912471
 30
0.0
 10
14.2526626282
 20
11.3787912471
 30
0.0
  0
SPLINE
  5
2BB
100
AcDbEntity
  8
0
100
AcDbSpline
 62
7
  6
CONTINUOUS
 70
0
 71
3
 72
9
 73
5
 74
0
 42
0.0000001
 43
0.0000001
 44
0.0000000001
 40
0.0
 40
0.0
 40
0.0
 40
0.0
 40
0.4496325404
 40
1.0
 40
1.0
 40
1.0
 40
1.0
 10
13.5082149874
 20
11.3691541446
 30
0.0
 10
13.5088768136
 20
11.3712944071
 30
0.0
 10
13.5121997717
 20
11.3754965616
 30
0.0
 10
13.517008003
 20
11.3773152061
 30
0.0
 10
13.5196765026
 20
11.3779465007
 30
0.0
  0
SPLINE
  5
2BC
100
AcDbEntity
  8
0
100
AcDbSpline
 62
7
  6
CONTINUOUS
 70
0
 71
3
 72
9
 73
5
 74
0
 42
0.0000001
 43
0.0000001
 44
0.0000000001
 40
0.0
 40
0.0
 40
0.0
 40
0.0
 40
0.2380700838
 40
1.0
 40
1.0
 40
1.0
 40
1.0
 10
13.5196765026
 20
11.3779465007
 30
0.0
 10
13.520278644
 20
11.378088951
 30
0.0
 10
13.5228282469
 20
11.3786003502
 30
0.0
 10
13.5254374381
 20
11.3787912471
 30
0.0
 10
13.527417751
 20
11.3787912471
 30
0.0
  0
SPLINE
  5
2BD
100
AcDbEntity
  8
0
100
AcDbSpline
 62
7
  6
CONTINUOUS
 70
0
 71
3
 72
9
 73
5
 74
0
 42
0.0000001
 43
0.0000001
 44
0.0000000001
 40
0.0
 40
0.0
 40
0.0
 40
0.0
 40
0.5118922163
 40
1.0
 40
1.0
 40
1.0
 40
1.0
 10
16.7456806047
 20
11.3787912471
 30
0.0
 10
16.7515290003
 20
11.3787912471
 30
0.0
 10
16.7629579398
 20
11.376444504
 30
0.0
 10
16.7731624465
 20
11.3705987963
 30
0.0
 10
16.7771636448
 20
11.3667142736
 30
0.0
  0
SPLINE
  5
2BE
100
AcDbEntity
  8
0
100
AcDbSpline
 62
7
  6
CONTINUOUS
 70
0
 71
3
 72
9
 73
5
 74
0
 42
0.0000001
 43
0.0000001
 44
0.0000000001
 40
0.0
 40
0.0
 40
0.0
 40
0.0
 40
0.5118922163
 40
1.0
 40
1.0
 40
1.0
 40
1.0
 10
16.0204357276
 20
11.3787912471
 30
0.0
 10
16.0262841231
 20
11.3787912471
 30
0.0
 10
16.0377130626
 20
11.376444504
 30
0.0
 10
16.0479175693
 20
11.3705987963
 30
0.0
 10
16.0519187676
 20
11.3667142736
 30
0.0
  0
SPLINE
  5
2BF
100
AcDbEntity
  8
0
100
AcDbSpline
 62
7
  6
CONTINUOUS
 70
0
 71
3
 72
9
 73
5
 74
0
 42
0.0000001
 43
0.0000001
 44
0.0000000001
 40
0.0
 40
0.0
 40
0.0
 40
0.0
 40
0.5118922163
 40
1.0
 40
1.0
 40
1.0
 40
1.0
 10
15.2951908504
 20
11.3787912471
 30
0.0
 10
15.301039246
 20
11.3787912471
 30
0.0
 10
15.3124681855
 20
11.376444504
 30
0.0
 10
15.3226726921
 20
11.3705987963
 30
0.0
 10
15.3266738905
 20
11.3667142736
 30
0.0
  0
SPLINE
  5
2C0
100
AcDbEntity
  8
0
100
AcDbSpline
 62
7
  6
CONTINUOUS
 70
0
 71
3
 72
9
 73
5
 74
0
 42
0.0000001
 43
0.0000001
 44
0.0000000001
 40
0.0
 40
0.0
 40
0.0
 40
0.0
 40
0.5118922163
 40
1.0
 40
1.0
 40
1.0
 40
1.0
 10
14.5699459732
 20
11.3787912471
 30
0.0
 10
14.5757943688
 20
11.3787912471
 30
0.0
 10
14.5872233083
 20
11.376444504
 30
0.0
 10
14.597427815
 20
11.3705987963
 30
0.0
 10
14.6014290133
 20
11.3667142736
 30
0.0
  0
SPLINE
  5
2C1
100
AcDbEntity
  8
0
100
AcDbSpline
 62
7
  6
CONTINUOUS
 70
0
 71
3
 72
9
 73
5
 74
0
 42
0.0000001
 43
0.0000001
 44
0.0000000001
 40
0.0
 40
0.0
 40
0.0
 40
0.0
 40
0.5118922163
 40
1.0
 40
1.0
 40
1.0
 40
1.0
 10
13.8447010961
 20
11.3787912471
 30
0.0
 10
13.8505494916
 20
11.3787912471
 30
0.0
 10
13.8619784311
 20
11.376444504
 30
0.0
 10
13.8721829378
 20
11.3705987963
 30
0.0
 10
13.8761841361
 20
11.3667142736
 30
0.0
  0
SPLINE
  5
2C2
100
AcDbEntity
  8
0
100
AcDbSpline
 62
7
  6
CONTINUOUS
 70
0
 71
3
 72
11
 73
7
 74
0
 42
0.0000001
 43
0.0000001
 44
0.0000000001
 40
0.0
 40
0.0
 40
0.0
 40
0.0
 40
0.3037098919
 40
0.5698839066
 40
0.7976256208
 40
1.0
 40
1.0
 40
1.0
 40
1.0
 10
17.1096112167
 20
11.2564270801
 30
0.0
 10
17.1119220172
 20
11.2564270801
 30
0.0
 10
17.1162750528
 20
11.2567937863
 30
0.0
 10
17.1221231823
 20
11.2586320726
 30
0.0
 10
17.1265847972
 20
11.2616843957
 30
0.0
 10
17.1283590113
 20
11.2645931457
 30
0.0
 10
17.128813931
 20
11.2660641912
 30
0.0
  0
SPLINE
  5
2C3
100
AcDbEntity
  8
0
100
AcDbSpline
 62
7
  6
CONTINUOUS
 70
0
 71
3
 72
9
 73
5
 74
0
 42
0.0000001
 43
0.0000001
 44
0.0000000001
 40
0.0
 40
0.0
 40
0.0
 40
0.0
 40
0.4881092404
 40
1.0
 40
1.0
 40
1.0
 40
1.0
 10
16.8783237079
 20
11.2685040537
 30
0.0
 10
16.8823249182
 20
11.2646195194
 30
0.0
 10
16.8925294306
 20
11.2587738171
 30
0.0
 10
16.9039583691
 20
11.2564270801
 30
0.0
 10
16.909806748
 20
11.2564270801
 30
0.0
  0
SPLINE
  5
2C4
100
AcDbEntity
  8
0
100
AcDbSpline
 62
7
  6
CONTINUOUS
 70
0
 71
3
 72
11
 73
7
 74
0
 42
0.0000001
 43
0.0000001
 44
0.0000000001
 40
0.0
 40
0.0
 40
0.0
 40
0.0
 40
0.3037098919
 40
0.5698839066
 40
0.7976256208
 40
1.0
 40
1.0
 40
1.0
 40
1.0
 10
16.3843663395
 20
11.2564270801
 30
0.0
 10
16.38667714
 20
11.2564270801
 30
0.0
 10
16.3910301757
 20
11.2567937863
 30
0.0
 10
16.3968783051
 20
11.2586320726
 30
0.0
 10
16.40133992
 20
11.2616843957
 30
0.0
 10
16.4031141341
 20
11.2645931457
 30
0.0
 10
16.4035690538
 20
11.2660641912
 30
0.0
  0
SPLINE
  5
2C5
100
AcDbEntity
  8
0
100
AcDbSpline
 62
7
  6
CONTINUOUS
 70
0
 71
3
 72
9
 73
5
 74
0
 42
0.0000001
 43
0.0000001
 44
0.0000000001
 40
0.0
 40
0.0
 40
0.0
 40
0.0
 40
0.4881092404
 40
1.0
 40
1.0
 40
1.0
 40
1.0
 10
16.1530788308
 20
11.2685040537
 30
0.0
 10
16.157080041
 20
11.2646195194
 30
0.0
 10
16.1672845534
 20
11.2587738171
 30
0.0
 10
16.1787134919
 20
11.2564270801
 30
0.0
 10
16.1845618708
 20
11.2564270801
 30
0.0
  0
SPLINE
  5
2C6
100
AcDbEntity
  8
0
100
AcDbSpline
 62
7
  6
CONTINUOUS
 70
0
 71
3
 72
11
 73
7
 74
0
 42
0.0000001
 43
0.0000001
 44
0.0000000001
 40
0.0
 40
0.0
 40
0.0
 40
0.0
 40
0.3037098919
 40
0.5698839066
 40
0.7976256208
 40
1.0
 40
1.0
 40
1.0
 40
1.0
 10
15.6591214623
 20
11.2564270801
 30
0.0
 10
15.6614322629
 20
11.2564270801
 30
0.0
 10
15.6657852985
 20
11.2567937863
 30
0.0
 10
15.6716334279
 20
11.2586320726
 30
0.0
 10
15.6760950429
 20
11.2616843957
 30
0.0
 10
15.6778692569
 20
11.2645931457
 30
0.0
 10
15.6783241766
 20
11.2660641912
 30
0.0
  0
SPLINE
  5
2C7
100
AcDbEntity
  8
0
100
AcDbSpline
 62
7
  6
CONTINUOUS
 70
0
 71
3
 72
9
 73
5
 74
0
 42
0.0000001
 43
0.0000001
 44
0.0000000001
 40
0.0
 40
0.0
 40
0.0
 40
0.0
 40
0.4881092404
 40
1.0
 40
1.0
 40
1.0
 40
1.0
 10
15.4278339536
 20
11.2685040537
 30
0.0
 10
15.4318351639
 20
11.2646195194
 30
0.0
 10
15.4420396762
 20
11.2587738171
 30
0.0
 10
15.4534686147
 20
11.2564270801
 30
0.0
 10
15.4593169937
 20
11.2564270801
 30
0.0
  0
SPLINE
  5
2C8
100
AcDbEntity
  8
0
100
AcDbSpline
 62
7
  6
CONTINUOUS
 70
0
 71
3
 72
11
 73
7
 74
0
 42
0.0000001
 43
0.0000001
 44
0.0000000001
 40
0.0
 40
0.0
 40
0.0
 40
0.0
 40
0.3037098919
 40
0.5698839066
 40
0.7976256208
 40
1.0
 40
1.0
 40
1.0
 40
1.0
 10
14.9338765852
 20
11.2564270801
 30
0.0
 10
14.9361873857
 20
11.2564270801
 30
0.0
 10
14.9405404213
 20
11.2567937863
 30
0.0
 10
14.9463885508
 20
11.2586320726
 30
0.0
 10
14.9508501657
 20
11.2616843957
 30
0.0
 10
14.9526243798
 20
11.2645931457
 30
0.0
 10
14.9530792995
 20
11.2660641912
 30
0.0
  0
SPLINE
  5
2C9
100
AcDbEntity
  8
0
100
AcDbSpline
 62
7
  6
CONTINUOUS
 70
0
 71
3
 72
9
 73
5
 74
0
 42
0.0000001
 43
0.0000001
 44
0.0000000001
 40
0.0
 40
0.0
 40
0.0
 40
0.0
 40
0.4881092404
 40
1.0
 40
1.0
 40
1.0
 40
1.0
 10
14.7025890764
 20
11.2685040537
 30
0.0
 10
14.7065902867
 20
11.2646195194
 30
0.0
 10
14.7167947991
 20
11.2587738171
 30
0.0
 10
14.7282237376
 20
11.2564270801
 30
0.0
 10
14.7340721165
 20
11.2564270801
 30
0.0
  0
SPLINE
  5
2CA
100
AcDbEntity
  8
0
100
AcDbSpline
 62
7
  6
CONTINUOUS
 70
0
 71
3
 72
11
 73
7
 74
0
 42
0.0000001
 43
0.0000001
 44
0.0000000001
 40
0.0
 40
0.0
 40
0.0
 40
0.0
 40
0.3037098919
 40
0.5698839066
 40
0.7976256208
 40
1.0
 40
1.0
 40
1.0
 40
1.0
 10
14.208631708
 20
11.2564270801
 30
0.0
 10
14.2109425085
 20
11.2564270801
 30
0.0
 10
14.2152955442
 20
11.2567937863
 30
0.0
 10
14.2211436736
 20
11.2586320726
 30
0.0
 10
14.2256052885
 20
11.2616843957
 30
0.0
 10
14.2273795026
 20
11.2645931457
 30
0.0
 10
14.2278344223
 20
11.2660641912
 30
0.0
  0
SPLINE
  5
2CB
100
AcDbEntity
  8
0
100
AcDbSpline
 62
7
  6
CONTINUOUS
 70
0
 71
3
 72
9
 73
5
 74
0
 42
0.0000001
 43
0.0000001
 44
0.0000000001
 40
0.0
 40
0.0
 40
0.0
 40
0.0
 40
0.4881092404
 40
1.0
 40
1.0
 40
1.0
 40
1.0
 10
13.9773441993
 20
11.2685040537
 30
0.0
 10
13.9813454095
 20
11.2646195194
 30
0.0
 10
13.9915499219
 20
11.2587738171
 30
0.0
 10
14.0029788604
 20
11.2564270801
 30
0.0
 10
14.0088272393
 20
11.2564270801
 30
0.0
  0
SPLINE
  5
2CC
100
AcDbEntity
  8
0
100
AcDbSpline
 62
7
  6
CONTINUOUS
 70
0
 71
3
 72
11
 73
7
 74
0
 42
0.0000001
 43
0.0000001
 44
0.0000000001
 40
0.0
 40
0.0
 40
0.0
 40
0.0
 40
0.3037021272
 40
0.5698795549
 40
0.7976301493
 40
1.0
 40
1.0
 40
1.0
 40
1.0
 10
13.4833868308
 20
11.2564270801
 30
0.0
 10
13.4856975727
 20
11.2564270801
 30
0.0
 10
13.4900505727
 20
11.2567937451
 30
0.0
 10
13.4958987613
 20
11.2586320308
 30
0.0
 10
13.5003603564
 20
11.2616844481
 30
0.0
 10
13.5021347003
 20
11.2645931641
 30
0.0
 10
13.5025895851
 20
11.2660641845
 30
0.0
  0
SPLINE
  5
2CD
100
AcDbEntity
  8
0
100
AcDbSpline
 62
7
  6
CONTINUOUS
 70
0
 71
3
 72
9
 73
5
 74
0
 42
0.0000001
 43
0.0000001
 44
0.0000000001
 40
0.0
 40
0.0
 40
0.0
 40
0.0
 40
0.4881095467
 40
1.0
 40
1.0
 40
1.0
 40
1.0
 10
13.2520993221
 20
11.2685040537
 30
0.0
 10
13.2561005349
 20
11.2646195169
 30
0.0
 10
13.2663050485
 20
11.2587738158
 30
0.0
 10
13.2777339867
 20
11.2564270801
 30
0.0
 10
13.2835823622
 20
11.2564270801
 30
0.0
  0
SPLINE
  5
2CE
100
AcDbEntity
  8
0
100
AcDbSpline
 62
7
  6
CONTINUOUS
 70
0
 71
3
 72
9
 73
5
 74
0
 42
0.0000001
 43
0.0000001
 44
0.0000000001
 40
0.0
 40
0.0
 40
0.0
 40
0.0
 40
0.5118925226
 40
1.0
 40
1.0
 40
1.0
 40
1.0
 10
13.1194562189
 20
11.3787912471
 30
0.0
 10
13.125304618
 20
11.3787912471
 30
0.0
 10
13.1367335577
 20
11.3764445027
 30
0.0
 10
13.1469380631
 20
11.3705987939
 30
0.0
 10
13.150939259
 20
11.3667142736
 30
0.0
  0
ENDSEC
  0
SECTION
  2
OBJECTS
  0
DICTIONARY
  5
C
100
AcDbDictionary
280
0
281
1
  3
ACAD_GROUP
350
D
  3
ACAD_MLINESTYLE
350
17
  3
ACAD_LAYOUT
350
1A
  3
ACAD_PLOTSETTINGS
350
19
  3
ACAD_PLOTSTYLENAME
350
E
  0
DICTIONARY
  5
D
102
{ACAD_REACTORS
330
C
102
}
100
AcDbDictionary
280
0
281
1
  0
ACDBDICTIONARYWDFLT
  5
E
102
{ACAD_REACTORS
330
C
102
}
100
AcDbDictionary
281
1
  3
Normal
350
F
100
AcDbDictionaryWithDefault
340
F
  0
DICTIONARY
  5
17
102
{ACAD_REACTORS
330
C
102
}
100
AcDbDictionary
280
0
281
1
  3
Standard
350
18
  0
DICTIONARY
  5
19
102
{ACAD_REACTORS
330
C
102
}
100
AcDbDictionary
281
1
  0
DICTIONARY
  5
1A
102
{ACAD_REACTORS
330
C
102
}
100
AcDbDictionary
281
1
  3
Model
350
2CF
  3
Layout1
350
2D0
  0
ACDBPLACEHOLDER
  5
F
102
{ACAD_REACTORS
330
E
102
}
  0
MLINESTYLE
  5
18
102
{ACAD_REACTORS
330
17
102
}
100
AcDbMlineStyle
  2
STANDARD
 70
0
  3

 62
256
 51
90.0
 52
90.0
 71
2
 49
0.5
 62
256
  6
BYLAYER
 49
-0.5
 62
256
  6
BYLAYER
  0
LAYOUT
  5
2CF
102
{ACAD_REACTORS
330
1A
102
}
100
AcDbPlotSettings
  1

  2
none_device
  4
ANSI_C_(22.00_x_17.00_Inches)
  6

 40
0.0
 41
0.0
 42
0.0
 43
0.0
 44
558.8
 45
431.8
 46
0.0
 47
0.0
 48
0.0
 49
0.0
140
0.0
141
0.0
142
1.0
143
1.0
 70
1024
 72
0
 73
0
 74
0
  7

 75
0
147
1.0
148
0.0
149
0.0
100
AcDbLayout
  1
Model
 70
0
 71
0
 10
0.0
 20
0.0
 11
22.0
 21
17.0
 12
0.0
 22
0.0
 32
0.0
 14
0.0
 24
0.0
 34
0.0
 15
0.0
 25
0.0
 35
0.0
146
0.0
 13
0.0
 23
0.0
 33
0.0
 16
1.0
 26
0.0
 36
0.0
 17
0.0
 27
1.0
 37
0.0
 76
0
330
216
345
0
346
0
  0
LAYOUT
  5
2D0
102
{ACAD_REACTORS
330
1A
102
}
100
AcDbPlotSettings
  1

  2
none_device
  4
ANSI_C_(22.00_x_17.00_Inches)
  6

 40
0.0
 41
0.0
 42
0.0
 43
0.0
 44
558.8
 45
431.8
 46
0.0
 47
0.0
 48
0.0
 49
0.0
140
0.0
141
0.0
142
1.0
143
1.0
 70
0
 72
0
 73
0
 74
0
  7

 75
0
147
1.0
148
0.0
149
0.0
100
AcDbLayout
  1
Layout1
 70
0
 71
1
 10
0.0
 20
0.0
 11
22.0
 21
17.0
 12
0.0
 22
0.0
 32
0.0
 14
0.0
 24
0.0
 34
0.0
 15
0.0
 25
0.0
 35
0.0
146
0.0
 13
0.0
 23
0.0
 33
0.0
 16
1.0
 26
0.0
 36
0.0
 17
0.0
 27
1.0
 37
0.0
 76
0
330
217
345
0
346
0
  0
ENDSEC
  0
EOF