999
DXF file: _cgs_temp_output.dxf
999
Pro/ENGINEER 2015110 by Parametric Technology Corporation
  0
SECTION
  2
HEADER
  9
$ACADVER
  1
AC1021
  9
$DWGCODEPAGE
  3
ANSI_1252
  9
$EXTMAX
 10
22.0
 20
17.0
 30
0.0
  9
$EXTMIN
 10
0.0
 20
0.0
 30
0.0
  9
$LIMMIN
 10
0.0
 20
0.0
  9
$LIMMAX
 10
22.0
 20
17.0
  9
$VIEWCTR
 10
11.0
 20
8.5
  9
$VIEWSIZE
 40
17.0
  9
$CLAYER
  8
0
  9
$LTSCALE
 40
1.21
  9
$CELTYPE
  6
BYLAYER
  9
$DIMSCALE
 40
1.0
  9
$DIMASZ
 40
0.1875
  9
$DIMEXO
 40
0.0625
  9
$DIMDLI
 40
0.836
  9
$DIMEXE
 40
0.125
  9
$DIMCEN
 40
0.198
  9
$DIMLFAC
 40
1.0
  9
$DIMBLK
  1
_CLOSED
  9
$DIMALT
 70
0
  9
$DIMALTF
 40
25.4
  9
$DIMTXT
 40
0.15625
  9
$DIMTOL
 70
0
  9
$DIMLIM
 70
0
  9
$DIMTFAC
 40
1.0
  9
$DIMGAP
 40
0.09
  9
$DIMDSEP
 70
46
  9
$AUNITS
 70
0
  9
$PDMODE
 70
3
  9
$PDSIZE
 40
0.3125
  9
$HANDSEED
  5
2D1
  9
$TILEMODE
 70
1
  9
$MEASUREMENT
 70
0
  9
$INSUNITS
 70
1
  0
ENDSEC
  0
SECTION
  2
CLASSES
  0
CLASS
  1
ACDBDICTIONARYWDFLT
  2
AcDbDictionaryWithDefault
  3
AutoCAD 2000
 90
0
 91
1
280
0
281
0
  0
CLASS
  1
ACDBPLACEHOLDER
  2
AcDbPlaceHolder
  3
AutoCAD 2000
 90
0
 91
1
280
0
281
0
  0
CLASS
  1
LAYOUT
  2
AcDbLayout
  3
AutoCAD 2000
 90
0
 91
0
280
0
281
0
  0
ENDSEC
  0
SECTION
  2
TABLES
  0
TABLE
  2
VPORT
  5
8
100
AcDbSymbolTable
 70
2
  0
VPORT
  5
1F4
100
AcDbSymbolTableRecord
100
AcDbViewportTableRecord
  2
*ACTIVE
 70
0
 10
0.0
 20
0.0
 11
1.0
 21
1.0
 12
11.0
 22
8.5
 13
0.0
 23
0.0
 14
1.0
 24
1.0
 15
0.0
 25
0.0
 16
0.0
 26
0.0
 36
1.0
 17
0.0
 27
0.0
 37
0.0
 40
17.0
 41
1.2941176471
 42
50.0
 43
0.0
 44
0.0
 50
0.0
 51
0.0
 71
0
 72
100
 73
1
 74
1
 75
0
 76
0
 77
0
 78
0
  0
ENDTAB
  0
TABLE
  2
LTYPE
  5
5
100
AcDbSymbolTable
 70
6
  0
LTYPE
  5
14
100
AcDbSymbolTableRecord
100
AcDbLinetypeTableRecord
  2
BYBLOCK
 70
0
  3

 72
65
 73
0
 40
0.0
  0
LTYPE
  5
15
100
AcDbSymbolTableRecord
100
AcDbLinetypeTableRecord
  2
BYLAYER
 70
0
  3

 72
65
 73
0
 40
0.0
  0
LTYPE
  5
16
100
AcDbSymbolTableRecord
100
AcDbLinetypeTableRecord
  2
CONTINUOUS
 70
64
  3
Solid line
 72
65
 73
0
 40
0.0
  0
LTYPE
  5
1F5
100
AcDbSymbolTableRecord
100
AcDbLinetypeTableRecord
  2
CENTER
 70
64
  3
____ _ ____ _ ____ _ ____ _ ____ _ ____ _ ____
 72
65
 73
4
 40
0.6
 49
0.375
 74
0
 49
-0.075
 74
0
 49
0.075
 74
0
 49
-0.075
 74
0
  0
LTYPE
  5
1F6
100
AcDbSymbolTableRecord
100
AcDbLinetypeTableRecord
  2
HIDDEN
 70
64
  3
- - - - - - - - - - - - - - - - - - - -
 72
65
 73
2
 40
0.2
 49
0.1
 74
0
 49
-0.1
 74
0
  0
LTYPE
  5
1F7
100
AcDbSymbolTableRecord
100
AcDbLinetypeTableRecord
  2
PHANTOM
 70
64
  3
_____ _ _ _____ _ _ _____ _ _ _____
 72
65
 73
6
 40
0.8
 49
0.45
 74
0
 49
-0.05
 74
0
 49
0.1
 74
0
 49
-0.05
 74
0
 49
0.1
 74
0
 49
-0.05
 74
0
  0
LTYPE
  5
1F8
100
AcDbSymbolTableRecord
100
AcDbLinetypeTableRecord
  2
DOT
 70
64
  3
. . . . . . . . . . . . . . . . . . . .
 72
65
 73
2
 40
0.2
 49
0.1
 74
0
 49
-0.1
 74
0
  0
LTYPE
  5
1F9
100
AcDbSymbolTableRecord
100
AcDbLinetypeTableRecord
  2
DASHED
 70
64
  3
- - - - - - - - - - - - - - - - - - - -
 72
65
 73
2
 40
0.2
 49
0.1
 74
0
 49
-0.1
 74
0
  0
ENDTAB
  0
TABLE
  2
LAYER
  5
2
100
AcDbSymbolTable
 70
36
  0
LAYER
  5
10
100
AcDbSymbolTableRecord
100
AcDbLayerTableRecord
  2
0
 70
0
 62
7
  6
CONTINUOUS
370
-3
390
F
  0
LAYER
  5
1FA
100
AcDbSymbolTableRecord
100
AcDbLayerTableRecord
  2
DEFAULT_1
 70
0
 62
7
  6
CENTER
370
-3
390
F
  0
LAYER
  5
1FB
100
AcDbSymbolTableRecord
100
AcDbLayerTableRecord
  2
DEFAULT_2
 70
0
 62
8
  6
HIDDEN
370
-3
390
F
  0
LAYER
  5
1FC
100
AcDbSymbolTableRecord
100
AcDbLayerTableRecord
  2
DEFAULT_3
 70
0
 62
7
  6
PHANTOM
370
-3
390
F
  0
LAYER
  5
1FD
100
AcDbSymbolTableRecord
100
AcDbLayerTableRecord
  2
01_ALL_DTM_PLN
 70
0
 62
7
  6
CONTINUOUS
370
-3
390
F
  0
LAYER
  5
1FE
100
AcDbSymbolTableRecord
100
AcDbLayerTableRecord
  2
01__ASM_ALL_DTM_PLN
 70
0
 62
7
  6
CONTINUOUS
370
-3
390
F
  0
LAYER
  5
1FF
100
AcDbSymbolTableRecord
100
AcDbLayerTableRecord
  2
01__ASM_DEF_DTM_PLN
 70
0
 62
7
  6
CONTINUOUS
370
-3
390
F
  0
LAYER
  5
200
100
AcDbSymbolTableRecord
100
AcDbLayerTableRecord
  2
01___PRT_ALL_DTM_PLN
 70
0
 62
7
  6
CONTINUOUS
370
-3
390
F
  0
LAYER
  5
201
100
AcDbSymbolTableRecord
100
AcDbLayerTableRecord
  2
01___PRT_DEF_DTM_PLN
 70
0
 62
7
  6
CONTINUOUS
370
-3
390
F
  0
LAYER
  5
202
100
AcDbSymbolTableRecord
100
AcDbLayerTableRecord
  2
02_ALL_AXES
 70
0
 62
7
  6
CONTINUOUS
370
-3
390
F
  0
LAYER
  5
203
100
AcDbSymbolTableRecord
100
AcDbLayerTableRecord
  2
02__ASM_ALL_AXES
 70
0
 62
7
  6
CONTINUOUS
370
-3
390
F
  0
LAYER
  5
204
100
AcDbSymbolTableRecord
100
AcDbLayerTableRecord
  2
02___PRT_ALL_AXES
 70
0
 62
7
  6
CONTINUOUS
370
-3
390
F
  0
LAYER
  5
205
100
AcDbSymbolTableRecord
100
AcDbLayerTableRecord
  2
03_ALL_CURVES
 70
0
 62
7
  6
CONTINUOUS
370
-3
390
F
  0
LAYER
  5
206
100
AcDbSymbolTableRecord
100
AcDbLayerTableRecord
  2
03__ASM_ALL_CURVES
 70
0
 62
7
  6
CONTINUOUS
370
-3
390
F
  0
LAYER
  5
207
100
AcDbSymbolTableRecord
100
AcDbLayerTableRecord
  2
03___PRT_ALL_CURVES
 70
0
 62
7
  6
CONTINUOUS
370
-3
390
F
  0
LAYER
  5
208
100
AcDbSymbolTableRecord
100
AcDbLayerTableRecord
  2
04_ALL_DTM_PNT
 70
0
 62
7
  6
CONTINUOUS
370
-3
390
F
  0
LAYER
  5
209
100
AcDbSymbolTableRecord
100
AcDbLayerTableRecord
  2
04__ASM_ALL_DTM_PNT
 70
0
 62
7
  6
CONTINUOUS
370
-3
390
F
  0
LAYER
  5
20A
100
AcDbSymbolTableRecord
100
AcDbLayerTableRecord
  2
04___PRT_ALL_DTM_PNT
 70
0
 62
7
  6
CONTINUOUS
370
-3
390
F
  0
LAYER
  5
20B
100
AcDbSymbolTableRecord
100
AcDbLayerTableRecord
  2
05_ALL_DTM_CSYS
 70
0
 62
7
  6
CONTINUOUS
370
-3
390
F
  0
LAYER
  5
20C
100
AcDbSymbolTableRecord
100
AcDbLayerTableRecord
  2
05__ASM_ALL_DTM_CSYS
 70
0
 62
7
  6
CONTINUOUS
370
-3
390
F
  0
LAYER
  5
20D
100
AcDbSymbolTableRecord
100
AcDbLayerTableRecord
  2
05__ASM_DEF_DTM_CSYS
 70
0
 62
7
  6
CONTINUOUS
370
-3
390
F
  0
LAYER
  5
20E
100
AcDbSymbolTableRecord
100
AcDbLayerTableRecord
  2
05___PRT_ALL_DTM_CSYS
 70
0
 62
7
  6
CONTINUOUS
370
-3
390
F
  0
LAYER
  5
20F
100
AcDbSymbolTableRecord
100
AcDbLayerTableRecord
  2
05___PRT_DEF_DTM_CSYS
 70
0
 62
7
  6
CONTINUOUS
370
-3
390
F
  0
LAYER
  5
210
100
AcDbSymbolTableRecord
100
AcDbLayerTableRecord
  2
06_ALL_SURFS
 70
0
 62
7
  6
CONTINUOUS
370
-3
390
F
  0
LAYER
  5
211
100
AcDbSymbolTableRecord
100
AcDbLayerTableRecord
  2
06__ASM_ALL_SURFS
 70
0
 62
7
  6
CONTINUOUS
370
-3
390
F
  0
LAYER
  5
212
100
AcDbSymbolTableRecord
100
AcDbLayerTableRecord
  2
06___PRT_ALL_SURFS
 70
0
 62
7
  6
CONTINUOUS
370
-3
390
F
  0
LAYER
  5
213
100
AcDbSymbolTableRecord
100
AcDbLayerTableRecord
  2
07__ASM_ALL_SKELETONS
 70
0
 62
7
  6
CONTINUOUS
370
-3
390
F
  0
ENDTAB
  0
TABLE
  2
STYLE
  5
3
100
AcDbSymbolTable
 70
1
  0
STYLE
  5
11
100
AcDbSymbolTableRecord
100
AcDbTextStyleTableRecord
  2
STANDARD
 70
0
 40
0.0
 41
0.8
 50
0.0
 71
0
 42
0.2
  3
txt
  4

  0
STYLE
  5
214
100
AcDbSymbolTableRecord
100
AcDbTextStyleTableRecord
  2
TEXTSTYLE_1
 70
0
 40
0.0
 41
0.8
 50
0.0
 71
0
 42
0.2
  3
gdt
  4

  0
ENDTAB
  0
TABLE
  2
VIEW
  5
6
100
AcDbSymbolTable
 70
0
  0
ENDTAB
  0
TABLE
  2
UCS
  5
7
100
AcDbSymbolTable
 70
0
  0
ENDTAB
  0
TABLE
  2
APPID
  5
9
100
AcDbSymbolTable
 70
1
  0
APPID
  5
215
100
AcDbSymbolTableRecord
100
AcDbRegAppTableRecord
  2
ACAD
 70
0
  0
ENDTAB
  0
TABLE
  2
BLOCK_RECORD
  5
1
100
AcDbSymbolTable
 70
0
  0
BLOCK_RECORD
  5
216
100
AcDbSymbolTableRecord
100
AcDbBlockTableRecord
  2
*Model_Space
  0
BLOCK_RECORD
  5
217
100
AcDbSymbolTableRecord
100
AcDbBlockTableRecord
  2
*Paper_Space
  0
ENDTAB
  0
TABLE
  2
DIMSTYLE
  5
A
100
AcDbSymbolTable
 70
1
100
AcDbDimStyleTable
 71
0
  0
DIMSTYLE
105
218
100
AcDbSymbolTableRecord
100
AcDbDimStyleTableRecord
  2
STANDARD
 70
0
  3

  4

 40
1.0
 41
0.1875
 42
0.0625
 43
0.38
 44
0.125
 45
0.0
 46
0.0
 47
0.0001
 48
0.0001
140
0.15625
141
0.09
142
0.0
143
25.4
144
1.0
145
0.0
146
1.0
147
0.09
 71
0.0
 72
0.0
 73
1
 74
1
 75
0
 76
0
 77
0
 78
4
170
0
171
2
172
0
173
0
174
0
175
0
176
0
177
0
178
0
270
2
271
4
272
4
273
2
274
2
275
0
280
0
281
0
282
0
283
1
284
4
285
0
286
0
287
3
288
0
340
11
278
46
  0
ENDTAB
  0
ENDSEC
  0
SECTION
  2
BLOCKS
  0
BLOCK
  5
20
100
AcDbEntity
  8
0
100
AcDbBlockBegin
  2
*Model_Space
 70
0
 10
0.0
 20
0.0
 30
0.0
  3
*Model_Space
  1

  0
ENDBLK
  5
21
100
AcDbEntity
  8
0
100
AcDbBlockEnd
  0
BLOCK
  5
1C
100
AcDbEntity
  8
0
100
AcDbBlockBegin
  2
*Paper_Space
 70
0
 10
0.0
 20
0.0
 30
0.0
  3
*Paper_Space
  1

  0
ENDBLK
  5
1D
100
AcDbEntity
  8
0
100
AcDbBlockEnd
  0
ENDSEC
  0
SECTION
  2
ENTITIES
  0
MTEXT
  5
219
100
AcDbEntity
  8
0
100
AcDbMText
 62
7
  6
CONTINUOUS
  7
STANDARD
 71
1
 72
1
 10
15.9560215477
 20
0.9479130325
 30
0.0
 11
1.0
 21
0.0
 31
0.0
 44
0.9
  1
SCALE: 1:1.000
 40
0.3
 41
3.36
  0
LINE
  5
21A
100
AcDbEntity
  8
0
100
AcDbLine
 62
7
  6
CONTINUOUS
 10
0.0
 20
0.0
 11
0.0
 21
17.0
  0
LINE
  5
21B
100
AcDbEntity
  8
0
100
AcDbLine
 62
7
  6
CONTINUOUS
 10
0.0
 20
0.0
 11
22.0
 21
0.0
  0
LINE
  5
21C
100
AcDbEntity
  8
0
100
AcDbLine
 62
7
  6
CONTINUOUS
 10
0.0
 20
17.0
 11
22.0
 21
17.0
  0
LINE
  5
21D
100
AcDbEntity
  8
0
100
AcDbLine
 62
7
  6
CONTINUOUS
 10
22.0
 20
0.0
 11
22.0
 21
17.0
  0
LINE
  5
21E
100
AcDbEntity
  8
0
100
AcDbLine
 62
7
  6
CONTINUOUS
 10
4.949264914
 20
5.6087025739
 11
4.949264914
 21
5.5457104479
  0
LINE
  5
21F
100
AcDbEntity
  8
0
100
AcDbLine
 62
7
  6
CONTINUOUS
 10
5.0464988723
 20
5.5170100571
 11
5.0728941677
 21
5.444489579
  0
LINE
  5
220
100
AcDbEntity
  8
0
100
AcDbLine
 62
7
  6
CONTINUOUS
 10
5.2193364476
 20
5.444489579
 11
5.245731743
 21
5.5170100571
  0
LINE
  5
221
100
AcDbEntity
  8
0
100
AcDbLine
 62
7
  6
CONTINUOUS
 10
4.949264914
 20
5.5457104479
 11
4.9650129455
 21
5.5299624164
  0
LINE
  5
222
100
AcDbEntity
  8
0
100
AcDbLine
 62
7
  6
CONTINUOUS
 10
5.4401996597
 20
5.5170100571
 11
5.4665949551
 21
5.444489579
  0
LINE
  5
223
100
AcDbEntity
  8
0
100
AcDbLine
 62
7
  6
CONTINUOUS
 10
5.3272176699
 20
5.5299624164
 11
5.3429657014
 21
5.5457104479
  0
LINE
  5
224
100
AcDbEntity
  8
0
100
AcDbLine
 62
7
  6
CONTINUOUS
 10
5.3429657014
 20
5.5457104479
 11
5.3587137329
 21
5.5299624164
  0
LINE
  5
225
100
AcDbEntity
  8
0
100
AcDbLine
 62
7
  6
CONTINUOUS
 10
5.613037235
 20
5.444489579
 11
5.6394325304
 21
5.5170100571
  0
LINE
  5
226
100
AcDbEntity
  8
0
100
AcDbLine
 62
7
  6
CONTINUOUS
 10
5.7209184573
 20
5.5299624164
 11
5.7366664888
 21
5.5457104479
  0
LINE
  5
227
100
AcDbEntity
  8
0
100
AcDbLine
 62
7
  6
CONTINUOUS
 10
5.7366664888
 20
5.5457104479
 11
5.7524145203
 21
5.5299624164
  0
LINE
  5
228
100
AcDbEntity
  8
0
100
AcDbLine
 62
7
  6
CONTINUOUS
 10
5.8339004471
 20
5.5170100571
 11
5.8602957425
 21
5.444489579
  0
LINE
  5
229
100
AcDbEntity
  8
0
100
AcDbLine
 62
7
  6
CONTINUOUS
 10
6.0067380225
 20
5.444489579
 11
6.0331333178
 21
5.5170100571
  0
LINE
  5
22A
100
AcDbEntity
  8
0
100
AcDbLine
 62
7
  6
CONTINUOUS
 10
5.0913920539
 20
5.4315372196
 11
5.2008385614
 21
5.4315372196
  0
LINE
  5
22B
100
AcDbEntity
  8
0
100
AcDbLine
 62
7
  6
CONTINUOUS
 10
5.4850928413
 20
5.4315372196
 11
5.5945393488
 21
5.4315372196
  0
LINE
  5
22C
100
AcDbEntity
  8
0
100
AcDbLine
 62
7
  6
CONTINUOUS
 10
5.8787936287
 20
5.4315372196
 11
5.9882401362
 21
5.4315372196
  0
LINE
  5
22D
100
AcDbEntity
  8
0
100
AcDbLine
 62
7
  6
CONTINUOUS
 10
6.2724944161
 20
5.4315372196
 11
6.3819409236
 21
5.4315372196
  0
LINE
  5
22E
100
AcDbEntity
  8
0
100
AcDbLine
 62
7
  6
CONTINUOUS
 10
6.6661952035
 20
5.4315372196
 11
6.775641711
 21
5.4315372196
  0
LINE
  5
22F
100
AcDbEntity
  8
0
100
AcDbLine
 62
7
  6
CONTINUOUS
 10
7.0598959909
 20
5.4315372196
 11
7.1693424984
 21
5.4315372196
  0
LINE
  5
230
100
AcDbEntity
  8
0
100
AcDbLine
 62
7
  6
CONTINUOUS
 10
6.1146192447
 20
5.5299624164
 11
6.1303672762
 21
5.5457104479
  0
LINE
  5
231
100
AcDbEntity
  8
0
100
AcDbLine
 62
7
  6
CONTINUOUS
 10
4.9650129455
 20
5.5299624164
 11
5.028000986
 21
5.5299624164
  0
LINE
  5
232
100
AcDbEntity
  8
0
100
AcDbLine
 62
7
  6
CONTINUOUS
 10
5.2642296293
 20
5.5299624164
 11
5.3272176699
 21
5.5299624164
  0
LINE
  5
233
100
AcDbEntity
  8
0
100
AcDbLine
 62
7
  6
CONTINUOUS
 10
5.3587137329
 20
5.5299624164
 11
5.4217017734
 21
5.5299624164
  0
LINE
  5
234
100
AcDbEntity
  8
0
100
AcDbLine
 62
7
  6
CONTINUOUS
 10
5.6579304167
 20
5.5299624164
 11
5.7209184573
 21
5.5299624164
  0
LINE
  5
235
100
AcDbEntity
  8
0
100
AcDbLine
 62
7
  6
CONTINUOUS
 10
5.7524145203
 20
5.5299624164
 11
5.8154025608
 21
5.5299624164
  0
LINE
  5
236
100
AcDbEntity
  8
0
100
AcDbLine
 62
7
  6
CONTINUOUS
 10
6.0516312041
 20
5.5299624164
 11
6.1146192447
 21
5.5299624164
  0
LINE
  5
237
100
AcDbEntity
  8
0
100
AcDbLine
 62
7
  6
CONTINUOUS
 10
6.1461153077
 20
5.5299624164
 11
6.2091033482
 21
5.5299624164
  0
LINE
  5
238
100
AcDbEntity
  8
0
100
AcDbLine
 62
7
  6
CONTINUOUS
 10
6.4453319915
 20
5.5299624164
 11
6.5083200321
 21
5.5299624164
  0
LINE
  5
239
100
AcDbEntity
  8
0
100
AcDbLine
 62
7
  6
CONTINUOUS
 10
6.5398160951
 20
5.5299624164
 11
6.6028041357
 21
5.5299624164
  0
LINE
  5
23A
100
AcDbEntity
  8
0
100
AcDbLine
 62
7
  6
CONTINUOUS
 10
6.8390327789
 20
5.5299624164
 11
6.9020208195
 21
5.5299624164
  0
LINE
  5
23B
100
AcDbEntity
  8
0
100
AcDbLine
 62
7
  6
CONTINUOUS
 10
6.9335168825
 20
5.5299624164
 11
6.9965049231
 21
5.5299624164
  0
LINE
  5
23C
100
AcDbEntity
  8
0
100
AcDbLine
 62
7
  6
CONTINUOUS
 10
7.2327335663
 20
5.5299624164
 11
7.2957216069
 21
5.5299624164
  0
LINE
  5
23D
100
AcDbEntity
  8
0
100
AcDbLine
 62
7
  6
CONTINUOUS
 10
7.3114696384
 20
5.6087025739
 11
4.949264914
 21
5.6087025739
  0
LINE
  5
23E
100
AcDbEntity
  8
0
100
AcDbLine
 62
7
  6
CONTINUOUS
 10
6.1303672762
 20
5.5457104479
 11
6.1461153077
 21
5.5299624164
  0
LINE
  5
23F
100
AcDbEntity
  8
0
100
AcDbLine
 62
7
  6
CONTINUOUS
 10
6.2276012345
 20
5.5170100571
 11
6.2539965299
 21
5.444489579
  0
LINE
  5
240
100
AcDbEntity
  8
0
100
AcDbLine
 62
7
  6
CONTINUOUS
 10
6.4004388099
 20
5.444489579
 11
6.4268341052
 21
5.5170100571
  0
LINE
  5
241
100
AcDbEntity
  8
0
100
AcDbLine
 62
7
  6
CONTINUOUS
 10
6.5083200321
 20
5.5299624164
 11
6.5240680636
 21
5.5457104479
  0
LINE
  5
242
100
AcDbEntity
  8
0
100
AcDbLine
 62
7
  6
CONTINUOUS
 10
6.5240680636
 20
5.5457104479
 11
6.5398160951
 21
5.5299624164
  0
LINE
  5
243
100
AcDbEntity
  8
0
100
AcDbLine
 62
7
  6
CONTINUOUS
 10
6.6213020219
 20
5.5170100571
 11
6.6476973173
 21
5.444489579
  0
LINE
  5
244
100
AcDbEntity
  8
0
100
AcDbLine
 62
7
  6
CONTINUOUS
 10
6.9020208195
 20
5.5299624164
 11
6.917768851
 21
5.5457104479
  0
LINE
  5
245
100
AcDbEntity
  8
0
100
AcDbLine
 62
7
  6
CONTINUOUS
 10
6.917768851
 20
5.5457104479
 11
6.9335168825
 21
5.5299624164
  0
LINE
  5
246
100
AcDbEntity
  8
0
100
AcDbLine
 62
7
  6
CONTINUOUS
 10
6.7941395973
 20
5.444489579
 11
6.8205348927
 21
5.5170100571
  0
LINE
  5
247
100
AcDbEntity
  8
0
100
AcDbLine
 62
7
  6
CONTINUOUS
 10
7.2957216069
 20
5.5299624164
 11
7.3114696384
 21
5.5457104479
  0
LINE
  5
248
100
AcDbEntity
  8
0
100
AcDbLine
 62
7
  6
CONTINUOUS
 10
7.0150028093
 20
5.5170100571
 11
7.0413981047
 21
5.444489579
  0
LINE
  5
249
100
AcDbEntity
  8
0
100
AcDbLine
 62
7
  6
CONTINUOUS
 10
7.1878403847
 20
5.444489579
 11
7.2142356801
 21
5.5170100571
  0
LINE
  5
24A
100
AcDbEntity
  8
0
100
AcDbLine
 62
7
  6
CONTINUOUS
 10
7.3114696384
 20
5.5457104479
 11
7.3114696384
 21
5.6087025739
  0
LINE
  5
24B
100
AcDbEntity
  8
0
100
AcDbLine
 62
7
  6
CONTINUOUS
 10
4.8897697217
 20
13.5842997499
 11
4.8897697217
 21
11.6157958129
  0
LINE
  5
24C
100
AcDbEntity
  8
0
100
AcDbLine
 62
7
  6
CONTINUOUS
 10
7.2519744461
 20
11.6157958129
 11
4.8897697217
 21
11.6157958129
  0
LINE
  5
24D
100
AcDbEntity
  8
0
100
AcDbLine
 62
7
  6
CONTINUOUS
 10
4.8897697217
 20
13.5842997499
 11
7.2519744461
 21
13.5842997499
  0
LINE
  5
24E
100
AcDbEntity
  8
0
100
AcDbLine
 62
7
  6
CONTINUOUS
 10
7.2519744461
 20
13.5842997499
 11
7.2519744461
 21
11.6157958129
  0
LINE
  5
24F
100
AcDbEntity
  8
0
100
AcDbLine
 62
7
  6
CONTINUOUS
 10
14.5761032884
 20
5.3720420273
 11
14.5761032884
 21
5.5492073816
  0
LINE
  5
250
100
AcDbEntity
  8
0
100
AcDbLine
 62
7
  6
CONTINUOUS
 10
14.5761032884
 20
5.3720420273
 11
16.5446072254
 21
5.3720420273
  0
LINE
  5
251
100
AcDbEntity
  8
0
100
AcDbLine
 62
7
  6
CONTINUOUS
 10
16.5446072254
 20
5.4704672241
 11
14.5761032884
 21
5.4704672241
  0
LINE
  5
252
100
AcDbEntity
  8
0
100
AcDbLine
 62
7
  6
CONTINUOUS
 10
16.5446072254
 20
5.4862152556
 11
14.5761032884
 21
5.4862152556
  0
LINE
  5
253
100
AcDbEntity
  8
0
100
AcDbLine
 62
7
  6
CONTINUOUS
 10
16.5446072254
 20
5.5492073816
 11
14.5761032884
 21
5.5492073816
  0
LINE
  5
254
100
AcDbEntity
  8
0
100
AcDbLine
 62
7
  6
CONTINUOUS
 10
16.5446072254
 20
5.3720420273
 11
16.5446072254
 21
5.5492073816
  0
LINE
  5
255
100
AcDbEntity
  8
0
100
AcDbLine
 62
7
  6
CONTINUOUS
 10
14.1353832796
 20
11.7948778153
 11
14.1545985152
 21
11.7557212818
  0
LINE
  5
256
100
AcDbEntity
  8
0
100
AcDbLine
 62
7
  6
CONTINUOUS
 10
14.2529117424
 20
11.7378808328
 11
14.2993452014
 21
11.6928013807
  0
LINE
  5
257
100
AcDbEntity
  8
0
100
AcDbLine
 62
7
  6
CONTINUOUS
 10
14.1545985152
 20
11.7557212818
 11
14.1739072217
 21
11.7459321485
  0
LINE
  5
258
100
AcDbEntity
  8
0
100
AcDbLine
 62
7
  6
CONTINUOUS
 10
14.6155341809
 20
11.7378808328
 11
14.66196764
 21
11.6928013807
  0
LINE
  5
259
100
AcDbEntity
  8
0
100
AcDbLine
 62
7
  6
CONTINUOUS
 10
14.6118917902
 20
13.3368599208
 11
14.1353832796
 21
11.7948778153
  0
LINE
  5
25A
100
AcDbEntity
  8
0
100
AcDbLine
 62
7
  6
CONTINUOUS
 10
14.5172209538
 20
11.7557212818
 11
14.5365296603
 21
11.7459321485
  0
LINE
  5
25B
100
AcDbEntity
  8
0
100
AcDbLine
 62
7
  6
CONTINUOUS
 10
14.4342274733
 20
11.6928013807
 11
14.4364173683
 21
11.7378808328
  0
LINE
  5
25C
100
AcDbEntity
  8
0
100
AcDbLine
 62
7
  6
CONTINUOUS
 10
14.8798433924
 20
11.7557212818
 11
14.8991520989
 21
11.7459321485
  0
LINE
  5
25D
100
AcDbEntity
  8
0
100
AcDbLine
 62
7
  6
CONTINUOUS
 10
14.4364173683
 20
11.7378808328
 11
14.4367029528
 21
11.7395071793
  0
LINE
  5
25E
100
AcDbEntity
  8
0
100
AcDbLine
 62
7
  6
CONTINUOUS
 10
14.4339412518
 20
11.6911752303
 11
14.4342274733
 21
11.6928013807
  0
LINE
  5
25F
100
AcDbEntity
  8
0
100
AcDbLine
 62
7
  6
CONTINUOUS
 10
14.3203338947
 20
11.684750065
 11
14.4211408037
 21
11.684750065
  0
LINE
  5
260
100
AcDbEntity
  8
0
100
AcDbLine
 62
7
  6
CONTINUOUS
 10
14.6829563333
 20
11.684750065
 11
14.7837632423
 21
11.684750065
  0
LINE
  5
261
100
AcDbEntity
  8
0
100
AcDbLine
 62
7
  6
CONTINUOUS
 10
15.0455787719
 20
11.684750065
 11
15.1463856809
 21
11.684750065
  0
LINE
  5
262
100
AcDbEntity
  8
0
100
AcDbLine
 62
7
  6
CONTINUOUS
 10
15.4082012105
 20
11.684750065
 11
15.5090081195
 21
11.684750065
  0
LINE
  5
263
100
AcDbEntity
  8
0
100
AcDbLine
 62
7
  6
CONTINUOUS
 10
15.7708236491
 20
11.684750065
 11
15.8716305581
 21
11.684750065
  0
LINE
  5
264
100
AcDbEntity
  8
0
100
AcDbLine
 62
7
  6
CONTINUOUS
 10
16.1334460877
 20
11.684750065
 11
16.2342529966
 21
11.684750065
  0
LINE
  5
265
100
AcDbEntity
  8
0
100
AcDbLine
 62
7
  6
CONTINUOUS
 10
14.9781566195
 20
11.7378808328
 11
15.0245900785
 21
11.6928013807
  0
LINE
  5
266
100
AcDbEntity
  8
0
100
AcDbLine
 62
7
  6
CONTINUOUS
 10
14.4344272025
 20
11.6927396597
 11
14.4508649248
 21
11.7459321485
  0
LINE
  5
267
100
AcDbEntity
  8
0
100
AcDbLine
 62
7
  6
CONTINUOUS
 10
14.1739072217
 20
11.7459321485
 11
14.231923049
 21
11.7459321485
  0
LINE
  5
268
100
AcDbEntity
  8
0
100
AcDbLine
 62
7
  6
CONTINUOUS
 10
14.4495040379
 20
11.7459321485
 11
14.5075198652
 21
11.7459321485
  0
LINE
  5
269
100
AcDbEntity
  8
0
100
AcDbLine
 62
7
  6
CONTINUOUS
 10
14.5365296603
 20
11.7459321485
 11
14.5945454876
 21
11.7459321485
  0
LINE
  5
26A
100
AcDbEntity
  8
0
100
AcDbLine
 62
7
  6
CONTINUOUS
 10
14.8121264765
 20
11.7459321485
 11
14.8701423038
 21
11.7459321485
  0
LINE
  5
26B
100
AcDbEntity
  8
0
100
AcDbLine
 62
7
  6
CONTINUOUS
 10
14.8991520989
 20
11.7459321485
 11
14.9571679262
 21
11.7459321485
  0
LINE
  5
26C
100
AcDbEntity
  8
0
100
AcDbLine
 62
7
  6
CONTINUOUS
 10
15.1747489151
 20
11.7459321485
 11
15.2327647424
 21
11.7459321485
  0
LINE
  5
26D
100
AcDbEntity
  8
0
100
AcDbLine
 62
7
  6
CONTINUOUS
 10
15.2617745375
 20
11.7459321485
 11
15.3197903647
 21
11.7459321485
  0
LINE
  5
26E
100
AcDbEntity
  8
0
100
AcDbLine
 62
7
  6
CONTINUOUS
 10
15.5373713537
 20
11.7459321485
 11
15.595387181
 21
11.7459321485
  0
LINE
  5
26F
100
AcDbEntity
  8
0
100
AcDbLine
 62
7
  6
CONTINUOUS
 10
15.6243969761
 20
11.7459321485
 11
15.6824128033
 21
11.7459321485
  0
LINE
  5
270
100
AcDbEntity
  8
0
100
AcDbLine
 62
7
  6
CONTINUOUS
 10
15.8999937923
 20
11.7459321485
 11
15.9580096195
 21
11.7459321485
  0
LINE
  5
271
100
AcDbEntity
  8
0
100
AcDbLine
 62
7
  6
CONTINUOUS
 10
15.9870194146
 20
11.7459321485
 11
16.0450352419
 21
11.7459321485
  0
LINE
  5
272
100
AcDbEntity
  8
0
100
AcDbLine
 62
7
  6
CONTINUOUS
 10
16.2626162309
 20
11.7459321485
 11
16.3206320581
 21
11.7459321485
  0
LINE
  5
273
100
AcDbEntity
  8
0
100
AcDbLine
 62
7
  6
CONTINUOUS
 10
15.242465831
 20
11.7557212818
 11
15.2617745375
 21
11.7459321485
  0
LINE
  5
274
100
AcDbEntity
  8
0
100
AcDbLine
 62
7
  6
CONTINUOUS
 10
14.7968499119
 20
11.6928013807
 11
14.7990398069
 21
11.7378808328
  0
LINE
  5
275
100
AcDbEntity
  8
0
100
AcDbLine
 62
7
  6
CONTINUOUS
 10
16.3111179111
 20
11.7948778153
 11
14.1353832796
 21
11.7948778153
  0
LINE
  5
276
100
AcDbEntity
  8
0
100
AcDbLine
 62
7
  6
CONTINUOUS
 10
15.3407790581
 20
11.7378808328
 11
15.3872125171
 21
11.6928013807
  0
LINE
  5
277
100
AcDbEntity
  8
0
100
AcDbLine
 62
7
  6
CONTINUOUS
 10
14.7990398069
 20
11.7378808328
 11
14.799326785
 21
11.7395067502
  0
LINE
  5
278
100
AcDbEntity
  8
0
100
AcDbLine
 62
7
  6
CONTINUOUS
 10
14.7965618863
 20
11.6911757858
 11
14.7968499119
 21
11.6928013807
  0
LINE
  5
279
100
AcDbEntity
  8
0
100
AcDbLine
 62
7
  6
CONTINUOUS
 10
15.6050882696
 20
11.7557212818
 11
15.6243969761
 21
11.7459321485
  0
LINE
  5
27A
100
AcDbEntity
  8
0
100
AcDbLine
 62
7
  6
CONTINUOUS
 10
15.9677107082
 20
11.7557212818
 11
15.9870194146
 21
11.7459321485
  0
LINE
  5
27B
100
AcDbEntity
  8
0
100
AcDbLine
 62
7
  6
CONTINUOUS
 10
14.7970496411
 20
11.6927396597
 11
14.8134873634
 21
11.7459321485
  0
LINE
  5
27C
100
AcDbEntity
  8
0
100
AcDbLine
 62
7
  6
CONTINUOUS
 10
15.7034014967
 20
11.7378808328
 11
15.7498349557
 21
11.6928013807
  0
LINE
  5
27D
100
AcDbEntity
  8
0
100
AcDbLine
 62
7
  6
CONTINUOUS
 10
15.1594723505
 20
11.6928013807
 11
15.1616622455
 21
11.7378808328
  0
LINE
  5
27E
100
AcDbEntity
  8
0
100
AcDbLine
 62
7
  6
CONTINUOUS
 10
15.1616622455
 20
11.7378808328
 11
15.1619492236
 21
11.7395067502
  0
LINE
  5
27F
100
AcDbEntity
  8
0
100
AcDbLine
 62
7
  6
CONTINUOUS
 10
15.1591843249
 20
11.6911757858
 11
15.1594723505
 21
11.6928013807
  0
LINE
  5
280
100
AcDbEntity
  8
0
100
AcDbLine
 62
7
  6
CONTINUOUS
 10
14.5075198652
 20
11.7459321485
 11
14.5172209538
 21
11.7557212818
  0
LINE
  5
281
100
AcDbEntity
  8
0
100
AcDbLine
 62
7
  6
CONTINUOUS
 10
16.0660239353
 20
11.7378808328
 11
16.1124573943
 21
11.6928013807
  0
LINE
  5
282
100
AcDbEntity
  8
0
100
AcDbLine
 62
7
  6
CONTINUOUS
 10
15.1596720797
 20
11.6927396597
 11
15.176109802
 21
11.7459321485
  0
LINE
  5
283
100
AcDbEntity
  8
0
100
AcDbLine
 62
7
  6
CONTINUOUS
 10
15.5220947891
 20
11.6928013807
 11
15.5242846841
 21
11.7378808328
  0
LINE
  5
284
100
AcDbEntity
  8
0
100
AcDbLine
 62
7
  6
CONTINUOUS
 10
14.8701423038
 20
11.7459321485
 11
14.8798433924
 21
11.7557212818
  0
LINE
  5
285
100
AcDbEntity
  8
0
100
AcDbLine
 62
7
  6
CONTINUOUS
 10
15.5242846841
 20
11.7378808328
 11
15.5245716622
 21
11.7395067502
  0
LINE
  5
286
100
AcDbEntity
  8
0
100
AcDbLine
 62
7
  6
CONTINUOUS
 10
15.5218067635
 20
11.6911757858
 11
15.5220947891
 21
11.6928013807
  0
LINE
  5
287
100
AcDbEntity
  8
0
100
AcDbLine
 62
7
  6
CONTINUOUS
 10
15.5222945183
 20
11.6927396597
 11
15.5387322406
 21
11.7459321485
  0
LINE
  5
288
100
AcDbEntity
  8
0
100
AcDbLine
 62
7
  6
CONTINUOUS
 10
15.2327647424
 20
11.7459321485
 11
15.242465831
 21
11.7557212818
  0
LINE
  5
289
100
AcDbEntity
  8
0
100
AcDbLine
 62
7
  6
CONTINUOUS
 10
15.8847172277
 20
11.6928013807
 11
15.8869071227
 21
11.7378808328
  0
LINE
  5
28A
100
AcDbEntity
  8
0
100
AcDbLine
 62
7
  6
CONTINUOUS
 10
16.3303331468
 20
11.7557212818
 11
16.3111179111
 21
11.7948778153
  0
LINE
  5
28B
100
AcDbEntity
  8
0
100
AcDbLine
 62
7
  6
CONTINUOUS
 10
15.8869071227
 20
11.7378808328
 11
15.8871941008
 21
11.7395067502
  0
LINE
  5
28C
100
AcDbEntity
  8
0
100
AcDbLine
 62
7
  6
CONTINUOUS
 10
15.8844292021
 20
11.6911757858
 11
15.8847172277
 21
11.6928013807
  0
LINE
  5
28D
100
AcDbEntity
  8
0
100
AcDbLine
 62
7
  6
CONTINUOUS
 10
15.8849169569
 20
11.6927396597
 11
15.9013546792
 21
11.7459321485
  0
LINE
  5
28E
100
AcDbEntity
  8
0
100
AcDbLine
 62
7
  6
CONTINUOUS
 10
15.595387181
 20
11.7459321485
 11
15.6050882696
 21
11.7557212818
  0
LINE
  5
28F
100
AcDbEntity
  8
0
100
AcDbLine
 62
7
  6
CONTINUOUS
 10
16.2473396662
 20
11.6928013807
 11
16.2495295613
 21
11.7378808328
  0
LINE
  5
290
100
AcDbEntity
  8
0
100
AcDbLine
 62
7
  6
CONTINUOUS
 10
14.6118917902
 20
13.3368599208
 11
16.7876264217
 21
13.3368599208
  0
LINE
  5
291
100
AcDbEntity
  8
0
100
AcDbLine
 62
7
  6
CONTINUOUS
 10
16.2495295613
 20
11.7378808328
 11
16.2498165393
 21
11.7395067502
  0
LINE
  5
292
100
AcDbEntity
  8
0
100
AcDbLine
 62
7
  6
CONTINUOUS
 10
16.2470516407
 20
11.6911757858
 11
16.2473396662
 21
11.6928013807
  0
LINE
  5
293
100
AcDbEntity
  8
0
100
AcDbLine
 62
7
  6
CONTINUOUS
 10
15.9580096195
 20
11.7459321485
 11
15.9677107082
 21
11.7557212818
  0
LINE
  5
294
100
AcDbEntity
  8
0
100
AcDbLine
 62
7
  6
CONTINUOUS
 10
16.2475393955
 20
11.6927396597
 11
16.2639771177
 21
11.7459321485
  0
LINE
  5
295
100
AcDbEntity
  8
0
100
AcDbLine
 62
7
  6
CONTINUOUS
 10
16.7876264217
 20
13.3368599208
 11
16.3111179111
 21
11.7948778153
  0
LINE
  5
296
100
AcDbEntity
  8
0
100
AcDbLine
 62
7
  6
CONTINUOUS
 10
16.8068416574
 20
13.2977033874
 11
16.3303331468
 21
11.7557212818
  0
LINE
  5
297
100
AcDbEntity
  8
0
100
AcDbLine
 62
7
  6
CONTINUOUS
 10
16.3206320581
 20
11.7459321485
 11
16.3303331468
 21
11.7557212818
  0
LINE
  5
298
100
AcDbEntity
  8
0
100
AcDbLine
 62
7
  6
CONTINUOUS
 10
16.8068416574
 20
13.2977033874
 11
16.7876264217
 21
13.3368599208
  0
ARC
  5
299
100
AcDbEntity
  8
0
100
AcDbCircle
 62
7
  6
CONTINUOUS
 10
7.2327335663
 20
5.5102773771
 40
0.0196850394
100
AcDbArc
 50
90.0
 51
160.0
  0
ARC
  5
29A
100
AcDbEntity
  8
0
100
AcDbCircle
 62
7
  6
CONTINUOUS
 10
6.9965049231
 20
5.5102773771
 40
0.0196850394
100
AcDbArc
 50
20.0
 51
90.0
  0
ARC
  5
29B
100
AcDbEntity
  8
0
100
AcDbCircle
 62
7
  6
CONTINUOUS
 10
6.8390327789
 20
5.5102773771
 40
0.0196850394
100
AcDbArc
 50
90.0
 51
160.0
  0
ARC
  5
29C
100
AcDbEntity
  8
0
100
AcDbCircle
 62
7
  6
CONTINUOUS
 10
6.6028041357
 20
5.5102773771
 40
0.0196850394
100
AcDbArc
 50
20.0
 51
90.0
  0
ARC
  5
29D
100
AcDbEntity
  8
0
100
AcDbCircle
 62
7
  6
CONTINUOUS
 10
6.4453319915
 20
5.5102773771
 40
0.0196850394
100
AcDbArc
 50
90.0
 51
160.0
  0
ARC
  5
29E
100
AcDbEntity
  8
0
100
AcDbCircle
 62
7
  6
CONTINUOUS
 10
6.2091033482
 20
5.5102773771
 40
0.0196850394
100
AcDbArc
 50
20.0
 51
90.0
  0
ARC
  5
29F
100
AcDbEntity
  8
0
100
AcDbCircle
 62
7
  6
CONTINUOUS
 10
6.0516312041
 20
5.5102773771
 40
0.0196850394
100
AcDbArc
 50
90.0
 51
160.0
  0
ARC
  5
2A0
100
AcDbEntity
  8
0
100
AcDbCircle
 62
7
  6
CONTINUOUS
 10
5.8154025608
 20
5.5102773771
 40
0.0196850394
100
AcDbArc
 50
20.0
 51
90.0
  0
ARC
  5
2A1
100
AcDbEntity
  8
0
100
AcDbCircle
 62
7
  6
CONTINUOUS
 10
5.6579304167
 20
5.5102773771
 40
0.0196850394
100
AcDbArc
 50
90.0
 51
160.0
  0
ARC
  5
2A2
100
AcDbEntity
  8
0
100
AcDbCircle
 62
7
  6
CONTINUOUS
 10
5.4217017734
 20
5.5102773771
 40
0.0196850394
100
AcDbArc
 50
20.0
 51
90.0
  0
ARC
  5
2A3
100
AcDbEntity
  8
0
100
AcDbCircle
 62
7
  6
CONTINUOUS
 10
5.028000986
 20
5.5102773771
 40
0.0196850394
100
AcDbArc
 50
20.0
 51
90.0
  0
ARC
  5
2A4
100
AcDbEntity
  8
0
100
AcDbCircle
 62
7
  6
CONTINUOUS
 10
5.2642296293
 20
5.5102773771
 40
0.0196850394
100
AcDbArc
 50
90.0
 51
160.0
  0
ARC
  5
2A5
100
AcDbEntity
  8
0
100
AcDbCircle
 62
7
  6
CONTINUOUS
 10
5.0913920539
 20
5.451222259
 40
0.0196850394
100
AcDbArc
 50
200.0
 51
270.0
  0
ARC
  5
2A6
100
AcDbEntity
  8
0
100
AcDbCircle
 62
7
  6
CONTINUOUS
 10
5.2008385614
 20
5.451222259
 40
0.0196850394
100
AcDbArc
 50
270.0
 51
340.0
  0
ARC
  5
2A7
100
AcDbEntity
  8
0
100
AcDbCircle
 62
7
  6
CONTINUOUS
 10
5.4850928413
 20
5.451222259
 40
0.0196850394
100
AcDbArc
 50
200.0
 51
270.0
  0
ARC
  5
2A8
100
AcDbEntity
  8
0
100
AcDbCircle
 62
7
  6
CONTINUOUS
 10
5.5945393488
 20
5.451222259
 40
0.0196850394
100
AcDbArc
 50
270.0
 51
340.0
  0
ARC
  5
2A9
100
AcDbEntity
  8
0
100
AcDbCircle
 62
7
  6
CONTINUOUS
 10
5.8787936287
 20
5.451222259
 40
0.0196850394
100
AcDbArc
 50
200.0
 51
270.0
  0
ARC
  5
2AA
100
AcDbEntity
  8
0
100
AcDbCircle
 62
7
  6
CONTINUOUS
 10
5.9882401362
 20
5.451222259
 40
0.0196850394
100
AcDbArc
 50
270.0
 51
340.0
  0
ARC
  5
2AB
100
AcDbEntity
  8
0
100
AcDbCircle
 62
7
  6
CONTINUOUS
 10
6.2724944161
 20
5.451222259
 40
0.0196850394
100
AcDbArc
 50
200.0
 51
270.0
  0
ARC
  5
2AC
100
AcDbEntity
  8
0
100
AcDbCircle
 62
7
  6
CONTINUOUS
 10
6.3819409236
 20
5.451222259
 40
0.0196850394
100
AcDbArc
 50
270.0
 51
340.0
  0
ARC
  5
2AD
100
AcDbEntity
  8
0
100
AcDbCircle
 62
7
  6
CONTINUOUS
 10
6.6661952035
 20
5.451222259
 40
0.0196850394
100
AcDbArc
 50
200.0
 51
270.0
  0
ARC
  5
2AE
100
AcDbEntity
  8
0
100
AcDbCircle
 62
7
  6
CONTINUOUS
 10
7.1693424984
 20
5.451222259
 40
0.0196850394
100
AcDbArc
 50
270.0
 51
340.0
  0
ARC
  5
2AF
100
AcDbEntity
  8
0
100
AcDbCircle
 62
7
  6
CONTINUOUS
 10
7.0598959909
 20
5.451222259
 40
0.0196850394
100
AcDbArc
 50
200.0
 51
270.0
  0
ARC
  5
2B0
100
AcDbEntity
  8
0
100
AcDbCircle
 62
7
  6
CONTINUOUS
 10
6.775641711
 20
5.451222259
 40
0.0196850394
100
AcDbArc
 50
270.0
 51
340.0
  0
SPLINE
  5
2B1
100
AcDbEntity
  8
0
100
AcDbSpline
 62
7
  6
CONTINUOUS
 70
0
 71
3
 72
9
 73
5
 74
0
 42
0.0000001
 43
0.0000001
 44
0.0000000001
 40
0.0
 40
0.0
 40
0.0
 40
0.0
 40
0.4768465887
 40
1.0
 40
1.0
 40
1.0
 40
1.0
 10
16.2498143994
 20
11.7395074116
 30
0.0
 10
16.2500756022
 20
11.7403520877
 30
0.0
 10
16.2510095046
 20
11.7420193303
 30
0.0
 10
16.252477729
 20
11.7432118966
 30
0.0
 10
16.2533039667
 20
11.7437200611
 30
0.0
  0
SPLINE
  5
2B2
100
AcDbEntity
  8
0
100
AcDbSpline
 62
7
  6
CONTINUOUS
 70
0
 71
3
 72
9
 73
5
 74
0
 42
0.0000001
 43
0.0000001
 44
0.0000000001
 40
0.0
 40
0.0
 40
0.0
 40
0.0
 40
0.221526551
 40
1.0
 40
1.0
 40
1.0
 40
1.0
 10
16.2533039667
 20
11.7437200611
 30
0.0
 10
16.2539104373
 20
11.7440930613
 30
0.0
 10
16.2568157162
 20
11.7455050923
 30
0.0
 10
16.2601141894
 20
11.7459321485
 30
0.0
 10
16.2626162309
 20
11.7459321485
 30
0.0
  0
SPLINE
  5
2B3
100
AcDbEntity
  8
0
100
AcDbSpline
 62
7
  6
CONTINUOUS
 70
0
 71
3
 72
9
 73
5
 74
0
 42
0.0000001
 43
0.0000001
 44
0.0000000001
 40
0.0
 40
0.0
 40
0.0
 40
0.0
 40
0.4768465887
 40
1.0
 40
1.0
 40
1.0
 40
1.0
 10
15.8871919608
 20
11.7395074116
 30
0.0
 10
15.8874531636
 20
11.7403520877
 30
0.0
 10
15.888387066
 20
11.7420193303
 30
0.0
 10
15.8898552904
 20
11.7432118966
 30
0.0
 10
15.8906815281
 20
11.7437200611
 30
0.0
  0
SPLINE
  5
2B4
100
AcDbEntity
  8
0
100
AcDbSpline
 62
7
  6
CONTINUOUS
 70
0
 71
3
 72
9
 73
5
 74
0
 42
0.0000001
 43
0.0000001
 44
0.0000000001
 40
0.0
 40
0.0
 40
0.0
 40
0.0
 40
0.221526551
 40
1.0
 40
1.0
 40
1.0
 40
1.0
 10
15.8906815281
 20
11.7437200611
 30
0.0
 10
15.8912879987
 20
11.7440930613
 30
0.0
 10
15.8941932776
 20
11.7455050923
 30
0.0
 10
15.8974917508
 20
11.7459321485
 30
0.0
 10
15.8999937923
 20
11.7459321485
 30
0.0
  0
SPLINE
  5
2B5
100
AcDbEntity
  8
0
100
AcDbSpline
 62
7
  6
CONTINUOUS
 70
0
 71
3
 72
9
 73
5
 74
0
 42
0.0000001
 43
0.0000001
 44
0.0000000001
 40
0.0
 40
0.0
 40
0.0
 40
0.0
 40
0.4768465887
 40
1.0
 40
1.0
 40
1.0
 40
1.0
 10
15.5245695223
 20
11.7395074116
 30
0.0
 10
15.524830725
 20
11.7403520877
 30
0.0
 10
15.5257646274
 20
11.7420193303
 30
0.0
 10
15.5272328518
 20
11.7432118966
 30
0.0
 10
15.5280590895
 20
11.7437200611
 30
0.0
  0
SPLINE
  5
2B6
100
AcDbEntity
  8
0
100
AcDbSpline
 62
7
  6
CONTINUOUS
 70
0
 71
3
 72
9
 73
5
 74
0
 42
0.0000001
 43
0.0000001
 44
0.0000000001
 40
0.0
 40
0.0
 40
0.0
 40
0.0
 40
0.221526551
 40
1.0
 40
1.0
 40
1.0
 40
1.0
 10
15.5280590895
 20
11.7437200611
 30
0.0
 10
15.5286655602
 20
11.7440930613
 30
0.0
 10
15.531570839
 20
11.7455050923
 30
0.0
 10
15.5348693122
 20
11.7459321485
 30
0.0
 10
15.5373713537
 20
11.7459321485
 30
0.0
  0
SPLINE
  5
2B7
100
AcDbEntity
  8
0
100
AcDbSpline
 62
7
  6
CONTINUOUS
 70
0
 71
3
 72
9
 73
5
 74
0
 42
0.0000001
 43
0.0000001
 44
0.0000000001
 40
0.0
 40
0.0
 40
0.0
 40
0.0
 40
0.4768465887
 40
1.0
 40
1.0
 40
1.0
 40
1.0
 10
15.1619470837
 20
11.7395074116
 30
0.0
 10
15.1622082864
 20
11.7403520877
 30
0.0
 10
15.1631421888
 20
11.7420193303
 30
0.0
 10
15.1646104132
 20
11.7432118966
 30
0.0
 10
15.1654366509
 20
11.7437200611
 30
0.0
  0
SPLINE
  5
2B8
100
AcDbEntity
  8
0
100
AcDbSpline
 62
7
  6
CONTINUOUS
 70
0
 71
3
 72
9
 73
5
 74
0
 42
0.0000001
 43
0.0000001
 44
0.0000000001
 40
0.0
 40
0.0
 40
0.0
 40
0.0
 40
0.221526551
 40
1.0
 40
1.0
 40
1.0
 40
1.0
 10
15.1654366509
 20
11.7437200611
 30
0.0
 10
15.1660431216
 20
11.7440930613
 30
0.0
 10
15.1689484005
 20
11.7455050923
 30
0.0
 10
15.1722468736
 20
11.7459321485
 30
0.0
 10
15.1747489151
 20
11.7459321485
 30
0.0
  0
SPLINE
  5
2B9
100
AcDbEntity
  8
0
100
AcDbSpline
 62
7
  6
CONTINUOUS
 70
0
 71
3
 72
9
 73
5
 74
0
 42
0.0000001
 43
0.0000001
 44
0.0000000001
 40
0.0
 40
0.0
 40
0.0
 40
0.0
 40
0.4768465887
 40
1.0
 40
1.0
 40
1.0
 40
1.0
 10
14.7993246451
 20
11.7395074116
 30
0.0
 10
14.7995858478
 20
11.7403520877
 30
0.0
 10
14.8005197502
 20
11.7420193303
 30
0.0
 10
14.8019879746
 20
11.7432118966
 30
0.0
 10
14.8028142123
 20
11.7437200611
 30
0.0
  0
SPLINE
  5
2BA
100
AcDbEntity
  8
0
100
AcDbSpline
 62
7
  6
CONTINUOUS
 70
0
 71
3
 72
9
 73
5
 74
0
 42
0.0000001
 43
0.0000001
 44
0.0000000001
 40
0.0
 40
0.0
 40
0.0
 40
0.0
 40
0.221526551
 40
1.0
 40
1.0
 40
1.0
 40
1.0
 10
14.8028142123
 20
11.7437200611
 30
0.0
 10
14.803420683
 20
11.7440930613
 30
0.0
 10
14.8063259619
 20
11.7455050923
 30
0.0
 10
14.8096244351
 20
11.7459321485
 30
0.0
 10
14.8121264765
 20
11.7459321485
 30
0.0
  0
SPLINE
  5
2BB
100
AcDbEntity
  8
0
100
AcDbSpline
 62
7
  6
CONTINUOUS
 70
0
 71
3
 72
9
 73
5
 74
0
 42
0.0000001
 43
0.0000001
 44
0.0000000001
 40
0.0
 40
0.0
 40
0.0
 40
0.0
 40
0.476836902
 40
1.0
 40
1.0
 40
1.0
 40
1.0
 10
14.4367021953
 20
11.7395074135
 30
0.0
 10
14.4369634033
 20
11.7403521275
 30
0.0
 10
14.4378974173
 20
11.7420194513
 30
0.0
 10
14.4393657524
 20
11.7432120693
 30
0.0
 10
14.4401920751
 20
11.7437202464
 30
0.0
  0
SPLINE
  5
2BC
100
AcDbEntity
  8
0
100
AcDbSpline
 62
7
  6
CONTINUOUS
 70
0
 71
3
 72
9
 73
5
 74
0
 42
0.0000001
 43
0.0000001
 44
0.0000000001
 40
0.0
 40
0.0
 40
0.0
 40
0.0
 40
0.2215351167
 40
1.0
 40
1.0
 40
1.0
 40
1.0
 10
14.4401920751
 20
11.7437202464
 30
0.0
 10
14.4407985603
 20
11.7440932265
 30
0.0
 10
14.4437037835
 20
11.7455050999
 30
0.0
 10
14.4470021145
 20
11.7459321485
 30
0.0
 10
14.4495040379
 20
11.7459321485
 30
0.0
  0
SPLINE
  5
2BD
100
AcDbEntity
  8
0
100
AcDbSpline
 62
7
  6
CONTINUOUS
 70
0
 71
3
 72
9
 73
5
 74
0
 42
0.0000001
 43
0.0000001
 44
0.0000000001
 40
0.0
 40
0.0
 40
0.0
 40
0.0
 40
0.5118923338
 40
1.0
 40
1.0
 40
1.0
 40
1.0
 10
16.0450352419
 20
11.7459321485
 30
0.0
 10
16.0489341732
 20
11.7459321485
 30
0.0
 10
16.0565534662
 20
11.7443676527
 30
0.0
 10
16.0633564704
 20
11.740470514
 30
0.0
 10
16.0660239353
 20
11.7378808328
 30
0.0
  0
SPLINE
  5
2BE
100
AcDbEntity
  8
0
100
AcDbSpline
 62
7
  6
CONTINUOUS
 70
0
 71
3
 72
9
 73
5
 74
0
 42
0.0000001
 43
0.0000001
 44
0.0000000001
 40
0.0
 40
0.0
 40
0.0
 40
0.0
 40
0.5118923338
 40
1.0
 40
1.0
 40
1.0
 40
1.0
 10
15.6824128033
 20
11.7459321485
 30
0.0
 10
15.6863117346
 20
11.7459321485
 30
0.0
 10
15.6939310276
 20
11.7443676527
 30
0.0
 10
15.7007340318
 20
11.740470514
 30
0.0
 10
15.7034014967
 20
11.7378808328
 30
0.0
  0
SPLINE
  5
2BF
100
AcDbEntity
  8
0
100
AcDbSpline
 62
7
  6
CONTINUOUS
 70
0
 71
3
 72
9
 73
5
 74
0
 42
0.0000001
 43
0.0000001
 44
0.0000000001
 40
0.0
 40
0.0
 40
0.0
 40
0.0
 40
0.5118923338
 40
1.0
 40
1.0
 40
1.0
 40
1.0
 10
15.3197903647
 20
11.7459321485
 30
0.0
 10
15.323689296
 20
11.7459321485
 30
0.0
 10
15.3313085891
 20
11.7443676527
 30
0.0
 10
15.3381115932
 20
11.740470514
 30
0.0
 10
15.3407790581
 20
11.7378808328
 30
0.0
  0
SPLINE
  5
2C0
100
AcDbEntity
  8
0
100
AcDbSpline
 62
7
  6
CONTINUOUS
 70
0
 71
3
 72
9
 73
5
 74
0
 42
0.0000001
 43
0.0000001
 44
0.0000000001
 40
0.0
 40
0.0
 40
0.0
 40
0.0
 40
0.5118923338
 40
1.0
 40
1.0
 40
1.0
 40
1.0
 10
14.9571679262
 20
11.7459321485
 30
0.0
 10
14.9610668574
 20
11.7459321485
 30
0.0
 10
14.9686861505
 20
11.7443676527
 30
0.0
 10
14.9754891546
 20
11.740470514
 30
0.0
 10
14.9781566195
 20
11.7378808328
 30
0.0
  0
SPLINE
  5
2C1
100
AcDbEntity
  8
0
100
AcDbSpline
 62
7
  6
CONTINUOUS
 70
0
 71
3
 72
9
 73
5
 74
0
 42
0.0000001
 43
0.0000001
 44
0.0000000001
 40
0.0
 40
0.0
 40
0.0
 40
0.0
 40
0.5118923338
 40
1.0
 40
1.0
 40
1.0
 40
1.0
 10
14.5945454876
 20
11.7459321485
 30
0.0
 10
14.5984444188
 20
11.7459321485
 30
0.0
 10
14.6060637119
 20
11.7443676527
 30
0.0
 10
14.612866716
 20
11.740470514
 30
0.0
 10
14.6155341809
 20
11.7378808328
 30
0.0
  0
SPLINE
  5
2C2
100
AcDbEntity
  8
0
100
AcDbSpline
 62
7
  6
CONTINUOUS
 70
0
 71
3
 72
11
 73
7
 74
0
 42
0.0000001
 43
0.0000001
 44
0.0000000001
 40
0.0
 40
0.0
 40
0.0
 40
0.0
 40
0.303706305
 40
0.5698819558
 40
0.7976275511
 40
1.0
 40
1.0
 40
1.0
 40
1.0
 10
16.2342529966
 20
11.684750065
 30
0.0
 10
16.2357935123
 20
11.684750065
 30
0.0
 10
16.2386955259
 20
11.6849945221
 30
0.0
 10
16.2425942944
 20
11.6862200488
 30
0.0
 10
16.2455687027
 20
11.6882549552
 30
0.0
 10
16.2467515471
 20
11.6901941142
 30
0.0
 10
16.2470548172
 20
11.6911748039
 30
0.0
  0
SPLINE
  5
2C3
100
AcDbEntity
  8
0
100
AcDbSpline
 62
7
  6
CONTINUOUS
 70
0
 71
3
 72
9
 73
5
 74
0
 42
0.0000001
 43
0.0000001
 44
0.0000000001
 40
0.0
 40
0.0
 40
0.0
 40
0.0
 40
0.4881093578
 40
1.0
 40
1.0
 40
1.0
 40
1.0
 10
16.1124573943
 20
11.6928013807
 30
0.0
 10
16.1151248684
 20
11.6902116905
 30
0.0
 10
16.121927877
 20
11.686314556
 30
0.0
 10
16.1295471693
 20
11.684750065
 30
0.0
 10
16.1334460877
 20
11.684750065
 30
0.0
  0
SPLINE
  5
2C4
100
AcDbEntity
  8
0
100
AcDbSpline
 62
7
  6
CONTINUOUS
 70
0
 71
3
 72
11
 73
7
 74
0
 42
0.0000001
 43
0.0000001
 44
0.0000000001
 40
0.0
 40
0.0
 40
0.0
 40
0.0
 40
0.303706305
 40
0.5698819558
 40
0.7976275511
 40
1.0
 40
1.0
 40
1.0
 40
1.0
 10
15.8716305581
 20
11.684750065
 30
0.0
 10
15.8731710737
 20
11.684750065
 30
0.0
 10
15.8760730873
 20
11.6849945221
 30
0.0
 10
15.8799718558
 20
11.6862200488
 30
0.0
 10
15.8829462641
 20
11.6882549552
 30
0.0
 10
15.8841291085
 20
11.6901941142
 30
0.0
 10
15.8844323786
 20
11.6911748039
 30
0.0
  0
SPLINE
  5
2C5
100
AcDbEntity
  8
0
100
AcDbSpline
 62
7
  6
CONTINUOUS
 70
0
 71
3
 72
9
 73
5
 74
0
 42
0.0000001
 43
0.0000001
 44
0.0000000001
 40
0.0
 40
0.0
 40
0.0
 40
0.0
 40
0.4881093578
 40
1.0
 40
1.0
 40
1.0
 40
1.0
 10
15.7498349557
 20
11.6928013807
 30
0.0
 10
15.7525024299
 20
11.6902116905
 30
0.0
 10
15.7593054384
 20
11.686314556
 30
0.0
 10
15.7669247307
 20
11.684750065
 30
0.0
 10
15.7708236491
 20
11.684750065
 30
0.0
  0
SPLINE
  5
2C6
100
AcDbEntity
  8
0
100
AcDbSpline
 62
7
  6
CONTINUOUS
 70
0
 71
3
 72
11
 73
7
 74
0
 42
0.0000001
 43
0.0000001
 44
0.0000000001
 40
0.0
 40
0.0
 40
0.0
 40
0.0
 40
0.303706305
 40
0.5698819558
 40
0.7976275511
 40
1.0
 40
1.0
 40
1.0
 40
1.0
 10
15.5090081195
 20
11.684750065
 30
0.0
 10
15.5105486351
 20
11.684750065
 30
0.0
 10
15.5134506487
 20
11.6849945221
 30
0.0
 10
15.5173494172
 20
11.6862200488
 30
0.0
 10
15.5203238255
 20
11.6882549552
 30
0.0
 10
15.5215066699
 20
11.6901941142
 30
0.0
 10
15.52180994
 20
11.6911748039
 30
0.0
  0
SPLINE
  5
2C7
100
AcDbEntity
  8
0
100
AcDbSpline
 62
7
  6
CONTINUOUS
 70
0
 71
3
 72
9
 73
5
 74
0
 42
0.0000001
 43
0.0000001
 44
0.0000000001
 40
0.0
 40
0.0
 40
0.0
 40
0.0
 40
0.4881093578
 40
1.0
 40
1.0
 40
1.0
 40
1.0
 10
15.3872125171
 20
11.6928013807
 30
0.0
 10
15.3898799913
 20
11.6902116905
 30
0.0
 10
15.3966829998
 20
11.686314556
 30
0.0
 10
15.4043022921
 20
11.684750065
 30
0.0
 10
15.4082012105
 20
11.684750065
 30
0.0
  0
SPLINE
  5
2C8
100
AcDbEntity
  8
0
100
AcDbSpline
 62
7
  6
CONTINUOUS
 70
0
 71
3
 72
11
 73
7
 74
0
 42
0.0000001
 43
0.0000001
 44
0.0000000001
 40
0.0
 40
0.0
 40
0.0
 40
0.0
 40
0.303706305
 40
0.5698819558
 40
0.7976275511
 40
1.0
 40
1.0
 40
1.0
 40
1.0
 10
15.1463856809
 20
11.684750065
 30
0.0
 10
15.1479261965
 20
11.684750065
 30
0.0
 10
15.1508282101
 20
11.6849945221
 30
0.0
 10
15.1547269787
 20
11.6862200488
 30
0.0
 10
15.1577013869
 20
11.6882549552
 30
0.0
 10
15.1588842313
 20
11.6901941142
 30
0.0
 10
15.1591875014
 20
11.6911748039
 30
0.0
  0
SPLINE
  5
2C9
100
AcDbEntity
  8
0
100
AcDbSpline
 62
7
  6
CONTINUOUS
 70
0
 71
3
 72
9
 73
5
 74
0
 42
0.0000001
 43
0.0000001
 44
0.0000000001
 40
0.0
 40
0.0
 40
0.0
 40
0.0
 40
0.4881093578
 40
1.0
 40
1.0
 40
1.0
 40
1.0
 10
15.0245900785
 20
11.6928013807
 30
0.0
 10
15.0272575527
 20
11.6902116905
 30
0.0
 10
15.0340605612
 20
11.686314556
 30
0.0
 10
15.0416798535
 20
11.684750065
 30
0.0
 10
15.0455787719
 20
11.684750065
 30
0.0
  0
SPLINE
  5
2CA
100
AcDbEntity
  8
0
100
AcDbSpline
 62
7
  6
CONTINUOUS
 70
0
 71
3
 72
11
 73
7
 74
0
 42
0.0000001
 43
0.0000001
 44
0.0000000001
 40
0.0
 40
0.0
 40
0.0
 40
0.0
 40
0.303706305
 40
0.5698819558
 40
0.7976275511
 40
1.0
 40
1.0
 40
1.0
 40
1.0
 10
14.7837632423
 20
11.684750065
 30
0.0
 10
14.7853037579
 20
11.684750065
 30
0.0
 10
14.7882057716
 20
11.6849945221
 30
0.0
 10
14.7921045401
 20
11.6862200488
 30
0.0
 10
14.7950789483
 20
11.6882549552
 30
0.0
 10
14.7962617928
 20
11.6901941142
 30
0.0
 10
14.7965650628
 20
11.6911748039
 30
0.0
  0
SPLINE
  5
2CB
100
AcDbEntity
  8
0
100
AcDbSpline
 62
7
  6
CONTINUOUS
 70
0
 71
3
 72
9
 73
5
 74
0
 42
0.0000001
 43
0.0000001
 44
0.0000000001
 40
0.0
 40
0.0
 40
0.0
 40
0.0
 40
0.4881093578
 40
1.0
 40
1.0
 40
1.0
 40
1.0
 10
14.66196764
 20
11.6928013807
 30
0.0
 10
14.6646351141
 20
11.6902116905
 30
0.0
 10
14.6714381227
 20
11.686314556
 30
0.0
 10
14.6790574149
 20
11.684750065
 30
0.0
 10
14.6829563333
 20
11.684750065
 30
0.0
  0
SPLINE
  5
2CC
100
AcDbEntity
  8
0
100
AcDbSpline
 62
7
  6
CONTINUOUS
 70
0
 71
3
 72
11
 73
7
 74
0
 42
0.0000001
 43
0.0000001
 44
0.0000000001
 40
0.0
 40
0.0
 40
0.0
 40
0.0
 40
0.3037020415
 40
0.5698795011
 40
0.7976302101
 40
1.0
 40
1.0
 40
1.0
 40
1.0
 10
14.4211408037
 20
11.684750065
 30
0.0
 10
14.4226812978
 20
11.684750065
 30
0.0
 10
14.4255832975
 20
11.6849945081
 30
0.0
 10
14.4294820906
 20
11.6862200316
 30
0.0
 10
14.4324564869
 20
11.6882549775
 30
0.0
 10
14.4336393841
 20
11.6901941211
 30
0.0
 10
14.4339426403
 20
11.6911748012
 30
0.0
  0
SPLINE
  5
2CD
100
AcDbEntity
  8
0
100
AcDbSpline
 62
7
  6
CONTINUOUS
 70
0
 71
3
 72
9
 73
5
 74
0
 42
0.0000001
 43
0.0000001
 44
0.0000000001
 40
0.0
 40
0.0
 40
0.0
 40
0.0
 40
0.48810955
 40
1.0
 40
1.0
 40
1.0
 40
1.0
 10
14.2993452014
 20
11.6928013807
 30
0.0
 10
14.3020126766
 20
11.6902116895
 30
0.0
 10
14.3088156856
 20
11.6863145554
 30
0.0
 10
14.3164349778
 20
11.684750065
 30
0.0
 10
14.3203338947
 20
11.684750065
 30
0.0
  0
SPLINE
  5
2CE
100
AcDbEntity
  8
0
100
AcDbSpline
 62
7
  6
CONTINUOUS
 70
0
 71
3
 72
9
 73
5
 74
0
 42
0.0000001
 43
0.0000001
 44
0.0000000001
 40
0.0
 40
0.0
 40
0.0
 40
0.0
 40
0.511892526
 40
1.0
 40
1.0
 40
1.0
 40
1.0
 10
14.231923049
 20
11.7459321485
 30
0.0
 10
14.2358219817
 20
11.7459321485
 30
0.0
 10
14.2434412749
 20
11.7443676522
 30
0.0
 10
14.2502442785
 20
11.740470513
 30
0.0
 10
14.2529117424
 20
11.7378808328
 30
0.0
  0
ENDSEC
  0
SECTION
  2
OBJECTS
  0
DICTIONARY
  5
C
100
AcDbDictionary
280
0
281
1
  3
ACAD_GROUP
350
D
  3
ACAD_MLINESTYLE
350
17
  3
ACAD_LAYOUT
350
1A
  3
ACAD_PLOTSETTINGS
350
19
  3
ACAD_PLOTSTYLENAME
350
E
  0
DICTIONARY
  5
D
102
{ACAD_REACTORS
330
C
102
}
100
AcDbDictionary
280
0
281
1
  0
ACDBDICTIONARYWDFLT
  5
E
102
{ACAD_REACTORS
330
C
102
}
100
AcDbDictionary
281
1
  3
Normal
350
F
100
AcDbDictionaryWithDefault
340
F
  0
DICTIONARY
  5
17
102
{ACAD_REACTORS
330
C
102
}
100
AcDbDictionary
280
0
281
1
  3
Standard
350
18
  0
DICTIONARY
  5
19
102
{ACAD_REACTORS
330
C
102
}
100
AcDbDictionary
281
1
  0
DICTIONARY
  5
1A
102
{ACAD_REACTORS
330
C
102
}
100
AcDbDictionary
281
1
  3
Model
350
2CF
  3
Layout1
350
2D0
  0
ACDBPLACEHOLDER
  5
F
102
{ACAD_REACTORS
330
E
102
}
  0
MLINESTYLE
  5
18
102
{ACAD_REACTORS
330
17
102
}
100
AcDbMlineStyle
  2
STANDARD
 70
0
  3

 62
256
 51
90.0
 52
90.0
 71
2
 49
0.5
 62
256
  6
BYLAYER
 49
-0.5
 62
256
  6
BYLAYER
  0
LAYOUT
  5
2CF
102
{ACAD_REACTORS
330
1A
102
}
100
AcDbPlotSettings
  1

  2
none_device
  4
ANSI_C_(22.00_x_17.00_Inches)
  6

 40
0.0
 41
0.0
 42
0.0
 43
0.0
 44
558.8
 45
431.8
 46
0.0
 47
0.0
 48
0.0
 49
0.0
140
0.0
141
0.0
142
1.0
143
1.0
 70
1024
 72
0
 73
0
 74
0
  7

 75
0
147
1.0
148
0.0
149
0.0
100
AcDbLayout
  1
Model
 70
0
 71
0
 10
0.0
 20
0.0
 11
22.0
 21
17.0
 12
0.0
 22
0.0
 32
0.0
 14
0.0
 24
0.0
 34
0.0
 15
0.0
 25
0.0
 35
0.0
146
0.0
 13
0.0
 23
0.0
 33
0.0
 16
1.0
 26
0.0
 36
0.0
 17
0.0
 27
1.0
 37
0.0
 76
0
330
216
345
0
346
0
  0
LAYOUT
  5
2D0
102
{ACAD_REACTORS
330
1A
102
}
100
AcDbPlotSettings
  1

  2
none_device
  4
ANSI_C_(22.00_x_17.00_Inches)
  6

 40
0.0
 41
0.0
 42
0.0
 43
0.0
 44
558.8
 45
431.8
 46
0.0
 47
0.0
 48
0.0
 49
0.0
140
0.0
141
0.0
142
1.0
143
1.0
 70
0
 72
0
 73
0
 74
0
  7

 75
0
147
1.0
148
0.0
149
0.0
100
AcDbLayout
  1
Layout1
 70
0
 71
1
 10
0.0
 20
0.0
 11
22.0
 21
17.0
 12
0.0
 22
0.0
 32
0.0
 14
0.0
 24
0.0
 34
0.0
 15
0.0
 25
0.0
 35
0.0
146
0.0
 13
0.0
 23
0.0
 33
0.0
 16
1.0
 26
0.0
 36
0.0
 17
0.0
 27
1.0
 37
0.0
 76
0
330
217
345
0
346
0
  0
ENDSEC
  0
EOF