999
DXF file: _cgs_temp_output.dxf
999
Pro/ENGINEER 2016360 by Parametric Technology Corporation
  0
SECTION
  2
HEADER
  9
$ACADVER
  1
AC1021
  9
$DWGCODEPAGE
  3
ANSI_1252
  9
$EXTMAX
 10
22.0
 20
17.0
 30
0.0
  9
$EXTMIN
 10
0.0
 20
0.0
 30
0.0
  9
$LIMMIN
 10
0.0
 20
0.0
  9
$LIMMAX
 10
22.0
 20
17.0
  9
$VIEWCTR
 10
11.0
 20
8.5
  9
$VIEWSIZE
 40
17.0
  9
$CLAYER
  8
0
  9
$LTSCALE
 40
1.21
  9
$CELTYPE
  6
BYLAYER
  9
$DIMSCALE
 40
1.0
  9
$DIMASZ
 40
0.1875
  9
$DIMEXO
 40
0.0625
  9
$DIMDLI
 40
0.836
  9
$DIMEXE
 40
0.125
  9
$DIMCEN
 40
0.198
  9
$DIMLFAC
 40
1.0
  9
$DIMBLK
  1
_CLOSED
  9
$DIMALT
 70
0
  9
$DIMALTF
 40
25.4
  9
$DIMTXT
 40
0.15625
  9
$DIMTOL
 70
0
  9
$DIMLIM
 70
0
  9
$DIMTFAC
 40
1.0
  9
$DIMGAP
 40
0.09
  9
$DIMDSEP
 70
46
  9
$AUNITS
 70
0
  9
$PDMODE
 70
3
  9
$PDSIZE
 40
0.3125
  9
$HANDSEED
  5
382
  9
$TILEMODE
 70
1
  9
$MEASUREMENT
 70
0
  9
$INSUNITS
 70
1
  0
ENDSEC
  0
SECTION
  2
CLASSES
  0
CLASS
  1
ACDBDICTIONARYWDFLT
  2
AcDbDictionaryWithDefault
  3
AutoCAD 2000
 90
0
 91
1
280
0
281
0
  0
CLASS
  1
ACDBPLACEHOLDER
  2
AcDbPlaceHolder
  3
AutoCAD 2000
 90
0
 91
1
280
0
281
0
  0
CLASS
  1
LAYOUT
  2
AcDbLayout
  3
AutoCAD 2000
 90
0
 91
0
280
0
281
0
  0
ENDSEC
  0
SECTION
  2
TABLES
  0
TABLE
  2
VPORT
  5
8
100
AcDbSymbolTable
 70
2
  0
VPORT
  5
1F4
100
AcDbSymbolTableRecord
100
AcDbViewportTableRecord
  2
*ACTIVE
 70
0
 10
0.0
 20
0.0
 11
1.0
 21
1.0
 12
11.0
 22
8.5
 13
0.0
 23
0.0
 14
1.0
 24
1.0
 15
0.0
 25
0.0
 16
0.0
 26
0.0
 36
1.0
 17
0.0
 27
0.0
 37
0.0
 40
17.0
 41
1.2941176471
 42
50.0
 43
0.0
 44
0.0
 50
0.0
 51
0.0
 71
0
 72
100
 73
1
 74
1
 75
0
 76
0
 77
0
 78
0
  0
ENDTAB
  0
TABLE
  2
LTYPE
  5
5
100
AcDbSymbolTable
 70
6
  0
LTYPE
  5
14
100
AcDbSymbolTableRecord
100
AcDbLinetypeTableRecord
  2
BYBLOCK
 70
0
  3

 72
65
 73
0
 40
0.0
  0
LTYPE
  5
15
100
AcDbSymbolTableRecord
100
AcDbLinetypeTableRecord
  2
BYLAYER
 70
0
  3

 72
65
 73
0
 40
0.0
  0
LTYPE
  5
16
100
AcDbSymbolTableRecord
100
AcDbLinetypeTableRecord
  2
CONTINUOUS
 70
64
  3
Solid line
 72
65
 73
0
 40
0.0
  0
LTYPE
  5
1F5
100
AcDbSymbolTableRecord
100
AcDbLinetypeTableRecord
  2
CENTER
 70
64
  3
____ _ ____ _ ____ _ ____ _ ____ _ ____ _ ____
 72
65
 73
4
 40
0.6
 49
0.375
 74
0
 49
-0.075
 74
0
 49
0.075
 74
0
 49
-0.075
 74
0
  0
LTYPE
  5
1F6
100
AcDbSymbolTableRecord
100
AcDbLinetypeTableRecord
  2
HIDDEN
 70
64
  3
- - - - - - - - - - - - - - - - - - - -
 72
65
 73
2
 40
0.2
 49
0.1
 74
0
 49
-0.1
 74
0
  0
LTYPE
  5
1F7
100
AcDbSymbolTableRecord
100
AcDbLinetypeTableRecord
  2
PHANTOM
 70
64
  3
_____ _ _ _____ _ _ _____ _ _ _____
 72
65
 73
6
 40
0.8
 49
0.45
 74
0
 49
-0.05
 74
0
 49
0.1
 74
0
 49
-0.05
 74
0
 49
0.1
 74
0
 49
-0.05
 74
0
  0
LTYPE
  5
1F8
100
AcDbSymbolTableRecord
100
AcDbLinetypeTableRecord
  2
DOT
 70
64
  3
. . . . . . . . . . . . . . . . . . . .
 72
65
 73
2
 40
0.2
 49
0.1
 74
0
 49
-0.1
 74
0
  0
LTYPE
  5
1F9
100
AcDbSymbolTableRecord
100
AcDbLinetypeTableRecord
  2
DASHED
 70
64
  3
- - - - - - - - - - - - - - - - - - - -
 72
65
 73
2
 40
0.2
 49
0.1
 74
0
 49
-0.1
 74
0
  0
ENDTAB
  0
TABLE
  2
LAYER
  5
2
100
AcDbSymbolTable
 70
36
  0
LAYER
  5
10
100
AcDbSymbolTableRecord
100
AcDbLayerTableRecord
  2
0
 70
0
 62
7
  6
CONTINUOUS
370
-3
390
F
  0
LAYER
  5
1FA
100
AcDbSymbolTableRecord
100
AcDbLayerTableRecord
  2
DEFAULT_1
 70
0
 62
7
  6
CENTER
370
-3
390
F
  0
LAYER
  5
1FB
100
AcDbSymbolTableRecord
100
AcDbLayerTableRecord
  2
DEFAULT_2
 70
0
 62
8
  6
HIDDEN
370
-3
390
F
  0
LAYER
  5
1FC
100
AcDbSymbolTableRecord
100
AcDbLayerTableRecord
  2
DEFAULT_3
 70
0
 62
7
  6
PHANTOM
370
-3
390
F
  0
LAYER
  5
1FD
100
AcDbSymbolTableRecord
100
AcDbLayerTableRecord
  2
01_ALL_DTM_PLN
 70
0
 62
7
  6
CONTINUOUS
370
-3
390
F
  0
LAYER
  5
1FE
100
AcDbSymbolTableRecord
100
AcDbLayerTableRecord
  2
01__ASM_ALL_DTM_PLN
 70
0
 62
7
  6
CONTINUOUS
370
-3
390
F
  0
LAYER
  5
1FF
100
AcDbSymbolTableRecord
100
AcDbLayerTableRecord
  2
01__ASM_DEF_DTM_PLN
 70
0
 62
7
  6
CONTINUOUS
370
-3
390
F
  0
LAYER
  5
200
100
AcDbSymbolTableRecord
100
AcDbLayerTableRecord
  2
01___PRT_ALL_DTM_PLN
 70
0
 62
7
  6
CONTINUOUS
370
-3
390
F
  0
LAYER
  5
201
100
AcDbSymbolTableRecord
100
AcDbLayerTableRecord
  2
01___PRT_DEF_DTM_PLN
 70
0
 62
7
  6
CONTINUOUS
370
-3
390
F
  0
LAYER
  5
202
100
AcDbSymbolTableRecord
100
AcDbLayerTableRecord
  2
02_ALL_AXES
 70
0
 62
7
  6
CONTINUOUS
370
-3
390
F
  0
LAYER
  5
203
100
AcDbSymbolTableRecord
100
AcDbLayerTableRecord
  2
02__ASM_ALL_AXES
 70
0
 62
7
  6
CONTINUOUS
370
-3
390
F
  0
LAYER
  5
204
100
AcDbSymbolTableRecord
100
AcDbLayerTableRecord
  2
02___PRT_ALL_AXES
 70
0
 62
7
  6
CONTINUOUS
370
-3
390
F
  0
LAYER
  5
205
100
AcDbSymbolTableRecord
100
AcDbLayerTableRecord
  2
03_ALL_CURVES
 70
0
 62
7
  6
CONTINUOUS
370
-3
390
F
  0
LAYER
  5
206
100
AcDbSymbolTableRecord
100
AcDbLayerTableRecord
  2
03__ASM_ALL_CURVES
 70
0
 62
7
  6
CONTINUOUS
370
-3
390
F
  0
LAYER
  5
207
100
AcDbSymbolTableRecord
100
AcDbLayerTableRecord
  2
03___PRT_ALL_CURVES
 70
0
 62
7
  6
CONTINUOUS
370
-3
390
F
  0
LAYER
  5
208
100
AcDbSymbolTableRecord
100
AcDbLayerTableRecord
  2
04_ALL_DTM_PNT
 70
0
 62
7
  6
CONTINUOUS
370
-3
390
F
  0
LAYER
  5
209
100
AcDbSymbolTableRecord
100
AcDbLayerTableRecord
  2
04__ASM_ALL_DTM_PNT
 70
0
 62
7
  6
CONTINUOUS
370
-3
390
F
  0
LAYER
  5
20A
100
AcDbSymbolTableRecord
100
AcDbLayerTableRecord
  2
04___PRT_ALL_DTM_PNT
 70
0
 62
7
  6
CONTINUOUS
370
-3
390
F
  0
LAYER
  5
20B
100
AcDbSymbolTableRecord
100
AcDbLayerTableRecord
  2
05_ALL_DTM_CSYS
 70
0
 62
7
  6
CONTINUOUS
370
-3
390
F
  0
LAYER
  5
20C
100
AcDbSymbolTableRecord
100
AcDbLayerTableRecord
  2
05__ASM_ALL_DTM_CSYS
 70
0
 62
7
  6
CONTINUOUS
370
-3
390
F
  0
LAYER
  5
20D
100
AcDbSymbolTableRecord
100
AcDbLayerTableRecord
  2
05__ASM_DEF_DTM_CSYS
 70
0
 62
7
  6
CONTINUOUS
370
-3
390
F
  0
LAYER
  5
20E
100
AcDbSymbolTableRecord
100
AcDbLayerTableRecord
  2
05___PRT_ALL_DTM_CSYS
 70
0
 62
7
  6
CONTINUOUS
370
-3
390
F
  0
LAYER
  5
20F
100
AcDbSymbolTableRecord
100
AcDbLayerTableRecord
  2
05___PRT_DEF_DTM_CSYS
 70
0
 62
7
  6
CONTINUOUS
370
-3
390
F
  0
LAYER
  5
210
100
AcDbSymbolTableRecord
100
AcDbLayerTableRecord
  2
06_ALL_SURFS
 70
0
 62
7
  6
CONTINUOUS
370
-3
390
F
  0
LAYER
  5
211
100
AcDbSymbolTableRecord
100
AcDbLayerTableRecord
  2
06__ASM_ALL_SURFS
 70
0
 62
7
  6
CONTINUOUS
370
-3
390
F
  0
LAYER
  5
212
100
AcDbSymbolTableRecord
100
AcDbLayerTableRecord
  2
06___PRT_ALL_SURFS
 70
0
 62
7
  6
CONTINUOUS
370
-3
390
F
  0
LAYER
  5
213
100
AcDbSymbolTableRecord
100
AcDbLayerTableRecord
  2
07__ASM_ALL_SKELETONS
 70
0
 62
7
  6
CONTINUOUS
370
-3
390
F
  0
LAYER
  5
214
100
AcDbSymbolTableRecord
100
AcDbLayerTableRecord
  2
ASM0001
 70
0
 62
7
  6
CONTINUOUS
370
-3
390
F
  0
LAYER
  5
215
100
AcDbSymbolTableRecord
100
AcDbLayerTableRecord
  2
COLOR2
 70
0
 62
7
  6
CONTINUOUS
370
-3
390
F
  0
LAYER
  5
216
100
AcDbSymbolTableRecord
100
AcDbLayerTableRecord
  2
NONE
 70
0
 62
7
  6
CONTINUOUS
370
-3
390
F
  0
LAYER
  5
217
100
AcDbSymbolTableRecord
100
AcDbLayerTableRecord
  2
NONE_1
 70
0
 62
7
  6
CONTINUOUS
370
-3
390
F
  0
LAYER
  5
218
100
AcDbSymbolTableRecord
100
AcDbLayerTableRecord
  2
NONE_2
 70
0
 62
7
  6
CONTINUOUS
370
-3
390
F
  0
LAYER
  5
219
100
AcDbSymbolTableRecord
100
AcDbLayerTableRecord
  2
NONE_3
 70
0
 62
7
  6
CONTINUOUS
370
-3
390
F
  0
LAYER
  5
21A
100
AcDbSymbolTableRecord
100
AcDbLayerTableRecord
  2
NONE_4
 70
0
 62
7
  6
CONTINUOUS
370
-3
390
F
  0
LAYER
  5
21B
100
AcDbSymbolTableRecord
100
AcDbLayerTableRecord
  2
NONE_5
 70
0
 62
7
  6
CONTINUOUS
370
-3
390
F
  0
LAYER
  5
21C
100
AcDbSymbolTableRecord
100
AcDbLayerTableRecord
  2
_1080
 70
0
 62
7
  6
CONTINUOUS
370
-3
390
F
  0
LAYER
  5
21D
100
AcDbSymbolTableRecord
100
AcDbLayerTableRecord
  2
_1080_1
 70
0
 62
7
  6
CONTINUOUS
370
-3
390
F
  0
LAYER
  5
21E
100
AcDbSymbolTableRecord
100
AcDbLayerTableRecord
  2
_4936
 70
0
 62
7
  6
CONTINUOUS
370
-3
390
F
  0
LAYER
  5
21F
100
AcDbSymbolTableRecord
100
AcDbLayerTableRecord
  2
_4936_1
 70
0
 62
7
  6
CONTINUOUS
370
-3
390
F
  0
LAYER
  5
220
100
AcDbSymbolTableRecord
100
AcDbLayerTableRecord
  2
_5083
 70
0
 62
7
  6
CONTINUOUS
370
-3
390
F
  0
LAYER
  5
221
100
AcDbSymbolTableRecord
100
AcDbLayerTableRecord
  2
_5083_1
 70
0
 62
7
  6
CONTINUOUS
370
-3
390
F
  0
LAYER
  5
222
100
AcDbSymbolTableRecord
100
AcDbLayerTableRecord
  2
_5823
 70
0
 62
7
  6
CONTINUOUS
370
-3
390
F
  0
LAYER
  5
223
100
AcDbSymbolTableRecord
100
AcDbLayerTableRecord
  2
_5823_1
 70
0
 62
7
  6
CONTINUOUS
370
-3
390
F
  0
LAYER
  5
224
100
AcDbSymbolTableRecord
100
AcDbLayerTableRecord
  2
_5887
 70
0
 62
7
  6
CONTINUOUS
370
-3
390
F
  0
LAYER
  5
225
100
AcDbSymbolTableRecord
100
AcDbLayerTableRecord
  2
_5887_1
 70
0
 62
7
  6
CONTINUOUS
370
-3
390
F
  0
LAYER
  5
226
100
AcDbSymbolTableRecord
100
AcDbLayerTableRecord
  2
_5976
 70
0
 62
7
  6
CONTINUOUS
370
-3
390
F
  0
LAYER
  5
227
100
AcDbSymbolTableRecord
100
AcDbLayerTableRecord
  2
_5976_1
 70
0
 62
7
  6
CONTINUOUS
370
-3
390
F
  0
LAYER
  5
228
100
AcDbSymbolTableRecord
100
AcDbLayerTableRecord
  2
___SHELL
 70
0
 62
7
  6
CONTINUOUS
370
-3
390
F
  0
ENDTAB
  0
TABLE
  2
STYLE
  5
3
100
AcDbSymbolTable
 70
1
  0
STYLE
  5
11
100
AcDbSymbolTableRecord
100
AcDbTextStyleTableRecord
  2
STANDARD
 70
0
 40
0.0
 41
0.8
 50
0.0
 71
0
 42
0.2
  3
txt
  4

  0
STYLE
  5
229
100
AcDbSymbolTableRecord
100
AcDbTextStyleTableRecord
  2
TEXTSTYLE_1
 70
0
 40
0.0
 41
0.8
 50
0.0
 71
0
 42
0.2
  3
gdt
  4

  0
ENDTAB
  0
TABLE
  2
VIEW
  5
6
100
AcDbSymbolTable
 70
0
  0
ENDTAB
  0
TABLE
  2
UCS
  5
7
100
AcDbSymbolTable
 70
0
  0
ENDTAB
  0
TABLE
  2
APPID
  5
9
100
AcDbSymbolTable
 70
1
  0
APPID
  5
22A
100
AcDbSymbolTableRecord
100
AcDbRegAppTableRecord
  2
ACAD
 70
0
  0
ENDTAB
  0
TABLE
  2
BLOCK_RECORD
  5
1
100
AcDbSymbolTable
 70
0
  0
BLOCK_RECORD
  5
22B
100
AcDbSymbolTableRecord
100
AcDbBlockTableRecord
  2
*Model_Space
  0
BLOCK_RECORD
  5
22C
100
AcDbSymbolTableRecord
100
AcDbBlockTableRecord
  2
*Paper_Space
  0
BLOCK_RECORD
  5
22D
100
AcDbSymbolTableRecord
100
AcDbBlockTableRecord
  2
_NONE
  0
BLOCK_RECORD
  5
22E
100
AcDbSymbolTableRecord
100
AcDbBlockTableRecord
  2
_CLOSED
  0
ENDTAB
  0
TABLE
  2
DIMSTYLE
  5
A
100
AcDbSymbolTable
 70
1
100
AcDbDimStyleTable
 71
0
  0
DIMSTYLE
105
22F
100
AcDbSymbolTableRecord
100
AcDbDimStyleTableRecord
  2
STANDARD
 70
0
  3

  4

 40
1.0
 41
0.1875
 42
0.0625
 43
0.38
 44
0.125
 45
0.0
 46
0.0
 47
0.0001
 48
0.0001
140
0.15625
141
0.09
142
0.0
143
25.4
144
1.0
145
0.0
146
1.0
147
0.09
 71
0.0
 72
0.0
 73
1
 74
1
 75
0
 76
0
 77
0
 78
4
 79
1
170
0
171
3
172
0
173
0
174
0
175
0
176
0
177
0
178
0
270
2
179
4
271
4
272
4
273
2
274
2
275
0
280
0
281
0
282
0
283
1
284
4
285
0
286
0
287
3
288
0
340
11
278
46
341
22E
342
22E
343
22E
344
22E
  0
ENDTAB
  0
ENDSEC
  0
SECTION
  2
BLOCKS
  0
BLOCK
  5
20
100
AcDbEntity
  8
0
100
AcDbBlockBegin
  2
*Model_Space
 70
0
 10
0.0
 20
0.0
 30
0.0
  3
*Model_Space
  1

  0
ENDBLK
  5
21
100
AcDbEntity
  8
0
100
AcDbBlockEnd
  0
BLOCK
  5
1C
100
AcDbEntity
  8
0
100
AcDbBlockBegin
  2
*Paper_Space
 70
0
 10
0.0
 20
0.0
 30
0.0
  3
*Paper_Space
  1

  0
ENDBLK
  5
1D
100
AcDbEntity
  8
0
100
AcDbBlockEnd
  0
BLOCK
  5
230
100
AcDbEntity
  8
0
100
AcDbBlockBegin
  2
_NONE
 70
64
 10
0.0
 20
0.0
  3
_NONE
  1

  0
ENDBLK
  5
231
100
AcDbEntity
  8
0
  6
BYBLOCK
 62
0
100
AcDbBlockEnd
  0
BLOCK
  5
232
100
AcDbEntity
  8
0
100
AcDbBlockBegin
  2
_CLOSED
 70
64
 10
0.0
 20
0.0
  3
_CLOSED
  1

  0
LINE
  5
233
100
AcDbEntity
  8
0
  6
BYBLOCK
 62
0
100
AcDbLine
 10
0.0
 20
0.0
 11
-1.0
 21
0.1666666667
  0
LINE
  5
234
100
AcDbEntity
  8
0
  6
BYBLOCK
 62
0
100
AcDbLine
 10
-1.0
 20
0.1666666667
 11
-1.0
 21
-0.1666666667
  0
LINE
  5
235
100
AcDbEntity
  8
0
  6
BYBLOCK
 62
0
100
AcDbLine
 10
-1.0
 20
-0.1666666667
 11
0.0
 21
0.0
  0
LINE
  5
236
100
AcDbEntity
  8
0
  6
BYBLOCK
 62
0
100
AcDbLine
 10
-1.0
 20
0.0
 11
0.0
 21
0.0
  0
ENDBLK
  5
237
100
AcDbEntity
  8
0
  6
BYBLOCK
 62
0
100
AcDbBlockEnd
  0
ENDSEC
  0
SECTION
  2
ENTITIES
  0
MTEXT
  5
238
100
AcDbEntity
  8
0
100
AcDbMText
 62
7
  6
CONTINUOUS
  7
STANDARD
 71
1
 72
1
 10
15.9560215477
 20
0.9479130325
 30
0.0
 11
1.0
 21
0.0
 31
0.0
 44
0.9
  1
SCALE: 1:1.000
 40
0.3
 41
3.36
  0
LEADER
  5
239
100
AcDbEntity
  8
0
100
AcDbLeader
 62
2
  6
CONTINUOUS
  3
STANDARD
 71
1
 72
0
 73
0
 75
0
 40
0.15625
 41
0.125
 76
3
 10
5.1303672762
 20
4.0576198968
 30
0.0
 10
9.3345128735
 20
3.4714152783
 30
0.0
 10
9.5845128735
 20
3.4714152783
 30
0.0
340
23B
1001
ACAD
1000
DSTYLE
1002
{
1070
77
1070
0
1070
341
1005
22D
1002
}
  0
LEADER
  5
23A
100
AcDbEntity
  8
0
100
AcDbLeader
 62
2
  6
CONTINUOUS
  3
STANDARD
 71
1
 72
0
 73
0
 75
0
 40
0.15625
 41
0.125
 76
3
 10
5.1289090611
 20
4.0576198968
 30
0.0
 10
9.3345128735
 20
3.4714152783
 30
0.0
 10
9.5845128735
 20
3.4714152783
 30
0.0
340
23B
1001
ACAD
1000
DSTYLE
1002
{
1070
77
1070
0
1002
}
  0
MTEXT
  5
23B
102
{ACAD_REACTORS
330
239
330
23A
102
}
100
AcDbEntity
  8
0
100
AcDbMText
 62
2
  6
CONTINUOUS
  7
STANDARD
 71
1
 72
1
 10
9.5845128735
 20
3.5495402783
 30
0.0
 11
1.0
 21
0.0
 31
0.0
 44
0.9
  1
 3/8-16 TAP \P \Fgdt;{\Fgdt;x}\Ftxt;0.50
 40
0.15625
 41
1.5
  0
LINE
  5
23C
100
AcDbEntity
  8
0
100
AcDbLine
 62
7
  6
CONTINUOUS
 10
0.0
 20
0.0
 11
0.0
 21
17.0
  0
LINE
  5
23D
100
AcDbEntity
  8
0
100
AcDbLine
 62
7
  6
CONTINUOUS
 10
0.0
 20
0.0
 11
22.0
 21
0.0
  0
LINE
  5
23E
100
AcDbEntity
  8
0
100
AcDbLine
 62
7
  6
CONTINUOUS
 10
0.0
 20
17.0
 11
22.0
 21
17.0
  0
LINE
  5
23F
100
AcDbEntity
  8
0
100
AcDbLine
 62
7
  6
CONTINUOUS
 10
22.0
 20
0.0
 11
22.0
 21
17.0
  0
LINE
  5
240
100
AcDbEntity
  8
0
100
AcDbLine
 62
7
  6
CONTINUOUS
 10
4.6928672762
 20
4.0576198968
 11
4.6928672762
 21
5.4951198968
  0
LINE
  5
241
100
AcDbEntity
  8
0
100
AcDbLine
 62
7
  6
CONTINUOUS
 10
4.6928672762
 20
4.0576198968
 11
5.5276391036
 21
4.0576198968
  0
LINE
  5
242
100
AcDbEntity
  8
0
100
AcDbLine
 62
7
  6
CONTINUOUS
 10
6.7330954487
 20
4.0576198968
 11
7.5678672762
 21
4.0576198968
  0
LINE
  5
243
100
AcDbEntity
  8
0
100
AcDbLine
 62
7
  6
CONTINUOUS
 10
6.7080954487
 20
4.0926198968
 11
5.5526391036
 21
4.0926198968
  0
LINE
  5
244
100
AcDbEntity
  8
0
100
AcDbLine
 62
7
  6
CONTINUOUS
 10
7.5428672762
 20
4.6201197297
 11
6.766729932
 21
4.6201197297
  0
LINE
  5
245
100
AcDbEntity
  8
0
100
AcDbLine
 62
7
  6
CONTINUOUS
 10
4.7178672762
 20
4.6201197296
 11
5.4940046204
 21
4.6201197296
  0
LINE
  5
246
100
AcDbEntity
  8
0
100
AcDbLine
 62
7
  6
CONTINUOUS
 10
5.5276391036
 20
4.6201198968
 11
5.5276391036
 21
4.0576198968
  0
LINE
  5
247
100
AcDbEntity
  8
0
100
AcDbLine
 62
7
  6
CONTINUOUS
 10
6.0534922762
 20
6.1523698968
 11
6.045058493
 21
6.1439361136
  0
LINE
  5
248
100
AcDbEntity
  8
0
100
AcDbLine
 62
7
  6
CONTINUOUS
 10
6.9679111331
 20
6.6919222493
 11
7.0121053069
 21
6.7361164231
  0
LINE
  5
249
100
AcDbEntity
  8
0
100
AcDbLine
 62
7
  6
CONTINUOUS
 10
6.9955258348
 20
6.6431211679
 11
7.0061190247
 21
6.6537143577
  0
LINE
  5
24A
100
AcDbEntity
  8
0
100
AcDbLine
 62
7
  6
CONTINUOUS
 10
7.057725757
 20
6.6021076254
 11
7.1019199308
 21
6.6463017992
  0
LINE
  5
24B
100
AcDbEntity
  8
0
100
AcDbLine
 62
7
  6
CONTINUOUS
 10
5.2634488471
 20
5.2628298038
 11
5.1040710857
 21
5.2201246613
  0
LINE
  5
24C
100
AcDbEntity
  8
0
100
AcDbLine
 62
7
  6
CONTINUOUS
 10
6.9972857053
 20
5.7274099897
 11
7.1566634666
 21
5.7701151322
  0
LINE
  5
24D
100
AcDbEntity
  8
0
100
AcDbLine
 62
7
  6
CONTINUOUS
 10
5.0428921445
 20
5.4951190578
 11
4.6928672762
 21
5.4951194773
  0
LINE
  5
24E
100
AcDbEntity
  8
0
100
AcDbLine
 62
7
  6
CONTINUOUS
 10
7.2178424079
 20
5.4951190597
 11
7.5678672762
 21
5.4951194782
  0
LINE
  5
24F
100
AcDbEntity
  8
0
100
AcDbLine
 62
7
  6
CONTINUOUS
 10
7.1566634666
 20
5.2201246613
 11
6.9972857053
 21
5.2628298038
  0
LINE
  5
250
100
AcDbEntity
  8
0
100
AcDbLine
 62
7
  6
CONTINUOUS
 10
5.1040710857
 20
5.7701151322
 11
5.2634488471
 21
5.7274099897
  0
LINE
  5
251
100
AcDbEntity
  8
0
100
AcDbLine
 62
7
  6
CONTINUOUS
 10
7.2815491786
 20
6.4666725514
 11
7.2373550048
 21
6.4224783776
  0
LINE
  5
252
100
AcDbEntity
  8
0
100
AcDbLine
 62
7
  6
CONTINUOUS
 10
7.2889617371
 20
6.3708716453
 11
7.2783685473
 21
6.3602784554
  0
LINE
  5
253
100
AcDbEntity
  8
0
100
AcDbLine
 62
7
  6
CONTINUOUS
 10
7.3713638025
 20
6.3768579275
 11
7.3271696287
 21
6.3326637537
  0
LINE
  5
254
100
AcDbEntity
  8
0
100
AcDbLine
 62
7
  6
CONTINUOUS
 10
6.7876172762
 20
5.4182448968
 11
6.7795813568
 21
5.4102089774
  0
LINE
  5
255
100
AcDbEntity
  8
0
100
AcDbLine
 62
7
  6
CONTINUOUS
 10
6.2072422762
 20
6.1523698968
 11
6.2156760593
 21
6.1439361136
  0
LINE
  5
256
100
AcDbEntity
  8
0
100
AcDbLine
 62
7
  6
CONTINUOUS
 10
6.7876172762
 20
5.5719948968
 11
6.7795813568
 21
5.5800308161
  0
LINE
  5
257
100
AcDbEntity
  8
0
100
AcDbLine
 62
7
  6
CONTINUOUS
 10
6.7330954487
 20
4.0576198968
 11
6.7330954487
 21
4.6201198968
  0
LINE
  5
258
100
AcDbEntity
  8
0
100
AcDbLine
 62
7
  6
CONTINUOUS
 10
6.7876172762
 20
5.4182551693
 11
6.7876172762
 21
5.5719846242
  0
LINE
  5
259
100
AcDbEntity
  8
0
100
AcDbLine
 62
7
  6
CONTINUOUS
 10
6.2072320036
 20
6.1523698968
 11
6.0535025487
 21
6.1523698968
  0
LINE
  5
25A
100
AcDbEntity
  8
0
100
AcDbLine
 62
7
  6
CONTINUOUS
 10
7.5678672762
 20
4.0576198968
 11
7.5678672762
 21
5.4951198968
  0
LINE
  5
25B
100
AcDbEntity
  8
0
100
AcDbLine
 62
7
  6
CONTINUOUS
 10
7.3271696287
 20
6.3326637537
 11
6.9679111331
 21
6.6919222493
  0
LINE
  5
25C
100
AcDbEntity
  8
0
100
AcDbLine
 62
7
  6
CONTINUOUS
 10
7.3713638025
 20
6.3768579275
 11
7.0121053069
 21
6.7361164231
  0
LINE
  5
25D
100
AcDbEntity
  8
0
100
AcDbLine
 62
7
  6
CONTINUOUS
 10
7.4745772672
 20
6.7686192097
 11
7.4038665891
 21
6.8393298878
  0
LINE
  5
25E
100
AcDbEntity
  8
0
100
AcDbLine
 62
7
  6
CONTINUOUS
 10
4.6333720839
 20
11.8984851498
 11
4.6333720839
 21
13.3484851498
  0
LINE
  5
25F
100
AcDbEntity
  8
0
100
AcDbLine
 62
7
  6
CONTINUOUS
 10
5.1733720839
 20
13.1859851498
 11
5.1733720839
 21
13.1234851498
  0
LINE
  5
260
100
AcDbEntity
  8
0
100
AcDbLine
 62
7
  6
CONTINUOUS
 10
5.4446220839
 20
11.8266101498
 11
6.6971220839
 21
11.8266101498
  0
LINE
  5
261
100
AcDbEntity
  8
0
100
AcDbLine
 62
7
  6
CONTINUOUS
 10
5.4146220839
 20
12.1234851498
 11
5.4146220839
 21
11.8566101498
  0
LINE
  5
262
100
AcDbEntity
  8
0
100
AcDbLine
 62
7
  6
CONTINUOUS
 10
7.4833720839
 20
11.8734851021
 11
6.7271220839
 21
11.8734851021
  0
LINE
  5
263
100
AcDbEntity
  8
0
100
AcDbLine
 62
7
  6
CONTINUOUS
 10
4.6583720839
 20
11.8734851498
 11
5.4146220839
 21
11.8734851498
  0
LINE
  5
264
100
AcDbEntity
  8
0
100
AcDbLine
 62
7
  6
CONTINUOUS
 10
6.0973941118
 20
11.9291101498
 11
6.0443500559
 21
11.9291101498
  0
LINE
  5
265
100
AcDbEntity
  8
0
100
AcDbLine
 62
7
  6
CONTINUOUS
 10
5.4681439113
 20
13.3484851498
 11
5.4681439113
 21
13.1859851498
  0
LINE
  5
266
100
AcDbEntity
  8
0
100
AcDbLine
 62
7
  6
CONTINUOUS
 10
6.0443500559
 20
12.0209851498
 11
6.0973941118
 21
12.0209851498
  0
LINE
  5
267
100
AcDbEntity
  8
0
100
AcDbLine
 62
7
  6
CONTINUOUS
 10
4.6333720839
 20
12.1234851498
 11
7.5083720839
 21
12.1234851498
  0
LINE
  5
268
100
AcDbEntity
  8
0
100
AcDbLine
 62
7
  6
CONTINUOUS
 10
6.0178280279
 20
11.9750476498
 11
6.0443500559
 21
11.9291101498
  0
LINE
  5
269
100
AcDbEntity
  8
0
100
AcDbLine
 62
7
  6
CONTINUOUS
 10
6.1239161398
 20
11.9750476498
 11
6.0973941118
 21
12.0209851498
  0
LINE
  5
26A
100
AcDbEntity
  8
0
100
AcDbLine
 62
7
  6
CONTINUOUS
 10
6.9982305647
 20
12.4034851498
 11
7.2220539863
 21
12.4034851498
  0
LINE
  5
26B
100
AcDbEntity
  8
03__ASM_ALL_CURVES
100
AcDbLine
 62
4
  6
CONTINUOUS
 10
6.0708720839
 20
13.265408614
 11
6.0708720839
 21
11.9815616856
  0
LINE
  5
26C
100
AcDbEntity
  8
0
100
AcDbLine
 62
7
  6
CONTINUOUS
 10
6.9084159408
 20
12.6234851498
 11
6.9526101146
 21
12.6234851498
  0
LINE
  5
26D
100
AcDbEntity
  8
0
100
AcDbLine
 62
7
  6
CONTINUOUS
 10
6.7281220839
 20
12.0519226498
 11
6.7255039542
 21
12.0545407795
  0
LINE
  5
26E
100
AcDbEntity
  8
0
100
AcDbLine
 62
7
  6
CONTINUOUS
 10
6.0443500559
 20
12.0209851498
 11
6.0178280279
 21
11.9750476498
  0
LINE
  5
26F
100
AcDbEntity
  8
0
100
AcDbLine
 62
7
  6
CONTINUOUS
 10
7.2220539863
 20
12.8434851498
 11
6.9982305647
 21
12.8434851498
  0
LINE
  5
270
100
AcDbEntity
  8
0
100
AcDbLine
 62
7
  6
CONTINUOUS
 10
6.0973941118
 20
11.9291101498
 11
6.1239161398
 21
11.9750476498
  0
LINE
  5
271
100
AcDbEntity
  8
0
100
AcDbLine
 62
7
  6
CONTINUOUS
 10
7.5083720839
 20
13.1234851498
 11
4.6333720839
 21
13.1234851498
  0
LINE
  5
272
100
AcDbEntity
  8
0
100
AcDbLine
 62
7
  6
CONTINUOUS
 10
6.6736002564
 20
13.1859851498
 11
6.6736002564
 21
13.3484851498
  0
LINE
  5
273
100
AcDbEntity
  8
0
100
AcDbLine
 62
7
  6
CONTINUOUS
 10
6.7271220839
 20
11.8566101498
 11
6.7271220839
 21
11.8831726498
  0
LINE
  5
274
100
AcDbEntity
  8
0
100
AcDbLine
 62
7
  6
CONTINUOUS
 10
6.7271220839
 20
12.0669226498
 11
6.7271220839
 21
12.1234851498
  0
LINE
  5
275
100
AcDbEntity
  8
0
100
AcDbLine
 62
7
  6
CONTINUOUS
 10
6.7281220839
 20
11.8981726498
 11
6.7281220839
 21
12.0519226498
  0
LINE
  5
276
100
AcDbEntity
  8
0
100
AcDbLine
 62
7
  6
CONTINUOUS
 10
5.1733847954
 20
13.1859851498
 11
6.9683593546
 21
13.1859851498
  0
LINE
  5
277
100
AcDbEntity
  8
0
100
AcDbLine
 62
7
  6
CONTINUOUS
 10
6.9982305647
 20
12.8434851498
 11
6.9084159408
 21
12.6234851498
  0
LINE
  5
278
100
AcDbEntity
  8
0
100
AcDbLine
 62
7
  6
CONTINUOUS
 10
7.4833720839
 20
13.3734851498
 11
6.6985998955
 21
13.3734851498
  0
LINE
  5
279
100
AcDbEntity
  8
0
100
AcDbLine
 62
7
  6
CONTINUOUS
 10
4.6583720839
 20
13.3734851498
 11
5.4431440918
 21
13.3734851498
  0
LINE
  5
27A
100
AcDbEntity
  8
0
100
AcDbLine
 62
7
  6
CONTINUOUS
 10
6.9526101146
 20
12.6234851498
 11
7.0424247385
 21
12.8434851498
  0
LINE
  5
27B
100
AcDbEntity
  8
0
100
AcDbLine
 62
7
  6
CONTINUOUS
 10
6.9084159408
 20
12.6234851498
 11
6.9982305647
 21
12.4034851498
  0
LINE
  5
27C
100
AcDbEntity
  8
0
100
AcDbLine
 62
7
  6
CONTINUOUS
 10
7.0424247385
 20
12.4034851498
 11
6.9526101146
 21
12.6234851498
  0
LINE
  5
27D
100
AcDbEntity
  8
0
100
AcDbLine
 62
7
  6
CONTINUOUS
 10
6.9683720839
 20
13.1859851498
 11
6.9683720839
 21
13.1234851498
  0
LINE
  5
27E
100
AcDbEntity
  8
0
100
AcDbLine
 62
7
  6
CONTINUOUS
 10
6.7255042575
 20
11.8955548234
 11
6.7281220839
 21
11.8981726498
  0
LINE
  5
27F
100
AcDbEntity
  8
0
100
AcDbLine
 62
7
  6
CONTINUOUS
 10
7.2605233186
 20
12.4977153846
 11
7.2220539863
 21
12.4034851498
  0
LINE
  5
280
100
AcDbEntity
  8
0
100
AcDbLine
 62
7
  6
CONTINUOUS
 10
7.2220539863
 20
12.8434851498
 11
7.2605232445
 21
12.7492550964
  0
LINE
  5
281
100
AcDbEntity
  8
0
100
AcDbLine
 62
7
  6
CONTINUOUS
 10
7.5083720839
 20
11.8984851498
 11
7.5083720839
 21
13.3484851498
  0
LINE
  5
282
100
AcDbEntity
  8
0
100
AcDbLine
 62
7
  6
CONTINUOUS
 10
14.8337926254
 20
3.9981247044
 11
16.3337926254
 21
3.9981247044
  0
LINE
  5
283
100
AcDbEntity
  8
0
100
AcDbLine
 62
7
  6
CONTINUOUS
 10
15.3637926254
 20
6.5868066069
 11
15.4580226788
 21
6.6252758651
  0
LINE
  5
284
100
AcDbEntity
  8
0
100
AcDbLine
 62
7
  6
CONTINUOUS
 10
14.8558620821
 20
6.0902566612
 11
14.8584801254
 21
6.0928747044
  0
LINE
  5
285
100
AcDbEntity
  8
0
100
AcDbLine
 62
7
  6
CONTINUOUS
 10
14.7869176254
 20
6.0618646275
 11
14.7869176254
 21
4.8093847814
  0
LINE
  5
286
100
AcDbEntity
  8
0
100
AcDbLine
 62
7
  6
CONTINUOUS
 10
15.8037926254
 20
6.4071773591
 11
15.5837926254
 21
6.3173627352
  0
LINE
  5
287
100
AcDbEntity
  8
0
100
AcDbLine
 62
7
  6
CONTINUOUS
 10
14.8337926254
 20
4.5606245373
 11
14.8337926254
 21
3.9981247044
  0
LINE
  5
288
100
AcDbEntity
  8
0
100
AcDbLine
 62
7
  6
CONTINUOUS
 10
14.8894176254
 20
5.4091026765
 11
14.8894176254
 21
5.4621467324
  0
LINE
  5
289
100
AcDbEntity
  8
0
100
AcDbLine
 62
7
  6
CONTINUOUS
 10
15.5837926254
 20
6.2731685614
 11
15.8037926254
 21
6.3629831853
  0
LINE
  5
28A
100
AcDbEntity
  8
0
100
AcDbLine
 62
7
  6
CONTINUOUS
 10
14.8962926254
 20
4.7793747044
 11
14.8169176254
 21
4.7793747044
  0
LINE
  5
28B
100
AcDbEntity
  8
0
100
AcDbLine
 62
7
  6
CONTINUOUS
 10
14.9812926254
 20
5.4091026765
 11
14.9812926254
 21
5.4621467324
  0
LINE
  5
28C
100
AcDbEntity
  8
0
100
AcDbLine
 62
7
  6
CONTINUOUS
 10
15.0837926254
 20
6.873112273
 11
15.0837926254
 21
5.4356247044
  0
LINE
  5
28D
100
AcDbEntity
  8
0
100
AcDbLine
 62
7
  6
CONTINUOUS
 10
14.8337925776
 20
4.5606245374
 11
15.0837926254
 21
5.4356247044
  0
LINE
  5
28E
100
AcDbEntity
  8
0
100
AcDbLine
 62
7
  6
CONTINUOUS
 10
14.9353551254
 20
5.4886687604
 11
14.8894176254
 21
5.4621467324
  0
LINE
  5
28F
100
AcDbEntity
  8
0
100
AcDbLine
 62
7
  6
CONTINUOUS
 10
14.8894176254
 20
5.4091026765
 11
14.9353551254
 21
5.3825806485
  0
LINE
  5
290
100
AcDbEntity
  8
0
100
AcDbLine
 62
7
  6
CONTINUOUS
 10
14.9353551254
 20
5.3825806485
 11
14.9812926254
 21
5.4091026765
  0
LINE
  5
291
100
AcDbEntity
  8
0
100
AcDbLine
 62
7
  6
CONTINUOUS
 10
14.9812926254
 20
5.4621467324
 11
14.9353551254
 21
5.4886687604
  0
LINE
  5
292
100
AcDbEntity
  8
0
100
AcDbLine
 62
7
  6
CONTINUOUS
 10
15.3637926254
 20
6.5868066069
 11
15.3637926254
 21
6.3629831853
  0
LINE
  5
293
100
AcDbEntity
  8
0
100
AcDbLine
 62
7
  6
CONTINUOUS
 10
15.5837926254
 20
6.3173627352
 11
15.5837926254
 21
6.2731685614
  0
LINE
  5
294
100
AcDbEntity
  8
0
100
AcDbLine
 62
7
  6
CONTINUOUS
 10
15.0122301254
 20
6.0928747044
 11
15.0148476402
 21
6.0902571896
  0
LINE
  5
295
100
AcDbEntity
  8
0
100
AcDbLine
 62
7
  6
CONTINUOUS
 10
15.8037926254
 20
6.3629831853
 11
15.8037926254
 21
6.5868066069
  0
LINE
  5
296
100
AcDbEntity
  8
0
100
AcDbLine
 62
7
  6
CONTINUOUS
 10
16.0837926254
 20
5.4356244142
 11
16.0837926254
 21
6.873112273
  0
LINE
  5
297
100
AcDbEntity
  8
0
100
AcDbLine
 62
7
  6
CONTINUOUS
 10
16.0837926254
 20
5.4356247044
 11
16.3337926731
 21
4.5606245374
  0
LINE
  5
298
100
AcDbEntity
  8
0
100
AcDbLine
 62
7
  6
CONTINUOUS
 10
16.1462926254
 20
6.3331116203
 11
16.1462926254
 21
5.2168747041
  0
LINE
  5
299
100
AcDbEntity
  8
0
100
AcDbLine
 62
7
  6
CONTINUOUS
 10
15.0837926254
 20
6.0918747044
 11
15.0272301254
 21
6.0918747044
  0
LINE
  5
29A
100
AcDbEntity
  8
0
100
AcDbLine
 62
7
  6
CONTINUOUS
 10
14.8434801254
 20
6.0918747044
 11
14.8169176254
 21
6.0918747044
  0
LINE
  5
29B
100
AcDbEntity
  8
0
100
AcDbLine
 62
7
  6
CONTINUOUS
 10
15.0122301254
 20
6.0928747044
 11
14.8584801254
 21
6.0928747044
  0
LINE
  5
29C
100
AcDbEntity
  8
0
100
AcDbLine
 62
7
  6
CONTINUOUS
 10
16.3337926254
 20
4.5606245373
 11
16.3337926254
 21
3.9981247044
  0
LINE
  5
29D
100
AcDbEntity
  8
0
100
AcDbLine
 62
7
  6
CONTINUOUS
 10
15.3637926254
 20
6.3629831853
 11
15.5837926254
 21
6.2731685614
  0
LINE
  5
29E
100
AcDbEntity
  8
0
100
AcDbLine
 62
7
  6
CONTINUOUS
 10
16.1462926254
 20
6.3331247044
 11
16.0837926254
 21
6.3331247044
  0
LINE
  5
29F
100
AcDbEntity
  8
0
100
AcDbLine
 62
7
  6
CONTINUOUS
 10
15.5837926254
 20
6.3173627352
 11
15.3637926254
 21
6.4071773591
  0
LINE
  5
2A0
100
AcDbEntity
  8
0
100
AcDbLine
 62
7
  6
CONTINUOUS
 10
15.7095623905
 20
6.6252759392
 11
15.8037926254
 21
6.5868066069
  0
LINE
  5
2A1
100
AcDbEntity
  8
0
100
AcDbLine
 62
7
  6
CONTINUOUS
 10
15.0837926254
 20
6.8731247044
 11
16.0837926254
 21
6.8731247044
  0
LINE
  5
2A2
100
AcDbEntity
  8
03__ASM_ALL_CURVES
100
AcDbLine
 62
4
  6
CONTINUOUS
 10
16.2257160896
 20
6.9231247044
 11
14.9418691612
 21
6.9231247044
  0
LINE
  5
2A3
100
AcDbEntity
  8
0
100
AcDbLine
 62
7
  6
CONTINUOUS
 10
13.7644184036
 20
12.5703490148
 11
14.0064847271
 21
13.3536759244
  0
LINE
  5
2A4
100
AcDbEntity
  8
0
100
AcDbLine
 62
7
  6
CONTINUOUS
 10
14.1984266824
 20
11.0651044665
 11
14.0151605676
 21
11.4385615433
  0
LINE
  5
2A5
100
AcDbEntity
  8
0
100
AcDbLine
 62
7
  6
CONTINUOUS
 10
13.8138106884
 20
12.1459309183
 11
13.9995662356
 21
11.4801645136
  0
LINE
  5
2A6
100
AcDbEntity
  8
0
100
AcDbLine
 62
7
  6
CONTINUOUS
 10
16.8168156237
 20
11.0565348615
 11
16.0939929043
 21
11.0565348615
  0
LINE
  5
2A7
100
AcDbEntity
  8
0
100
AcDbLine
 62
7
  6
CONTINUOUS
 10
14.9376412013
 20
11.0565348615
 11
14.2148183157
 21
11.0565348615
  0
LINE
  5
2A8
100
AcDbEntity
  8
0
100
AcDbLine
 62
7
  6
CONTINUOUS
 10
15.9750299033
 20
11.2741229378
 11
15.0335342003
 21
11.2741229378
  0
LINE
  5
2A9
100
AcDbEntity
  8
0
100
AcDbLine
 62
7
  6
CONTINUOUS
 10
16.6452296132
 20
11.4061903274
 11
15.9303597794
 21
11.4061903274
  0
LINE
  5
2AA
100
AcDbEntity
  8
0
100
AcDbLine
 62
7
  6
CONTINUOUS
 10
14.0432323167
 20
11.4061903647
 11
14.7581021504
 21
11.4061903647
  0
LINE
  5
2AB
100
AcDbEntity
  8
03__ASM_ALL_CURVES
100
AcDbLine
 62
4
  6
CONTINUOUS
 10
14.9605073052
 20
13.9650751243
 11
14.6497311995
 21
12.9594032775
  0
LINE
  5
2AC
100
AcDbEntity
  8
0
100
AcDbLine
 62
7
  6
CONTINUOUS
 10
15.0181337221
 20
11.2585826886
 11
14.8495980908
 21
11.602022196
  0
LINE
  5
2AD
100
AcDbEntity
  8
0
100
AcDbLine
 62
7
  6
CONTINUOUS
 10
14.5800206814
 20
12.5635527369
 11
14.4462394882
 21
12.1306366368
  0
LINE
  5
2AE
100
AcDbEntity
  8
0
100
AcDbLine
 62
7
  6
CONTINUOUS
 10
14.2764395379
 20
11.9749911387
 11
14.4510163706
 21
12.2615250013
  0
LINE
  5
2AF
100
AcDbEntity
  8
0
100
AcDbLine
 62
7
  6
CONTINUOUS
 10
14.108669418
 20
12.3168706978
 11
14.3376726569
 21
12.5141904867
  0
LINE
  5
2B0
100
AcDbEntity
  8
0
100
AcDbLine
 62
7
  6
CONTINUOUS
 10
14.4731427997
 20
12.2176957849
 11
14.2764395379
 21
11.9749911387
  0
LINE
  5
2B1
100
AcDbEntity
  8
0
100
AcDbLine
 62
7
  6
CONTINUOUS
 10
14.8678106629
 20
12.4071284834
 11
14.8525585696
 21
12.4382089818
  0
LINE
  5
2B2
100
AcDbEntity
  8
0
100
AcDbLine
 62
7
  6
CONTINUOUS
 10
14.8525585696
 20
12.4382089818
 11
14.8658670533
 21
12.4022249019
  0
LINE
  5
2B3
100
AcDbEntity
  8
0
100
AcDbLine
 62
7
  6
CONTINUOUS
 10
14.8696242215
 20
12.4022249019
 11
14.8678106629
 21
12.4071284834
  0
LINE
  5
2B4
100
AcDbEntity
  8
0
100
AcDbLine
 62
7
  6
CONTINUOUS
 10
15.6924476391
 20
13.3090101845
 11
15.8558241976
 21
13.4255124391
  0
LINE
  5
2B5
100
AcDbEntity
  8
0
100
AcDbLine
 62
7
  6
CONTINUOUS
 10
15.6946738002
 20
11.9966831162
 11
15.7234521435
 21
11.9966831162
  0
LINE
  5
2B6
100
AcDbEntity
  8
0
100
AcDbLine
 62
7
  6
CONTINUOUS
 10
15.6903127948
 20
12.0491535531
 11
15.7264817363
 21
12.0491535531
  0
LINE
  5
2B7
100
AcDbEntity
  8
0
100
AcDbLine
 62
7
  6
CONTINUOUS
 10
14.8881068968
 20
12.4741930617
 11
14.9033589901
 21
12.4431125633
  0
LINE
  5
2B8
100
AcDbEntity
  8
0
100
AcDbLine
 62
7
  6
CONTINUOUS
 10
14.9502721915
 20
12.4382089818
 11
14.9369637077
 21
12.4741930617
  0
LINE
  5
2B9
100
AcDbEntity
  8
0
100
AcDbLine
 62
7
  6
CONTINUOUS
 10
14.7951331681
 20
11.4257736414
 11
14.8495980908
 21
11.602022196
  0
LINE
  5
2BA
100
AcDbEntity
  8
0
100
AcDbLine
 62
7
  6
CONTINUOUS
 10
14.8881068968
 20
12.4741930617
 11
14.8525585696
 21
12.4382089818
  0
LINE
  5
2BB
100
AcDbEntity
  8
0
100
AcDbLine
 62
7
  6
CONTINUOUS
 10
14.8678106629
 20
12.4071284834
 11
14.9033589901
 21
12.4431125633
  0
LINE
  5
2BC
100
AcDbEntity
  8
0
100
AcDbLine
 62
7
  6
CONTINUOUS
 10
14.9147238643
 20
12.4022249019
 11
14.9502721915
 21
12.4382089818
  0
LINE
  5
2BD
100
AcDbEntity
  8
0
100
AcDbLine
 62
7
  6
CONTINUOUS
 10
15.6652231827
 20
13.2815386455
 11
15.6924476391
 21
13.3090101845
  0
LINE
  5
2BE
100
AcDbEntity
  8
0
100
AcDbLine
 62
7
  6
CONTINUOUS
 10
14.1362051974
 20
12.1459303968
 11
13.8138108163
 21
12.1459306575
  0
LINE
  5
2BF
100
AcDbEntity
  8
0
100
AcDbLine
 62
7
  6
CONTINUOUS
 10
16.1394669905
 20
12.1459302106
 11
16.4618611449
 21
12.1459305644
  0
LINE
  5
2C0
100
AcDbEntity
  8
0
100
AcDbLine
 62
7
  6
CONTINUOUS
 10
15.7220905589
 20
13.0533770598
 11
15.7493150153
 21
13.0808485988
  0
LINE
  5
2C1
100
AcDbEntity
  8
0
100
AcDbLine
 62
7
  6
CONTINUOUS
 10
15.0277033563
 20
11.2734627779
 11
14.966719218
 21
11.0761180342
  0
LINE
  5
2C2
100
AcDbEntity
  8
0
100
AcDbLine
 62
7
  6
CONTINUOUS
 10
16.1329355083
 20
13.0856915224
 11
15.9695589499
 21
12.9691892678
  0
LINE
  5
2C3
100
AcDbEntity
  8
0
100
AcDbLine
 62
7
  6
CONTINUOUS
 10
15.9423344935
 20
12.9417177288
 11
16.1057110519
 21
13.0582199834
  0
LINE
  5
2C4
100
AcDbEntity
  8
0
100
AcDbLine
 62
7
  6
CONTINUOUS
 10
14.9147238643
 20
12.4022249019
 11
14.8658670533
 21
12.4022249019
  0
LINE
  5
2C5
100
AcDbEntity
  8
0
100
AcDbLine
 62
7
  6
CONTINUOUS
 10
14.9033589901
 20
12.4431125633
 11
14.9484586329
 21
12.4431125633
  0
LINE
  5
2C6
100
AcDbEntity
  8
0
100
AcDbLine
 62
7
  6
CONTINUOUS
 10
14.8881068968
 20
12.4741930617
 11
14.9369637077
 21
12.4741930617
  0
LINE
  5
2C7
100
AcDbEntity
  8
0
100
AcDbLine
 62
7
  6
CONTINUOUS
 10
15.7199284497
 20
12.0993219679
 11
15.7085821863
 21
12.1129153607
  0
LINE
  5
2C8
100
AcDbEntity
  8
0
100
AcDbLine
 62
7
  6
CONTINUOUS
 10
15.9058288036
 20
11.4151399524
 11
16.077601271
 21
11.0651044665
  0
LINE
  5
2C9
100
AcDbEntity
  8
0
100
AcDbLine
 62
7
  6
CONTINUOUS
 10
15.7042418929
 20
11.9771853932
 11
15.688061235
 21
12.0101581072
  0
LINE
  5
2CA
100
AcDbEntity
  8
0
100
AcDbLine
 62
7
  6
CONTINUOUS
 10
15.9695589499
 20
12.9691892678
 11
15.9423344935
 21
12.9417177288
  0
LINE
  5
2CB
100
AcDbEntity
  8
0
100
AcDbLine
 62
7
  6
CONTINUOUS
 10
16.1329355083
 20
13.0856915224
 11
16.1057110519
 21
13.0582199834
  0
LINE
  5
2CC
100
AcDbEntity
  8
0
100
AcDbLine
 62
7
  6
CONTINUOUS
 10
15.7264817363
 20
12.0491535531
 11
15.7103010785
 21
12.082126267
  0
LINE
  5
2CD
100
AcDbEntity
  8
0
100
AcDbLine
 62
7
  6
CONTINUOUS
 10
15.6910908278
 20
12.0626285441
 11
15.688061235
 21
12.0101581072
  0
LINE
  5
2CE
100
AcDbEntity
  8
0
100
AcDbLine
 62
7
  6
CONTINUOUS
 10
15.7234521435
 20
11.9966831162
 11
15.7264817363
 21
12.0491535531
  0
LINE
  5
2CF
100
AcDbEntity
  8
0
100
AcDbLine
 62
7
  6
CONTINUOUS
 10
15.8340105395
 20
12.1760405618
 11
15.7002293462
 21
11.7431244617
  0
LINE
  5
2D0
100
AcDbEntity
  8
0
100
AcDbLine
 62
7
  6
CONTINUOUS
 10
15.7103010785
 20
12.082126267
 11
15.6910908278
 21
12.0626285441
  0
LINE
  5
2D1
100
AcDbEntity
  8
0
100
AcDbLine
 62
7
  6
CONTINUOUS
 10
15.6652231827
 20
13.2815386455
 11
15.7220905589
 21
13.0533770598
  0
LINE
  5
2D2
100
AcDbEntity
  8
0
100
AcDbLine
 62
7
  6
CONTINUOUS
 10
15.7493150153
 20
13.0808485988
 11
15.6924476391
 21
13.3090101845
  0
LINE
  5
2D3
100
AcDbEntity
  8
0
100
AcDbLine
 62
7
  6
CONTINUOUS
 10
15.7199284497
 20
11.9599896923
 11
15.7085821863
 21
11.9463962996
  0
LINE
  5
2D4
100
AcDbEntity
  8
0
100
AcDbLine
 62
7
  6
CONTINUOUS
 10
15.7042418929
 20
11.9771853932
 11
15.7234521435
 21
11.9966831162
  0
LINE
  5
2D5
100
AcDbEntity
  8
0
100
AcDbLine
 62
7
  6
CONTINUOUS
 10
15.9423344935
 20
12.9417177288
 11
15.7220905589
 21
13.0533770598
  0
LINE
  5
2D6
100
AcDbEntity
  8
0
100
AcDbLine
 62
7
  6
CONTINUOUS
 10
16.147629383
 20
12.0285106428
 11
16.0862664257
 21
12.1980314362
  0
LWPOLYLINE
  5
2D7
100
AcDbEntity
  8
0
100
AcDbPolyline
 62
7
  6
CONTINUOUS
 90
5
 70
0
 10
16.1331644499
 20
12.1139518847
 10
16.1475795144
 20
12.0298642871
 10
16.1522567006
 20
11.9029057346
 10
16.1356293804
 20
11.7818316827
 10
16.1235093305
 20
11.7368947671
  0
LINE
  5
2D8
100
AcDbEntity
  8
0
100
AcDbLine
 62
7
  6
CONTINUOUS
 10
15.9598969103
 20
11.602022196
 11
15.9054319875
 21
11.4257736414
  0
LINE
  5
2D9
100
AcDbEntity
  8
0
100
AcDbLine
 62
7
  6
CONTINUOUS
 10
15.7493150153
 20
13.0808485988
 11
15.9695589499
 21
12.9691892678
  0
LINE
  5
2DA
100
AcDbEntity
  8
0
100
AcDbLine
 62
7
  6
CONTINUOUS
 10
16.123536585
 20
11.736982356
 11
16.1235059332
 21
11.7368831947
  0
LINE
  5
2DB
100
AcDbEntity
  8
0
100
AcDbLine
 62
7
  6
CONTINUOUS
 10
16.6476165933
 20
11.4801645136
 11
16.4618610461
 21
12.1459309183
  0
LINE
  5
2DC
100
AcDbEntity
  8
0
100
AcDbLine
 62
7
  6
CONTINUOUS
 10
16.1050737819
 20
13.1974775076
 11
16.1329355083
 21
13.0856915224
  0
LINE
  5
2DD
100
AcDbEntity
  8
0
100
AcDbLine
 62
7
  6
CONTINUOUS
 10
15.9150960226
 20
13.3954627928
 11
15.8558241976
 21
13.4255124391
  0
LINE
  5
2DE
100
AcDbEntity
  8
0
100
AcDbLine
 62
7
  6
CONTINUOUS
 10
16.7039273695
 20
12.9292578279
 11
16.9986127623
 21
12.6159885326
  0
LINE
  5
2DF
100
AcDbEntity
  8
0
100
AcDbLine
 62
7
  6
CONTINUOUS
 10
17.1963067421
 20
12.2229556209
 11
17.0130406273
 21
12.5964126977
  0
LINE
  5
2E0
100
AcDbEntity
  8
0
100
AcDbLine
 62
7
  6
CONTINUOUS
 10
17.1968899756
 20
12.2119420532
 11
16.8458938067
 21
11.0761180342
  0
ARC
  5
2E1
100
AcDbEntity
  8
0
100
AcDbCircle
 62
7
  6
CONTINUOUS
 10
6.1303672762
 20
5.4951198968
 40
1.4375
100
AcDbArc
 50
0.0
 51
180.0000167195
  0
ARC
  5
2E2
100
AcDbEntity
  8
0
100
AcDbCircle
 62
7
  6
CONTINUOUS
 10
6.1303672762
 20
5.4951198968
 40
1.0625
100
AcDbArc
 50
304.5906347455
 51
235.4093646675
  0
ARC
  5
2E3
100
AcDbEntity
  8
0
100
AcDbCircle
 62
7
  6
CONTINUOUS
 10
6.1303672762
 20
5.4951198968
 40
1.0625
100
AcDbArc
 50
235.43967822
 51
304.56032178
  0
CIRCLE
  5
2E4
100
AcDbEntity
  8
0
100
AcDbCircle
 62
7
  6
CONTINUOUS
 10
6.1303672762
 20
5.4951198968
 40
0.8975
  0
CIRCLE
  5
2E5
100
AcDbEntity
  8
0
100
AcDbCircle
 62
7
  6
CONTINUOUS
 10
6.1303672762
 20
5.4951198968
 40
0.65625
  0
CIRCLE
  5
2E6
100
AcDbEntity
  8
0
100
AcDbCircle
 62
7
  6
CONTINUOUS
 10
6.1303672762
 20
5.4951198968
 40
0.5
  0
ARC
  5
2E7
100
AcDbEntity
  8
0
100
AcDbCircle
 62
7
  6
CONTINUOUS
 10
7.4442592448
 20
6.4875177135
 40
0.13
100
AcDbArc
 50
98.7116473692
 51
221.76737852
  0
ARC
  5
2E8
100
AcDbEntity
  8
0
100
AcDbCircle
 62
7
  6
CONTINUOUS
 10
7.122765093
 20
6.8090118654
 40
0.13
100
AcDbArc
 50
228.2326214799
 51
351.2883526309
  0
ARC
  5
2E9
100
AcDbEntity
  8
0
100
AcDbCircle
 62
7
  6
CONTINUOUS
 10
7.4109376569
 20
6.7049795994
 40
0.09
100
AcDbArc
 50
278.7116473689
 51
45.0
  0
ARC
  5
2EA
100
AcDbEntity
  8
0
100
AcDbCircle
 62
7
  6
CONTINUOUS
 10
7.3402269788
 20
6.7756902775
 40
0.09
100
AcDbArc
 50
44.9999999998
 51
171.2883526308
  0
ARC
  5
2EB
100
AcDbEntity
  8
0
100
AcDbCircle
 62
7
  6
CONTINUOUS
 10
5.5526391036
 20
4.0676198968
 40
0.025
100
AcDbArc
 50
90.0
 51
180.0
  0
ARC
  5
2EC
100
AcDbEntity
  8
0
100
AcDbCircle
 62
7
  6
CONTINUOUS
 10
6.7080954487
 20
4.0676198968
 40
0.025
100
AcDbArc
 50
0.0
 51
90.0
  0
ARC
  5
2ED
100
AcDbEntity
  8
0
100
AcDbCircle
 62
7
  6
CONTINUOUS
 10
7.4072240052
 20
11.9718481776
 40
0.6867179832
100
AcDbArc
 50
173.0764964052
 51
173.2468079441
  0
ARC
  5
2EE
100
AcDbEntity
  8
0
100
AcDbCircle
 62
7
  6
CONTINUOUS
 10
7.40579089
 20
11.9781175565
 40
0.6852799388
100
AcDbArc
 50
186.7572986794
 51
186.9316040623
  0
ARC
  5
2EF
100
AcDbEntity
  8
0
100
AcDbCircle
 62
7
  6
CONTINUOUS
 10
7.3992755344
 20
11.9773662721
 40
0.6787215184
100
AcDbArc
 50
186.9350236987
 51
187.9773134107
  0
ARC
  5
2F0
100
AcDbEntity
  8
0
100
AcDbCircle
 62
7
  6
CONTINUOUS
 10
7.3853057988
 20
11.9745607745
 40
0.6646326193
100
AcDbArc
 50
172.0119355488
 51
173.0808676576
  0
ARC
  5
2F1
100
AcDbEntity
  8
0
100
AcDbCircle
 62
7
  6
CONTINUOUS
 10
7.375178363
 20
11.9750478022
 40
0.6545161361
100
AcDbArc
 50
173.1950804722
 51
186.8057565605
  0
CIRCLE
  5
2F2
100
AcDbEntity
  8
0
100
AcDbCircle
 62
7
  6
CONTINUOUS
 10
6.0708720839
 20
11.9750476498
 40
0.091875
  0
CIRCLE
  5
2F3
100
AcDbEntity
  8
0
100
AcDbCircle
 62
7
  6
CONTINUOUS
 10
6.0708720839
 20
11.9750476498
 40
0.076875
  0
ARC
  5
2F4
100
AcDbEntity
  8
0
100
AcDbCircle
 62
7
  6
CONTINUOUS
 10
6.6971220839
 20
11.8566101498
 40
0.03
100
AcDbArc
 50
270.0000000003
 51
360.0
  0
ARC
  5
2F5
100
AcDbEntity
  8
0
100
AcDbCircle
 62
7
  6
CONTINUOUS
 10
5.4446220839
 20
11.8566101498
 40
0.03
100
AcDbArc
 50
180.0
 51
269.9999999997
  0
ARC
  5
2F6
100
AcDbEntity
  8
0
100
AcDbCircle
 62
7
  6
CONTINUOUS
 10
7.1379642332
 20
13.1486554783
 40
0.0251703409
100
AcDbArc
 50
249.3249336031
 51
269.9432740803
  0
ARC
  5
2F7
100
AcDbEntity
  8
0
100
AcDbCircle
 62
7
  6
CONTINUOUS
 10
4.6583720839
 20
13.3484851498
 40
0.025
100
AcDbArc
 50
90.0
 51
180.0
  0
ARC
  5
2F8
100
AcDbEntity
  8
0
100
AcDbCircle
 62
7
  6
CONTINUOUS
 10
6.6986002564
 20
13.3484851498
 40
0.025
100
AcDbArc
 50
90.000827142
 51
179.9999999055
  0
ARC
  5
2F9
100
AcDbEntity
  8
0
100
AcDbCircle
 62
7
  6
CONTINUOUS
 10
5.4431439113
 20
13.3484851498
 40
0.025
100
AcDbArc
 50
0.0
 51
89.9991727805
  0
ARC
  5
2FA
100
AcDbEntity
  8
0
100
AcDbCircle
 62
7
  6
CONTINUOUS
 10
7.4833720839
 20
11.8984851498
 40
0.025
100
AcDbArc
 50
270.0
 51
360.0
  0
ARC
  5
2FB
100
AcDbEntity
  8
0
100
AcDbCircle
 62
7
  6
CONTINUOUS
 10
7.4833720839
 20
13.3484851498
 40
0.025
100
AcDbArc
 50
0.0
 51
90.0
  0
ARC
  5
2FC
100
AcDbEntity
  8
0
100
AcDbCircle
 62
7
  6
CONTINUOUS
 10
4.6583720839
 20
11.8984851498
 40
0.025
100
AcDbArc
 50
180.0
 51
270.0
  0
ARC
  5
2FD
100
AcDbEntity
  8
0
100
AcDbCircle
 62
7
  6
CONTINUOUS
 10
14.9383211838
 20
6.769990159
 40
0.6847179707
100
AcDbArc
 50
263.0742778015
 51
263.2464390354
  0
ARC
  5
2FE
100
AcDbEntity
  8
0
100
AcDbCircle
 62
7
  6
CONTINUOUS
 10
14.9324787732
 20
6.7692469774
 40
0.6839694161
100
AcDbArc
 50
276.7541627808
 51
276.9304903792
  0
ARC
  5
2FF
100
AcDbEntity
  8
0
100
AcDbCircle
 62
7
  6
CONTINUOUS
 10
14.9335612716
 20
6.7600664108
 40
0.6747252908
100
AcDbArc
 50
276.9333083876
 51
277.9798714915
  0
ARC
  5
300
100
AcDbEntity
  8
0
100
AcDbCircle
 62
7
  6
CONTINUOUS
 10
14.9360709901
 20
6.7517653984
 40
0.6663548576
100
AcDbArc
 50
262.0128337283
 51
263.0773893262
  0
ARC
  5
301
100
AcDbEntity
  8
0
100
AcDbCircle
 62
7
  6
CONTINUOUS
 10
14.9353556629
 20
6.7399021233
 40
0.6544874985
100
AcDbArc
 50
263.1944927461
 51
276.8061903388
  0
CIRCLE
  5
302
100
AcDbEntity
  8
0
100
AcDbCircle
 62
7
  6
CONTINUOUS
 10
14.9353551254
 20
5.4356247044
 40
0.091875
  0
CIRCLE
  5
303
100
AcDbEntity
  8
0
100
AcDbCircle
 62
7
  6
CONTINUOUS
 10
14.9353551254
 20
5.4356247044
 40
0.076875
  0
ARC
  5
304
100
AcDbEntity
  8
0
100
AcDbCircle
 62
7
  6
CONTINUOUS
 10
14.8169176254
 20
6.0618747044
 40
0.03
100
AcDbArc
 50
90.0
 51
179.9999999997
  0
ARC
  5
305
100
AcDbEntity
  8
0
100
AcDbCircle
 62
7
  6
CONTINUOUS
 10
14.8169176254
 20
4.8093747044
 40
0.03
100
AcDbArc
 50
180.0000000003
 51
270.0
  0
ARC
  5
306
100
AcDbEntity
  8
0
100
AcDbCircle
 62
7
  6
CONTINUOUS
 10
15.5060373959
 20
13.337460588
 40
1.8554452505
100
AcDbArc
 50
251.1995898729
 51
251.7313350622
  0
ARC
  5
307
100
AcDbEntity
  8
0
100
AcDbCircle
 62
7
  6
CONTINUOUS
 10
15.5011207456
 20
13.3233466287
 40
1.8404998158
100
AcDbArc
 50
249.2683061862
 51
251.2028832209
  0
ARC
  5
308
100
AcDbEntity
  8
0
100
AcDbCircle
 62
7
  6
CONTINUOUS
 10
15.6198101687
 20
11.8997081289
 40
0.5542770078
100
AcDbArc
 50
21.3284871701
 51
22.5848809495
  0
ARC
  5
309
100
AcDbEntity
  8
0
100
AcDbCircle
 62
7
  6
CONTINUOUS
 10
14.8350960129
 20
12.1032550631
 40
0.4073353141
100
AcDbArc
 50
206.160794599
 51
208.7563649691
  0
ARC
  5
30A
100
AcDbEntity
  8
0
100
AcDbCircle
 62
7
  6
CONTINUOUS
 10
15.635139113
 20
11.9967236019
 40
0.0960934772
100
AcDbArc
 50
334.8309324348
 51
336.4961856985
  0
ARC
  5
30B
100
AcDbEntity
  8
0
100
AcDbCircle
 62
7
  6
CONTINUOUS
 10
15.6746582371
 20
12.0752066543
 40
0.0600544719
100
AcDbArc
 50
26.0968353326
 51
29.1782994209
  0
ARC
  5
30C
100
AcDbEntity
  8
0
100
AcDbCircle
 62
7
  6
CONTINUOUS
 10
14.9373270118
 20
12.4516439525
 40
0.0537167626
100
AcDbArc
 50
19.2025537867
 51
26.1514470806
  0
ARC
  5
30D
100
AcDbEntity
  8
0
100
AcDbCircle
 62
7
  6
CONTINUOUS
 10
14.8586169036
 20
12.4130689458
 40
0.0423776093
100
AcDbArc
 50
206.1825322721
 51
222.0213759112
  0
ARC
  5
30E
100
AcDbEntity
  8
0
100
AcDbCircle
 62
7
  6
CONTINUOUS
 10
14.7819421779
 20
11.4298471211
 40
0.0138056586
100
AcDbArc
 50
326.4691438268
 51
342.8387875799
  0
SPLINE
  5
30F
100
AcDbEntity
  8
0
100
AcDbSpline
 62
7
  6
CONTINUOUS
 70
0
 71
3
 72
20
 73
16
 74
0
 42
0.0000001
 43
0.0000001
 44
0.0000000001
 40
0.0
 40
0.0
 40
0.0
 40
0.0
 40
0.0870975344
 40
0.1735832319
 40
0.2587801757
 40
0.3420701615
 40
0.5007430388
 40
0.6452119899
 40
0.7708555781
 40
0.8252565931
 40
0.8733848688
 40
0.9148668614
 40
0.9495749804
 40
0.9776773662
 40
1.0
 40
1.0
 40
1.0
 40
1.0
 10
6.7580950878
 20
4.6188416616
 30
0.0
 10
6.7573953338
 20
4.6186680902
 30
0.0
 10
6.7559738308
 20
4.6184244726
 30
0.0
 10
6.7538303
 20
4.6183247909
 30
0.0
 10
6.7517198856
 20
4.6184188134
 30
0.0
 10
6.7490253239
 20
4.6186994982
 30
0.0
 10
6.7458682108
 20
4.619226907
 30
0.0
 10
6.7423876628
 20
4.6199201421
 30
0.0
 10
6.7397450973
 20
4.6204054797
 30
0.0
 10
6.7378766816
 20
4.6206831233
 30
0.0
 10
6.7366915191
 20
4.6208155992
 30
0.0
 10
6.7356628943
 20
4.6208668298
 30
0.0
 10
6.7347983675
 20
4.6208314219
 30
0.0
 10
6.7341021608
 20
4.6207090776
 30
0.0
 10
6.7337104098
 20
4.620543898
 30
0.0
 10
6.7335583083
 20
4.6204389786
 30
0.0
  0
SPLINE
  5
310
100
AcDbEntity
  8
0
100
AcDbSpline
 62
7
  6
CONTINUOUS
 70
0
 71
3
 72
27
 73
23
 74
0
 42
0.0000001
 43
0.0000001
 44
0.0000000001
 40
0.0
 40
0.0
 40
0.0
 40
0.0
 40
0.1249933164
 40
0.1874913302
 40
0.2499894267
 40
0.374980272
 40
0.4374779656
 40
0.4999755333
 40
0.5624728375
 40
0.6249697034
 40
0.6874654771
 40
0.7499591019
 40
0.7812091609
 40
0.8124591484
 40
0.8437091703
 40
0.8749590871
 40
0.9062061081
 40
0.9374443803
 40
0.9530833185
 40
0.9687246379
 40
0.9843656307
 40
1.0
 40
1.0
 40
1.0
 40
1.0
 10
5.0715937542
 20
5.4062105087
 30
0.0
 10
5.0712548882
 20
5.4102424509
 30
0.0
 10
5.0706751507
 20
5.4162849626
 30
0.0
 10
5.0697214747
 20
5.4243212347
 30
0.0
 10
5.0686562712
 20
5.432343308
 30
0.0
 10
5.0674030355
 20
5.4403399796
 30
0.0
 10
5.0659214271
 20
5.4482959462
 30
0.0
 10
5.0646872058
 20
5.4542389681
 30
0.0
 10
5.0633111691
 20
5.460150886
 30
0.0
 10
5.0617654376
 20
5.4660211399
 30
0.0
 10
5.0599986216
 20
5.4718291639
 30
0.0
 10
5.058288749
 20
5.4765923157
 30
0.0
 10
5.0567353952
 20
5.4803292991
 30
0.0
 10
5.05545878
 20
5.4830836437
 30
0.0
 10
5.0540456848
 20
5.4857710434
 30
0.0
 10
5.0524585045
 20
5.4883614142
 30
0.0
 10
5.0506338133
 20
5.4907922962
 30
0.0
 10
5.0488433533
 20
5.4925988499
 30
0.0
 10
5.0472048762
 20
5.4937946224
 30
0.0
 10
5.0458624047
 20
5.4945179622
 30
0.0
 10
5.0444137096
 20
5.4950020936
 30
0.0
 10
5.0433982441
 20
5.4951184387
 30
0.0
 10
5.0428921445
 20
5.4951190578
 30
0.0
  0
SPLINE
  5
311
100
AcDbEntity
  8
0
100
AcDbSpline
 62
7
  6
CONTINUOUS
 70
0
 71
3
 72
26
 73
22
 74
0
 42
0.0000001
 43
0.0000001
 44
0.0000000001
 40
0.0
 40
0.0
 40
0.0
 40
0.0
 40
0.1243771027
 40
0.2487671569
 40
0.3731879429
 40
0.4354222602
 40
0.497675717
 40
0.559954799
 40
0.6222688893
 40
0.6846322651
 40
0.7470682266
 40
0.778331956
 40
0.8096348586
 40
0.8409907152
 40
0.8724215634
 40
0.9039629741
 40
0.9356727898
 40
0.9516411934
 40
0.9676940734
 40
0.9838249798
 40
1.0
 40
1.0
 40
1.0
 40
1.0
 10
4.6928672762
 20
4.7076198968
 30
0.0
 10
4.6928672762
 20
4.7036689412
 30
0.0
 10
4.6930195827
 20
4.6957657083
 30
0.0
 10
4.6937164127
 20
4.6839285724
 30
0.0
 10
4.6947179021
 20
4.6740949279
 30
0.0
 10
4.6958087214
 20
4.6662629424
 30
0.0
 10
4.6967872367
 20
4.6604105108
 30
0.0
 10
4.6979458704
 20
4.6545882685
 30
0.0
 10
4.6993127103
 20
4.648807259
 30
0.0
 10
4.7009284232
 20
4.6430851314
 30
0.0
 10
4.7025329288
 20
4.6383905133
 30
0.0
 10
4.7040217018
 20
4.634708282
 30
0.0
 10
4.7052623305
 20
4.6319935789
 30
0.0
 10
4.7066528839
 20
4.6293458749
 30
0.0
 10
4.7082319609
 20
4.6267951776
 30
0.0
 10
4.7100549524
 20
4.6243963889
 30
0.0
 10
4.7118483095
 20
4.622610258
 30
0.0
 10
4.7134962307
 20
4.6214261913
 30
0.0
 10
4.7148546956
 20
4.6207097374
 30
0.0
 10
4.7163241552
 20
4.6202332821
 30
0.0
 10
4.7173534614
 20
4.6201197297
 30
0.0
 10
4.7178672762
 20
4.6201197297
 30
0.0
  0
SPLINE
  5
312
100
AcDbEntity
  8
0
100
AcDbSpline
 62
7
  6
CONTINUOUS
 70
0
 71
3
 72
9
 73
5
 74
0
 42
0.0000001
 43
0.0000001
 44
0.0000000001
 40
0.0
 40
0.0
 40
0.0
 40
0.0
 40
0.4998775676
 40
1.0
 40
1.0
 40
1.0
 40
1.0
 10
5.4940046204
 20
4.6201197296
 30
0.0
 10
5.4954617616
 20
4.6201187901
 30
0.0
 10
5.4983778408
 20
4.6198300048
 30
0.0
 10
5.5012244999
 20
4.6191926848
 30
0.0
 10
5.5026394645
 20
4.6188416616
 30
0.0
  0
SPLINE
  5
313
100
AcDbEntity
  8
0
100
AcDbSpline
 62
7
  6
CONTINUOUS
 70
0
 71
3
 72
27
 73
23
 74
0
 42
0.0000001
 43
0.0000001
 44
0.0000000001
 40
0.0
 40
0.0
 40
0.0
 40
0.0
 40
0.0156343072
 40
0.0312755126
 40
0.046916492
 40
0.0625555639
 40
0.09379385
 40
0.1250409065
 40
0.1562908199
 40
0.1875408466
 40
0.2187908363
 40
0.2500408969
 40
0.312534523
 40
0.375030298
 40
0.4375271639
 40
0.5000244682
 40
0.5625220356
 40
0.6250197292
 40
0.7500105746
 40
0.8125086705
 40
0.8750066845
 40
1.0
 40
1.0
 40
1.0
 40
1.0
 10
7.2178424079
 20
5.4951194781
 30
0.0
 10
7.21733631
 20
5.495118859
 30
0.0
 10
7.2163208768
 20
5.4950020649
 30
0.0
 10
7.2148722452
 20
5.4945179101
 30
0.0
 10
7.2135296938
 20
5.4937946949
 30
0.0
 10
7.2118912593
 20
5.4925988674
 30
0.0
 10
7.2101007667
 20
5.4907923458
 30
0.0
 10
7.2082760779
 20
5.4883614528
 30
0.0
 10
7.20668889
 20
5.4857710849
 30
0.0
 10
7.2052757923
 20
5.4830836839
 30
0.0
 10
7.2039991738
 20
5.4803293388
 30
0.0
 10
7.2024458182
 20
5.4765923534
 30
0.0
 10
7.200735941
 20
5.4718292001
 30
0.0
 10
7.1989691254
 20
5.4660211723
 30
0.0
 10
7.1974233902
 20
5.4601509159
 30
0.0
 10
7.1960473525
 20
5.4542389947
 30
0.0
 10
7.1948131301
 20
5.4482959695
 30
0.0
 10
7.1933315193
 20
5.4403399987
 30
0.0
 10
7.1920782823
 20
5.4323433226
 30
0.0
 10
7.1910130807
 20
5.4243212445
 30
0.0
 10
7.1900593997
 20
5.4162849685
 30
0.0
 10
7.1894796643
 20
5.4102424532
 30
0.0
 10
7.1891407981
 20
5.4062105087
 30
0.0
  0
SPLINE
  5
314
100
AcDbEntity
  8
0
100
AcDbSpline
 62
7
  6
CONTINUOUS
 70
0
 71
3
 72
9
 73
5
 74
0
 42
0.0000001
 43
0.0000001
 44
0.0000000001
 40
0.0
 40
0.0
 40
0.0
 40
0.0
 40
0.5001227103
 40
1.0
 40
1.0
 40
1.0
 40
1.0
 10
6.7580952683
 20
4.6188416616
 30
0.0
 10
6.7595102033
 20
4.6191926775
 30
0.0
 10
6.7623567744
 20
4.6198301695
 30
0.0
 10
6.7652728228
 20
4.6201186229
 30
0.0
 10
6.766729932
 20
4.6201195624
 30
0.0
  0
SPLINE
  5
315
100
AcDbEntity
  8
0
100
AcDbSpline
 62
7
  6
CONTINUOUS
 70
0
 71
3
 72
26
 73
22
 74
0
 42
0.0000001
 43
0.0000001
 44
0.0000000001
 40
0.0
 40
0.0
 40
0.0
 40
0.0
 40
0.1243771013
 40
0.2487671541
 40
0.3731879388
 40
0.4354222555
 40
0.4976757119
 40
0.5599547934
 40
0.6222688832
 40
0.6846322584
 40
0.7470682196
 40
0.7783319491
 40
0.8096348524
 40
0.84099071
 40
0.872421559
 40
0.9039629696
 40
0.9356727888
 40
0.9516411956
 40
0.9676940717
 40
0.983824978
 40
1.0
 40
1.0
 40
1.0
 40
1.0
 10
7.5678672762
 20
4.7076198968
 30
0.0
 10
7.5678672762
 20
4.7036689412
 30
0.0
 10
7.5677149696
 20
4.6957657084
 30
0.0
 10
7.5670181396
 20
4.6839285727
 30
0.0
 10
7.5660166502
 20
4.6740949283
 30
0.0
 10
7.564925831
 20
4.6662629429
 30
0.0
 10
7.5639473157
 20
4.6604105112
 30
0.0
 10
7.562788682
 20
4.654588269
 30
0.0
 10
7.5614218422
 20
4.6488072595
 30
0.0
 10
7.5598061293
 20
4.643085132
 30
0.0
 10
7.5582016237
 20
4.6383905139
 30
0.0
 10
7.5567128507
 20
4.6347082826
 30
0.0
 10
7.5554722222
 20
4.6319935794
 30
0.0
 10
7.5540816688
 20
4.6293458753
 30
0.0
 10
7.5525025917
 20
4.626795178
 30
0.0
 10
7.5506796002
 20
4.6243963891
 30
0.0
 10
7.548886243
 20
4.622610258
 30
0.0
 10
7.5472383216
 20
4.6214261914
 30
0.0
 10
7.5458798568
 20
4.6207097372
 30
0.0
 10
7.5444103972
 20
4.6202332823
 30
0.0
 10
7.5433810909
 20
4.6201197297
 30
0.0
 10
7.5428672762
 20
4.6201197297
 30
0.0
  0
SPLINE
  5
316
100
AcDbEntity
  8
0
100
AcDbSpline
 62
7
  6
CONTINUOUS
 70
0
 71
3
 72
20
 73
16
 74
0
 42
0.0000001
 43
0.0000001
 44
0.0000000001
 40
0.0
 40
0.0
 40
0.0
 40
0.0
 40
0.0870977928
 40
0.1735838143
 40
0.2587802615
 40
0.3420701704
 40
0.5007432107
 40
0.6452119731
 40
0.7708550503
 40
0.8252559583
 40
0.8733842836
 40
0.9148663655
 40
0.9495745421
 40
0.9776770933
 40
1.0
 40
1.0
 40
1.0
 40
1.0
 10
5.5026394645
 20
4.6188416616
 30
0.0
 10
5.503339221
 20
4.6186680896
 30
0.0
 10
5.5047607318
 20
4.6184244875
 30
0.0
 10
5.506904263
 20
4.6183247839
 30
0.0
 10
5.5090146765
 20
4.6184188187
 30
0.0
 10
5.5117092366
 20
4.6186994964
 30
0.0
 10
5.5148663495
 20
4.6192269134
 30
0.0
 10
5.5183468974
 20
4.6199201344
 30
0.0
 10
5.5209894557
 20
4.6204054829
 30
0.0
 10
5.5228578686
 20
4.6206831208
 30
0.0
 10
5.524043032
 20
4.6208155959
 30
0.0
 10
5.5250716581
 20
4.6208668363
 30
0.0
 10
5.525936189
 20
4.6208314326
 30
0.0
 10
5.5266323965
 20
4.620709051
 30
0.0
 10
5.5270241391
 20
4.6205438487
 30
0.0
 10
5.5271762426
 20
4.620438928
 30
0.0
  0
SPLINE
  5
317
100
AcDbEntity
  8
0
100
AcDbSpline
 62
7
  6
CONTINUOUS
 70
0
 71
3
 72
27
 73
23
 74
0
 42
0.0000001
 43
0.0000001
 44
0.0000000001
 40
0.0
 40
0.0
 40
0.0
 40
0.0
 40
0.0636050178
 40
0.1270759165
 40
0.1901768337
 40
0.2529274497
 40
0.3153835581
 40
0.3776455858
 40
0.439826641
 40
0.4709300218
 40
0.5020353358
 40
0.5331426487
 40
0.5642566279
 40
0.6264423024
 40
0.6886296906
 40
0.7197528265
 40
0.7508739313
 40
0.813057312
 40
0.8752472612
 40
0.9063935456
 40
0.9375637382
 40
1.0
 40
1.0
 40
1.0
 40
1.0
 10
7.4414424646
 20
12.6234851498
 30
0.0
 10
7.4414424646
 20
12.6164946795
 30
0.0
 10
7.4405272939
 20
12.6025114258
 30
0.0
 10
7.4364322319
 20
12.581955148
 30
0.0
 10
7.4296229408
 20
12.5622225515
 30
0.0
 10
7.4201557003
 20
12.5437384956
 30
0.0
 10
7.4081122724
 20
12.5269227854
 30
0.0
 10
7.3936451777
 20
12.5122206717
 30
0.0
 10
7.379759181
 20
12.5021013631
 30
0.0
 10
7.3677685337
 20
12.4955056097
 30
0.0
 10
7.3583773311
 20
12.4913512467
 30
0.0
 10
7.3486598822
 20
12.4880261563
 30
0.0
 10
7.3353689389
 20
12.4847544737
 30
0.0
 10
7.3182848293
 20
12.4828906624
 30
0.0
 10
7.3011414885
 20
12.4841042194
 30
0.0
 10
7.2877330387
 20
12.4868724327
 30
0.0
 10
7.2746234382
 20
12.4908189276
 30
0.0
 10
7.2589574885
 20
12.4978740239
 30
0.0
 10
7.2447313364
 20
12.5075005401
 30
0.0
 10
7.2344149234
 20
12.5165107033
 30
0.0
 10
7.224843154
 20
12.5263429542
 30
0.0
 10
7.2185518912
 20
12.5345501445
 30
0.0
 10
7.2147969889
 20
12.5402936636
 30
0.0
  0
SPLINE
  5
318
100
AcDbEntity
  8
0
100
AcDbSpline
 62
7
  6
CONTINUOUS
 70
0
 71
3
 72
30
 73
26
 74
0
 42
0.0000001
 43
0.0000001
 44
0.0000000001
 40
0.0
 40
0.0
 40
0.0
 40
0.0
 40
0.0624145808
 40
0.0935615481
 40
0.1246842084
 40
0.1868322234
 40
0.2489753123
 40
0.2800789927
 40
0.3111885109
 40
0.3733585
 40
0.4355392041
 40
0.4666577259
 40
0.4977689993
 40
0.5288807964
 40
0.5599937085
 40
0.6221783698
 40
0.6533331513
 40
0.6845172447
 40
0.7157447537
 40
0.7470362314
 40
0.80979531
 40
0.8729050308
 40
0.9046250589
 40
0.9364193512
 40
1.0
 40
1.0
 40
1.0
 40
1.0
 10
7.2147969889
 20
12.706676636
 30
0.0
 10
7.2185510685
 20
12.7124188967
 30
0.0
 10
7.2248398251
 20
12.7206234118
 30
0.0
 10
7.2344071168
 20
12.730451931
 30
0.0
 10
7.2447163917
 20
12.739458064
 30
0.0
 10
7.2589329544
 20
12.7490816117
 30
0.0
 10
7.2745885235
 20
12.7561380113
 30
0.0
 10
7.2876909796
 20
12.7600871952
 30
0.0
 10
7.3010949277
 20
12.7628591123
 30
0.0
 10
7.3182360155
 20
12.7640817619
 30
0.0
 10
7.3353206247
 20
12.7622214549
 30
0.0
 10
7.3486157373
 20
12.7589579658
 30
0.0
 10
7.3583370633
 20
12.7556345895
 30
0.0
 10
7.3677316428
 20
12.7514791745
 30
0.0
 10
7.3797306776
 20
12.7448924021
 30
0.0
 10
7.3908446107
 20
12.7367870845
 30
0.0
 10
7.4008480226
 20
12.7274293293
 30
0.0
 10
7.4077816385
 20
12.7198177073
 30
0.0
 10
7.4141070429
 20
12.7116760867
 30
0.0
 10
7.4217142864
 20
12.7001844398
 30
0.0
 10
7.4296230681
 20
12.6847531652
 30
0.0
 10
7.435290689
 20
12.6683235169
 30
0.0
 10
7.4384737487
 20
12.6547644033
 30
0.0
 10
7.4407539258
 20
12.6409742066
 30
0.0
 10
7.4414424646
 20
12.6304738376
 30
0.0
 10
7.4414424646
 20
12.6234851498
 30
0.0
  0
SPLINE
  5
319
100
AcDbEntity
  8
0
100
AcDbSpline
 62
7
  6
CONTINUOUS
 70
0
 71
3
 72
26
 73
22
 74
0
 42
0.0000001
 43
0.0000001
 44
0.0000000001
 40
0.0
 40
0.0
 40
0.0
 40
0.0
 40
0.009798132
 40
0.0156011669
 40
0.0175559073
 40
0.0193338953
 40
0.0246865618
 40
0.0334888454
 40
0.0456162188
 40
0.0609488354
 40
0.0793719893
 40
0.1007574688
 40
0.1249466666
 40
0.1517770716
 40
0.2127091788
 40
0.2822580667
 40
0.3591384022
 40
0.4420834805
 40
0.621209104
 40
0.8101653041
 40
1.0
 40
1.0
 40
1.0
 40
1.0
 10
7.2195108705
 20
12.5254487598
 30
0.0
 10
7.2194939832
 20
12.5254400674
 30
0.0
 10
7.219463361
 20
12.5254251366
 30
0.0
 10
7.2194414412
 20
12.5254138961
 30
0.0
 10
7.2194133925
 20
12.5254026474
 30
0.0
 10
7.219437711
 20
12.5254160389
 30
0.0
 10
7.2194592063
 20
12.5254249918
 30
0.0
 10
7.2195097342
 20
12.5254472746
 30
0.0
 10
7.2195734829
 20
12.5254722329
 30
0.0
 10
7.2196575546
 20
12.5255033597
 30
0.0
 10
7.219758546
 20
12.5255376495
 30
0.0
 10
7.2198769816
 20
12.5255748705
 30
0.0
 10
7.2200116386
 20
12.525614381
 30
0.0
 10
7.2202208853
 20
12.525671982
 30
0.0
 10
7.2205167629
 20
12.5257459371
 30
0.0
 10
7.2209093007
 20
12.5258326641
 30
0.0
 10
7.2213459713
 20
12.5259167379
 30
0.0
 10
7.2219944881
 20
12.5260225733
 30
0.0
 10
7.2228635789
 20
12.5261241735
 30
0.0
 10
7.2239453622
 20
12.5261678361
 30
0.0
 10
7.2246797815
 20
12.5261383837
 30
0.0
 10
7.2250468465
 20
12.5261124138
 30
0.0
  0
SPLINE
  5
31A
100
AcDbEntity
  8
0
100
AcDbSpline
 62
7
  6
CONTINUOUS
 70
0
 71
3
 72
11
 73
7
 74
0
 42
0.0000001
 43
0.0000001
 44
0.0000000001
 40
0.0
 40
0.0
 40
0.0
 40
0.0
 40
0.2188049344
 40
0.4775587304
 40
0.7475120455
 40
1.0
 40
1.0
 40
1.0
 40
1.0
 10
7.2274928117
 20
12.7212186773
 30
0.0
 10
7.2270641394
 20
12.7211182424
 30
0.0
 10
7.2261183731
 20
12.7209418696
 30
0.0
 10
7.224618417
 20
12.7207940087
 30
0.0
 10
7.2230436378
 20
12.7208335412
 30
0.0
 10
7.2219979085
 20
12.7209526971
 30
0.0
 10
7.2214960561
 20
12.7210318615
 30
0.0
  0
SPLINE
  5
31B
100
AcDbEntity
  8
0
100
AcDbSpline
 62
7
  6
CONTINUOUS
 70
0
 71
3
 72
12
 73
8
 74
0
 42
0.0000001
 43
0.0000001
 44
0.0000000001
 40
0.0
 40
0.0
 40
0.0
 40
0.0
 40
0.1277463217
 40
0.2553291778
 40
0.6333937865
 40
0.8186008505
 40
1.0
 40
1.0
 40
1.0
 40
1.0
 10
6.9766758706
 20
12.6234851498
 30
0.0
 10
6.9766758706
 20
12.6186903169
 30
0.0
 10
6.9768985843
 20
12.6091046567
 30
0.0
 10
6.9785478083
 20
12.5853850028
 30
0.0
 10
6.982741004
 20
12.5596840634
 30
0.0
 10
6.9902534173
 20
12.5327431959
 30
0.0
 10
6.9949440028
 20
12.5197887248
 30
0.0
 10
6.9975174266
 20
12.5134851498
 30
0.0
  0
SPLINE
  5
31C
100
AcDbEntity
  8
0
100
AcDbSpline
 62
7
  6
CONTINUOUS
 70
0
 71
3
 72
11
 73
7
 74
0
 42
0.0000001
 43
0.0000001
 44
0.0000000001
 40
0.0
 40
0.0
 40
0.0
 40
0.0
 40
0.2427372986
 40
0.6176425105
 40
0.8084238241
 40
1.0
 40
1.0
 40
1.0
 40
1.0
 10
6.9975174266
 20
12.7334851498
 30
0.0
 10
6.9940741072
 20
12.7250507743
 30
0.0
 10
6.9864612208
 20
12.7031110925
 30
0.0
 10
6.9801310012
 20
12.6733141694
 30
0.0
 10
6.9771751448
 20
12.6450313821
 30
0.0
 10
6.9766758706
 20
12.6306751899
 30
0.0
 10
6.9766758706
 20
12.6234851498
 30
0.0
  0
SPLINE
  5
31D
100
AcDbEntity
  8
0
100
AcDbSpline
 62
7
  6
CONTINUOUS
 70
0
 71
3
 72
16
 73
12
 74
0
 42
0.0000001
 43
0.0000001
 44
0.0000000001
 40
0.0
 40
0.0
 40
0.0
 40
0.0
 40
0.1423500988
 40
0.279289786
 40
0.4106308953
 40
0.4742768383
 40
0.5366052011
 40
0.6574950758
 40
0.7742055621
 40
0.8879505911
 40
1.0
 40
1.0
 40
1.0
 40
1.0
 10
7.2599760936
 20
12.7490464895
 30
0.0
 10
7.2564738175
 20
12.75617085
 30
0.0
 10
7.2489018132
 20
12.7698209619
 30
0.0
 10
7.2356483478
 20
12.7885521836
 30
0.0
 10
7.2232145774
 20
12.8023364643
 30
0.0
 10
7.2126010515
 20
12.8120089296
 30
0.0
 10
7.2018212602
 20
12.8205861041
 30
0.0
 10
7.187668015
 20
12.8296185479
 30
0.0
 10
7.1696734376
 20
12.8375743283
 30
0.0
 10
7.1511053912
 20
12.8423982079
 30
0.0
 10
7.1384882029
 20
12.8434851498
 30
0.0
 10
7.1322393624
 20
12.8434851498
 30
0.0
  0
SPLINE
  5
31E
100
AcDbEntity
  8
0
100
AcDbSpline
 62
7
  6
CONTINUOUS
 70
0
 71
3
 72
17
 73
13
 74
0
 42
0.0000001
 43
0.0000001
 44
0.0000000001
 40
0.0
 40
0.0
 40
0.0
 40
0.0
 40
0.0551918861
 40
0.1106847669
 40
0.1666613533
 40
0.2233003148
 40
0.3392254215
 40
0.4599109181
 40
0.5861655067
 40
0.7183581784
 40
0.8565145575
 40
1.0
 40
1.0
 40
1.0
 40
1.0
 10
7.1322393624
 20
12.8434851498
 30
0.0
 10
7.1288475634
 20
12.8434851498
 30
0.0
 10
7.1220413234
 20
12.8431675934
 30
0.0
 10
7.1118842951
 20
12.8417495456
 30
0.0
 10
7.1018098443
 20
12.8393957933
 30
0.0
 10
7.0884588304
 20
12.8349852852
 30
0.0
 10
7.0721507429
 20
12.8270973097
 30
0.0
 10
7.0538360641
 20
12.81422461
 30
0.0
 10
7.0368944822
 20
12.7981162751
 30
0.0
 10
7.0216089813
 20
12.7790448094
 30
0.0
 10
7.0082333102
 20
12.7573478814
 30
0.0
 10
7.0008502607
 20
12.7416488928
 30
0.0
 10
6.9975174266
 20
12.7334851498
 30
0.0
  0
SPLINE
  5
31F
100
AcDbEntity
  8
0
100
AcDbSpline
 62
7
  6
CONTINUOUS
 70
0
 71
3
 72
17
 73
13
 74
0
 42
0.0000001
 43
0.0000001
 44
0.0000000001
 40
0.0
 40
0.0
 40
0.0
 40
0.0
 40
0.1434854425
 40
0.2816418216
 40
0.4138344933
 40
0.5400890819
 40
0.6607745785
 40
0.7766996852
 40
0.8333386467
 40
0.8893152331
 40
0.9448081139
 40
1.0
 40
1.0
 40
1.0
 40
1.0
 10
6.9975174266
 20
12.5134851498
 30
0.0
 10
7.0008502607
 20
12.5053214068
 30
0.0
 10
7.0082333102
 20
12.4896224182
 30
0.0
 10
7.0216089813
 20
12.4679254902
 30
0.0
 10
7.0368944822
 20
12.4488540245
 30
0.0
 10
7.0538360641
 20
12.4327456896
 30
0.0
 10
7.0721507429
 20
12.4198729899
 30
0.0
 10
7.0884588304
 20
12.4119850144
 30
0.0
 10
7.1018098443
 20
12.4075745063
 30
0.0
 10
7.1118842951
 20
12.405220754
 30
0.0
 10
7.1220413234
 20
12.4038027062
 30
0.0
 10
7.1288475634
 20
12.4034851498
 30
0.0
 10
7.1322393624
 20
12.4034851498
 30
0.0
  0
SPLINE
  5
320
100
AcDbEntity
  8
0
100
AcDbSpline
 62
7
  6
CONTINUOUS
 70
0
 71
3
 72
16
 73
12
 74
0
 42
0.0000001
 43
0.0000001
 44
0.0000000001
 40
0.0
 40
0.0
 40
0.0
 40
0.0
 40
0.1120490508
 40
0.2257937773
 40
0.3425040674
 40
0.4633938849
 40
0.5257222717
 40
0.5893682715
 40
0.7207095845
 40
0.8576495774
 40
1.0
 40
1.0
 40
1.0
 40
1.0
 10
7.1322393624
 20
12.4034851498
 30
0.0
 10
7.1384883332
 20
12.4034851498
 30
0.0
 10
7.1511057891
 20
12.4045721375
 30
0.0
 10
7.1696742134
 20
12.4093962197
 30
0.0
 10
7.1876691321
 20
12.4173523285
 30
0.0
 10
7.2018226112
 20
12.4263851362
 30
0.0
 10
7.2126025589
 20
12.4349626486
 30
0.0
 10
7.2232162261
 20
12.4446354955
 30
0.0
 10
7.2356501216
 20
12.458420309
 30
0.0
 10
7.2489036438
 20
12.4771522246
 30
0.0
 10
7.2564756237
 20
12.4908028203
 30
0.0
 10
7.2599778718
 20
12.4979274275
 30
0.0
  0
SPLINE
  5
321
100
AcDbEntity
  8
0
100
AcDbSpline
 62
7
  6
CONTINUOUS
 70
0
 71
3
 72
30
 73
26
 74
0
 42
0.0000001
 43
0.0000001
 44
0.0000000001
 40
0.0
 40
0.0
 40
0.0
 40
0.0
 40
0.0624145808
 40
0.0935615481
 40
0.1246842084
 40
0.1868322234
 40
0.2489753123
 40
0.2800789927
 40
0.3111885109
 40
0.3733585
 40
0.4355392041
 40
0.4666577259
 40
0.4977689993
 40
0.5288807964
 40
0.5599937085
 40
0.6221783698
 40
0.6533331513
 40
0.6845172447
 40
0.7157447537
 40
0.7470362314
 40
0.80979531
 40
0.8729050308
 40
0.9046250589
 40
0.9364193512
 40
1.0
 40
1.0
 40
1.0
 40
1.0
 10
15.5006011392
 20
6.5795496095
 30
0.0
 10
15.4948588785
 20
6.5833036891
 30
0.0
 10
15.4866543633
 20
6.5895924457
 30
0.0
 10
15.4768258441
 20
6.5991597373
 30
0.0
 10
15.4678197112
 20
6.6094690123
 30
0.0
 10
15.4581961635
 20
6.623685575
 30
0.0
 10
15.4511397638
 20
6.6393411441
 30
0.0
 10
15.4471905799
 20
6.6524436002
 30
0.0
 10
15.4444186629
 20
6.6658475483
 30
0.0
 10
15.4431960133
 20
6.6829886361
 30
0.0
 10
15.4450563203
 20
6.7000732453
 30
0.0
 10
15.4483198094
 20
6.7133683579
 30
0.0
 10
15.4516431857
 20
6.7230896838
 30
0.0
 10
15.4557986007
 20
6.7324842634
 30
0.0
 10
15.462385373
 20
6.7444832982
 30
0.0
 10
15.4704906907
 20
6.7555972313
 30
0.0
 10
15.4798484458
 20
6.7656006431
 30
0.0
 10
15.4874600679
 20
6.7725342591
 30
0.0
 10
15.4956016885
 20
6.7788596635
 30
0.0
 10
15.5070933354
 20
6.786466907
 30
0.0
 10
15.52252461
 20
6.7943756886
 30
0.0
 10
15.5389542583
 20
6.8000433096
 30
0.0
 10
15.5525133719
 20
6.8032263693
 30
0.0
 10
15.5663035686
 20
6.8055065464
 30
0.0
 10
15.5768039376
 20
6.8061950852
 30
0.0
 10
15.5837926254
 20
6.8061950852
 30
0.0
  0
SPLINE
  5
322
100
AcDbEntity
  8
0
100
AcDbSpline
 62
7
  6
CONTINUOUS
 70
0
 71
3
 72
27
 73
23
 74
0
 42
0.0000001
 43
0.0000001
 44
0.0000000001
 40
0.0
 40
0.0
 40
0.0
 40
0.0
 40
0.0636050178
 40
0.1270759165
 40
0.1901768337
 40
0.2529274497
 40
0.3153835581
 40
0.3776455858
 40
0.439826641
 40
0.4709300218
 40
0.5020353358
 40
0.5331426487
 40
0.5642566279
 40
0.6264423024
 40
0.6886296906
 40
0.7197528265
 40
0.7508739313
 40
0.813057312
 40
0.8752472612
 40
0.9063935456
 40
0.9375637382
 40
1.0
 40
1.0
 40
1.0
 40
1.0
 10
15.5837926254
 20
6.8061950852
 30
0.0
 10
15.5907830957
 20
6.8061950852
 30
0.0
 10
15.6047663494
 20
6.8052799144
 30
0.0
 10
15.6253226271
 20
6.8011848525
 30
0.0
 10
15.6450552237
 20
6.7943755614
 30
0.0
 10
15.6635392796
 20
6.7849083209
 30
0.0
 10
15.6803549898
 20
6.772864893
 30
0.0
 10
15.6950571034
 20
6.7583977982
 30
0.0
 10
15.7051764121
 20
6.7445118016
 30
0.0
 10
15.7117721654
 20
6.7325211543
 30
0.0
 10
15.7159265284
 20
6.7231299517
 30
0.0
 10
15.7192516189
 20
6.7134125028
 30
0.0
 10
15.7225233015
 20
6.7001215595
 30
0.0
 10
15.7243871128
 20
6.6830374499
 30
0.0
 10
15.7231735558
 20
6.6658941091
 30
0.0
 10
15.7204053425
 20
6.6524856592
 30
0.0
 10
15.7164588476
 20
6.6393760588
 30
0.0
 10
15.7094037512
 20
6.6237101091
 30
0.0
 10
15.6997772351
 20
6.609483957
 30
0.0
 10
15.6907670719
 20
6.599167544
 30
0.0
 10
15.680934821
 20
6.5895957745
 30
0.0
 10
15.6727276307
 20
6.5833045118
 30
0.0
 10
15.6669841116
 20
6.5795496095
 30
0.0
  0
SPLINE
  5
323
100
AcDbEntity
  8
0
100
AcDbSpline
 62
7
  6
CONTINUOUS
 70
0
 71
3
 72
11
 73
7
 74
0
 42
0.0000001
 43
0.0000001
 44
0.0000000001
 40
0.0
 40
0.0
 40
0.0
 40
0.0
 40
0.2188049344
 40
0.4775587304
 40
0.7475120455
 40
1.0
 40
1.0
 40
1.0
 40
1.0
 10
15.4860590979
 20
6.5922454323
 30
0.0
 10
15.4861595328
 20
6.59181676
 30
0.0
 10
15.4863359056
 20
6.5908709937
 30
0.0
 10
15.4864837665
 20
6.5893710375
 30
0.0
 10
15.486444234
 20
6.5877962584
 30
0.0
 10
15.486325078
 20
6.5867505291
 30
0.0
 10
15.4862459137
 20
6.5862486767
 30
0.0
  0
SPLINE
  5
324
100
AcDbEntity
  8
0
100
AcDbSpline
 62
7
  6
CONTINUOUS
 70
0
 71
3
 72
26
 73
22
 74
0
 42
0.0000001
 43
0.0000001
 44
0.0000000001
 40
0.0
 40
0.0
 40
0.0
 40
0.0
 40
0.009798132
 40
0.0156011669
 40
0.0175559073
 40
0.0193338953
 40
0.0246865618
 40
0.0334888454
 40
0.0456162188
 40
0.0609488354
 40
0.0793719893
 40
0.1007574688
 40
0.1249466666
 40
0.1517770716
 40
0.2127091788
 40
0.2822580667
 40
0.3591384022
 40
0.4420834805
 40
0.621209104
 40
0.8101653041
 40
1.0
 40
1.0
 40
1.0
 40
1.0
 10
15.6818290154
 20
6.5842634911
 30
0.0
 10
15.6818377077
 20
6.5842466038
 30
0.0
 10
15.6818526385
 20
6.5842159816
 30
0.0
 10
15.6818638791
 20
6.5841940617
 30
0.0
 10
15.6818751278
 20
6.5841660131
 30
0.0
 10
15.6818617363
 20
6.5841903316
 30
0.0
 10
15.6818527834
 20
6.5842118269
 30
0.0
 10
15.6818305005
 20
6.5842623548
 30
0.0
 10
15.6818055423
 20
6.5843261035
 30
0.0
 10
15.6817744155
 20
6.5844101752
 30
0.0
 10
15.6817401257
 20
6.5845111666
 30
0.0
 10
15.6817029047
 20
6.5846296022
 30
0.0
 10
15.6816633942
 20
6.5847642592
 30
0.0
 10
15.6816057932
 20
6.5849735059
 30
0.0
 10
15.681531838
 20
6.5852693835
 30
0.0
 10
15.681445111
 20
6.5856619213
 30
0.0
 10
15.6813610373
 20
6.5860985919
 30
0.0
 10
15.6812552019
 20
6.5867471087
 30
0.0
 10
15.6811536017
 20
6.5876161995
 30
0.0
 10
15.681109939
 20
6.5886979828
 30
0.0
 10
15.6811393915
 20
6.5894324021
 30
0.0
 10
15.6811653614
 20
6.589799467
 30
0.0
  0
SPLINE
  5
325
100
AcDbEntity
  8
0
100
AcDbSpline
 62
7
  6
CONTINUOUS
 70
0
 71
3
 72
16
 73
12
 74
0
 42
0.0000001
 43
0.0000001
 44
0.0000000001
 40
0.0
 40
0.0
 40
0.0
 40
0.0
 40
0.1423500988
 40
0.279289786
 40
0.4106308953
 40
0.4742768383
 40
0.5366052011
 40
0.6574950758
 40
0.7742055621
 40
0.8879505911
 40
1.0
 40
1.0
 40
1.0
 40
1.0
 10
15.4582312857
 20
6.6247287141
 30
0.0
 10
15.4511069252
 20
6.6212264381
 30
0.0
 10
15.4374568133
 20
6.6136544338
 30
0.0
 10
15.4187255916
 20
6.6004009684
 30
0.0
 10
15.4049413109
 20
6.5879671979
 30
0.0
 10
15.3952688456
 20
6.577353672
 30
0.0
 10
15.3866916711
 20
6.5665738808
 30
0.0
 10
15.3776592273
 20
6.5524206355
 30
0.0
 10
15.3697034469
 20
6.5344260582
 30
0.0
 10
15.3648795673
 20
6.5158580118
 30
0.0
 10
15.3637926254
 20
6.5032408235
 30
0.0
 10
15.3637926254
 20
6.496991983
 30
0.0
  0
SPLINE
  5
326
100
AcDbEntity
  8
0
100
AcDbSpline
 62
7
  6
CONTINUOUS
 70
0
 71
3
 72
17
 73
13
 74
0
 42
0.0000001
 43
0.0000001
 44
0.0000000001
 40
0.0
 40
0.0
 40
0.0
 40
0.0
 40
0.0551918861
 40
0.1106847669
 40
0.1666613533
 40
0.2233003148
 40
0.3392254215
 40
0.4599109181
 40
0.5861655067
 40
0.7183581784
 40
0.8565145575
 40
1.0
 40
1.0
 40
1.0
 40
1.0
 10
15.3637926254
 20
6.496991983
 30
0.0
 10
15.3637926254
 20
6.4936001839
 30
0.0
 10
15.3641101818
 20
6.486793944
 30
0.0
 10
15.3655282296
 20
6.4766369156
 30
0.0
 10
15.3678819819
 20
6.4665624649
 30
0.0
 10
15.37229249
 20
6.453211451
 30
0.0
 10
15.3801804655
 20
6.4369033635
 30
0.0
 10
15.3930531651
 20
6.4185886847
 30
0.0
 10
15.4091615001
 20
6.4016471028
 30
0.0
 10
15.4282329658
 20
6.3863616019
 30
0.0
 10
15.4499298937
 20
6.3729859308
 30
0.0
 10
15.4656288823
 20
6.3656028813
 30
0.0
 10
15.4737926254
 20
6.3622700472
 30
0.0
  0
SPLINE
  5
327
100
AcDbEntity
  8
0
100
AcDbSpline
 62
7
  6
CONTINUOUS
 70
0
 71
3
 72
12
 73
8
 74
0
 42
0.0000001
 43
0.0000001
 44
0.0000000001
 40
0.0
 40
0.0
 40
0.0
 40
0.0
 40
0.1277463217
 40
0.2553291778
 40
0.6333937865
 40
0.8186008505
 40
1.0
 40
1.0
 40
1.0
 40
1.0
 10
15.5837926254
 20
6.3414284911
 30
0.0
 10
15.5885874583
 20
6.3414284911
 30
0.0
 10
15.5981731185
 20
6.3416512049
 30
0.0
 10
15.6218927723
 20
6.3433004289
 30
0.0
 10
15.6475937118
 20
6.3474936246
 30
0.0
 10
15.6745345793
 20
6.3550060379
 30
0.0
 10
15.6874890503
 20
6.3596966234
 30
0.0
 10
15.6937926254
 20
6.3622700472
 30
0.0
  0
SPLINE
  5
328
100
AcDbEntity
  8
0
100
AcDbSpline
 62
7
  6
CONTINUOUS
 70
0
 71
3
 72
11
 73
7
 74
0
 42
0.0000001
 43
0.0000001
 44
0.0000000001
 40
0.0
 40
0.0
 40
0.0
 40
0.0
 40
0.2427372986
 40
0.6176425105
 40
0.8084238241
 40
1.0
 40
1.0
 40
1.0
 40
1.0
 10
15.4737926254
 20
6.3622700472
 30
0.0
 10
15.4822270009
 20
6.3588267278
 30
0.0
 10
15.5041666827
 20
6.3512138414
 30
0.0
 10
15.5339636058
 20
6.3448836217
 30
0.0
 10
15.5622463931
 20
6.3419277654
 30
0.0
 10
15.5766025853
 20
6.3414284911
 30
0.0
 10
15.5837926254
 20
6.3414284911
 30
0.0
  0
SPLINE
  5
329
100
AcDbEntity
  8
0
100
AcDbSpline
 62
7
  6
CONTINUOUS
 70
0
 71
3
 72
17
 73
13
 74
0
 42
0.0000001
 43
0.0000001
 44
0.0000000001
 40
0.0
 40
0.0
 40
0.0
 40
0.0
 40
0.1434854425
 40
0.2816418216
 40
0.4138344933
 40
0.5400890819
 40
0.6607745785
 40
0.7766996852
 40
0.8333386467
 40
0.8893152331
 40
0.9448081139
 40
1.0
 40
1.0
 40
1.0
 40
1.0
 10
15.6937926254
 20
6.3622700472
 30
0.0
 10
15.7019563684
 20
6.3656028813
 30
0.0
 10
15.717655357
 20
6.3729859308
 30
0.0
 10
15.7393522849
 20
6.3863616019
 30
0.0
 10
15.7584237507
 20
6.4016471028
 30
0.0
 10
15.7745320856
 20
6.4185886847
 30
0.0
 10
15.7874047853
 20
6.4369033635
 30
0.0
 10
15.7952927607
 20
6.453211451
 30
0.0
 10
15.7997032689
 20
6.4665624649
 30
0.0
 10
15.8020570212
 20
6.4766369156
 30
0.0
 10
15.8034750689
 20
6.486793944
 30
0.0
 10
15.8037926254
 20
6.4936001839
 30
0.0
 10
15.8037926254
 20
6.496991983
 30
0.0
  0
SPLINE
  5
32A
100
AcDbEntity
  8
0
100
AcDbSpline
 62
7
  6
CONTINUOUS
 70
0
 71
3
 72
16
 73
12
 74
0
 42
0.0000001
 43
0.0000001
 44
0.0000000001
 40
0.0
 40
0.0
 40
0.0
 40
0.0
 40
0.1120490508
 40
0.2257937773
 40
0.3425040674
 40
0.4633938849
 40
0.5257222717
 40
0.5893682715
 40
0.7207095845
 40
0.8576495774
 40
1.0
 40
1.0
 40
1.0
 40
1.0
 10
15.8037926254
 20
6.496991983
 30
0.0
 10
15.8037926254
 20
6.5032409538
 30
0.0
 10
15.8027056377
 20
6.5158584097
 30
0.0
 10
15.7978815555
 20
6.534426834
 30
0.0
 10
15.7899254467
 20
6.5524217527
 30
0.0
 10
15.780892639
 20
6.5665752318
 30
0.0
 10
15.7723151266
 20
6.5773551795
 30
0.0
 10
15.7626422797
 20
6.5879688467
 30
0.0
 10
15.7488574662
 20
6.6004027422
 30
0.0
 10
15.7301255505
 20
6.6136562644
 30
0.0
 10
15.7164749548
 20
6.6212282443
 30
0.0
 10
15.7093503477
 20
6.6247304924
 30
0.0
  0
SPLINE
  5
32B
100
AcDbEntity
  8
0
100
AcDbSpline
 62
7
  6
CONTINUOUS
 70
0
 71
3
 72
15
 73
11
 74
0
 42
0.0000001
 43
0.0000001
 44
0.0000000001
 40
0.0
 40
0.0
 40
0.0
 40
0.0
 40
0.116436087
 40
0.2337720225
 40
0.3528751051
 40
0.4745639416
 40
0.5995780971
 40
0.7285553171
 40
0.8619327397
 40
1.0
 40
1.0
 40
1.0
 40
1.0
 10
15.5436823077
 20
11.7657572231
 30
0.0
 10
15.5454262356
 20
11.7714025311
 30
0.0
 10
15.5483150318
 20
11.7829362213
 30
0.0
 10
15.5507838203
 20
11.8007042641
 30
0.0
 10
15.5513831063
 20
11.8189003992
 30
0.0
 10
15.5501134951
 20
11.8374498606
 30
0.0
 10
15.5469851918
 20
11.8562835743
 30
0.0
 10
15.5420064037
 20
11.8753260895
 30
0.0
 10
15.5352103071
 20
11.8944983606
 30
0.0
 10
15.5295894576
 20
11.9070910487
 30
0.0
 10
15.5265029245
 20
11.913380742
 30
0.0
  0
SPLINE
  5
32C
100
AcDbEntity
  8
0
100
AcDbSpline
 62
7
  6
CONTINUOUS
 70
0
 71
3
 72
23
 73
19
 74
0
 42
0.0000001
 43
0.0000001
 44
0.0000000001
 40
0.0
 40
0.0
 40
0.0
 40
0.0
 40
0.0528566722
 40
0.1062740846
 40
0.1607460053
 40
0.2167036138
 40
0.2744895435
 40
0.3343242847
 40
0.396289857
 40
0.4603172608
 40
0.5262019535
 40
0.5936118715
 40
0.6621044333
 40
0.7311267915
 40
0.800070079
 40
0.8683183148
 40
0.9352192838
 40
1.0
 40
1.0
 40
1.0
 40
1.0
 10
14.9880550656
 20
12.4693118651
 30
0.0
 10
14.98905474
 20
12.4664398533
 30
0.0
 10
14.9905737721
 20
12.46048147
 30
0.0
 10
14.9913229815
 20
12.4512220712
 30
0.0
 10
14.9905186135
 20
12.4417878573
 30
0.0
 10
14.9881852044
 20
12.4323561245
 30
0.0
 10
14.9843523311
 20
12.423096896
 30
0.0
 10
14.9791094062
 20
12.4141583115
 30
0.0
 10
14.9725448066
 20
12.4056856191
 30
0.0
 10
14.9647936991
 20
12.3977922541
 30
0.0
 10
14.9559892249
 20
12.3905927857
 30
0.0
 10
14.9462974543
 20
12.3841684012
 30
0.0
 10
14.9358848997
 20
12.3786030589
 30
0.0
 10
14.9249379769
 20
12.3739532349
 30
0.0
 10
14.9136420162
 20
12.3702778729
 30
0.0
 10
14.9021906254
 20
12.3676141526
 30
0.0
 10
14.8907875636
 20
12.3659991746
 30
0.0
 10
14.8832076284
 20
12.365619212
 30
0.0
 10
14.8794805789
 20
12.365619212
 30
0.0
  0
SPLINE
  5
32D
100
AcDbEntity
  8
0
100
AcDbSpline
 62
7
  6
CONTINUOUS
 70
0
 71
3
 72
13
 73
9
 74
0
 42
0.0000001
 43
0.0000001
 44
0.0000000001
 40
0.0
 40
0.0
 40
0.0
 40
0.0
 40
0.1243780329
 40
0.2535900064
 40
0.5161319874
 40
0.6455046116
 40
0.7704143176
 40
1.0
 40
1.0
 40
1.0
 40
1.0
 10
14.9376410351
 20
11.0565348615
 30
0.0
 10
14.9391811527
 20
11.0565348615
 30
0.0
 10
14.9423262214
 20
11.0568045989
 30
0.0
 10
14.9485558516
 20
11.0583030992
 30
0.0
 10
14.9544572352
 20
11.0611599164
 30
0.0
 10
14.9595158595
 20
11.0651141183
 30
0.0
 10
14.963638366
 20
11.0694757603
 30
0.0
 10
14.965879872
 20
11.0734019095
 30
0.0
 10
14.966719218
 20
11.0761180342
 30
0.0
  0
SPLINE
  5
32E
100
AcDbEntity
  8
0
100
AcDbSpline
 62
7
  6
CONTINUOUS
 70
0
 71
3
 72
9
 73
5
 74
0
 42
0.0000001
 43
0.0000001
 44
0.0000000001
 40
0.0
 40
0.0
 40
0.0
 40
0.0
 40
0.4870833878
 40
1.0
 40
1.0
 40
1.0
 40
1.0
 10
15.7040572614
 20
11.9377822357
 30
0.0
 10
15.7033110424
 20
11.9377823867
 30
0.0
 10
15.7017747319
 20
11.9379607105
 30
0.0
 10
15.7003154489
 20
11.9384631903
 30
0.0
 10
15.6995981404
 20
11.9387840389
 30
0.0
  0
SPLINE
  5
32F
100
AcDbEntity
  8
0
100
AcDbSpline
 62
7
  6
CONTINUOUS
 70
0
 71
3
 72
10
 73
6
 74
0
 42
0.0000001
 43
0.0000001
 44
0.0000000001
 40
0.0
 40
0.0
 40
0.0
 40
0.0
 40
0.453789228
 40
0.7143014925
 40
1.0
 40
1.0
 40
1.0
 40
1.0
 10
15.6995981404
 20
11.9387840389
 30
0.0
 10
15.6981617365
 20
11.9394265354
 30
0.0
 10
15.6960769588
 20
11.9408388041
 30
0.0
 10
15.693556452
 20
11.9432198486
 30
0.0
 10
15.6923044279
 20
11.9446461474
 30
0.0
 10
15.691679079
 20
11.9454145153
 30
0.0
  0
SPLINE
  5
330
100
AcDbEntity
  8
0
100
AcDbSpline
 62
7
  6
CONTINUOUS
 70
0
 71
3
 72
10
 73
6
 74
0
 42
0.0000001
 43
0.0000001
 44
0.0000000001
 40
0.0
 40
0.0
 40
0.0
 40
0.0
 40
0.2224637973
 40
0.4635936703
 40
1.0
 40
1.0
 40
1.0
 40
1.0
 10
15.691679079
 20
11.9454145153
 30
0.0
 10
15.6910029329
 20
11.9462452978
 30
0.0
 10
15.6896631897
 20
11.9480336118
 30
0.0
 10
15.6870290462
 20
11.952066701
 30
0.0
 10
15.6852484047
 20
11.9553690298
 30
0.0
 10
15.6841105812
 20
11.9576876703
 30
0.0
  0
SPLINE
  5
331
100
AcDbEntity
  8
0
100
AcDbSpline
 62
7
  6
CONTINUOUS
 70
0
 71
3
 72
15
 73
11
 74
0
 42
0.0000001
 43
0.0000001
 44
0.0000000001
 40
0.0
 40
0.0
 40
0.0
 40
0.0
 40
0.1348441411
 40
0.2660029031
 40
0.3938201724
 40
0.5187224279
 40
0.6411772986
 40
0.7617532247
 40
0.8811174645
 40
1.0
 40
1.0
 40
1.0
 40
1.0
 10
14.4694880201
 20
11.923664268
 30
0.0
 10
14.4652635076
 20
11.9322729194
 30
0.0
 10
14.4575483232
 20
11.9495685907
 30
0.0
 10
14.448199101
 20
11.9760005189
 30
0.0
 10
14.4413161236
 20
12.0024548698
 30
0.0
 10
14.4369716377
 20
12.028818452
 30
0.0
 10
14.4352084911
 20
12.0549666294
 30
0.0
 10
14.4360828751
 20
12.0807696927
 30
0.0
 10
14.4396149904
 20
12.1060872505
 30
0.0
 10
14.4437433961
 20
12.1225592799
 30
0.0
 10
14.4462394882
 20
12.1306366368
 30
0.0
  0
SPLINE
  5
332
100
AcDbEntity
  8
0
100
AcDbSpline
 62
7
  6
CONTINUOUS
 70
0
 71
3
 72
15
 73
11
 74
0
 42
0.0000001
 43
0.0000001
 44
0.0000000001
 40
0.0
 40
0.0
 40
0.0
 40
0.0
 40
0.155605858
 40
0.3031795911
 40
0.4411974648
 40
0.5691486156
 40
0.6874059501
 40
0.797128281
 40
0.9003552467
 40
1.0
 40
1.0
 40
1.0
 40
1.0
 10
15.0335342003
 20
11.2741229378
 30
0.0
 10
15.0325286349
 20
11.2741229378
 30
0.0
 10
15.0305679702
 20
11.2740352084
 30
0.0
 10
15.0277410561
 20
11.2736274634
 30
0.0
 10
15.0251494504
 20
11.2729487732
 30
0.0
 10
15.0228420188
 20
11.2720101077
 30
0.0
 10
15.0208580036
 20
11.2708260064
 30
0.0
 10
15.0192346785
 20
11.2694108552
 30
0.0
 10
15.0180036682
 20
11.267789961
 30
0.0
 10
15.0174649813
 20
11.2665790565
 30
0.0
 10
15.0172748489
 20
11.2659638363
 30
0.0
  0
SPLINE
  5
333
100
AcDbEntity
  8
0
100
AcDbSpline
 62
7
  6
CONTINUOUS
 70
0
 71
3
 72
11
 73
7
 74
0
 42
0.0000001
 43
0.0000001
 44
0.0000000001
 40
0.0
 40
0.0
 40
0.0
 40
0.0
 40
0.2516287111
 40
0.5020021159
 40
0.7513302754
 40
1.0
 40
1.0
 40
1.0
 40
1.0
 10
15.9080526445
 20
13.2557392153
 30
0.0
 10
15.9037727501
 20
13.2636943689
 30
0.0
 10
15.8966622328
 20
13.2803863279
 30
0.0
 10
15.8909262086
 20
13.3069101208
 30
0.0
 10
15.8905219607
 20
13.3339503872
 30
0.0
 10
15.8939724352
 20
13.3516527612
 30
0.0
 10
15.896608154
 20
13.3601819503
 30
0.0
  0
SPLINE
  5
334
100
AcDbEntity
  8
0
100
AcDbSpline
 62
7
  6
CONTINUOUS
 70
0
 71
3
 72
20
 73
16
 74
0
 42
0.0000001
 43
0.0000001
 44
0.0000000001
 40
0.0
 40
0.0
 40
0.0
 40
0.0
 40
0.1244940462
 40
0.2489186849
 40
0.3112290745
 40
0.3735514783
 40
0.4358824122
 40
0.4982370311
 40
0.5606287486
 40
0.6230707235
 40
0.6855920027
 40
0.7481990798
 40
0.8109471998
 40
0.8738795527
 40
1.0
 40
1.0
 40
1.0
 40
1.0
 10
16.1552824707
 20
13.263082961
 30
0.0
 10
16.1525223424
 20
13.2541511825
 30
0.0
 10
16.144963948
 20
13.2368513645
 30
0.0
 10
16.1308159938
 20
13.2179734996
 30
0.0
 10
16.1171473548
 20
13.2051559785
 30
0.0
 10
16.1058386097
 20
13.1967813101
 30
0.0
 10
16.0936387143
 20
13.1897647847
 30
0.0
 10
16.0807112256
 20
13.1841897776
 30
0.0
 10
16.0672317172
 20
13.1801009873
 30
0.0
 10
16.0533687049
 20
13.177540873
 30
0.0
 10
16.0392948974
 20
13.1764969486
 30
0.0
 10
16.0251686894
 20
13.1769652143
 30
0.0
 10
16.0111365597
 20
13.178907177
 30
0.0
 10
15.9927463227
 20
13.183399339
 30
0.0
 10
15.9794998992
 20
13.1888280907
 30
0.0
 10
15.9711194634
 20
13.1932396276
 30
0.0
  0
SPLINE
  5
335
100
AcDbEntity
  8
0
100
AcDbSpline
 62
7
  6
CONTINUOUS
 70
0
 71
3
 72
33
 73
29
 74
0
 42
0.0000001
 43
0.0000001
 44
0.0000000001
 40
0.0
 40
0.0
 40
0.0
 40
0.0
 40
0.0620056073
 40
0.0930426538
 40
0.1240760702
 40
0.1551062824
 40
0.1861393654
 40
0.2171761858
 40
0.2482172599
 40
0.2792738549
 40
0.3103495412
 40
0.3725263271
 40
0.4349040907
 40
0.4662316071
 40
0.49763364
 40
0.5291133167
 40
0.5606626103
 40
0.623846043
 40
0.6554955468
 40
0.6871302669
 40
0.7502032489
 40
0.7816716331
 40
0.8130643093
 40
0.8443764339
 40
0.8756144583
 40
0.9067905447
 40
0.9379250384
 40
1.0
 40
1.0
 40
1.0
 40
1.0
 10
15.896608154
 20
13.3601819503
 30
0.0
 10
15.8991901908
 20
13.3685374246
 30
0.0
 10
15.9044122292
 20
13.3807194083
 30
0.0
 10
15.9138190493
 20
13.395503957
 30
0.0
 10
15.9220390634
 20
13.405779352
 30
0.0
 10
15.9313221553
 20
13.4151016079
 30
0.0
 10
15.9415658717
 20
13.4233579222
 30
0.0
 10
15.9526385604
 20
13.4304663401
 30
0.0
 10
15.9644164586
 20
13.4363389008
 30
0.0
 10
15.9767553679
 20
13.440933625
 30
0.0
 10
15.9937639987
 20
13.4452987324
 30
0.0
 10
16.0157748588
 20
13.4474240909
 30
0.0
 10
16.0377890899
 20
13.4451402958
 30
0.0
 10
16.0549253439
 20
13.4408443697
 30
0.0
 10
16.0674753446
 20
13.4364205295
 30
0.0
 10
16.0795988227
 20
13.4308605091
 30
0.0
 10
16.0950640469
 20
13.4220087864
 30
0.0
 10
16.1093155663
 20
13.4111217115
 30
0.0
 10
16.1219679489
 20
13.3985228906
 30
0.0
 10
16.1334699454
 20
13.3848863819
 30
0.0
 10
16.1431208777
 20
13.3698024125
 30
0.0
 10
16.1506077043
 20
13.3536747772
 30
0.0
 10
16.1550827778
 20
13.341147963
 30
0.0
 10
16.1583676545
 20
13.3282917693
 30
0.0
 10
16.1604087138
 20
13.3152108001
 30
0.0
 10
16.1611675298
 20
13.302015014
 30
0.0
 10
16.1604292707
 20
13.2844680543
 30
0.0
 10
16.1578673956
 20
13.2714477811
 30
0.0
 10
16.1552824707
 20
13.263082961
 30
0.0
  0
SPLINE
  5
336
100
AcDbEntity
  8
0
100
AcDbSpline
 62
7
  6
CONTINUOUS
 70
0
 71
3
 72
48
 73
44
 74
0
 42
0.0000001
 43
0.0000001
 44
0.0000000001
 40
0.0
 40
0.0
 40
0.0
 40
0.0
 40
0.0265253292
 40
0.0543673171
 40
0.0687843643
 40
0.0835288929
 40
0.1139828983
 40
0.14568328
 40
0.1785500095
 40
0.2124818977
 40
0.2473599582
 40
0.2830489634
 40
0.3194012629
 40
0.35625997
 40
0.3934604621
 40
0.4308338401
 40
0.468208565
 40
0.5054132942
 40
0.5422787956
 40
0.5786405557
 40
0.6143413776
 40
0.6492333319
 40
0.683181621
 40
0.7160660044
 40
0.7477853141
 40
0.7631847001
 40
0.7782653249
 40
0.8074426799
 40
0.8353001656
 40
0.8487396584
 40
0.8618573954
 40
0.8746611323
 40
0.8871614584
 40
0.8993724613
 40
0.9113108663
 40
0.9229962823
 40
0.9344519435
 40
0.9457039205
 40
0.9567808805
 40
0.9677143909
 40
0.9785382513
 40
0.9892878528
 40
1.0
 40
1.0
 40
1.0
 40
1.0
 10
16.7039274581
 20
12.9292576475
 30
0.0
 10
16.6915469247
 20
12.954486522
 30
0.0
 10
16.6635427676
 20
13.0049360732
 30
0.0
 10
16.6225826451
 20
13.0653173341
 30
0.0
 10
16.5857151022
 20
13.1131691732
 30
0.0
 10
16.5452409738
 20
13.1616765736
 30
0.0
 10
16.4895479435
 20
13.2212457686
 30
0.0
 10
16.4158880714
 20
13.2899714419
 30
0.0
 10
16.3351791959
 20
13.356230273
 30
0.0
 10
16.2479773568
 20
13.4195780378
 30
0.0
 10
16.1548713224
 20
13.4795857767
 30
0.0
 10
16.0564925043
 20
13.535844981
 30
0.0
 10
15.9535117175
 20
13.5879781225
 30
0.0
 10
15.8466264933
 20
13.6356252645
 30
0.0
 10
15.7365658352
 20
13.6784669075
 30
0.0
 10
15.6240780285
 20
13.7162102214
 30
0.0
 10
15.5099277576
 20
13.7485958773
 30
0.0
 10
15.3948932871
 20
13.7754087123
 30
0.0
 10
15.2797559506
 20
13.796460393
 30
0.0
 10
15.1652998858
 20
13.8116116215
 30
0.0
 10
15.0523030732
 20
13.8207590979
 30
0.0
 10
14.9415330536
 20
13.8238364738
 30
0.0
 10
14.8337407511
 20
13.8208286005
 30
0.0
 10
14.7296601002
 20
13.811748372
 30
0.0
 10
14.6457871299
 20
13.7990512593
 30
0.0
 10
14.5812161836
 20
13.7858281209
 30
0.0
 10
14.5197753024
 20
13.7709492697
 30
0.0
 10
14.4465457143
 20
13.7488787691
 30
0.0
 10
14.3769449609
 20
13.721574018
 30
0.0
 10
14.3248115767
 20
13.6969200937
 30
0.0
 10
14.2879753332
 20
13.6773365015
 30
0.0
 10
14.2530022184
 20
13.6564717831
 30
0.0
 10
14.2199534768
 20
13.634357814
 30
0.0
 10
14.1888837434
 20
13.6110352166
 30
0.0
 10
14.1598462902
 20
13.5865428904
 30
0.0
 10
14.1328947678
 20
13.5609184619
 30
0.0
 10
14.1080741797
 20
13.5342076381
 30
0.0
 10
14.0854265065
 20
13.5064566586
 30
0.0
 10
14.0649953732
 20
13.4777099508
 30
0.0
 10
14.0468170719
 20
13.4480177586
 30
0.0
 10
14.0309205929
 20
13.4174327725
 30
0.0
 10
14.0173375563
 20
13.3860090264
 30
0.0
 10
14.0098365192
 20
13.3645189369
 30
0.0
 10
14.0064858578
 20
13.353675575
 30
0.0
  0
SPLINE
  5
337
100
AcDbEntity
  8
0
100
AcDbSpline
 62
7
  6
CONTINUOUS
 70
0
 71
3
 72
40
 73
36
 74
0
 42
0.0000001
 43
0.0000001
 44
0.0000000001
 40
0.0
 40
0.0
 40
0.0
 40
0.0
 40
0.0229676982
 40
0.0461151608
 40
0.06967315
 40
0.0938285883
 40
0.1187351626
 40
0.1445395866
 40
0.1578177643
 40
0.1713584814
 40
0.1992523048
 40
0.2282685187
 40
0.258412675
 40
0.2896627717
 40
0.3219660208
 40
0.3552490572
 40
0.38941489
 40
0.4243518484
 40
0.4599319477
 40
0.4960174612
 40
0.5324610516
 40
0.5691100075
 40
0.6058082068
 40
0.642398338
 40
0.6787256823
 40
0.7146386566
 40
0.7499938992
 40
0.7846558568
 40
0.8185038592
 40
0.8514308299
 40
0.88334787
 40
0.914185001
 40
0.943907237
 40
0.9725127544
 40
1.0
 40
1.0
 40
1.0
 40
1.0
 10
15.7002293462
 20
11.7431244617
 30
0.0
 10
15.6969796148
 20
11.7326083271
 30
0.0
 10
15.6889527309
 20
11.7119261008
 30
0.0
 10
15.6726326549
 20
11.6826832551
 30
0.0
 10
15.6522091093
 20
11.6554310831
 30
0.0
 10
15.6279518189
 20
11.6303571041
 30
0.0
 10
15.6001005429
 20
11.6076215131
 30
0.0
 10
15.5743564201
 20
11.5908544584
 30
0.0
 10
15.5522727933
 20
11.5786612686
 30
0.0
 10
15.5287442922
 20
11.5670704716
 30
0.0
 10
15.4974781905
 20
11.5542110532
 30
0.0
 10
15.4576940138
 20
11.5415196396
 30
0.0
 10
15.4155154077
 20
11.5314473011
 30
0.0
 10
15.3711964173
 20
11.524032067
 30
0.0
 10
15.3250031501
 20
11.5192899697
 30
0.0
 10
15.2772164232
 20
11.5172418227
 30
0.0
 10
15.2281299874
 20
11.5178809579
 30
0.0
 10
15.1780502784
 20
11.5212027701
 30
0.0
 10
15.1272917091
 20
11.5271726682
 30
0.0
 10
15.0761778052
 20
11.5357558019
 30
0.0
 10
15.0250340534
 20
11.5468873217
 30
0.0
 10
14.9741905823
 20
11.5605006572
 30
0.0
 10
14.9239734395
 20
11.5765009097
 30
0.0
 10
14.8747084357
 20
11.5947909627
 30
0.0
 10
14.826711606
 20
11.615248453
 30
0.0
 10
14.780293981
 20
11.6377491611
 30
0.0
 10
14.735751804
 20
11.6621474575
 30
0.0
 10
14.6933714458
 20
11.6882968776
 30
0.0
 10
14.6534207771
 20
11.7160361028
 30
0.0
 10
14.616155112
 20
11.7452043302
 30
0.0
 10
14.581809363
 20
11.7756291953
 30
0.0
 10
14.5505998249
 20
11.8071409837
 30
0.0
 10
14.5227241698
 20
11.8395789426
 30
0.0
 10
14.4983760805
 20
11.8727730916
 30
0.0
 10
14.4843317523
 20
11.8957427102
 30
0.0
 10
14.4779960118
 20
11.9072916806
 30
0.0
  0
LINE
  5
338
100
AcDbEntity
  8
0
100
AcDbLine
 62
7
  6
CONTINUOUS
 10
15.7199281802
 20
12.0993204874
 11
15.7214211168
 21
12.0973983756
  0
SPLINE
  5
339
100
AcDbEntity
  8
0
100
AcDbSpline
 62
7
  6
CONTINUOUS
 70
0
 71
3
 72
9
 73
5
 74
0
 42
0.0000001
 43
0.0000001
 44
0.0000000001
 40
0.0
 40
0.0
 40
0.0
 40
0.0
 40
0.479317539
 40
1.0
 40
1.0
 40
1.0
 40
1.0
 10
15.7214211168
 20
12.0973983756
 30
0.0
 10
15.7222426479
 20
12.0962663612
 30
0.0
 10
15.7238331976
 20
12.0938140163
 30
0.0
 10
15.7252109691
 20
12.0912381093
 30
0.0
 10
15.7258803343
 20
12.0898740863
 30
0.0
  0
SPLINE
  5
33A
100
AcDbEntity
  8
0
100
AcDbSpline
 62
7
  6
CONTINUOUS
 70
0
 71
3
 72
13
 73
9
 74
0
 42
0.0000001
 43
0.0000001
 44
0.0000000001
 40
0.0
 40
0.0
 40
0.0
 40
0.0
 40
0.1243780329
 40
0.2535900064
 40
0.5161319874
 40
0.6455046116
 40
0.7704143176
 40
1.0
 40
1.0
 40
1.0
 40
1.0
 10
16.8168156237
 20
11.0565348615
 30
0.0
 10
16.8183557413
 20
11.0565348615
 30
0.0
 10
16.8215008101
 20
11.0568045989
 30
0.0
 10
16.8277304402
 20
11.0583030992
 30
0.0
 10
16.8336318238
 20
11.0611599164
 30
0.0
 10
16.8386904481
 20
11.0651141183
 30
0.0
 10
16.8428129546
 20
11.0694757603
 30
0.0
 10
16.8450544606
 20
11.0734019095
 30
0.0
 10
16.8458938067
 20
11.0761180342
 30
0.0
  0
SPLINE
  5
33B
100
AcDbEntity
  8
0
100
AcDbSpline
 62
7
  6
CONTINUOUS
 70
0
 71
3
 72
11
 73
7
 74
0
 42
0.0000001
 43
0.0000001
 44
0.0000000001
 40
0.0
 40
0.0
 40
0.0
 40
0.0
 40
0.2640340299
 40
0.5170418852
 40
0.7609842547
 40
1.0
 40
1.0
 40
1.0
 40
1.0
 10
17.1968899756
 20
12.2119420532
 30
0.0
 10
17.1971831734
 20
12.2128908417
 30
0.0
 10
17.197611087
 20
12.2147986407
 30
0.0
 10
17.1977435342
 20
12.2176735998
 30
0.0
 10
17.1973341391
 20
12.2204291363
 30
0.0
 10
17.196702749
 20
12.2221485839
 30
0.0
 10
17.1963066431
 20
12.2229555737
 30
0.0
  0
LINE
  5
33C
100
AcDbEntity
  8
0
100
AcDbLine
 62
7
  6
CONTINUOUS
 10
15.9054319875
 20
11.4257736414
 11
15.9046018666
 21
11.422221106
  0
SPLINE
  5
33D
100
AcDbEntity
  8
0
100
AcDbSpline
 62
7
  6
CONTINUOUS
 70
0
 71
3
 72
9
 73
5
 74
0
 42
0.0000001
 43
0.0000001
 44
0.0000000001
 40
0.0
 40
0.0
 40
0.0
 40
0.0
 40
0.241086256
 40
1.0
 40
1.0
 40
1.0
 40
1.0
 10
16.1315805551
 20
12.1125791533
 30
0.0
 10
16.1277309166
 20
12.1218363856
 30
0.0
 10
16.1107415108
 20
12.1598070361
 30
0.0
 10
16.0898688446
 20
12.1959945396
 30
0.0
 10
16.0724253635
 20
12.222295905
 30
0.0
  0
SPLINE
  5
33E
100
AcDbEntity
  8
0
100
AcDbSpline
 62
7
  6
CONTINUOUS
 70
0
 71
3
 72
9
 73
5
 74
0
 42
0.0000001
 43
0.0000001
 44
0.0000000001
 40
0.0
 40
0.0
 40
0.0
 40
0.0
 40
0.4899937611
 40
1.0
 40
1.0
 40
1.0
 40
1.0
 10
16.0724253635
 20
12.222295905
 30
0.0
 10
16.0616228689
 20
12.2385839588
 30
0.0
 10
16.0382796596
 20
12.2709779123
 30
0.0
 10
16.0127376941
 20
12.3016576637
 30
0.0
 10
15.9992321966
 20
12.3168706978
 30
0.0
  0
SPLINE
  5
33F
100
AcDbEntity
  8
0
100
AcDbSpline
 62
7
  6
CONTINUOUS
 70
0
 71
3
 72
34
 73
30
 74
0
 42
0.0000001
 43
0.0000001
 44
0.0000000001
 40
0.0
 40
0.0
 40
0.0
 40
0.0
 40
0.0284349145
 40
0.057754907
 40
0.0879042669
 40
0.1188312851
 40
0.150485624
 40
0.1828087493
 40
0.2491656605
 40
0.3173104087
 40
0.3518550038
 40
0.3865958412
 40
0.421445236
 40
0.4563144803
 40
0.4911147771
 40
0.5257581071
 40
0.5942155066
 40
0.6610276962
 40
0.725577594
 40
0.7568392924
 40
0.7873410206
 40
0.8170318785
 40
0.845870198
 40
0.8738225068
 40
0.9008681125
 40
0.9269966396
 40
0.9522127246
 40
0.9765354432
 40
1.0
 40
1.0
 40
1.0
 40
1.0
 10
15.9992321966
 20
12.3168706978
 30
0.0
 10
15.9874318719
 20
12.3301629695
 30
0.0
 10
15.9627089642
 20
12.356499253
 30
0.0
 10
15.9230857916
 20
12.3945999925
 30
0.0
 10
15.8804903649
 20
12.4317617072
 30
0.0
 10
15.8350938499
 20
12.4678359661
 30
0.0
 10
15.7870662226
 20
12.5026916067
 30
0.0
 10
15.7191693903
 20
12.5477561506
 30
0.0
 10
15.6288497806
 20
12.6001073537
 30
0.0
 10
15.5336144492
 20
12.6461227521
 30
0.0
 10
15.4543491116
 20
12.6792821278
 30
0.0
 10
15.3934277415
 20
12.702253541
 30
0.0
 10
15.3315403438
 20
12.723119534
 30
0.0
 10
15.2689221746
 20
12.7418078504
 30
0.0
 10
15.2058069351
 20
12.7582418083
 30
0.0
 10
15.1216556639
 20
12.7769941526
 30
0.0
 10
15.0167971432
 20
12.7945296024
 30
0.0
 10
14.8922983404
 20
12.8059348532
 30
0.0
 10
14.7905239441
 20
12.8072120941
 30
0.0
 10
14.7116520149
 20
12.80309135
 30
0.0
 10
14.6547328202
 20
12.7975498416
 30
0.0
 10
14.5996373163
 20
12.7895428832
 30
0.0
 10
14.5465710217
 20
12.7791058881
 30
0.0
 10
14.4957350394
 20
12.7662692279
 30
0.0
 10
14.4473187469
 20
12.7510881494
 30
0.0
 10
14.4015058095
 20
12.7336117716
 30
0.0
 10
14.3584671157
 20
12.7139060141
 30
0.0
 10
14.3183675384
 20
12.692045197
 30
0.0
 10
14.2932575339
 20
12.6757987184
 30
0.0
 10
14.2812792073
 20
12.6673337032
 30
0.0
  0
SPLINE
  5
340
100
AcDbEntity
  8
0
100
AcDbSpline
 62
7
  6
CONTINUOUS
 70
0
 71
3
 72
15
 73
11
 74
0
 42
0.0000001
 43
0.0000001
 44
0.0000000001
 40
0.0
 40
0.0
 40
0.0
 40
0.0
 40
0.1381134963
 40
0.2714884427
 40
0.4004245068
 40
0.5254199829
 40
0.6471124348
 40
0.7662285064
 40
0.8835680948
 40
1.0
 40
1.0
 40
1.0
 40
1.0
 10
13.8138108163
 20
12.1459306575
 30
0.0
 10
13.8049340365
 20
12.164019633
 30
0.0
 10
13.788769408
 20
12.2002284934
 30
0.0
 10
13.7692273547
 20
12.2553486104
 30
0.0
 10
13.7549264806
 20
12.3100899268
 30
0.0
 10
13.7459297762
 20
12.3642280123
 30
0.0
 10
13.7422824947
 20
12.4175579718
 30
0.0
 10
13.7440040077
 20
12.4698746097
 30
0.0
 10
13.7510937582
 20
12.5209611193
 30
0.0
 10
13.7594045536
 20
12.5541193595
 30
0.0
 10
13.764419489
 20
12.5703486794
 30
0.0
  0
SPLINE
  5
341
100
AcDbEntity
  8
0
100
AcDbSpline
 62
7
  6
CONTINUOUS
 70
0
 71
3
 72
14
 73
10
 74
0
 42
0.0000001
 43
0.0000001
 44
0.0000000001
 40
0.0
 40
0.0
 40
0.0
 40
0.0
 40
0.1128398518
 40
0.2272097352
 40
0.3444122744
 40
0.4655701823
 40
0.7222561521
 40
0.8588041851
 40
1.0
 40
1.0
 40
1.0
 40
1.0
 10
14.1984267814
 20
11.0651045137
 30
0.0
 10
14.1987494638
 20
11.0644471099
 30
0.0
 10
14.1995141025
 20
11.0631765608
 30
0.0
 10
14.2009743923
 20
11.061471918
 30
0.0
 10
14.2027290195
 20
11.059986536
 30
0.0
 10
14.2054756002
 20
11.0583003432
 30
0.0
 10
14.208669709
 20
11.0571835717
 30
0.0
 10
14.2120972304
 20
11.0566281142
 30
0.0
 10
14.2139019586
 20
11.0565348615
 30
0.0
 10
14.2148183157
 20
11.0565348615
 30
0.0
  0
SPLINE
  5
342
100
AcDbEntity
  8
0
100
AcDbSpline
 62
7
  6
CONTINUOUS
 70
0
 71
3
 72
14
 73
10
 74
0
 42
0.0000001
 43
0.0000001
 44
0.0000000001
 40
0.0
 40
0.0
 40
0.0
 40
0.0
 40
0.1128398518
 40
0.2272097352
 40
0.3444122744
 40
0.4655701823
 40
0.7222561521
 40
0.8588041851
 40
1.0
 40
1.0
 40
1.0
 40
1.0
 10
16.07760137
 20
11.0651045137
 30
0.0
 10
16.0779240524
 20
11.0644471099
 30
0.0
 10
16.0786886911
 20
11.0631765608
 30
0.0
 10
16.0801489809
 20
11.061471918
 30
0.0
 10
16.0819036081
 20
11.059986536
 30
0.0
 10
16.0846501888
 20
11.0583003432
 30
0.0
 10
16.0878442976
 20
11.0571835717
 30
0.0
 10
16.0912718191
 20
11.0566281142
 30
0.0
 10
16.0930765473
 20
11.0565348615
 30
0.0
 10
16.0939929043
 20
11.0565348615
 30
0.0
  0
SPLINE
  5
343
100
AcDbEntity
  8
0
100
AcDbSpline
 62
7
  6
CONTINUOUS
 70
0
 71
3
 72
9
 73
5
 74
0
 42
0.0000001
 43
0.0000001
 44
0.0000000001
 40
0.0
 40
0.0
 40
0.0
 40
0.0
 40
0.5137159488
 40
1.0
 40
1.0
 40
1.0
 40
1.0
 10
15.9058288386
 20
11.4151400712
 30
0.0
 10
15.9052803921
 20
11.416257618
 30
0.0
 10
15.9044837944
 20
11.4185845623
 30
0.0
 10
15.9044296092
 20
11.4210553678
 30
0.0
 10
15.9046018666
 20
11.422221106
 30
0.0
  0
SPLINE
  5
344
100
AcDbEntity
  8
0
100
AcDbSpline
 62
7
  6
CONTINUOUS
 70
0
 71
3
 72
14
 73
10
 74
0
 42
0.0000001
 43
0.0000001
 44
0.0000000001
 40
0.0
 40
0.0
 40
0.0
 40
0.0
 40
0.1426499832
 40
0.2806386892
 40
0.5401231462
 40
0.6618110321
 40
0.7785078445
 40
0.8909184718
 40
1.0
 40
1.0
 40
1.0
 40
1.0
 10
14.8794805789
 20
12.365619212
 30
0.0
 10
14.8767559077
 20
12.365619212
 30
0.0
 10
14.8713921034
 20
12.3658166583
 30
0.0
 10
14.8611389154
 20
12.3670064456
 30
0.0
 10
14.8514405057
 20
12.3693899421
 30
0.0
 10
14.8426587709
 20
12.3730804283
 30
0.0
 10
14.8368004456
 20
12.3763657541
 30
0.0
 10
14.8315843611
 20
12.3802039561
 30
0.0
 10
14.8285275025
 20
12.3831514273
 30
0.0
 10
14.8271347838
 20
12.3847010431
 30
0.0
  0
LINE
  5
345
100
AcDbEntity
  8
0
100
AcDbLine
 62
7
  6
CONTINUOUS
 10
15.6841105812
 20
11.9576876703
 11
15.6805631074
 21
11.9657063258
  0
SPLINE
  5
346
100
AcDbEntity
  8
0
100
AcDbSpline
 62
7
  6
CONTINUOUS
 70
0
 71
3
 72
25
 73
21
 74
0
 42
0.0000001
 43
0.0000001
 44
0.0000000001
 40
0.0
 40
0.0
 40
0.0
 40
0.0
 40
0.0617104723
 40
0.1286027796
 40
0.1995526824
 40
0.273389749
 40
0.3488608401
 40
0.4247258638
 40
0.4997805888
 40
0.5728880012
 40
0.6429931087
 40
0.709174488
 40
0.7706604778
 40
0.8269126443
 40
0.8776438951
 40
0.900972529
 40
0.9229869364
 40
0.963361187
 40
0.9820632145
 40
1.0
 40
1.0
 40
1.0
 40
1.0
 10
15.6805631074
 20
11.9657063258
 30
0.0
 10
15.6792737336
 20
11.9689247729
 30
0.0
 10
15.6768369703
 20
11.9757335634
 30
0.0
 10
15.6737060625
 20
11.9865049885
 30
0.0
 10
15.6710217372
 20
11.9980970563
 30
0.0
 10
15.6688727247
 20
12.010289737
 30
0.0
 10
15.6673425889
 20
12.0228541575
 30
0.0
 10
15.6665086477
 20
12.0355532412
 30
0.0
 10
15.6664332366
 20
12.0481477816
 30
0.0
 10
15.6671611686
 20
12.0603989386
 30
0.0
 10
15.6687162361
 20
12.0720720982
 30
0.0
 10
15.6710908528
 20
12.0829417801
 30
0.0
 10
15.6742567148
 20
12.092797684
 30
0.0
 10
15.6781458298
 20
12.1014510823
 30
0.0
 10
15.6820287796
 20
12.107693603
 30
0.0
 10
15.6854384099
 20
12.1118876195
 30
0.0
 10
15.6888057396
 20
12.1153356578
 30
0.0
 10
15.6924748077
 20
12.1181153856
 30
0.0
 10
15.6963657859
 20
12.120031453
 30
0.0
 10
15.6983266302
 20
12.1206848343
 30
0.0
 10
15.6993037382
 20
12.1209314625
 30
0.0
  0
SPLINE
  5
347
100
AcDbEntity
  8
0
100
AcDbSpline
 62
7
  6
CONTINUOUS
 70
0
 71
3
 72
9
 73
5
 74
0
 42
0.0000001
 43
0.0000001
 44
0.0000000001
 40
0.0
 40
0.0
 40
0.0
 40
0.0
 40
0.2533271733
 40
1.0
 40
1.0
 40
1.0
 40
1.0
 10
15.6993037382
 20
12.1209314625
 30
0.0
 10
15.6996965672
 20
12.1210306151
 30
0.0
 10
15.7012584727
 20
12.1213758576
 30
0.0
 10
15.7028631781
 20
12.1215295845
 30
0.0
 10
15.7040573408
 20
12.1215294137
 30
0.0
  0
SPLINE
  5
348
100
AcDbEntity
  8
0
100
AcDbSpline
 62
7
  6
CONTINUOUS
 70
0
 71
3
 72
11
 73
7
 74
0
 42
0.0000001
 43
0.0000001
 44
0.0000000001
 40
0.0
 40
0.0
 40
0.0
 40
0.0
 40
0.2703102457
 40
0.5276198885
 40
0.7712911227
 40
1.0
 40
1.0
 40
1.0
 40
1.0
 10
16.9986127623
 20
12.6159885326
 30
0.0
 10
17.00011886
 20
12.614387455
 30
0.0
 10
17.002984125
 20
12.6111909501
 30
0.0
 10
17.0069073692
 20
12.6062923449
 30
0.0
 10
17.0103017609
 20
12.6014199632
 30
0.0
 10
17.0122213529
 20
12.5980823531
 30
0.0
 10
17.0130406384
 20
12.5964126969
 30
0.0
  0
SPLINE
  5
349
100
AcDbEntity
  8
0
100
AcDbSpline
 62
7
  6
CONTINUOUS
 70
0
 71
3
 72
11
 73
7
 74
0
 42
0.0000001
 43
0.0000001
 44
0.0000000001
 40
0.0
 40
0.0
 40
0.0
 40
0.0
 40
0.245310774
 40
0.4935181741
 40
0.7449038193
 40
1.0
 40
1.0
 40
1.0
 40
1.0
 10
13.9995662356
 20
11.4801645136
 30
0.0
 10
14.0005438349
 20
11.4766607001
 30
0.0
 10
14.0026548093
 20
11.4696510951
 30
0.0
 10
14.0062699979
 20
11.4592101711
 30
0.0
 10
14.0103886682
 20
11.4488007787
 30
0.0
 10
14.0134940496
 20
11.4419574057
 30
0.0
 10
14.0151605577
 20
11.4385615416
 30
0.0
  0
SPLINE
  5
34A
100
AcDbEntity
  8
0
100
AcDbSpline
 62
7
  6
CONTINUOUS
 70
0
 71
3
 72
15
 73
11
 74
0
 42
0.0000001
 43
0.0000001
 44
0.0000000001
 40
0.0
 40
0.0
 40
0.0
 40
0.0
 40
0.1100537275
 40
0.2236836663
 40
0.3413327421
 40
0.4633876341
 40
0.5901470825
 40
0.7218053004
 40
0.8584531049
 40
1.0
 40
1.0
 40
1.0
 40
1.0
 10
14.3376726569
 20
12.5141904867
 30
0.0
 10
14.3387756714
 20
12.5024186118
 30
0.0
 10
14.3422582746
 20
12.4785940127
 30
0.0
 10
14.3510237884
 20
12.4429354279
 30
0.0
 10
14.3633736875
 20
12.4069896013
 30
0.0
 10
14.3792412432
 20
12.3709123879
 30
0.0
 10
14.3985610863
 20
12.3348480903
 30
0.0
 10
14.4212495083
 20
12.2989377914
 30
0.0
 10
14.4472117983
 20
12.2633383968
 30
0.0
 10
14.4662923137
 20
12.240307281
 30
0.0
 10
14.4763224059
 20
12.2288772487
 30
0.0
  0
SPLINE
  5
34B
100
AcDbEntity
  8
0
100
AcDbSpline
 62
7
  6
CONTINUOUS
 70
0
 71
3
 72
21
 73
17
 74
0
 42
0.0000001
 43
0.0000001
 44
0.0000000001
 40
0.0
 40
0.0
 40
0.0
 40
0.0
 40
0.0528820257
 40
0.1109675839
 40
0.1735498387
 40
0.2398715777
 40
0.3091317772
 40
0.3804360728
 40
0.5252084652
 40
0.6663484584
 40
0.7332042011
 40
0.7963955479
 40
0.8551882586
 40
0.9089579144
 40
0.957285649
 40
1.0
 40
1.0
 40
1.0
 40
1.0
 10
15.7258803343
 20
12.0898740863
 30
0.0
 10
15.726925988
 20
12.0877432681
 30
0.0
 10
15.7288786958
 20
12.0831519839
 30
0.0
 10
15.7313293277
 20
12.0757508717
 30
0.0
 10
15.7333969009
 20
12.0676101013
 30
0.0
 10
15.7350492647
 20
12.0588654604
 30
0.0
 10
15.7362596049
 20
12.049654075
 30
0.0
 10
15.737263625
 20
12.0368816491
 30
0.0
 10
15.7373233633
 20
12.0208215189
 30
0.0
 10
15.7358343737
 20
12.0050272583
 30
0.0
 10
15.7336852047
 20
11.993040297
 30
0.0
 10
15.731680282
 20
11.9847987167
 30
0.0
 10
15.7292908995
 20
11.9772733737
 30
0.0
 10
15.7265515643
 20
11.9705809226
 30
0.0
 10
15.7235064479
 20
11.9648261083
 30
0.0
 10
15.7211571221
 20
11.9614620468
 30
0.0
 10
15.7199283174
 20
11.9599904273
 30
0.0
  0
SPLINE
  5
34C
100
AcDbEntity
  8
0
100
AcDbSpline
 62
7
  6
CONTINUOUS
 70
0
 71
3
 72
39
 73
35
 74
0
 42
0.0000001
 43
0.0000001
 44
0.0000000001
 40
0.0
 40
0.0
 40
0.0
 40
0.0
 40
0.0265217587
 40
0.0543710186
 40
0.0835354128
 40
0.1139908432
 40
0.1456934161
 40
0.1785641151
 40
0.2125005394
 40
0.2473823579
 40
0.2830750874
 40
0.3194316689
 40
0.3562943613
 40
0.3934992507
 40
0.4682347901
 40
0.5422915385
 40
0.6143384681
 40
0.6492347062
 40
0.6831863247
 40
0.7160748618
 40
0.747797361
 40
0.7782762691
 40
0.8074567298
 40
0.8353176842
 40
0.8618704337
 40
0.8871692407
 40
0.9113114338
 40
0.9344443015
 40
0.9456975942
 40
0.9567756439
 40
0.9677102881
 40
0.9785353881
 40
0.9892863672
 40
1.0
 40
1.0
 40
1.0
 40
1.0
 10
15.5265029245
 20
11.913380742
 30
0.0
 10
15.5221977202
 20
11.9221538259
 30
0.0
 10
15.5124555606
 20
11.9397001191
 30
0.0
 10
15.4951586851
 20
11.9652027178
 30
0.0
 10
15.4749354618
 20
11.9903408131
 30
0.0
 10
15.4519369948
 20
12.0149429888
 30
0.0
 10
15.4263139209
 20
12.0388448524
 30
0.0
 10
15.3982433063
 20
12.061893077
 30
0.0
 10
15.3679113338
 20
12.0839265386
 30
0.0
 10
15.3355268549
 20
12.1047991285
 30
0.0
 10
15.301308176
 20
12.124367512
 30
0.0
 10
15.2654888599
 20
12.1425001664
 30
0.0
 10
15.2283110038
 20
12.1590742253
 30
0.0
 10
15.177199491
 20
12.1789681684
 30
0.0
 10
15.1116201394
 20
12.1992597689
 30
0.0
 10
15.0318483407
 20
12.2159030082
 30
0.0
 10
14.9654151005
 20
12.2230933678
 30
0.0
 10
14.9134975117
 20
12.224539954
 30
0.0
 10
14.8760041098
 20
12.2234908478
 30
0.0
 10
14.8398014867
 20
12.2203351957
 30
0.0
 10
14.8051338059
 20
12.2150844902
 30
0.0
 10
14.7722346663
 20
12.2077817212
 30
0.0
 10
14.741327123
 20
12.1984658312
 30
0.0
 10
14.7126178845
 20
12.1872037216
 30
0.0
 10
14.6863030893
 20
12.1740603387
 30
0.0
 10
14.6625598694
 20
12.1591217625
 30
0.0
 10
14.6415567063
 20
12.1424801185
 30
0.0
 10
14.626319062
 20
12.1271326732
 30
0.0
 10
14.6157200832
 20
12.1141462016
 30
0.0
 10
14.6086139303
 20
12.1041468399
 30
0.0
 10
14.6022912845
 20
12.0938191893
 30
0.0
 10
14.5967620569
 20
12.0831809072
 30
0.0
 10
14.5920367902
 20
12.0722510615
 30
0.0
 10
14.5894277161
 20
12.0647760553
 30
0.0
 10
14.5882625473
 20
12.0610042609
 30
0.0
  0
SPLINE
  5
34D
100
AcDbEntity
  8
0
100
AcDbSpline
 62
7
  6
CONTINUOUS
 70
0
 71
3
 72
15
 73
11
 74
0
 42
0.0000001
 43
0.0000001
 44
0.0000000001
 40
0.0
 40
0.0
 40
0.0
 40
0.0
 40
0.1270832913
 40
0.252089828
 40
0.3757246764
 40
0.4987486567
 40
0.621950433
 40
0.746109951
 40
0.8719215617
 40
1.0
 40
1.0
 40
1.0
 40
1.0
 10
14.400029433
 20
12.7313531909
 30
0.0
 10
14.3940475931
 20
12.7235853745
 30
0.0
 10
14.3828535108
 20
12.7076435831
 30
0.0
 10
14.3684338913
 20
12.6824516424
 30
0.0
 10
14.3565990698
 20
12.6562860089
 30
0.0
 10
14.347390681
 20
12.6292318197
 30
0.0
 10
14.3408341367
 20
12.6013741594
 30
0.0
 10
14.3369593582
 20
12.572802254
 30
0.0
 10
14.3357678672
 20
12.5436212291
 30
0.0
 10
14.3367508604
 20
12.5240283194
 30
0.0
 10
14.3376726569
 20
12.5141904867
 30
0.0
  0
SPLINE
  5
34E
100
AcDbEntity
  8
0
100
AcDbSpline
 62
7
  6
CONTINUOUS
 70
0
 71
3
 72
9
 73
5
 74
0
 42
0.0000001
 43
0.0000001
 44
0.0000000001
 40
0.0
 40
0.0
 40
0.0
 40
0.0
 40
0.2795883149
 40
1.0
 40
1.0
 40
1.0
 40
1.0
 10
15.7085820846
 20
11.946396859
 30
0.0
 10
15.7078517021
 20
11.9455214817
 30
0.0
 10
15.7051144585
 20
11.9425107622
 30
0.0
 10
15.701726836
 20
11.9399906889
 30
0.0
 10
15.6990024721
 20
11.9388919375
 30
0.0
  0
SPLINE
  5
34F
100
AcDbEntity
  8
0
100
AcDbSpline
 62
7
  6
CONTINUOUS
 70
0
 71
3
 72
21
 73
17
 74
0
 42
0.0000001
 43
0.0000001
 44
0.0000000001
 40
0.0
 40
0.0
 40
0.0
 40
0.0
 40
0.0684070175
 40
0.1318684033
 40
0.2457996263
 40
0.2981569353
 40
0.3488167037
 40
0.3990607056
 40
0.4502142694
 40
0.5035352339
 40
0.5600919514
 40
0.6207331295
 40
0.6861067845
 40
0.7566425819
 40
0.8324925415
 40
1.0
 40
1.0
 40
1.0
 40
1.0
 10
15.7199283174
 20
11.9599904273
 30
0.0
 10
15.7193255269
 20
11.9592685239
 30
0.0
 10
15.7181023873
 20
11.9579248777
 30
0.0
 10
15.7155833099
 20
11.955669303
 30
0.0
 10
15.7128614911
 20
11.9539722261
 30
0.0
 10
15.7100137197
 20
11.9530437033
 30
0.0
 10
15.7079177675
 20
11.9527387189
 30
0.0
 10
15.7058173062
 20
11.952810098
 30
0.0
 10
15.7037271299
 20
11.9532587364
 30
0.0
 10
15.701661297
 20
11.9540802063
 30
0.0
 10
15.6996292666
 20
11.9552644632
 30
0.0
 10
15.6976388252
 20
11.9568037857
 30
0.0
 10
15.6956981801
 20
11.9586912895
 30
0.0
 10
15.6938161862
 20
11.9609178156
 30
0.0
 10
15.6913114378
 20
11.9644364398
 30
0.0
 10
15.6896771806
 20
11.9673701517
 30
0.0
 10
15.6886626371
 20
11.969437574
 30
0.0
  0
SPLINE
  5
350
100
AcDbEntity
  8
0
100
AcDbSpline
 62
7
  6
CONTINUOUS
 70
0
 71
3
 72
23
 73
19
 74
0
 42
0.0000001
 43
0.0000001
 44
0.0000000001
 40
0.0
 40
0.0
 40
0.0
 40
0.0
 40
0.0504805477
 40
0.1022272378
 40
0.1558130657
 40
0.2116276511
 40
0.2698900834
 40
0.3306257668
 40
0.3937166816
 40
0.4588938166
 40
0.5257936756
 40
0.5939604612
 40
0.6628878162
 40
0.7320195057
 40
0.8008010775
 40
0.8687358495
 40
0.9353307735
 40
1.0
 40
1.0
 40
1.0
 40
1.0
 10
14.8210607439
 20
12.394396045
 30
0.0
 10
14.8201476276
 20
12.3971396602
 30
0.0
 10
14.8187967047
 20
12.4028739329
 30
0.0
 10
14.8182631421
 20
12.4118226929
 30
0.0
 10
14.8192123075
 20
12.4210424797
 30
0.0
 10
14.8216100661
 20
12.4303758984
 30
0.0
 10
14.8254191281
 20
12.4396677168
 30
0.0
 10
14.8305621461
 20
12.4487708155
 30
0.0
 10
14.8369600835
 20
12.4575323806
 30
0.0
 10
14.844497627
 20
12.4658161657
 30
0.0
 10
14.8530568337
 20
12.4734802971
 30
0.0
 10
14.8624900954
 20
12.4804063535
 30
0.0
 10
14.8726467122
 20
12.486472194
 30
0.0
 10
14.8833527135
 20
12.4915871619
 30
0.0
 10
14.8944369683
 20
12.4956589599
 30
0.0
 10
14.9057175253
 20
12.4986265209
 30
0.0
 10
14.9170026601
 20
12.5004298227
 30
0.0
 10
14.9245265357
 20
12.5008529921
 30
0.0
 10
14.928230852
 20
12.5008529921
 30
0.0
  0
SPLINE
  5
351
100
AcDbEntity
  8
0
100
AcDbSpline
 62
7
  6
CONTINUOUS
 70
0
 71
3
 72
11
 73
7
 74
0
 42
0.0000001
 43
0.0000001
 44
0.0000000001
 40
0.0
 40
0.0
 40
0.0
 40
0.0
 40
0.2336874905
 40
0.474723893
 40
0.7289546513
 40
1.0
 40
1.0
 40
1.0
 40
1.0
 10
15.0172748489
 20
11.2659638363
 30
0.0
 10
15.0170999811
 20
11.2653980086
 30
0.0
 10
15.0168696434
 20
11.2642058837
 30
0.0
 10
15.0169119565
 20
11.2623466238
 30
0.0
 10
15.0173296783
 20
11.2604394346
 30
0.0
 10
15.0178311095
 20
11.2591993482
 30
0.0
 10
15.0181337221
 20
11.2585826886
 30
0.0
  0
SPLINE
  5
352
100
AcDbEntity
  8
0
100
AcDbSpline
 62
7
  6
CONTINUOUS
 70
0
 71
3
 72
9
 73
5
 74
0
 42
0.0000001
 43
0.0000001
 44
0.0000000001
 40
0.0
 40
0.0
 40
0.0
 40
0.0
 40
0.5124059455
 40
1.0
 40
1.0
 40
1.0
 40
1.0
 10
14.2764395379
 20
11.9749911387
 30
0.0
 10
14.2600335779
 20
11.9934713486
 30
0.0
 10
14.2293883722
 20
12.0307871618
 30
0.0
 10
14.2020833791
 20
12.070634313
 30
0.0
 10
14.1897623669
 20
12.0906632349
 30
0.0
  0
SPLINE
  5
353
100
AcDbEntity
  8
0
100
AcDbSpline
 62
7
  6
CONTINUOUS
 70
0
 71
3
 72
22
 73
18
 74
0
 42
0.0000001
 43
0.0000001
 44
0.0000000001
 40
0.0
 40
0.0
 40
0.0
 40
0.0
 40
0.1410047374
 40
0.2110786712
 40
0.28056147
 40
0.3492295107
 40
0.41686001
 40
0.4832462636
 40
0.5481955942
 40
0.6115330184
 40
0.6731022368
 40
0.7327687559
 40
0.7904237195
 40
0.8459918266
 40
0.8994444182
 40
0.9507776081
 40
1.0
 40
1.0
 40
1.0
 40
1.0
 10
14.9244050948
 20
11.5755352367
 30
0.0
 10
14.9719216829
 20
11.5598493474
 30
0.0
 10
15.0440453511
 20
11.5392240336
 30
0.0
 10
15.1412842793
 20
11.5177470765
 30
0.0
 10
15.2140584567
 20
11.5048025313
 30
0.0
 10
15.2864521299
 20
11.4950482372
 30
0.0
 10
15.3581077715
 20
11.4885394258
 30
0.0
 10
15.4286657821
 20
11.4853049692
 30
0.0
 10
15.4977761003
 20
11.485362873
 30
0.0
 10
15.5650957208
 20
11.4887124509
 30
0.0
 10
15.6302907578
 20
11.4953371445
 30
0.0
 10
15.6930362341
 20
11.505207735
 30
0.0
 10
15.753021894
 20
11.5182694962
 30
0.0
 10
15.8099523167
 20
11.5344682401
 30
0.0
 10
15.8635517378
 20
11.5537238955
 30
0.0
 10
15.9135370151
 20
11.5759473026
 30
0.0
 10
15.9449335817
 20
11.593010061
 30
0.0
 10
15.9598969103
 20
11.602022196
 30
0.0
  0
SPLINE
  5
354
100
AcDbEntity
  8
0
100
AcDbSpline
 62
7
  6
CONTINUOUS
 70
0
 71
3
 72
24
 73
20
 74
0
 42
0.0000001
 43
0.0000001
 44
0.0000000001
 40
0.0
 40
0.0
 40
0.0
 40
0.0
 40
0.023721514
 40
0.0476830825
 40
0.0968062621
 40
0.1483416576
 40
0.2028757788
 40
0.2606494335
 40
0.3216044205
 40
0.3854438556
 40
0.4517069525
 40
0.5198275351
 40
0.5891967867
 40
0.6591998521
 40
0.7292395374
 40
0.7987656821
 40
0.8673343134
 40
0.9345666524
 40
1.0
 40
1.0
 40
1.0
 40
1.0
 10
14.8205875366
 20
12.3943705764
 30
0.0
 10
14.8199684094
 20
12.3956317048
 30
0.0
 10
14.8188504283
 20
12.3982312848
 30
0.0
 10
14.8171169484
 20
12.4037042419
 30
0.0
 10
14.8159267881
 20
12.4110361088
 30
0.0
 10
14.8160855804
 20
12.4202679066
 30
0.0
 10
14.8177856628
 20
12.4298582456
 30
0.0
 10
14.8209838619
 20
12.439640024
 30
0.0
 10
14.8256122934
 20
12.4494402502
 30
0.0
 10
14.8315900838
 20
12.4590743605
 30
0.0
 10
14.8388105202
 20
12.468357461
 30
0.0
 10
14.8471562513
 20
12.4771008934
 30
0.0
 10
14.8564879855
 20
12.4851271946
 30
0.0
 10
14.8666601603
 20
12.4922582468
 30
0.0
 10
14.8775014942
 20
12.4983450584
 30
0.0
 10
14.888838641
 20
12.5032420995
 30
0.0
 10
14.9004809439
 20
12.5068418996
 30
0.0
 10
14.912220722
 20
12.509039883
 30
0.0
 10
14.9200849753
 20
12.5095555316
 30
0.0
 10
14.9239602659
 20
12.5095555316
 30
0.0
  0
SPLINE
  5
355
100
AcDbEntity
  8
0
100
AcDbSpline
 62
7
  6
CONTINUOUS
 70
0
 71
3
 72
22
 73
18
 74
0
 42
0.0000001
 43
0.0000001
 44
0.0000000001
 40
0.0
 40
0.0
 40
0.0
 40
0.0
 40
0.1505918533
 40
0.222181666
 40
0.2913085105
 40
0.3580452063
 40
0.4225100111
 40
0.4848639276
 40
0.545322813
 40
0.604147953
 40
0.6616475693
 40
0.7181706817
 40
0.7740971701
 40
0.8298370583
 40
0.8858101578
 40
0.9424161653
 40
1.0
 40
1.0
 40
1.0
 40
1.0
 10
15.7325817757
 20
11.8416655092
 30
0.0
 10
15.7594602073
 20
11.8486248991
 30
0.0
 10
15.7986472516
 20
11.8609680584
 30
0.0
 10
15.848175998
 20
11.8818143435
 30
0.0
 10
15.8824059619
 20
11.8989498821
 30
0.0
 10
15.9142131073
 20
11.9177880011
 30
0.0
 10
15.9434878545
 20
11.9382597725
 30
0.0
 10
15.9701174744
 20
11.9603023708
 30
0.0
 10
15.9940076597
 20
11.9838336898
 30
0.0
 10
16.0150662933
 20
12.0087745207
 30
0.0
 10
16.0332081511
 20
12.0350375624
 30
0.0
 10
16.048369556
 20
12.0625211982
 30
0.0
 10
16.0604820922
 20
12.0911283346
 30
0.0
 10
16.0695021882
 20
12.1207500229
 30
0.0
 10
16.0753934152
 20
12.1512769731
 30
0.0
 10
16.078130098
 20
12.1825826923
 30
0.0
 10
16.077858806
 20
12.2036739695
 30
0.0
 10
16.0772173913
 20
12.2142713703
 30
0.0
  0
SPLINE
  5
356
100
AcDbEntity
  8
0
100
AcDbSpline
 62
7
  6
CONTINUOUS
 70
0
 71
3
 72
15
 73
11
 74
0
 42
0.0000001
 43
0.0000001
 44
0.0000000001
 40
0.0
 40
0.0
 40
0.0
 40
0.0
 40
0.1347095485
 40
0.2679105834
 40
0.3988474515
 40
0.526925992
 40
0.6515624294
 40
0.7722298019
 40
0.8885158095
 40
1.0
 40
1.0
 40
1.0
 40
1.0
 10
14.8495980908
 20
11.602022196
 30
0.0
 10
14.8206165027
 20
11.6129925457
 30
0.0
 10
14.7635200559
 20
11.6362766245
 30
0.0
 10
14.680428121
 20
11.6752791482
 30
0.0
 10
14.6008703319
 20
11.7179309379
 30
0.0
 10
14.5254741053
 20
11.763894181
 30
0.0
 10
14.4548105679
 20
11.8128113669
 30
0.0
 10
14.3894229188
 20
11.8643176543
 30
0.0
 10
14.32983015
 20
11.9180094205
 30
0.0
 10
14.2934654788
 20
11.9558125619
 30
0.0
 10
14.2764395379
 20
11.9749911387
 30
0.0
  0
SPLINE
  5
357
100
AcDbEntity
  8
0
100
AcDbSpline
 62
7
  6
CONTINUOUS
 70
0
 71
3
 72
15
 73
11
 74
0
 42
0.0000001
 43
0.0000001
 44
0.0000000001
 40
0.0
 40
0.0
 40
0.0
 40
0.0
 40
0.136087312
 40
0.2683861139
 40
0.3970966877
 40
0.5225051269
 40
0.6450158471
 40
0.7650914987
 40
0.8832394991
 40
1.0
 40
1.0
 40
1.0
 40
1.0
 10
15.9598969103
 20
11.602022196
 30
0.0
 10
15.9702291596
 20
11.6082451179
 30
0.0
 10
15.9902367971
 20
11.6211459154
 30
0.0
 10
16.0185222217
 20
11.6421321594
 30
0.0
 10
16.0445663027
 20
11.664418602
 30
0.0
 10
16.068287672
 20
11.6879492761
 30
0.0
 10
16.0896273482
 20
11.7126595417
 30
0.0
 10
16.1085283998
 20
11.7384918688
 30
0.0
 10
16.1249386788
 20
11.765377683
 30
0.0
 10
16.134234161
 20
11.7840421629
 30
0.0
 10
16.1384356379
 20
11.7934994564
 30
0.0
  0
SPLINE
  5
358
100
AcDbEntity
  8
0
100
AcDbSpline
 62
7
  6
CONTINUOUS
 70
0
 71
3
 72
9
 73
5
 74
0
 42
0.0000001
 43
0.0000001
 44
0.0000000001
 40
0.0
 40
0.0
 40
0.0
 40
0.0
 40
0.4872520871
 40
1.0
 40
1.0
 40
1.0
 40
1.0
 10
15.9227966033
 20
11.4053959049
 30
0.0
 10
15.9240129865
 20
11.4056177876
 30
0.0
 10
15.9265196096
 20
11.4060233188
 30
0.0
 10
15.9290586892
 20
11.4061896945
 30
0.0
 10
15.930359842
 20
11.4061902608
 30
0.0
  0
SPLINE
  5
359
100
AcDbEntity
  8
0
100
AcDbSpline
 62
7
  6
CONTINUOUS
 70
0
 71
3
 72
26
 73
22
 74
0
 42
0.0000001
 43
0.0000001
 44
0.0000000001
 40
0.0
 40
0.0
 40
0.0
 40
0.0
 40
0.130648525
 40
0.2598421657
 40
0.3874971838
 40
0.4507039316
 40
0.5134526216
 40
0.5756999776
 40
0.6373888649
 40
0.6984438363
 40
0.7587671385
 40
0.7886283831
 40
0.8182694055
 40
0.8476884479
 40
0.8769127805
 40
0.9060507138
 40
0.9354434276
 40
0.9505369296
 40
0.9661570115
 40
0.9825772941
 40
1.0
 40
1.0
 40
1.0
 40
1.0
 10
16.6476165933
 20
11.4801645136
 30
0.0
 10
16.6485434421
 20
11.4768425951
 30
0.0
 10
16.6502590823
 20
11.4701992106
 30
0.0
 10
16.6524109955
 20
11.4601963298
 30
0.0
 10
16.6538144779
 20
11.4518611907
 30
0.0
 10
16.6546605002
 20
11.4452193835
 30
0.0
 10
16.6551401339
 20
11.4402736329
 30
0.0
 10
16.6554469614
 20
11.4353540731
 30
0.0
 10
16.6555526845
 20
11.4304702225
 30
0.0
 10
16.6554159754
 20
11.4256374135
 30
0.0
 10
16.6550467162
 20
11.4216577427
 30
0.0
 10
16.6545429681
 20
11.418533793
 30
0.0
 10
16.6540413625
 20
11.4162391753
 30
0.0
 10
16.6533859427
 20
11.4140003362
 30
0.0
 10
16.6525330197
 20
11.411840966
 30
0.0
 10
16.6514159563
 20
11.4098032319
 30
0.0
 10
16.6501735845
 20
11.4082836103
 30
0.0
 10
16.6489331034
 20
11.4072846606
 30
0.0
 10
16.6478389496
 20
11.4066770613
 30
0.0
 10
16.6465862109
 20
11.4062782132
 30
0.0
 10
16.6456895292
 20
11.4061903274
 30
0.0
 10
16.6452296132
 20
11.4061903274
 30
0.0
  0
SPLINE
  5
35A
100
AcDbEntity
  8
0
100
AcDbSpline
 62
7
  6
CONTINUOUS
 70
0
 71
3
 72
15
 73
11
 74
0
 42
0.0000001
 43
0.0000001
 44
0.0000000001
 40
0.0
 40
0.0
 40
0.0
 40
0.0
 40
0.1368656839
 40
0.2701601545
 40
0.3995476858
 40
0.5251947475
 40
0.6474980042
 40
0.7669692321
 40
0.8842147453
 40
1.0
 40
1.0
 40
1.0
 40
1.0
 10
14.9239602659
 20
12.5095555316
 30
0.0
 10
14.9273460595
 20
12.5095555316
 30
0.0
 10
14.9340364053
 20
12.5091714724
 30
0.0
 10
14.9437892872
 20
12.507422608
 30
0.0
 10
14.9529766353
 20
12.5045218464
 30
0.0
 10
14.961449704
 20
12.50053556
 30
0.0
 10
14.9690758187
 20
12.4955330849
 30
0.0
 10
14.9757388557
 20
12.4896104591
 30
0.0
 10
14.9813255758
 20
12.4828719175
 30
0.0
 10
14.9842826913
 20
12.4778905624
 30
0.0
 10
14.9855449067
 20
12.4753193658
 30
0.0
  0
SPLINE
  5
35B
100
AcDbEntity
  8
0
100
AcDbSpline
 62
7
  6
CONTINUOUS
 70
0
 71
3
 72
15
 73
11
 74
0
 42
0.0000001
 43
0.0000001
 44
0.0000000001
 40
0.0
 40
0.0
 40
0.0
 40
0.0
 40
0.116436087
 40
0.2337720225
 40
0.3528751051
 40
0.4745639416
 40
0.5995780971
 40
0.7285553171
 40
0.8619327397
 40
1.0
 40
1.0
 40
1.0
 40
1.0
 10
14.5882625473
 20
12.0610042609
 30
0.0
 10
14.5865186194
 20
12.0553589528
 30
0.0
 10
14.5836298232
 20
12.0438252627
 30
0.0
 10
14.5811610347
 20
12.0260572198
 30
0.0
 10
14.5805617486
 20
12.0078610848
 30
0.0
 10
14.5818313599
 20
11.9893116234
 30
0.0
 10
14.5849596632
 20
11.9704779097
 30
0.0
 10
14.5899384513
 20
11.9514353945
 30
0.0
 10
14.5967345479
 20
11.9322631234
 30
0.0
 10
14.6023553974
 20
11.9196704352
 30
0.0
 10
14.6054419305
 20
11.913380742
 30
0.0
  0
SPLINE
  5
35C
100
AcDbEntity
  8
0
100
AcDbSpline
 62
7
  6
CONTINUOUS
 70
0
 71
3
 72
14
 73
10
 74
0
 42
0.0000001
 43
0.0000001
 44
0.0000000001
 40
0.0
 40
0.0
 40
0.0
 40
0.0
 40
0.1256860308
 40
0.2551237241
 40
0.3854600313
 40
0.5148761194
 40
0.6420767612
 40
0.7658752226
 40
1.0
 40
1.0
 40
1.0
 40
1.0
 10
15.9227964371
 20
11.4053959049
 30
0.0
 10
15.921941669
 20
11.4052400184
 30
0.0
 10
15.9201576843
 20
11.4051654879
 30
0.0
 10
15.9175209264
 20
11.405640186
 30
0.0
 10
15.9149780428
 20
11.4065509741
 30
0.0
 10
15.9126081946
 20
11.4078091543
 30
0.0
 10
15.9104628057
 20
11.4093446967
 30
0.0
 10
15.9080075965
 20
11.4116361045
 30
0.0
 10
15.9065418939
 20
11.4136871076
 30
0.0
 10
15.9058288386
 20
11.4151400712
 30
0.0
  0
SPLINE
  5
35D
100
AcDbEntity
  8
0
100
AcDbSpline
 62
7
  6
CONTINUOUS
 70
0
 71
3
 72
9
 73
5
 74
0
 42
0.0000001
 43
0.0000001
 44
0.0000000001
 40
0.0
 40
0.0
 40
0.0
 40
0.0
 40
0.2397343328
 40
1.0
 40
1.0
 40
1.0
 40
1.0
 10
15.7285902682
 20
12.10162399
 30
0.0
 10
15.7289351755
 20
12.1009211428
 30
0.0
 10
15.7303200023
 20
12.097963011
 30
0.0
 10
15.7314996323
 20
12.0949106701
 30
0.0
 10
15.7322998009
 20
12.0925602985
 30
0.0
  0
LINE
  5
35E
100
AcDbEntity
  8
0
100
AcDbLine
 62
7
  6
CONTINUOUS
 10
15.7322998009
 20
12.0925602985
 11
15.7346459479
 21
12.0845625457
  0
SPLINE
  5
35F
100
AcDbEntity
  8
0
100
AcDbSpline
 62
7
  6
CONTINUOUS
 70
0
 71
3
 72
15
 73
11
 74
0
 42
0.0000001
 43
0.0000001
 44
0.0000000001
 40
0.0
 40
0.0
 40
0.0
 40
0.0
 40
0.1122466879
 40
0.2315095794
 40
0.3563696189
 40
0.4851099466
 40
0.6158588425
 40
0.7466301998
 40
0.8753708924
 40
1.0
 40
1.0
 40
1.0
 40
1.0
 10
15.7346459479
 20
12.0845625457
 30
0.0
 10
15.7354974869
 20
12.0811629503
 30
0.0
 10
15.7369271225
 20
12.0740673329
 30
0.0
 10
15.7383028762
 20
12.0630177524
 30
0.0
 10
15.7389868188
 20
12.0513887733
 30
0.0
 10
15.7390121155
 20
12.039382755
 30
0.0
 10
15.7384116361
 20
12.0272077785
 30
0.0
 10
15.7372432789
 20
12.015074772
 30
0.0
 10
15.7355642135
 20
12.0031953681
 30
0.0
 10
15.7341144208
 20
11.995415337
 30
0.0
 10
15.7333123527
 20
11.9916076652
 30
0.0
  0
SPLINE
  5
360
100
AcDbEntity
  8
0
100
AcDbSpline
 62
7
  6
CONTINUOUS
 70
0
 71
3
 72
11
 73
7
 74
0
 42
0.0000001
 43
0.0000001
 44
0.0000000001
 40
0.0
 40
0.0
 40
0.0
 40
0.0
 40
0.2758482781
 40
0.5362582032
 40
0.7783922316
 40
1.0
 40
1.0
 40
1.0
 40
1.0
 10
15.7329814169
 20
11.9900612041
 30
0.0
 10
15.7323336427
 20
11.9870811392
 30
0.0
 10
15.7309661368
 20
11.9813105423
 30
0.0
 10
15.7286378506
 20
11.9730231286
 30
0.0
 10
15.7261164156
 20
11.9654215019
 30
0.0
 10
15.7242375237
 20
11.9606471115
 30
0.0
 10
15.7232600533
 20
11.9584005508
 30
0.0
  0
SPLINE
  5
361
100
AcDbEntity
  8
0
100
AcDbSpline
 62
7
  6
CONTINUOUS
 70
0
 71
3
 72
10
 73
6
 74
0
 42
0.0000001
 43
0.0000001
 44
0.0000000001
 40
0.0
 40
0.0
 40
0.0
 40
0.0
 40
0.5399418068
 40
0.7799174875
 40
1.0
 40
1.0
 40
1.0
 40
1.0
 10
15.7221091668
 20
11.955855936
 30
0.0
 10
15.7210622779
 20
11.9536311891
 30
0.0
 10
15.7194178831
 20
11.9504729183
 30
0.0
 10
15.7169426217
 20
11.9466475186
 30
0.0
 10
15.7156766776
 20
11.944974692
 30
0.0
 10
15.715035346
 20
11.9442045648
 30
0.0
  0
SPLINE
  5
362
100
AcDbEntity
  8
0
100
AcDbSpline
 62
7
  6
CONTINUOUS
 70
0
 71
3
 72
12
 73
8
 74
0
 42
0.0000001
 43
0.0000001
 44
0.0000000001
 40
0.0
 40
0.0
 40
0.0
 40
0.0
 40
0.2945716886
 40
0.552806299
 40
0.7833760958
 40
0.8925051553
 40
1.0
 40
1.0
 40
1.0
 40
1.0
 10
15.715035346
 20
11.9442045648
 30
0.0
 10
15.7142108197
 20
11.943214453
 30
0.0
 10
15.7125490859
 20
11.9414441046
 30
0.0
 10
15.7098036994
 20
11.939361132
 30
0.0
 10
15.7073930475
 20
11.9382694171
 30
0.0
 10
15.7054764276
 20
11.9378506744
 30
0.0
 10
15.7045274501
 20
11.9377821406
 30
0.0
 10
15.7040572614
 20
11.9377822357
 30
0.0
  0
SPLINE
  5
363
100
AcDbEntity
  8
0
100
AcDbSpline
 62
7
  6
CONTINUOUS
 70
0
 71
3
 72
17
 73
13
 74
0
 42
0.0000001
 43
0.0000001
 44
0.0000000001
 40
0.0
 40
0.0
 40
0.0
 40
0.0
 40
0.0632857687
 40
0.1258920876
 40
0.1882998158
 40
0.2509865605
 40
0.3780028892
 40
0.5073631181
 40
0.6374486568
 40
0.7654108081
 40
0.8875438753
 40
1.0
 40
1.0
 40
1.0
 40
1.0
 10
14.7664452328
 20
11.4053959049
 30
0.0
 10
14.767138444
 20
11.4052886771
 30
0.0
 10
14.768536415
 20
11.4051825015
 30
0.0
 10
14.7706243322
 20
11.405338167
 30
0.0
 10
14.7726660849
 20
11.4057624232
 30
0.0
 10
14.7753306674
 20
11.4066173947
 30
0.0
 10
14.7785375927
 20
11.4081452229
 30
0.0
 10
14.7821418865
 20
11.4104739153
 30
0.0
 10
14.7855087974
 20
11.4131494582
 30
0.0
 10
14.7885546423
 20
11.4160693183
 30
0.0
 10
14.7912184311
 20
11.4190840199
 30
0.0
 10
14.792762672
 20
11.4211815198
 30
0.0
 10
14.7934504156
 20
11.4222210688
 30
0.0
  0
SPLINE
  5
364
100
AcDbEntity
  8
0
100
AcDbSpline
 62
7
  6
CONTINUOUS
 70
0
 71
3
 72
9
 73
5
 74
0
 42
0.0000001
 43
0.0000001
 44
0.0000000001
 40
0.0
 40
0.0
 40
0.0
 40
0.0
 40
0.492791151
 40
1.0
 40
1.0
 40
1.0
 40
1.0
 10
14.7581021504
 20
11.4061903647
 30
0.0
 10
14.759479794
 20
11.4061897654
 30
0.0
 10
14.7622752335
 20
11.4060028201
 30
0.0
 10
14.7650439546
 20
11.4056127016
 30
0.0
 10
14.7664452328
 20
11.4053959049
 30
0.0
  0
SPLINE
  5
365
100
AcDbEntity
  8
0
100
AcDbSpline
 62
7
  6
CONTINUOUS
 70
0
 71
3
 72
11
 73
7
 74
0
 42
0.0000001
 43
0.0000001
 44
0.0000000001
 40
0.0
 40
0.0
 40
0.0
 40
0.0
 40
0.2373710045
 40
0.48247143
 40
0.7364019499
 40
1.0
 40
1.0
 40
1.0
 40
1.0
 10
14.108669418
 20
12.3168706978
 30
0.0
 10
14.1099919862
 20
12.3027556462
 30
0.0
 10
14.1141846922
 20
12.2741889677
 30
0.0
 10
14.1247774007
 20
12.2314390076
 30
0.0
 10
14.1397125803
 20
12.1883493703
 30
0.0
 10
14.1522729754
 20
12.1600641561
 30
0.0
 10
14.1592085611
 20
12.1459309183
 30
0.0
  0
SPLINE
  5
366
100
AcDbEntity
  8
0
100
AcDbSpline
 62
7
  6
CONTINUOUS
 70
0
 71
3
 72
9
 73
5
 74
0
 42
0.0000001
 43
0.0000001
 44
0.0000000001
 40
0.0
 40
0.0
 40
0.0
 40
0.0
 40
0.2454463342
 40
1.0
 40
1.0
 40
1.0
 40
1.0
 10
14.1592085611
 20
12.1459309183
 30
0.0
 10
14.1614851862
 20
12.1412916442
 30
0.0
 10
14.1709982143
 20
12.1225074191
 30
0.0
 10
14.1814379626
 20
12.1041954837
 30
0.0
 10
14.1897619604
 20
12.0906639564
 30
0.0
  0
SPLINE
  5
367
100
AcDbEntity
  8
0
100
AcDbSpline
 62
7
  6
CONTINUOUS
 70
0
 71
3
 72
23
 73
19
 74
0
 42
0.0000001
 43
0.0000001
 44
0.0000000001
 40
0.0
 40
0.0
 40
0.0
 40
0.0
 40
0.1129563659
 40
0.1701322033
 40
0.2277806377
 40
0.3446742978
 40
0.4640814141
 40
0.5249217585
 40
0.5867175947
 40
0.6497354652
 40
0.7143168656
 40
0.7809264565
 40
0.8152359056
 40
0.8504174013
 40
0.8866890703
 40
0.9241972243
 40
0.9626357806
 40
1.0
 40
1.0
 40
1.0
 40
1.0
 10
14.1897619604
 20
12.0906639564
 30
0.0
 10
14.1882083715
 20
12.0931890429
 30
0.0
 10
14.1858190211
 20
12.0969624174
 30
0.0
 10
14.1825026157
 20
12.10193698
 30
0.0
 10
14.179056841
 20
12.1069487499
 30
0.0
 10
14.1745330444
 20
12.113200435
 30
0.0
 10
14.1697292817
 20
12.1193473437
 30
0.0
 10
14.165654905
 20
12.1242222861
 30
0.0
 10
14.1624324835
 20
12.1278783987
 30
0.0
 10
14.159022777
 20
12.1314973396
 30
0.0
 10
14.1553745968
 20
12.1350596478
 30
0.0
 10
14.1521106397
 20
12.1379307441
 30
0.0
 10
14.1493025741
 20
12.1401402514
 30
0.0
 10
14.1470421082
 20
12.1417538579
 30
0.0
 10
14.1446118784
 20
12.1432659912
 30
0.0
 10
14.1419807583
 20
12.1446021862
 30
0.0
 10
14.1391760327
 20
12.1456162105
 30
0.0
 10
14.1371858882
 20
12.1459295874
 30
0.0
 10
14.1362051974
 20
12.1459303968
 30
0.0
  0
SPLINE
  5
368
100
AcDbEntity
  8
0
100
AcDbSpline
 62
7
  6
CONTINUOUS
 70
0
 71
3
 72
19
 73
15
 74
0
 42
0.0000001
 43
0.0000001
 44
0.0000000001
 40
0.0
 40
0.0
 40
0.0
 40
0.0
 40
0.0505156182
 40
0.1028546558
 40
0.2129341847
 40
0.2706853269
 40
0.3301870913
 40
0.3913794349
 40
0.4541759534
 40
0.5184790374
 40
0.5841763994
 40
0.7192238263
 40
0.8582416845
 40
1.0
 40
1.0
 40
1.0
 40
1.0
 10
15.8114618878
 20
12.3697966493
 30
0.0
 10
15.807432308
 20
12.3780080696
 30
0.0
 10
15.798620152
 20
12.3944355997
 30
0.0
 10
15.7781851541
 20
12.4271551432
 30
0.0
 10
15.7539281983
 20
12.4589276745
 30
0.0
 10
15.7264208896
 20
12.4895649272
 30
0.0
 10
15.7036306443
 20
12.5124901436
 30
0.0
 10
15.6790951763
 20
12.5349101075
 30
0.0
 10
15.652901385
 20
12.5567515205
 30
0.0
 10
15.6251383357
 20
12.5779329118
 30
0.0
 10
15.5858030675
 20
12.6054476978
 30
0.0
 10
15.533311846
 20
12.6376617838
 30
0.0
 10
15.4663529983
 20
12.6722246848
 30
0.0
 10
15.4196002954
 20
12.6923208058
 30
0.0
 10
15.3956874733
 20
12.7016498465
 30
0.0
  0
SPLINE
  5
369
100
AcDbEntity
  8
0
100
AcDbSpline
 62
7
  6
CONTINUOUS
 70
0
 71
3
 72
24
 73
20
 74
0
 42
0.0000001
 43
0.0000001
 44
0.0000000001
 40
0.0
 40
0.0
 40
0.0
 40
0.0
 40
0.1570341643
 40
0.2335144656
 40
0.3081222677
 40
0.3805275055
 40
0.4504383457
 40
0.5176169514
 40
0.5818843708
 40
0.6431362005
 40
0.7013538854
 40
0.7566182768
 40
0.8091267154
 40
0.8591995733
 40
0.9072914496
 40
0.9307856598
 40
0.9540097377
 40
0.9770510278
 40
1.0
 40
1.0
 40
1.0
 40
1.0
 10
15.2236109082
 20
12.7535684382
 30
0.0
 10
15.1863863364
 20
12.7616560598
 30
0.0
 10
15.1303554758
 20
12.7708872211
 30
0.0
 10
15.0558295945
 20
12.7769444845
 30
0.0
 10
15.0015977701
 20
12.7782482183
 30
0.0
 10
14.9489778004
 20
12.7763495424
 30
0.0
 10
14.8983772162
 20
12.77125455
 30
0.0
 10
14.8501907813
 20
12.7630082948
 30
0.0
 10
14.8047935071
 20
12.7516667132
 30
0.0
 10
14.7625373891
 20
12.7373167613
 30
0.0
 10
14.7237508828
 20
12.7200610538
 30
0.0
 10
14.6887383765
 20
12.7000220208
 30
0.0
 10
14.6577757394
 20
12.6773428468
 30
0.0
 10
14.6311250219
 20
12.6521840974
 30
0.0
 10
14.6125452905
 20
12.6291152835
 30
0.0
 10
14.6001748901
 20
12.6097050571
 30
0.0
 10
14.5921665999
 20
12.5947785832
 30
0.0
 10
14.585374807
 20
12.5794066791
 30
0.0
 10
14.581664185
 20
12.5688715177
 30
0.0
 10
14.5800206896
 20
12.5635527343
 30
0.0
  0
SPLINE
  5
36A
100
AcDbEntity
  8
0
100
AcDbSpline
 62
7
  6
CONTINUOUS
 70
0
 71
3
 72
33
 73
29
 74
0
 42
0.0000001
 43
0.0000001
 44
0.0000000001
 40
0.0
 40
0.0
 40
0.0
 40
0.0
 40
0.0304388967
 40
0.0631280323
 40
0.1344159716
 40
0.2121282486
 40
0.2943238231
 40
0.3787639652
 40
0.4630929213
 40
0.5449646157
 40
0.6221629368
 40
0.658381803
 40
0.6927231686
 40
0.7249987155
 40
0.7550577598
 40
0.7828133748
 40
0.8082229002
 40
0.8313159609
 40
0.8522436415
 40
0.8712748278
 40
0.8888332999
 40
0.9055236987
 40
0.922063857
 40
0.9391984981
 40
0.9575875422
 40
0.9674237634
 40
0.9777484503
 40
1.0
 40
1.0
 40
1.0
 40
1.0
 10
15.6886626371
 20
11.969437574
 30
0.0
 10
15.687926377
 20
11.9709379142
 30
0.0
 10
15.6865186038
 20
11.9741088171
 30
0.0
 10
15.68395227
 20
11.9810322315
 30
0.0
 10
15.6812838223
 20
11.990664104
 30
0.0
 10
15.6789962237
 20
12.0031636754
 30
0.0
 10
15.6776119816
 20
12.0165207453
 30
0.0
 10
15.6771739801
 20
12.0303042824
 30
0.0
 10
15.6777008014
 20
12.0440674431
 30
0.0
 10
15.6791748852
 20
12.0573615058
 30
0.0
 10
15.6811874914
 20
12.0679080853
 30
0.0
 10
15.6832641242
 20
12.0757534847
 30
0.0
 10
15.6849837339
 20
12.0811343354
 30
0.0
 10
15.6868847943
 20
12.0860937258
 30
0.0
 10
15.6889542387
 20
12.0905908669
 30
0.0
 10
15.6911728111
 20
12.094591291
 30
0.0
 10
15.6935237889
 20
12.0980639216
 30
0.0
 10
15.6959935987
 20
12.1009793187
 30
0.0
 10
15.6985637567
 20
12.1033160248
 30
0.0
 10
15.7012200629
 20
12.1050536693
 30
0.0
 10
15.7039496446
 20
12.1061633671
 30
0.0
 10
15.7067249237
 20
12.106624436
 30
0.0
 10
15.7095089391
 20
12.1064247851
 30
0.0
 10
15.7122591431
 20
12.1055654188
 30
0.0
 10
15.7144493113
 20
12.1043478157
 30
0.0
 10
15.7161569257
 20
12.1030944095
 30
0.0
 10
15.7179221654
 20
12.1015725612
 30
0.0
 10
15.7191457968
 20
12.1002588348
 30
0.0
 10
15.7199281802
 20
12.0993204874
 30
0.0
  0
SPLINE
  5
36B
100
AcDbEntity
  8
0
100
AcDbSpline
 62
7
  6
CONTINUOUS
 70
0
 71
3
 72
20
 73
16
 74
0
 42
0.0000001
 43
0.0000001
 44
0.0000000001
 40
0.0
 40
0.0
 40
0.0
 40
0.0
 40
0.044395405
 40
0.0838848037
 40
0.119286699
 40
0.1518997342
 40
0.2125477018
 40
0.2709694402
 40
0.3290325403
 40
0.3873739574
 40
0.5055795128
 40
0.6261847676
 40
0.7489969172
 40
0.8736771256
 40
1.0
 40
1.0
 40
1.0
 40
1.0
 10
16.1394669207
 20
12.1459306581
 30
0.0
 10
16.1389258657
 20
12.1459302112
 30
0.0
 10
16.1378996559
 20
12.1458393868
 30
0.0
 10
16.1364988912
 20
12.145413904
 30
0.0
 10
16.135341145
 20
12.1447824424
 30
0.0
 10
16.134121208
 20
12.1437855757
 30
0.0
 10
16.1329888044
 20
12.1422923165
 30
0.0
 10
16.1320964087
 20
12.1403153885
 30
0.0
 10
16.1315076766
 20
12.1382623093
 30
0.0
 10
16.1310078326
 20
12.1354435272
 30
0.0
 10
16.1307917756
 20
12.131817436
 30
0.0
 10
16.1309757971
 20
12.1274098377
 30
0.0
 10
16.1314789459
 20
12.122949301
 30
0.0
 10
16.1322152077
 20
12.1184520952
 30
0.0
 10
16.1328296332
 20
12.1154545835
 30
0.0
 10
16.13316437
 20
12.1139518939
 30
0.0
  0
SPLINE
  5
36C
100
AcDbEntity
  8
0
100
AcDbSpline
 62
7
  6
CONTINUOUS
 70
0
 71
3
 72
15
 73
11
 74
0
 42
0.0000001
 43
0.0000001
 44
0.0000000001
 40
0.0
 40
0.0
 40
0.0
 40
0.0
 40
0.1398947582
 40
0.275607137
 40
0.4066237484
 40
0.5328902208
 40
0.6547261614
 40
0.7726666319
 40
0.8874471679
 40
1.0
 40
1.0
 40
1.0
 40
1.0
 10
14.928230852
 20
12.5008529921
 30
0.0
 10
14.9312636125
 20
12.5008529921
 30
0.0
 10
14.9372427447
 20
12.5005769698
 30
0.0
 10
14.9459809957
 20
12.4993097709
 30
0.0
 10
14.9542532138
 20
12.4972001006
 30
0.0
 10
14.9619527115
 20
12.4942711007
 30
0.0
 10
14.9689901945
 20
12.4905588233
 30
0.0
 10
14.9752796012
 20
12.4860991673
 30
0.0
 10
14.9807470373
 20
12.4809516775
 30
0.0
 10
14.9838152904
 20
12.477067304
 30
0.0
 10
14.9851786715
 20
12.4750437226
 30
0.0
  0
SPLINE
  5
36D
100
AcDbEntity
  8
0
100
AcDbSpline
 62
7
  6
CONTINUOUS
 70
0
 71
3
 72
10
 73
6
 74
0
 42
0.0000001
 43
0.0000001
 44
0.0000000001
 40
0.0
 40
0.0
 40
0.0
 40
0.0
 40
0.2235904671
 40
0.5890785242
 40
1.0
 40
1.0
 40
1.0
 40
1.0
 10
15.6987029794
 20
12.1205372927
 30
0.0
 10
15.6995805155
 20
12.120203407
 30
0.0
 10
15.7018192196
 20
12.1191237202
 30
0.0
 10
15.7052206363
 20
12.1166135876
 30
0.0
 10
15.7074768743
 20
12.114239919
 30
0.0
 10
15.7085820754
 20
12.1129147509
 30
0.0
  0
SPLINE
  5
36E
100
AcDbEntity
  8
0
100
AcDbSpline
 62
7
  6
CONTINUOUS
 70
0
 71
3
 72
18
 73
14
 74
0
 42
0.0000001
 43
0.0000001
 44
0.0000000001
 40
0.0
 40
0.0
 40
0.0
 40
0.0
 40
0.1192554316
 40
0.2396482889
 40
0.3613901946
 40
0.4847888405
 40
0.6103069078
 40
0.6740872162
 40
0.7386863776
 40
0.8042040542
 40
0.8373207655
 40
0.8706332289
 40
1.0
 40
1.0
 40
1.0
 40
1.0
 10
14.0151605577
 20
11.4385615416
 30
0.0
 10
14.0159348992
 20
11.4369836565
 30
0.0
 10
14.0175358687
 20
11.4338345723
 30
0.0
 10
14.0201025235
 20
11.4291662535
 30
0.0
 10
14.0228778679
 20
11.4245467439
 30
0.0
 10
14.0259114777
 20
11.4200007886
 30
0.0
 10
14.028705457
 20
11.4163293614
 30
0.0
 10
14.0311670302
 20
11.4135089771
 30
0.0
 10
14.033168074
 20
11.4114657271
 30
0.0
 10
14.0349777715
 20
11.4098766277
 30
0.0
 10
14.0365396618
 20
11.4087121741
 30
0.0
 10
14.0389499131
 20
11.4071478209
 30
0.0
 10
14.0413256311
 20
11.4061903274
 30
0.0
 10
14.0432323051
 20
11.4061903274
 30
0.0
  0
SPLINE
  5
36F
100
AcDbEntity
  8
0
100
AcDbSpline
 62
7
  6
CONTINUOUS
 70
0
 71
3
 72
29
 73
25
 74
0
 42
0.0000001
 43
0.0000001
 44
0.0000000001
 40
0.0
 40
0.0
 40
0.0
 40
0.0
 40
0.064581794
 40
0.0955184993
 40
0.1254434242
 40
0.1823765706
 40
0.209681583
 40
0.2363776392
 40
0.262647857
 40
0.288707948
 40
0.3147874923
 40
0.3411132632
 40
0.3952216285
 40
0.452466604
 40
0.5135314275
 40
0.5455664649
 40
0.5785194238
 40
0.6467937967
 40
0.7175026223
 40
0.7534325274
 40
0.7895098656
 40
0.8614045867
 40
0.9320051177
 40
1.0
 40
1.0
 40
1.0
 40
1.0
 10
14.9200242291
 20
12.498427238
 30
0.0
 10
14.9245237029
 20
12.498427238
 30
0.0
 10
14.9312018985
 20
12.4978832078
 30
0.0
 10
14.9397387042
 20
12.4959554988
 30
0.0
 10
14.9475318974
 20
12.4933523648
 30
0.0
 10
14.9546618261
 20
12.4896458133
 30
0.0
 10
14.9607641343
 20
12.484874999
 30
0.0
 10
14.9647128752
 20
12.480892039
 30
0.0
 10
14.9680500827
 20
12.4764920052
 30
0.0
 10
14.9707379236
 20
12.4717167559
 30
0.0
 10
14.9727552492
 20
12.466617247
 30
0.0
 10
14.9745350965
 20
12.4593927952
 30
0.0
 10
14.9749417181
 20
12.4496958355
 30
0.0
 10
14.9725552879
 20
12.4378241958
 30
0.0
 10
14.9683713438
 20
12.4281424107
 30
0.0
 10
14.9638170446
 20
12.4206232654
 30
0.0
 10
14.9583313996
 20
12.4131192914
 30
0.0
 10
14.9500705575
 20
12.4043701503
 30
0.0
 10
14.940434875
 20
12.3968356784
 30
0.0
 10
14.9319857081
 20
12.3915799696
 30
0.0
 10
14.9231141402
 20
12.3868946591
 30
0.0
 10
14.9115173528
 20
12.3822623178
 30
0.0
 10
14.897213309
 20
12.3788172723
 30
0.0
 10
14.8875437987
 20
12.3779907256
 30
0.0
 10
14.8828065319
 20
12.3779907256
 30
0.0
  0
SPLINE
  5
370
100
AcDbEntity
  8
0
100
AcDbSpline
 62
7
  6
CONTINUOUS
 70
0
 71
3
 72
29
 73
25
 74
0
 42
0.0000001
 43
0.0000001
 44
0.0000000001
 40
0.0
 40
0.0
 40
0.0
 40
0.0
 40
0.064581794
 40
0.0955184993
 40
0.1254434242
 40
0.1823765706
 40
0.209681583
 40
0.2363776392
 40
0.262647857
 40
0.288707948
 40
0.3147874923
 40
0.3411132632
 40
0.3952216285
 40
0.452466604
 40
0.5135314275
 40
0.5455664649
 40
0.5785194238
 40
0.6467937967
 40
0.7175026223
 40
0.7534325274
 40
0.7895098656
 40
0.8614045867
 40
0.9320051177
 40
1.0
 40
1.0
 40
1.0
 40
1.0
 10
14.8828065319
 20
12.3779907256
 30
0.0
 10
14.8783070582
 20
12.3779907256
 30
0.0
 10
14.8716288626
 20
12.3785347557
 30
0.0
 10
14.8630920569
 20
12.3804624647
 30
0.0
 10
14.8552988637
 20
12.3830655988
 30
0.0
 10
14.8481689349
 20
12.3867721502
 30
0.0
 10
14.8420666267
 20
12.3915429645
 30
0.0
 10
14.8381178859
 20
12.3955259246
 30
0.0
 10
14.8347806783
 20
12.3999259583
 30
0.0
 10
14.8320928375
 20
12.4047012076
 30
0.0
 10
14.8300755118
 20
12.4098007166
 30
0.0
 10
14.8282956646
 20
12.4170251683
 30
0.0
 10
14.827889043
 20
12.4267221281
 30
0.0
 10
14.8302754732
 20
12.4385937678
 30
0.0
 10
14.8344594173
 20
12.4482755528
 30
0.0
 10
14.8390137164
 20
12.4557946981
 30
0.0
 10
14.8444993614
 20
12.4632986722
 30
0.0
 10
14.8527602035
 20
12.4720478132
 30
0.0
 10
14.862395886
 20
12.4795822851
 30
0.0
 10
14.870845053
 20
12.484837994
 30
0.0
 10
14.8797166208
 20
12.4895233044
 30
0.0
 10
14.8913134083
 20
12.4941556457
 30
0.0
 10
14.905617452
 20
12.4976006912
 30
0.0
 10
14.9152869624
 20
12.498427238
 30
0.0
 10
14.9200242291
 20
12.498427238
 30
0.0
  0
SPLINE
  5
371
100
AcDbEntity
  8
0
100
AcDbSpline
 62
7
  6
CONTINUOUS
 70
0
 71
3
 72
39
 73
35
 74
0
 42
0.0000001
 43
0.0000001
 44
0.0000000001
 40
0.0
 40
0.0
 40
0.0
 40
0.0
 40
0.0265217587
 40
0.0543710186
 40
0.0835354128
 40
0.1139908432
 40
0.1456934161
 40
0.1785641151
 40
0.2125005394
 40
0.2473823579
 40
0.2830750874
 40
0.3194316689
 40
0.3562943613
 40
0.3934992507
 40
0.4682347901
 40
0.5422915385
 40
0.6143384681
 40
0.6492347062
 40
0.6831863247
 40
0.7160748618
 40
0.747797361
 40
0.7782762691
 40
0.8074567298
 40
0.8353176842
 40
0.8618704337
 40
0.8871692407
 40
0.9113114338
 40
0.9344443015
 40
0.9456975942
 40
0.9567756439
 40
0.9677102881
 40
0.9785353881
 40
0.9892863672
 40
1.0
 40
1.0
 40
1.0
 40
1.0
 10
14.6054419305
 20
11.913380742
 30
0.0
 10
14.6097471348
 20
11.9046076581
 30
0.0
 10
14.6194892944
 20
11.8870613648
 30
0.0
 10
14.6367861699
 20
11.8615587662
 30
0.0
 10
14.6570093932
 20
11.8364206708
 30
0.0
 10
14.6800078602
 20
11.8118184952
 30
0.0
 10
14.7056309341
 20
11.7879166316
 30
0.0
 10
14.7337015487
 20
11.764868407
 30
0.0
 10
14.7640335212
 20
11.7428349454
 30
0.0
 10
14.7964180001
 20
11.7219623555
 30
0.0
 10
14.830636679
 20
11.702393972
 30
0.0
 10
14.8664559951
 20
11.6842613175
 30
0.0
 10
14.9036338512
 20
11.6676872586
 30
0.0
 10
14.954745364
 20
11.6477933156
 30
0.0
 10
15.0203247156
 20
11.627501715
 30
0.0
 10
15.1000965143
 20
11.6108584758
 30
0.0
 10
15.1665297545
 20
11.6036681162
 30
0.0
 10
15.2184473433
 20
11.6022215299
 30
0.0
 10
15.2559407452
 20
11.6032706361
 30
0.0
 10
15.2921433683
 20
11.6064262883
 30
0.0
 10
15.3268110491
 20
11.6116769938
 30
0.0
 10
15.3597101887
 20
11.6189797628
 30
0.0
 10
15.390617732
 20
11.6282956527
 30
0.0
 10
15.4193269705
 20
11.6395577624
 30
0.0
 10
15.4456417657
 20
11.6527011453
 30
0.0
 10
15.4693849856
 20
11.6676397215
 30
0.0
 10
15.4903881487
 20
11.6842813654
 30
0.0
 10
15.505625793
 20
11.6996288108
 30
0.0
 10
15.5162247718
 20
11.7126152824
 30
0.0
 10
15.5233309247
 20
11.7226146441
 30
0.0
 10
15.5296535705
 20
11.7329422947
 30
0.0
 10
15.5351827981
 20
11.7435805768
 30
0.0
 10
15.5399080648
 20
11.7545104224
 30
0.0
 10
15.5425171389
 20
11.7619854287
 30
0.0
 10
15.5436823077
 20
11.7657572231
 30
0.0
  0
SPLINE
  5
372
100
AcDbEntity
  8
0
100
AcDbSpline
 62
7
  6
CONTINUOUS
 70
0
 71
3
 72
15
 73
11
 74
0
 42
0.0000001
 43
0.0000001
 44
0.0000000001
 40
0.0
 40
0.0
 40
0.0
 40
0.0
 40
0.1164355757
 40
0.2337743067
 40
0.352880517
 40
0.4745683052
 40
0.599575201
 40
0.7285416981
 40
0.8619200682
 40
1.0
 40
1.0
 40
1.0
 40
1.0
 10
15.8340105313
 20
12.1760405643
 30
0.0
 10
15.8362999832
 20
12.1834498328
 30
0.0
 10
15.840091175
 20
12.1985881678
 30
0.0
 10
15.8433295746
 20
12.2219092845
 30
0.0
 10
15.8441174883
 20
12.2457919819
 30
0.0
 10
15.8424504887
 20
12.2701378368
 30
0.0
 10
15.8383448325
 20
12.2948557922
 30
0.0
 10
15.8318117835
 20
12.3198483767
 30
0.0
 10
15.8228912998
 20
12.3450120371
 30
0.0
 10
15.8155133374
 20
12.3615406631
 30
0.0
 10
15.8114618878
 20
12.3697966493
 30
0.0
  0
SPLINE
  5
373
100
AcDbEntity
  8
0
100
AcDbSpline
 62
7
  6
CONTINUOUS
 70
0
 71
3
 72
15
 73
11
 74
0
 42
0.0000001
 43
0.0000001
 44
0.0000000001
 40
0.0
 40
0.0
 40
0.0
 40
0.0
 40
0.134626174
 40
0.2662822261
 40
0.3949530542
 40
0.5206884622
 40
0.6436898281
 40
0.7643166078
 40
0.8829721041
 40
1.0
 40
1.0
 40
1.0
 40
1.0
 10
15.9098814911
 20
13.3899836507
 30
0.0
 10
15.903674457
 20
13.3913647954
 30
0.0
 10
15.8912709498
 20
13.3935657046
 30
0.0
 10
15.8726552564
 20
13.3951283673
 30
0.0
 10
15.8543921088
 20
13.3949077864
 30
0.0
 10
15.8366473163
 20
13.3929030043
 30
0.0
 10
15.8195808604
 20
13.389124186
 30
0.0
 10
15.8033451974
 20
13.3836043798
 30
0.0
 10
15.788100756
 20
13.3763901144
 30
0.0
 10
15.778636466
 20
13.3704706091
 30
0.0
 10
15.7741359184
 20
13.3672613118
 30
0.0
  0
SPLINE
  5
374
100
AcDbEntity
  8
0
100
AcDbSpline
 62
7
  6
CONTINUOUS
 70
0
 71
3
 72
48
 73
44
 74
0
 42
0.0000001
 43
0.0000001
 44
0.0000000001
 40
0.0
 40
0.0
 40
0.0
 40
0.0
 40
0.0107121312
 40
0.0214617281
 40
0.0322855891
 40
0.0432191053
 40
0.054296082
 40
0.0655480773
 40
0.0770037571
 40
0.0886891982
 40
0.1006276279
 40
0.1128386507
 40
0.1253389986
 40
0.1381427604
 40
0.151260518
 40
0.1647000333
 40
0.1925575797
 40
0.2217350068
 40
0.2368156743
 40
0.2522151035
 40
0.2839344936
 40
0.3168189385
 40
0.3507672451
 40
0.3856591687
 40
0.4213599118
 40
0.4577215602
 40
0.4945869365
 40
0.5317915455
 40
0.5691661617
 40
0.6065394422
 40
0.6437398356
 40
0.6805984381
 40
0.7169506344
 40
0.7526395519
 40
0.7875175748
 40
0.8214494677
 40
0.8543162643
 40
0.8860167357
 40
0.9164708223
 40
0.931215407
 40
0.9456325227
 40
0.9734746365
 40
1.0
 40
1.0
 40
1.0
 40
1.0
 10
13.764419489
 20
12.5703486794
 30
0.0
 10
13.7677701341
 20
12.5811920279
 30
0.0
 10
13.7752711622
 20
12.6026820983
 30
0.0
 10
13.788854266
 20
12.6341057886
 30
0.0
 10
13.804750684
 20
12.6646908028
 30
0.0
 10
13.8229289562
 20
12.6943830429
 30
0.0
 10
13.84336019
 20
12.7231297303
 30
0.0
 10
13.8660078807
 20
12.7508807625
 30
0.0
 10
13.8908284809
 20
12.777591664
 30
0.0
 10
13.9177800924
 20
12.8032161023
 30
0.0
 10
13.946817617
 20
12.8277084527
 30
0.0
 10
13.9778873929
 20
12.8510311066
 30
0.0
 10
14.010936204
 20
12.8731450964
 30
0.0
 10
14.045909407
 20
12.8940098007
 30
0.0
 10
14.0827457111
 20
12.9135934256
 30
0.0
 10
14.1348792035
 20
12.9382473724
 30
0.0
 10
14.2044801353
 20
12.9655521066
 30
0.0
 10
14.2777099079
 20
12.9876226231
 30
0.0
 10
14.3391509635
 20
13.0025014498
 30
0.0
 10
14.4037220891
 20
13.0157245694
 30
0.0
 10
14.4875952587
 20
13.0284216448
 30
0.0
 10
14.5916760815
 20
13.0375017758
 30
0.0
 10
14.6994684305
 20
13.040509563
 30
0.0
 10
14.8102383439
 20
13.0374321065
 30
0.0
 10
14.9232349082
 20
13.0282845593
 30
0.0
 10
15.0376906279
 20
13.0131333297
 30
0.0
 10
15.1528275749
 20
12.9920816652
 30
0.0
 10
15.2678616713
 20
12.9652689106
 30
0.0
 10
15.382011593
 20
12.9328833197
 30
0.0
 10
15.4944991015
 20
12.8951401564
 30
0.0
 10
15.6045594533
 20
12.8522986247
 30
0.0
 10
15.7114443973
 20
12.8046516735
 30
0.0
 10
15.8144249354
 20
12.7525187463
 30
0.0
 10
15.9128035407
 20
12.6962596757
 30
0.0
 10
16.0059095646
 20
12.6362521685
 30
0.0
 10
16.0931114411
 20
12.5729044037
 30
0.0
 10
16.1738205378
 20
12.5066455845
 30
0.0
 10
16.24748065
 20
12.4379198061
 30
0.0
 10
16.3031739017
 20
12.3783504955
 30
0.0
 10
16.3436482068
 20
12.3298429636
 30
0.0
 10
16.3805159562
 20
12.2819909524
 30
0.0
 10
16.4214762069
 20
12.2216094913
 30
0.0
 10
16.4494804975
 20
12.1711598239
 30
0.0
 10
16.4618610461
 20
12.1459309183
 30
0.0
  0
SPLINE
  5
375
100
AcDbEntity
  8
0
100
AcDbSpline
 62
7
  6
CONTINUOUS
 70
0
 71
3
 72
9
 73
5
 74
0
 42
0.0000001
 43
0.0000001
 44
0.0000000001
 40
0.0
 40
0.0
 40
0.0
 40
0.0
 40
0.4923512294
 40
1.0
 40
1.0
 40
1.0
 40
1.0
 10
15.7040573408
 20
12.1215294137
 30
0.0
 10
15.7055127742
 20
12.1215292056
 30
0.0
 10
15.7084789695
 20
12.1211811858
 30
0.0
 10
15.711283244
 20
12.1201646212
 30
0.0
 10
15.7126348953
 20
12.1195126992
 30
0.0
  0
SPLINE
  5
376
100
AcDbEntity
  8
0
100
AcDbSpline
 62
7
  6
CONTINUOUS
 70
0
 71
3
 72
11
 73
7
 74
0
 42
0.0000001
 43
0.0000001
 44
0.0000000001
 40
0.0
 40
0.0
 40
0.0
 40
0.0
 40
0.2198276037
 40
0.4576775127
 40
0.7172053661
 40
1.0
 40
1.0
 40
1.0
 40
1.0
 10
15.7126348953
 20
12.1195126992
 30
0.0
 10
15.7140311799
 20
12.1188392499
 30
0.0
 10
15.7167960216
 20
12.11712952
 30
0.0
 10
15.7205759069
 20
12.1137371671
 30
0.0
 10
15.7240788041
 20
12.1094720089
 30
0.0
 10
15.7261195128
 20
12.106225897
 30
0.0
 10
15.7270922043
 20
12.1044849514
 30
0.0
  0
SPLINE
  5
377
100
AcDbEntity
  8
0
100
AcDbSpline
 62
7
  6
CONTINUOUS
 70
0
 71
3
 72
21
 73
17
 74
0
 42
0.0000001
 43
0.0000001
 44
0.0000000001
 40
0.0
 40
0.0
 40
0.0
 40
0.0
 40
0.1355206772
 40
0.2654591196
 40
0.3286848563
 40
0.3909271788
 40
0.4523539257
 40
0.5131437643
 40
0.5734841053
 40
0.6335719689
 40
0.6936125924
 40
0.7538121315
 40
0.8143743764
 40
0.8754847002
 40
0.9373083972
 40
1.0
 40
1.0
 40
1.0
 40
1.0
 10
14.2812792073
 20
12.6673337032
 30
0.0
 10
14.2661384039
 20
12.6566337836
 30
0.0
 10
14.2375376368
 20
12.6341173142
 30
0.0
 10
14.2055876224
 20
12.6023102652
 30
0.0
 10
14.1832584955
 20
12.5754073453
 30
0.0
 10
14.1682296924
 20
12.5546987181
 30
0.0
 10
14.1547942924
 20
12.5333150499
 30
0.0
 10
14.1429728545
 20
12.5112925871
 30
0.0
 10
14.1327874132
 20
12.4886675246
 30
0.0
 10
14.1242578205
 20
12.4654765791
 30
0.0
 10
14.1173955972
 20
12.441758841
 30
0.0
 10
14.112212035
 20
12.4175522717
 30
0.0
 10
14.1087198404
 20
12.3928970714
 30
0.0
 10
14.1069224292
 20
12.3678383439
 30
0.0
 10
14.106818063
 20
12.3424259294
 30
0.0
 10
14.1078693049
 20
12.3254098705
 30
0.0
 10
14.108669418
 20
12.3168706978
 30
0.0
  0
SPLINE
  5
378
100
AcDbEntity
  8
0
100
AcDbSpline
 62
7
  6
CONTINUOUS
 70
0
 71
3
 72
13
 73
9
 74
0
 42
0.0000001
 43
0.0000001
 44
0.0000000001
 40
0.0
 40
0.0
 40
0.0
 40
0.0
 40
0.2474518634
 40
0.3711480938
 40
0.4951101543
 40
0.6197014376
 40
0.7452716512
 40
1.0
 40
1.0
 40
1.0
 40
1.0
 10
15.7741359184
 20
13.3672613118
 30
0.0
 10
15.7679925849
 20
13.3628805597
 30
0.0
 10
15.7592991172
 20
13.3555281728
 30
0.0
 10
15.7490698633
 20
13.3444088163
 30
0.0
 10
15.7420982123
 20
13.3354339133
 30
0.0
 10
15.7358597832
 20
13.325866926
 30
0.0
 10
15.7285247893
 20
13.3123178071
 30
0.0
 10
15.7242479688
 20
13.3014715899
 30
0.0
 10
15.7219547313
 20
13.2940506707
 30
0.0
  0
SPLINE
  5
379
100
AcDbEntity
  8
0
100
AcDbSpline
 62
7
  6
CONTINUOUS
 70
0
 71
3
 72
11
 73
7
 74
0
 42
0.0000001
 43
0.0000001
 44
0.0000000001
 40
0.0
 40
0.0
 40
0.0
 40
0.0
 40
0.2385075079
 40
0.4844003853
 40
0.7382436042
 40
1.0
 40
1.0
 40
1.0
 40
1.0
 10
15.7219547313
 20
13.2940506707
 30
0.0
 10
15.719600905
 20
13.2864336859
 30
0.0
 10
15.7160194099
 20
13.2705702952
 30
0.0
 10
15.714099152
 20
13.2458913624
 30
0.0
 10
15.7155830507
 20
13.2204091982
 30
0.0
 10
15.7187653197
 20
13.2034191737
 30
0.0
 10
15.7208813272
 20
13.1949293917
 30
0.0
  0
SPLINE
  5
37A
100
AcDbEntity
  8
0
100
AcDbSpline
 62
7
  6
CONTINUOUS
 70
0
 71
3
 72
13
 73
9
 74
0
 42
0.0000001
 43
0.0000001
 44
0.0000000001
 40
0.0
 40
0.0
 40
0.0
 40
0.0
 40
0.2474518634
 40
0.3711480938
 40
0.4951101543
 40
0.6197014376
 40
0.7452716512
 40
1.0
 40
1.0
 40
1.0
 40
1.0
 10
16.0512472291
 20
13.0274403951
 30
0.0
 10
16.0573905625
 20
13.0318211472
 30
0.0
 10
16.0660840303
 20
13.0391735341
 30
0.0
 10
16.0763132841
 20
13.0502928906
 30
0.0
 10
16.0832849351
 20
13.0592677936
 30
0.0
 10
16.0895233643
 20
13.0688347809
 30
0.0
 10
16.0968583582
 20
13.0823838998
 30
0.0
 10
16.1011351786
 20
13.0932301169
 30
0.0
 10
16.1034284161
 20
13.1006510362
 30
0.0
  0
SPLINE
  5
37B
100
AcDbEntity
  8
0
100
AcDbSpline
 62
7
  6
CONTINUOUS
 70
0
 71
3
 72
11
 73
7
 74
0
 42
0.0000001
 43
0.0000001
 44
0.0000000001
 40
0.0
 40
0.0
 40
0.0
 40
0.0
 40
0.238768072
 40
0.4847478204
 40
0.7384748124
 40
1.0
 40
1.0
 40
1.0
 40
1.0
 10
16.1034284161
 20
13.1006510362
 30
0.0
 10
16.1057262929
 20
13.1080869683
 30
0.0
 10
16.1092490938
 20
13.1235579797
 30
0.0
 10
16.1112433908
 20
13.1476186315
 30
0.0
 10
16.1099916017
 20
13.1724673394
 30
0.0
 10
16.1070593722
 20
13.1890531303
 30
0.0
 10
16.105091606
 20
13.1973475879
 30
0.0
  0
SPLINE
  5
37C
100
AcDbEntity
  8
0
100
AcDbSpline
 62
7
  6
CONTINUOUS
 70
0
 71
3
 72
16
 73
12
 74
0
 42
0.0000001
 43
0.0000001
 44
0.0000000001
 40
0.0
 40
0.0
 40
0.0
 40
0.0
 40
0.1374507493
 40
0.271780745
 40
0.4023189632
 40
0.5288938375
 40
0.651511313
 40
0.7704478098
 40
0.8287750017
 40
0.8864400699
 40
1.0
 40
1.0
 40
1.0
 40
1.0
 10
15.8594369826
 20
13.0250189333
 30
0.0
 10
15.8676676094
 20
13.0208461679
 30
0.0
 10
15.8844032181
 20
13.0134669123
 30
0.0
 10
15.9102438032
 20
13.0054070172
 30
0.0
 10
15.9361521579
 20
13.0006183377
 30
0.0
 10
15.9616790337
 20
12.9991913041
 30
0.0
 10
15.9863947629
 20
13.0011456174
 30
0.0
 10
16.0061071089
 20
13.0056212043
 30
0.0
 10
16.0209982687
 20
13.0108644941
 30
0.0
 10
16.0350991034
 20
13.017109959
 30
0.0
 10
16.045039808
 20
13.0230139427
 30
0.0
 10
16.0512472291
 20
13.0274403951
 30
0.0
  0
SPLINE
  5
37D
100
AcDbEntity
  8
0
100
AcDbSpline
 62
7
  6
CONTINUOUS
 70
0
 71
3
 72
15
 73
11
 74
0
 42
0.0000001
 43
0.0000001
 44
0.0000000001
 40
0.0
 40
0.0
 40
0.0
 40
0.0
 40
0.1195975424
 40
0.2422096497
 40
0.3670946079
 40
0.4936218953
 40
0.6209978915
 40
0.7483898475
 40
0.8750440968
 40
1.0
 40
1.0
 40
1.0
 40
1.0
 10
15.7208813272
 20
13.1949293917
 30
0.0
 10
15.7230574774
 20
13.186198307
 30
0.0
 10
15.7285471526
 20
13.1687700951
 30
0.0
 10
15.7397905399
 20
13.143484569
 30
0.0
 10
15.7539796755
 20
13.1191197096
 30
0.0
 10
15.770863754
 20
13.0960970497
 30
0.0
 10
15.7901515059
 20
13.0747933413
 30
0.0
 10
15.8115287374
 20
13.055570961
 30
0.0
 10
15.834625649
 20
13.0387656942
 30
0.0
 10
15.8510517106
 20
13.0292701008
 30
0.0
 10
15.8594369826
 20
13.0250189333
 30
0.0
  0
ELLIPSE
  5
37E
100
AcDbEntity
  8
0
100
AcDbEllipse
 62
7
  6
CONTINUOUS
 10
6.0708720839
 20
12.592275393
 30
0.0
 11
1.618316909
 21
0.0
 31
0.0
 40
0.4351776562
 41
8.4421855034
 42
8.5702124664
  0
ELLIPSE
  5
37F
100
AcDbEntity
  8
0
100
AcDbEllipse
 62
7
  6
CONTINUOUS
 10
6.0708720839
 20
12.592275393
 30
0.0
 11
1.618316909
 21
0.0
 31
0.0
 40
0.4351776562
 41
0.8580784233
 42
0.9826169456
  0
ENDSEC
  0
SECTION
  2
OBJECTS
  0
DICTIONARY
  5
C
100
AcDbDictionary
280
0
281
1
  3
ACAD_GROUP
350
D
  3
ACAD_MLINESTYLE
350
17
  3
ACAD_LAYOUT
350
1A
  3
ACAD_PLOTSETTINGS
350
19
  3
ACAD_PLOTSTYLENAME
350
E
  0
DICTIONARY
  5
D
102
{ACAD_REACTORS
330
C
102
}
100
AcDbDictionary
280
0
281
1
  0
ACDBDICTIONARYWDFLT
  5
E
102
{ACAD_REACTORS
330
C
102
}
100
AcDbDictionary
281
1
  3
Normal
350
F
100
AcDbDictionaryWithDefault
340
F
  0
DICTIONARY
  5
17
102
{ACAD_REACTORS
330
C
102
}
100
AcDbDictionary
280
0
281
1
  3
Standard
350
18
  0
DICTIONARY
  5
19
102
{ACAD_REACTORS
330
C
102
}
100
AcDbDictionary
281
1
  0
DICTIONARY
  5
1A
102
{ACAD_REACTORS
330
C
102
}
100
AcDbDictionary
281
1
  3
Model
350
380
  3
Layout1
350
381
  0
ACDBPLACEHOLDER
  5
F
102
{ACAD_REACTORS
330
E
102
}
  0
MLINESTYLE
  5
18
102
{ACAD_REACTORS
330
17
102
}
100
AcDbMlineStyle
  2
STANDARD
 70
0
  3

 62
256
 51
90.0
 52
90.0
 71
2
 49
0.5
 62
256
  6
BYLAYER
 49
-0.5
 62
256
  6
BYLAYER
  0
LAYOUT
  5
380
102
{ACAD_REACTORS
330
1A
102
}
100
AcDbPlotSettings
  1

  2
none_device
  4
ANSI_C_(22.00_x_17.00_Inches)
  6

 40
0.0
 41
0.0
 42
0.0
 43
0.0
 44
558.8
 45
431.8
 46
0.0
 47
0.0
 48
0.0
 49
0.0
140
0.0
141
0.0
142
1.0
143
1.0
 70
1024
 72
0
 73
0
 74
0
  7

 75
0
147
1.0
148
0.0
149
0.0
100
AcDbLayout
  1
Model
 70
0
 71
0
 10
0.0
 20
0.0
 11
22.0
 21
17.0
 12
0.0
 22
0.0
 32
0.0
 14
0.0
 24
0.0
 34
0.0
 15
0.0
 25
0.0
 35
0.0
146
0.0
 13
0.0
 23
0.0
 33
0.0
 16
1.0
 26
0.0
 36
0.0
 17
0.0
 27
1.0
 37
0.0
 76
0
330
22B
345
0
346
0
  0
LAYOUT
  5
381
102
{ACAD_REACTORS
330
1A
102
}
100
AcDbPlotSettings
  1

  2
none_device
  4
ANSI_C_(22.00_x_17.00_Inches)
  6

 40
0.0
 41
0.0
 42
0.0
 43
0.0
 44
558.8
 45
431.8
 46
0.0
 47
0.0
 48
0.0
 49
0.0
140
0.0
141
0.0
142
1.0
143
1.0
 70
0
 72
0
 73
0
 74
0
  7

 75
0
147
1.0
148
0.0
149
0.0
100
AcDbLayout
  1
Layout1
 70
0
 71
1
 10
0.0
 20
0.0
 11
22.0
 21
17.0
 12
0.0
 22
0.0
 32
0.0
 14
0.0
 24
0.0
 34
0.0
 15
0.0
 25
0.0
 35
0.0
146
0.0
 13
0.0
 23
0.0
 33
0.0
 16
1.0
 26
0.0
 36
0.0
 17
0.0
 27
1.0
 37
0.0
 76
0
330
22C
345
0
346
0
  0
ENDSEC
  0
EOF