999
DXF file: _cgs_temp_output.dxf
999
Pro/ENGINEER 2016360 by Parametric Technology Corporation
  0
SECTION
  2
HEADER
  9
$ACADVER
  1
AC1021
  9
$DWGCODEPAGE
  3
ANSI_1252
  9
$EXTMAX
 10
22.0
 20
17.0
 30
0.0
  9
$EXTMIN
 10
0.0
 20
0.0
 30
0.0
  9
$LIMMIN
 10
0.0
 20
0.0
  9
$LIMMAX
 10
22.0
 20
17.0
  9
$VIEWCTR
 10
11.0
 20
8.5
  9
$VIEWSIZE
 40
17.0
  9
$CLAYER
  8
0
  9
$LTSCALE
 40
1.21
  9
$CELTYPE
  6
BYLAYER
  9
$DIMSCALE
 40
1.0
  9
$DIMASZ
 40
0.1875
  9
$DIMEXO
 40
0.0625
  9
$DIMDLI
 40
0.836
  9
$DIMEXE
 40
0.125
  9
$DIMCEN
 40
0.198
  9
$DIMLFAC
 40
1.0
  9
$DIMBLK
  1
_CLOSED
  9
$DIMALT
 70
0
  9
$DIMALTF
 40
25.4
  9
$DIMTXT
 40
0.15625
  9
$DIMTOL
 70
0
  9
$DIMLIM
 70
0
  9
$DIMTFAC
 40
1.0
  9
$DIMGAP
 40
0.09
  9
$DIMDSEP
 70
46
  9
$AUNITS
 70
0
  9
$PDMODE
 70
3
  9
$PDSIZE
 40
0.3125
  9
$HANDSEED
  5
555
  9
$TILEMODE
 70
1
  9
$MEASUREMENT
 70
0
  9
$INSUNITS
 70
1
  0
ENDSEC
  0
SECTION
  2
CLASSES
  0
CLASS
  1
ACDBDICTIONARYWDFLT
  2
AcDbDictionaryWithDefault
  3
AutoCAD 2000
 90
0
 91
1
280
0
281
0
  0
CLASS
  1
ACDBPLACEHOLDER
  2
AcDbPlaceHolder
  3
AutoCAD 2000
 90
0
 91
1
280
0
281
0
  0
CLASS
  1
LAYOUT
  2
AcDbLayout
  3
AutoCAD 2000
 90
0
 91
0
280
0
281
0
  0
ENDSEC
  0
SECTION
  2
TABLES
  0
TABLE
  2
VPORT
  5
8
100
AcDbSymbolTable
 70
2
  0
VPORT
  5
1F4
100
AcDbSymbolTableRecord
100
AcDbViewportTableRecord
  2
*ACTIVE
 70
0
 10
0.0
 20
0.0
 11
1.0
 21
1.0
 12
11.0
 22
8.5
 13
0.0
 23
0.0
 14
1.0
 24
1.0
 15
0.0
 25
0.0
 16
0.0
 26
0.0
 36
1.0
 17
0.0
 27
0.0
 37
0.0
 40
17.0
 41
1.2941176471
 42
50.0
 43
0.0
 44
0.0
 50
0.0
 51
0.0
 71
0
 72
100
 73
1
 74
1
 75
0
 76
0
 77
0
 78
0
  0
ENDTAB
  0
TABLE
  2
LTYPE
  5
5
100
AcDbSymbolTable
 70
6
  0
LTYPE
  5
14
100
AcDbSymbolTableRecord
100
AcDbLinetypeTableRecord
  2
BYBLOCK
 70
0
  3

 72
65
 73
0
 40
0.0
  0
LTYPE
  5
15
100
AcDbSymbolTableRecord
100
AcDbLinetypeTableRecord
  2
BYLAYER
 70
0
  3

 72
65
 73
0
 40
0.0
  0
LTYPE
  5
16
100
AcDbSymbolTableRecord
100
AcDbLinetypeTableRecord
  2
CONTINUOUS
 70
64
  3
Solid line
 72
65
 73
0
 40
0.0
  0
LTYPE
  5
1F5
100
AcDbSymbolTableRecord
100
AcDbLinetypeTableRecord
  2
CENTER
 70
64
  3
____ _ ____ _ ____ _ ____ _ ____ _ ____ _ ____
 72
65
 73
4
 40
0.6
 49
0.375
 74
0
 49
-0.075
 74
0
 49
0.075
 74
0
 49
-0.075
 74
0
  0
LTYPE
  5
1F6
100
AcDbSymbolTableRecord
100
AcDbLinetypeTableRecord
  2
HIDDEN
 70
64
  3
- - - - - - - - - - - - - - - - - - - -
 72
65
 73
2
 40
0.2
 49
0.1
 74
0
 49
-0.1
 74
0
  0
LTYPE
  5
1F7
100
AcDbSymbolTableRecord
100
AcDbLinetypeTableRecord
  2
PHANTOM
 70
64
  3
_____ _ _ _____ _ _ _____ _ _ _____
 72
65
 73
6
 40
0.8
 49
0.45
 74
0
 49
-0.05
 74
0
 49
0.1
 74
0
 49
-0.05
 74
0
 49
0.1
 74
0
 49
-0.05
 74
0
  0
LTYPE
  5
1F8
100
AcDbSymbolTableRecord
100
AcDbLinetypeTableRecord
  2
DOT
 70
64
  3
. . . . . . . . . . . . . . . . . . . .
 72
65
 73
2
 40
0.2
 49
0.1
 74
0
 49
-0.1
 74
0
  0
LTYPE
  5
1F9
100
AcDbSymbolTableRecord
100
AcDbLinetypeTableRecord
  2
DASHED
 70
64
  3
- - - - - - - - - - - - - - - - - - - -
 72
65
 73
2
 40
0.2
 49
0.1
 74
0
 49
-0.1
 74
0
  0
ENDTAB
  0
TABLE
  2
LAYER
  5
2
100
AcDbSymbolTable
 70
36
  0
LAYER
  5
10
100
AcDbSymbolTableRecord
100
AcDbLayerTableRecord
  2
0
 70
0
 62
7
  6
CONTINUOUS
370
-3
390
F
  0
LAYER
  5
1FA
100
AcDbSymbolTableRecord
100
AcDbLayerTableRecord
  2
DEFAULT_1
 70
0
 62
7
  6
CENTER
370
-3
390
F
  0
LAYER
  5
1FB
100
AcDbSymbolTableRecord
100
AcDbLayerTableRecord
  2
DEFAULT_2
 70
0
 62
8
  6
HIDDEN
370
-3
390
F
  0
LAYER
  5
1FC
100
AcDbSymbolTableRecord
100
AcDbLayerTableRecord
  2
DEFAULT_3
 70
0
 62
7
  6
PHANTOM
370
-3
390
F
  0
LAYER
  5
1FD
100
AcDbSymbolTableRecord
100
AcDbLayerTableRecord
  2
01_ALL_DTM_PLN
 70
0
 62
7
  6
CONTINUOUS
370
-3
390
F
  0
LAYER
  5
1FE
100
AcDbSymbolTableRecord
100
AcDbLayerTableRecord
  2
01__ASM_ALL_DTM_PLN
 70
0
 62
7
  6
CONTINUOUS
370
-3
390
F
  0
LAYER
  5
1FF
100
AcDbSymbolTableRecord
100
AcDbLayerTableRecord
  2
01__ASM_DEF_DTM_PLN
 70
0
 62
7
  6
CONTINUOUS
370
-3
390
F
  0
LAYER
  5
200
100
AcDbSymbolTableRecord
100
AcDbLayerTableRecord
  2
01___PRT_ALL_DTM_PLN
 70
0
 62
7
  6
CONTINUOUS
370
-3
390
F
  0
LAYER
  5
201
100
AcDbSymbolTableRecord
100
AcDbLayerTableRecord
  2
01___PRT_DEF_DTM_PLN
 70
0
 62
7
  6
CONTINUOUS
370
-3
390
F
  0
LAYER
  5
202
100
AcDbSymbolTableRecord
100
AcDbLayerTableRecord
  2
02_ALL_AXES
 70
0
 62
7
  6
CONTINUOUS
370
-3
390
F
  0
LAYER
  5
203
100
AcDbSymbolTableRecord
100
AcDbLayerTableRecord
  2
02__ASM_ALL_AXES
 70
0
 62
7
  6
CONTINUOUS
370
-3
390
F
  0
LAYER
  5
204
100
AcDbSymbolTableRecord
100
AcDbLayerTableRecord
  2
02___PRT_ALL_AXES
 70
0
 62
7
  6
CONTINUOUS
370
-3
390
F
  0
LAYER
  5
205
100
AcDbSymbolTableRecord
100
AcDbLayerTableRecord
  2
03_ALL_CURVES
 70
0
 62
7
  6
CONTINUOUS
370
-3
390
F
  0
LAYER
  5
206
100
AcDbSymbolTableRecord
100
AcDbLayerTableRecord
  2
03__ASM_ALL_CURVES
 70
0
 62
7
  6
CONTINUOUS
370
-3
390
F
  0
LAYER
  5
207
100
AcDbSymbolTableRecord
100
AcDbLayerTableRecord
  2
03___PRT_ALL_CURVES
 70
0
 62
7
  6
CONTINUOUS
370
-3
390
F
  0
LAYER
  5
208
100
AcDbSymbolTableRecord
100
AcDbLayerTableRecord
  2
04_ALL_DTM_PNT
 70
0
 62
7
  6
CONTINUOUS
370
-3
390
F
  0
LAYER
  5
209
100
AcDbSymbolTableRecord
100
AcDbLayerTableRecord
  2
04__ASM_ALL_DTM_PNT
 70
0
 62
7
  6
CONTINUOUS
370
-3
390
F
  0
LAYER
  5
20A
100
AcDbSymbolTableRecord
100
AcDbLayerTableRecord
  2
04___PRT_ALL_DTM_PNT
 70
0
 62
7
  6
CONTINUOUS
370
-3
390
F
  0
LAYER
  5
20B
100
AcDbSymbolTableRecord
100
AcDbLayerTableRecord
  2
05_ALL_DTM_CSYS
 70
0
 62
7
  6
CONTINUOUS
370
-3
390
F
  0
LAYER
  5
20C
100
AcDbSymbolTableRecord
100
AcDbLayerTableRecord
  2
05__ASM_ALL_DTM_CSYS
 70
0
 62
7
  6
CONTINUOUS
370
-3
390
F
  0
LAYER
  5
20D
100
AcDbSymbolTableRecord
100
AcDbLayerTableRecord
  2
05__ASM_DEF_DTM_CSYS
 70
0
 62
7
  6
CONTINUOUS
370
-3
390
F
  0
LAYER
  5
20E
100
AcDbSymbolTableRecord
100
AcDbLayerTableRecord
  2
05___PRT_ALL_DTM_CSYS
 70
0
 62
7
  6
CONTINUOUS
370
-3
390
F
  0
LAYER
  5
20F
100
AcDbSymbolTableRecord
100
AcDbLayerTableRecord
  2
05___PRT_DEF_DTM_CSYS
 70
0
 62
7
  6
CONTINUOUS
370
-3
390
F
  0
LAYER
  5
210
100
AcDbSymbolTableRecord
100
AcDbLayerTableRecord
  2
06_ALL_SURFS
 70
0
 62
7
  6
CONTINUOUS
370
-3
390
F
  0
LAYER
  5
211
100
AcDbSymbolTableRecord
100
AcDbLayerTableRecord
  2
06__ASM_ALL_SURFS
 70
0
 62
7
  6
CONTINUOUS
370
-3
390
F
  0
LAYER
  5
212
100
AcDbSymbolTableRecord
100
AcDbLayerTableRecord
  2
06___PRT_ALL_SURFS
 70
0
 62
7
  6
CONTINUOUS
370
-3
390
F
  0
LAYER
  5
213
100
AcDbSymbolTableRecord
100
AcDbLayerTableRecord
  2
07__ASM_ALL_SKELETONS
 70
0
 62
7
  6
CONTINUOUS
370
-3
390
F
  0
LAYER
  5
214
100
AcDbSymbolTableRecord
100
AcDbLayerTableRecord
  2
INTFCLR_11339
 70
0
 62
7
  6
CONTINUOUS
370
-3
390
F
  0
LAYER
  5
215
100
AcDbSymbolTableRecord
100
AcDbLayerTableRecord
  2
INTFCLR_12071
 70
0
 62
7
  6
CONTINUOUS
370
-3
390
F
  0
LAYER
  5
216
100
AcDbSymbolTableRecord
100
AcDbLayerTableRecord
  2
INTFCLR_13735
 70
0
 62
7
  6
CONTINUOUS
370
-3
390
F
  0
LAYER
  5
217
100
AcDbSymbolTableRecord
100
AcDbLayerTableRecord
  2
INTFCLR_15152
 70
0
 62
7
  6
CONTINUOUS
370
-3
390
F
  0
LAYER
  5
218
100
AcDbSymbolTableRecord
100
AcDbLayerTableRecord
  2
INTFCLR_16968
 70
0
 62
7
  6
CONTINUOUS
370
-3
390
F
  0
LAYER
  5
219
100
AcDbSymbolTableRecord
100
AcDbLayerTableRecord
  2
INTFCLR_17875
 70
0
 62
7
  6
CONTINUOUS
370
-3
390
F
  0
LAYER
  5
21A
100
AcDbSymbolTableRecord
100
AcDbLayerTableRecord
  2
INTFCLR_17985
 70
0
 62
7
  6
CONTINUOUS
370
-3
390
F
  0
LAYER
  5
21B
100
AcDbSymbolTableRecord
100
AcDbLayerTableRecord
  2
INTFCLR_1921
 70
0
 62
7
  6
CONTINUOUS
370
-3
390
F
  0
LAYER
  5
21C
100
AcDbSymbolTableRecord
100
AcDbLayerTableRecord
  2
INTFCLR_21000
 70
0
 62
7
  6
CONTINUOUS
370
-3
390
F
  0
LAYER
  5
21D
100
AcDbSymbolTableRecord
100
AcDbLayerTableRecord
  2
INTFCLR_3725
 70
0
 62
7
  6
CONTINUOUS
370
-3
390
F
  0
LAYER
  5
21E
100
AcDbSymbolTableRecord
100
AcDbLayerTableRecord
  2
INTFCLR_6967
 70
0
 62
7
  6
CONTINUOUS
370
-3
390
F
  0
LAYER
  5
21F
100
AcDbSymbolTableRecord
100
AcDbLayerTableRecord
  2
NONE
 70
0
 62
7
  6
CONTINUOUS
370
-3
390
F
  0
LAYER
  5
220
100
AcDbSymbolTableRecord
100
AcDbLayerTableRecord
  2
_1075
 70
0
 62
7
  6
CONTINUOUS
370
-3
390
F
  0
LAYER
  5
221
100
AcDbSymbolTableRecord
100
AcDbLayerTableRecord
  2
_13493
 70
0
 62
7
  6
CONTINUOUS
370
-3
390
F
  0
LAYER
  5
222
100
AcDbSymbolTableRecord
100
AcDbLayerTableRecord
  2
_13584
 70
0
 62
7
  6
CONTINUOUS
370
-3
390
F
  0
LAYER
  5
223
100
AcDbSymbolTableRecord
100
AcDbLayerTableRecord
  2
_1560
 70
0
 62
7
  6
CONTINUOUS
370
-3
390
F
  0
LAYER
  5
224
100
AcDbSymbolTableRecord
100
AcDbLayerTableRecord
  2
_16469
 70
0
 62
7
  6
CONTINUOUS
370
-3
390
F
  0
LAYER
  5
225
100
AcDbSymbolTableRecord
100
AcDbLayerTableRecord
  2
_18650
 70
0
 62
7
  6
CONTINUOUS
370
-3
390
F
  0
LAYER
  5
226
100
AcDbSymbolTableRecord
100
AcDbLayerTableRecord
  2
_2033
 70
0
 62
7
  6
CONTINUOUS
370
-3
390
F
  0
LAYER
  5
227
100
AcDbSymbolTableRecord
100
AcDbLayerTableRecord
  2
_2180
 70
0
 62
7
  6
CONTINUOUS
370
-3
390
F
  0
LAYER
  5
228
100
AcDbSymbolTableRecord
100
AcDbLayerTableRecord
  2
_241
 70
0
 62
7
  6
CONTINUOUS
370
-3
390
F
  0
LAYER
  5
229
100
AcDbSymbolTableRecord
100
AcDbLayerTableRecord
  2
_2853
 70
0
 62
7
  6
CONTINUOUS
370
-3
390
F
  0
LAYER
  5
22A
100
AcDbSymbolTableRecord
100
AcDbLayerTableRecord
  2
_425
 70
0
 62
7
  6
CONTINUOUS
370
-3
390
F
  0
LAYER
  5
22B
100
AcDbSymbolTableRecord
100
AcDbLayerTableRecord
  2
_4501
 70
0
 62
7
  6
CONTINUOUS
370
-3
390
F
  0
LAYER
  5
22C
100
AcDbSymbolTableRecord
100
AcDbLayerTableRecord
  2
_4933
 70
0
 62
7
  6
CONTINUOUS
370
-3
390
F
  0
LAYER
  5
22D
100
AcDbSymbolTableRecord
100
AcDbLayerTableRecord
  2
_8086
 70
0
 62
7
  6
CONTINUOUS
370
-3
390
F
  0
LAYER
  5
22E
100
AcDbSymbolTableRecord
100
AcDbLayerTableRecord
  2
_9127
 70
0
 62
7
  6
CONTINUOUS
370
-3
390
F
  0
LAYER
  5
22F
100
AcDbSymbolTableRecord
100
AcDbLayerTableRecord
  2
_9561
 70
0
 62
7
  6
CONTINUOUS
370
-3
390
F
  0
LAYER
  5
230
100
AcDbSymbolTableRecord
100
AcDbLayerTableRecord
  2
_9666
 70
0
 62
7
  6
CONTINUOUS
370
-3
390
F
  0
ENDTAB
  0
TABLE
  2
STYLE
  5
3
100
AcDbSymbolTable
 70
1
  0
STYLE
  5
11
100
AcDbSymbolTableRecord
100
AcDbTextStyleTableRecord
  2
STANDARD
 70
0
 40
0.0
 41
0.8
 50
0.0
 71
0
 42
0.2
  3
txt
  4

  0
STYLE
  5
231
100
AcDbSymbolTableRecord
100
AcDbTextStyleTableRecord
  2
TEXTSTYLE_1
 70
0
 40
0.0
 41
0.8
 50
0.0
 71
0
 42
0.2
  3
gdt
  4

  0
ENDTAB
  0
TABLE
  2
VIEW
  5
6
100
AcDbSymbolTable
 70
0
  0
ENDTAB
  0
TABLE
  2
UCS
  5
7
100
AcDbSymbolTable
 70
0
  0
ENDTAB
  0
TABLE
  2
APPID
  5
9
100
AcDbSymbolTable
 70
1
  0
APPID
  5
232
100
AcDbSymbolTableRecord
100
AcDbRegAppTableRecord
  2
ACAD
 70
0
  0
ENDTAB
  0
TABLE
  2
BLOCK_RECORD
  5
1
100
AcDbSymbolTable
 70
0
  0
BLOCK_RECORD
  5
233
100
AcDbSymbolTableRecord
100
AcDbBlockTableRecord
  2
*Model_Space
  0
BLOCK_RECORD
  5
234
100
AcDbSymbolTableRecord
100
AcDbBlockTableRecord
  2
*Paper_Space
  0
BLOCK_RECORD
  5
235
100
AcDbSymbolTableRecord
100
AcDbBlockTableRecord
  2
_NONE
  0
ENDTAB
  0
TABLE
  2
DIMSTYLE
  5
A
100
AcDbSymbolTable
 70
1
100
AcDbDimStyleTable
 71
0
  0
DIMSTYLE
105
236
100
AcDbSymbolTableRecord
100
AcDbDimStyleTableRecord
  2
STANDARD
 70
0
  3

  4

 40
1.0
 41
0.1875
 42
0.0625
 43
0.38
 44
0.125
 45
0.0
 46
0.0
 47
0.0001
 48
0.0001
140
0.15625
141
0.09
142
0.0
143
25.4
144
1.0
145
0.0
146
1.0
147
0.09
 71
0.0
 72
0.0
 73
1
 74
1
 75
0
 76
0
 77
0
 78
4
 79
1
170
0
171
3
172
0
173
0
174
0
175
0
176
0
177
0
178
0
270
2
179
4
271
4
272
4
273
2
274
2
275
0
280
0
281
0
282
0
283
1
284
4
285
0
286
0
287
3
288
0
340
11
278
46
  0
ENDTAB
  0
ENDSEC
  0
SECTION
  2
BLOCKS
  0
BLOCK
  5
20
100
AcDbEntity
  8
0
100
AcDbBlockBegin
  2
*Model_Space
 70
0
 10
0.0
 20
0.0
 30
0.0
  3
*Model_Space
  1

  0
ENDBLK
  5
21
100
AcDbEntity
  8
0
100
AcDbBlockEnd
  0
BLOCK
  5
1C
100
AcDbEntity
  8
0
100
AcDbBlockBegin
  2
*Paper_Space
 70
0
 10
0.0
 20
0.0
 30
0.0
  3
*Paper_Space
  1

  0
ENDBLK
  5
1D
100
AcDbEntity
  8
0
100
AcDbBlockEnd
  0
BLOCK
  5
237
100
AcDbEntity
  8
0
100
AcDbBlockBegin
  2
_NONE
 70
64
 10
0.0
 20
0.0
  3
_NONE
  1

  0
ENDBLK
  5
238
100
AcDbEntity
  8
0
  6
BYBLOCK
 62
0
100
AcDbBlockEnd
  0
ENDSEC
  0
SECTION
  2
ENTITIES
  0
MTEXT
  5
239
100
AcDbEntity
  8
0
100
AcDbMText
 62
7
  6
CONTINUOUS
  7
STANDARD
 71
1
 72
1
 10
15.9560215477
 20
0.9479130325
 30
0.0
 11
1.0
 21
0.0
 31
0.0
 44
0.9
  1
SCALE: 1:0.333
 40
0.3
 41
3.36
  0
LEADER
  5
23A
100
AcDbEntity
  8
0
100
AcDbLeader
 62
2
  6
CONTINUOUS
  3
STANDARD
 71
1
 72
0
 73
0
 75
0
 40
0.15625
 41
1.5
 76
3
 10
4.5774703419
 20
4.7899249193
 30
0.0
 10
7.7963133916
 20
3.9752826179
 30
0.0
 10
8.0463133916
 20
3.9752826179
 30
0.0
340
23B
1001
ACAD
1000
DSTYLE
1002
{
1070
77
1070
0
1070
341
1005
235
1002
}
  0
MTEXT
  5
23B
102
{ACAD_REACTORS
330
23A
102
}
100
AcDbEntity
  8
0
100
AcDbMText
 62
2
  6
CONTINUOUS
  7
STANDARD
 71
1
 72
1
 10
8.0463133916
 20
4.0534076179
 30
0.0
 11
1.0
 21
0.0
 31
0.0
 44
0.9
  1
 0.375 BOLTS
 40
0.15625
 41
1.5
  0
LEADER
  5
23C
100
AcDbEntity
  8
0
100
AcDbLeader
 62
2
  6
CONTINUOUS
  3
STANDARD
 71
1
 72
0
 73
0
 75
0
 40
0.15625
 41
1.5
 76
3
 10
5.6574189348
 20
4.6357998891
 30
0.0
 10
5.5454931189
 20
4.2708134844
 30
0.0
 10
5.2954931189
 20
4.2708134844
 30
0.0
340
23D
1001
ACAD
1000
DSTYLE
1002
{
1070
77
1070
0
1070
341
1005
235
1002
}
  0
MTEXT
  5
23D
102
{ACAD_REACTORS
330
23C
102
}
100
AcDbEntity
  8
0
100
AcDbMText
 62
2
  6
CONTINUOUS
  7
STANDARD
 71
2
 72
1
 10
4.5454931189
 20
4.3489384844
 30
0.0
 11
1.0
 21
0.0
 31
0.0
 44
0.9
  1
 Drain Plug 
 40
0.15625
 41
1.5
  0
LINE
  5
23E
100
AcDbEntity
  8
0
100
AcDbLine
 62
7
  6
CONTINUOUS
 10
0.0
 20
0.0
 11
0.0
 21
17.0
  0
LINE
  5
23F
100
AcDbEntity
  8
0
100
AcDbLine
 62
7
  6
CONTINUOUS
 10
0.0
 20
0.0
 11
22.0
 21
0.0
  0
LINE
  5
240
100
AcDbEntity
  8
0
100
AcDbLine
 62
7
  6
CONTINUOUS
 10
0.0
 20
17.0
 11
22.0
 21
17.0
  0
LINE
  5
241
100
AcDbEntity
  8
0
100
AcDbLine
 62
7
  6
CONTINUOUS
 10
22.0
 20
0.0
 11
22.0
 21
17.0
  0
LINE
  5
242
100
AcDbEntity
  8
0
100
AcDbLine
 62
7
  6
CONTINUOUS
 10
4.380293965
 20
4.756591586
 11
4.380293965
 21
4.4149249193
  0
LINE
  5
243
100
AcDbEntity
  8
0
100
AcDbLine
 62
7
  6
CONTINUOUS
 10
5.0418469953
 20
5.0273590983
 11
5.0418469953
 21
5.950341586
  0
LINE
  5
244
100
AcDbEntity
  8
0
100
AcDbLine
 62
7
  6
CONTINUOUS
 10
5.105388662
 20
5.9670082526
 11
5.105388662
 21
6.1041736707
  0
LINE
  5
245
100
AcDbEntity
  8
0
100
AcDbLine
 62
7
  6
CONTINUOUS
 10
5.1317649106
 20
6.1305499193
 11
5.105388662
 21
6.1041736707
  0
LINE
  5
246
100
AcDbEntity
  8
0
100
AcDbLine
 62
7
  6
CONTINUOUS
 10
8.130293965
 20
4.4149249193
 11
4.380293965
 21
4.4149249193
  0
LINE
  5
247
100
AcDbEntity
  8
03__ASM_ALL_CURVES
100
AcDbLine
 62
4
  6
CONTINUOUS
 10
3.8387739207
 20
4.4149249193
 11
4.380293965
 21
4.4149249193
  0
LINE
  5
248
100
AcDbEntity
  8
0
100
AcDbLine
 62
7
  6
CONTINUOUS
 10
5.3636272983
 20
4.4482582526
 11
7.1469606316
 21
4.4482582526
  0
LINE
  5
249
100
AcDbEntity
  8
0
100
AcDbLine
 62
7
  6
CONTINUOUS
 10
5.203826162
 20
6.000341586
 11
5.203826162
 21
6.1041736707
  0
LINE
  5
24A
100
AcDbEntity
  8
0
100
AcDbLine
 62
7
  6
CONTINUOUS
 10
5.2969606316
 20
5.4982582526
 11
5.2969606316
 21
4.5149249193
  0
LINE
  5
24B
100
AcDbEntity
  8
0
100
AcDbLine
 62
7
  6
CONTINUOUS
 10
5.1912902778
 20
5.3188916018
 11
5.1911407457
 21
5.3183018287
  0
LINE
  5
24C
100
AcDbEntity
  8
0
100
AcDbLine
 62
7
  6
CONTINUOUS
 10
5.7482106316
 20
4.6649249193
 11
5.7447940253
 21
4.6649249193
  0
LINE
  5
24D
100
AcDbEntity
  8
0
100
AcDbLine
 62
7
  6
CONTINUOUS
 10
5.6248772983
 20
4.6649249193
 11
5.6282939046
 21
4.6649249193
  0
LINE
  5
24E
100
AcDbEntity
  8
0
100
AcDbLine
 62
7
  6
CONTINUOUS
 10
5.686543965
 20
4.6032582526
 11
5.6248772983
 21
4.6649249193
  0
LINE
  5
24F
100
AcDbEntity
  8
0
100
AcDbLine
 62
7
  6
CONTINUOUS
 10
5.6282939046
 20
4.6649249193
 11
5.686543965
 21
4.606674859
  0
LINE
  5
250
100
AcDbEntity
  8
0
100
AcDbLine
 62
7
  6
CONTINUOUS
 10
5.7447940253
 20
4.6649249193
 11
5.686543965
 21
4.7231749796
  0
LINE
  5
251
100
AcDbEntity
  8
0
100
AcDbLine
 62
7
  6
CONTINUOUS
 10
5.686543965
 20
4.726591586
 11
5.7482106316
 21
4.6649249193
  0
LINE
  5
252
100
AcDbEntity
  8
0
100
AcDbLine
 62
7
  6
CONTINUOUS
 10
5.400701162
 20
6.0935204964
 11
5.400701162
 21
6.1041736707
  0
LINE
  5
253
100
AcDbEntity
  8
0
100
AcDbLine
 62
7
  6
CONTINUOUS
 10
5.436543965
 20
4.8982582526
 11
5.436543965
 21
5.4982582526
  0
LINE
  5
254
100
AcDbEntity
  8
0
100
AcDbLine
 62
7
  6
CONTINUOUS
 10
7.7403899812
 20
4.7899249193
 11
7.2136272983
 21
4.7899249193
  0
LINE
  5
255
100
AcDbEntity
  8
0
100
AcDbLine
 62
7
  6
CONTINUOUS
 10
5.2969606316
 20
4.7899249193
 11
4.7701979488
 21
4.7899249193
  0
LINE
  5
256
100
AcDbEntity
  8
0
100
AcDbLine
 62
7
  6
CONTINUOUS
 10
4.4136272983
 20
4.7899249193
 11
4.6511272983
 21
4.7899249193
  0
LINE
  5
257
100
AcDbEntity
  8
0
100
AcDbLine
 62
7
  6
CONTINUOUS
 10
7.8594606316
 20
4.7899249193
 11
8.0969606316
 21
4.7899249193
  0
LINE
  5
258
100
AcDbEntity
  8
0
100
AcDbLine
 62
7
  6
CONTINUOUS
 10
7.0073772983
 20
4.831591586
 11
5.5032106316
 21
4.831591586
  0
LINE
  5
259
100
AcDbEntity
  8
03__ASM_ALL_CURVES
100
AcDbLine
 62
4
  6
CONTINUOUS
 10
8.4219606316
 20
4.956591586
 11
7.9219606316
 21
4.956591586
  0
LINE
  5
25A
100
AcDbEntity
  8
03__ASM_ALL_CURVES
100
AcDbLine
 62
4
  6
CONTINUOUS
 10
4.0886272983
 20
4.956591586
 11
4.5886272983
 21
4.956591586
  0
LINE
  5
25B
100
AcDbEntity
  8
0
100
AcDbLine
 62
7
  6
CONTINUOUS
 10
5.686543965
 20
4.726591586
 11
5.686543965
 21
4.7231749796
  0
LINE
  5
25C
100
AcDbEntity
  8
0
100
AcDbLine
 62
7
  6
CONTINUOUS
 10
5.686543965
 20
4.6032582526
 11
5.686543965
 21
4.606674859
  0
LINE
  5
25D
100
AcDbEntity
  8
0
100
AcDbLine
 62
7
  6
CONTINUOUS
 10
7.2969387938
 20
5.4982582526
 11
7.2636273007
 21
5.4982582526
  0
LINE
  5
25E
100
AcDbEntity
  8
0
100
AcDbLine
 62
7
  6
CONTINUOUS
 10
5.2636273
 20
5.4982582526
 11
5.2969606316
 21
5.4982582526
  0
LINE
  5
25F
100
AcDbEntity
  8
0
100
AcDbLine
 62
7
  6
CONTINUOUS
 10
7.2136272983
 20
5.4982582526
 11
7.2469568369
 21
5.4982582526
  0
LINE
  5
260
100
AcDbEntity
  8
0
100
AcDbLine
 62
7
  6
CONTINUOUS
 10
5.2469571735
 20
5.4982582529
 11
5.2136478964
 21
5.4982582526
  0
LINE
  5
261
100
AcDbEntity
  8
0
100
AcDbLine
 62
7
  6
CONTINUOUS
 10
5.9098666381
 20
6.505682221
 11
5.9152587015
 21
6.4855587663
  0
LINE
  5
262
100
AcDbEntity
  8
0
100
AcDbLine
 62
7
  6
CONTINUOUS
 10
5.9212957379
 20
6.4871763853
 11
5.9218484518
 21
6.4851136291
  0
LINE
  5
263
100
AcDbEntity
  8
0
100
AcDbLine
 62
7
  6
CONTINUOUS
 10
5.9481671266
 20
6.4060445066
 11
5.9421538503
 21
6.4284863252
  0
LINE
  5
264
100
AcDbEntity
  8
0
100
AcDbLine
 62
7
  6
CONTINUOUS
 10
6.0060018512
 20
6.4284640701
 11
6.0046307582
 21
6.4335810509
  0
LINE
  5
265
100
AcDbEntity
  8
0
100
AcDbLine
 62
7
  6
CONTINUOUS
 10
5.985690793
 20
6.5044309883
 11
5.9802987296
 21
6.5245544431
  0
LINE
  5
266
100
AcDbEntity
  8
0
100
AcDbLine
 62
7
  6
CONTINUOUS
 10
6.0672965531
 20
6.4379708421
 11
6.0612846901
 21
6.4604073861
  0
LINE
  5
267
100
AcDbEntity
  8
0
100
AcDbLine
 62
7
  6
CONTINUOUS
 10
6.0500858481
 20
6.5216855913
 11
6.0506385619
 21
6.5196228352
  0
LINE
  5
268
100
AcDbEntity
  8
0
100
AcDbLine
 62
7
  6
CONTINUOUS
 10
6.0561228845
 20
6.5233032104
 11
6.0507308211
 21
6.5434266651
  0
LINE
  5
269
100
AcDbEntity
  8
0
100
AcDbLine
 62
7
  6
CONTINUOUS
 10
5.6248772983
 20
4.6649249193
 11
5.686543965
 21
4.726591586
  0
LINE
  5
26A
100
AcDbEntity
  8
0
100
AcDbLine
 62
7
  6
CONTINUOUS
 10
5.686543965
 20
4.7231749796
 11
5.6282939046
 21
4.6649249193
  0
LINE
  5
26B
100
AcDbEntity
  8
0
100
AcDbLine
 62
7
  6
CONTINUOUS
 10
5.686543965
 20
4.606674859
 11
5.7447940253
 21
4.6649249193
  0
LINE
  5
26C
100
AcDbEntity
  8
0
100
AcDbLine
 62
7
  6
CONTINUOUS
 10
5.7482106316
 20
4.6649249193
 11
5.686543965
 21
4.6032582526
  0
LINE
  5
26D
100
AcDbEntity
  8
0
100
AcDbLine
 62
7
  6
CONTINUOUS
 10
5.058513662
 20
5.9670082526
 11
5.3250558869
 21
5.9670082526
  0
LINE
  5
26E
100
AcDbEntity
  8
0
100
AcDbLine
 62
7
  6
CONTINUOUS
 10
7.1855320431
 20
5.9670082526
 11
7.452074268
 21
5.9670082526
  0
LINE
  5
26F
100
AcDbEntity
  8
0
100
AcDbLine
 62
7
  6
CONTINUOUS
 10
5.105388662
 20
6.000341586
 11
5.3454454956
 21
6.000341586
  0
LINE
  5
270
100
AcDbEntity
  8
0
100
AcDbLine
 62
7
  6
CONTINUOUS
 10
7.1651424242
 20
6.000341586
 11
7.405199268
 21
6.000341586
  0
LINE
  5
271
100
AcDbEntity
  8
0
100
AcDbLine
 62
7
  6
CONTINUOUS
 10
5.1317729412
 20
6.1305499193
 11
5.4306506371
 21
6.1305499193
  0
LINE
  5
272
100
AcDbEntity
  8
0
100
AcDbLine
 62
7
  6
CONTINUOUS
 10
7.079937303
 20
6.1305499193
 11
7.3788149887
 21
6.1305499193
  0
LINE
  5
273
100
AcDbEntity
  8
0
100
AcDbLine
 62
7
  6
CONTINUOUS
 10
7.074043965
 20
5.4982582526
 11
7.074043965
 21
4.8982582526
  0
LINE
  5
274
100
AcDbEntity
  8
0
100
AcDbLine
 62
7
  6
CONTINUOUS
 10
7.109886768
 20
6.0935205387
 11
7.109886768
 21
6.1041736707
  0
LINE
  5
275
100
AcDbEntity
  8
0
100
AcDbLine
 62
7
  6
CONTINUOUS
 10
5.9152587015
 20
6.4855587663
 11
6.0561228845
 21
6.5233032104
  0
LINE
  5
276
100
AcDbEntity
  8
0
100
AcDbLine
 62
7
  6
CONTINUOUS
 10
5.9098666381
 20
6.505682221
 11
6.0507308211
 21
6.5434266651
  0
LINE
  5
277
100
AcDbEntity
  8
0
100
AcDbLine
 62
7
  6
CONTINUOUS
 10
6.065582806
 20
6.4443666237
 11
5.9464519662
 21
6.4124455628
  0
LINE
  5
278
100
AcDbEntity
  8
0
100
AcDbLine
 62
7
  6
CONTINUOUS
 10
7.2136272983
 20
4.5149249193
 11
7.2136272983
 21
5.4982582526
  0
LINE
  5
279
100
AcDbEntity
  8
0
100
AcDbLine
 62
7
  6
CONTINUOUS
 10
7.306761768
 20
6.000341586
 11
7.306761768
 21
6.1041736707
  0
LINE
  5
27A
100
AcDbEntity
  8
0
100
AcDbLine
 62
7
  6
CONTINUOUS
 10
5.9315323775
 20
6.560663157
 11
6.0044772723
 21
6.5802086826
  0
LINE
  5
27B
100
AcDbEntity
  8
0
100
AcDbLine
 62
7
  6
CONTINUOUS
 10
5.9386200168
 20
6.6157064615
 11
5.9708175444
 21
6.624333763
  0
LINE
  5
27C
100
AcDbEntity
  8
0
100
AcDbLine
 62
7
  6
CONTINUOUS
 10
7.3194471843
 20
5.3183018287
 11
7.319297659
 21
5.3188916035
  0
LINE
  5
27D
100
AcDbEntity
  8
0
100
AcDbLine
 62
7
  6
CONTINUOUS
 10
7.405199268
 20
5.9670082526
 11
7.405199268
 21
6.1041736707
  0
LINE
  5
27E
100
AcDbEntity
  8
0
100
AcDbLine
 62
7
  6
CONTINUOUS
 10
7.4687409347
 20
5.0273590983
 11
7.4687409347
 21
5.950341586
  0
LINE
  5
27F
100
AcDbEntity
  8
0
100
AcDbLine
 62
7
  6
CONTINUOUS
 10
7.3788230194
 20
6.1305499193
 11
7.405199268
 21
6.1041736707
  0
LINE
  5
280
100
AcDbEntity
  8
0
100
AcDbLine
 62
7
  6
CONTINUOUS
 10
8.130293965
 20
4.4149249193
 11
8.130293965
 21
4.756591586
  0
LINE
  5
281
100
AcDbEntity
  8
0
100
AcDbLine
 62
7
  6
CONTINUOUS
 10
4.3207987727
 20
13.054214448
 11
4.3207987727
 21
12.1458811147
  0
LINE
  5
282
100
AcDbEntity
  8
0
100
AcDbLine
 62
7
  6
CONTINUOUS
 10
4.982351803
 20
12.9208811147
 11
4.982351803
 21
12.279214448
  0
LINE
  5
283
100
AcDbEntity
  8
0
100
AcDbLine
 62
7
  6
CONTINUOUS
 10
5.0458934696
 20
12.8315292628
 11
5.1443309696
 21
13.0020280142
  0
LINE
  5
284
100
AcDbEntity
  8
0
100
AcDbLine
 62
7
  6
CONTINUOUS
 10
5.0458934696
 20
12.3685662999
 11
5.1443309696
 21
12.1980675485
  0
LINE
  5
285
100
AcDbEntity
  8
0
100
AcDbLine
 62
7
  6
CONTINUOUS
 10
5.2374654393
 20
13.2750477814
 11
5.2374654393
 21
13.152325255
  0
LINE
  5
286
100
AcDbEntity
  8
0
100
AcDbLine
 62
7
  6
CONTINUOUS
 10
5.2374654393
 20
11.9250477814
 11
5.2374654393
 21
12.0476759646
  0
LINE
  5
287
100
AcDbEntity
  8
0
100
AcDbLine
 62
7
  6
CONTINUOUS
 10
5.2655606946
 20
13.0708811147
 11
5.2655606946
 21
13.0606065232
  0
LINE
  5
288
100
AcDbEntity
  8
0
100
AcDbLine
 62
7
  6
CONTINUOUS
 10
5.2655606946
 20
12.6024520025
 11
5.2655606946
 21
12.5976435603
  0
LINE
  5
289
100
AcDbEntity
  8
0
100
AcDbLine
 62
7
  6
CONTINUOUS
 10
5.2655606946
 20
12.1394890395
 11
5.2655606946
 21
12.129214448
  0
LINE
  5
28A
100
AcDbEntity
  8
0
100
AcDbLine
 62
7
  6
CONTINUOUS
 10
7.0145487727
 20
11.8083811147
 11
5.3770487727
 21
11.8083811147
  0
LINE
  5
28B
100
AcDbEntity
  8
0
100
AcDbLine
 62
7
  6
CONTINUOUS
 10
5.322882106
 20
13.391714448
 11
5.322882106
 21
13.3083811147
  0
LINE
  5
28C
100
AcDbEntity
  8
0
100
AcDbLine
 62
7
  6
CONTINUOUS
 10
5.3770487727
 20
11.8083811147
 11
5.3770487727
 21
11.891714448
  0
LINE
  5
28D
100
AcDbEntity
  8
0
100
AcDbLine
 62
7
  6
CONTINUOUS
 10
5.1443309696
 20
12.5390650513
 11
5.0458934696
 21
12.3685662999
  0
LINE
  5
28E
100
AcDbEntity
  8
0
100
AcDbLine
 62
7
  6
CONTINUOUS
 10
5.4396434696
 20
12.8315292628
 11
5.3412059696
 21
12.6610305115
  0
LINE
  5
28F
100
AcDbEntity
  8
0
100
AcDbLine
 62
7
  6
CONTINUOUS
 10
7.1207987727
 20
11.891714448
 11
5.2707987727
 21
11.891714448
  0
LINE
  5
290
100
AcDbEntity
  8
0
100
AcDbLine
 62
7
  6
CONTINUOUS
 10
5.9465066589
 20
11.9158674622
 11
5.9451355659
 21
11.915876393
  0
LINE
  5
291
100
AcDbEntity
  8
0
100
AcDbLine
 62
7
  6
CONTINUOUS
 10
6.0060876136
 20
11.9514706782
 11
6.0047165207
 21
11.951479609
  0
LINE
  5
292
100
AcDbEntity
  8
0
100
AcDbLine
 62
7
  6
CONTINUOUS
 10
5.1443309696
 20
12.6610305115
 11
5.0458934696
 21
12.8315292628
  0
LINE
  5
293
100
AcDbEntity
  8
0
100
AcDbLine
 62
7
  6
CONTINUOUS
 10
5.4396434696
 20
12.3685662999
 11
5.3412059696
 21
12.5390650513
  0
LINE
  5
294
100
AcDbEntity
  8
0
100
AcDbLine
 62
7
  6
CONTINUOUS
 10
4.3874654393
 20
12.079214448
 11
5.2122393293
 21
12.079214448
  0
LINE
  5
295
100
AcDbEntity
  8
0
100
AcDbLine
 62
7
  6
CONTINUOUS
 10
7.1793229845
 20
12.079214448
 11
8.004132106
 21
12.079214448
  0
LINE
  5
296
100
AcDbEntity
  8
0
100
AcDbLine
 62
7
  6
CONTINUOUS
 10
5.1490184696
 20
12.1125477814
 11
5.257414536
 21
12.1125477814
  0
LINE
  5
297
100
AcDbEntity
  8
0
100
AcDbLine
 62
7
  6
CONTINUOUS
 10
7.1341830094
 20
12.1125477814
 11
7.2425790757
 21
12.1125477814
  0
LINE
  5
298
100
AcDbEntity
  8
0
100
AcDbLine
 62
7
  6
CONTINUOUS
 10
6.0047475904
 20
12.022686041
 11
6.0061186834
 21
12.0226771102
  0
LINE
  5
299
100
AcDbEntity
  8
0
100
AcDbLine
 62
7
  6
CONTINUOUS
 10
5.9465687983
 20
12.0582803262
 11
5.9451977054
 21
12.058289257
  0
LINE
  5
29A
100
AcDbEntity
  8
0
100
AcDbLine
 62
7
  6
CONTINUOUS
 10
5.9465687983
 20
12.0582803262
 11
6.005106228
 21
12.023282429
  0
LINE
  5
29B
100
AcDbEntity
  8
0
100
AcDbLine
 62
7
  6
CONTINUOUS
 10
5.3412059696
 20
12.1980675485
 11
5.4396434696
 21
12.3685662999
  0
LINE
  5
29C
100
AcDbEntity
  8
0
100
AcDbLine
 62
7
  6
CONTINUOUS
 10
5.1443309696
 20
12.1980675485
 11
5.3412059696
 21
12.1980675485
  0
LINE
  5
29D
100
AcDbEntity
  8
0
100
AcDbLine
 62
7
  6
CONTINUOUS
 10
7.0503915757
 20
12.1980675485
 11
7.2472665757
 21
12.1980675485
  0
LINE
  5
29E
100
AcDbEntity
  8
0
100
AcDbLine
 62
7
  6
CONTINUOUS
 10
5.3412059696
 20
13.0020280142
 11
5.4396434696
 21
12.8315292628
  0
LINE
  5
29F
100
AcDbEntity
  8
0
100
AcDbLine
 62
7
  6
CONTINUOUS
 10
5.8503714458
 20
12.6421462385
 11
5.8503714458
 21
12.5579493242
  0
LINE
  5
2A0
100
AcDbEntity
  8
0
100
AcDbLine
 62
7
  6
CONTINUOUS
 10
5.9208035373
 20
12.6842446956
 11
5.8503714458
 21
12.6421462385
  0
LINE
  5
2A1
100
AcDbEntity
  8
0
100
AcDbLine
 62
7
  6
CONTINUOUS
 10
4.591632106
 20
12.3759947511
 11
4.7582987727
 21
12.3759947511
  0
LINE
  5
2A2
100
AcDbEntity
  8
0
100
AcDbLine
 62
7
  6
CONTINUOUS
 10
7.6332987727
 20
12.3759947511
 11
7.7999654393
 21
12.3759947511
  0
LINE
  5
2A3
100
AcDbEntity
  8
0
100
AcDbLine
 62
7
  6
CONTINUOUS
 10
5.8503714458
 20
12.5579493242
 11
5.9208035373
 21
12.5158508671
  0
LINE
  5
2A4
100
AcDbEntity
  8
0
100
AcDbLine
 62
7
  6
CONTINUOUS
 10
5.9912356288
 20
12.5579493242
 11
5.9912356288
 21
12.6421462385
  0
LINE
  5
2A5
100
AcDbEntity
  8
0
100
AcDbLine
 62
7
  6
CONTINUOUS
 10
5.9966276922
 20
12.5579493242
 11
5.9966276922
 21
12.6421462385
  0
LINE
  5
2A6
100
AcDbEntity
  8
0
100
AcDbLine
 62
7
  6
CONTINUOUS
 10
6.0061186834
 20
12.0226771102
 11
6.0060876136
 21
11.9514706782
  0
LINE
  5
2A7
100
AcDbEntity
  8
0
100
AcDbLine
 62
7
  6
CONTINUOUS
 10
5.9208035373
 20
12.5158508671
 11
5.9912356288
 21
12.5579493242
  0
LINE
  5
2A8
100
AcDbEntity
  8
0
100
AcDbLine
 62
7
  6
CONTINUOUS
 10
5.9261956007
 20
12.5158508671
 11
5.9966276922
 21
12.5579493242
  0
LINE
  5
2A9
100
AcDbEntity
  8
0
100
AcDbLine
 62
7
  6
CONTINUOUS
 10
7.7999654393
 20
12.4958811147
 11
7.6332987727
 21
12.4958811147
  0
LINE
  5
2AA
100
AcDbEntity
  8
0
100
AcDbLine
 62
7
  6
CONTINUOUS
 10
4.7582987727
 20
12.4958811147
 11
4.591632106
 21
12.4958811147
  0
LINE
  5
2AB
100
AcDbEntity
  8
0
100
AcDbLine
 62
7
  6
CONTINUOUS
 10
5.9261956007
 20
12.5158508671
 11
5.9208035373
 21
12.5158508671
  0
LINE
  5
2AC
100
AcDbEntity
  8
0
100
AcDbLine
 62
7
  6
CONTINUOUS
 10
7.2472665757
 20
12.5390650513
 11
7.0503915757
 21
12.5390650513
  0
LINE
  5
2AD
100
AcDbEntity
  8
0
100
AcDbLine
 62
7
  6
CONTINUOUS
 10
5.3412059696
 20
12.5390650513
 11
5.1443309696
 21
12.5390650513
  0
LINE
  5
2AE
100
AcDbEntity
  8
0
100
AcDbLine
 62
7
  6
CONTINUOUS
 10
5.9966276922
 20
12.5579493242
 11
5.9912356288
 21
12.5579493242
  0
LINE
  5
2AF
100
AcDbEntity
  8
03__ASM_ALL_CURVES
100
AcDbLine
 62
4
  6
CONTINUOUS
 10
8.3624654393
 20
12.6000477814
 11
7.8624654393
 21
12.6000477814
  0
LINE
  5
2B0
100
AcDbEntity
  8
03__ASM_ALL_CURVES
100
AcDbLine
 62
4
  6
CONTINUOUS
 10
3.7792787284
 20
12.6000477814
 11
4.8624120571
 21
12.6000477814
  0
LINE
  5
2B1
100
AcDbEntity
  8
0
100
AcDbLine
 62
7
  6
CONTINUOUS
 10
5.9912356288
 20
12.6421462385
 11
5.9208035373
 21
12.6842446956
  0
LINE
  5
2B2
100
AcDbEntity
  8
0
100
AcDbLine
 62
7
  6
CONTINUOUS
 10
5.9966276922
 20
12.6421462385
 11
5.9261956007
 21
12.6842446956
  0
LINE
  5
2B3
100
AcDbEntity
  8
0
100
AcDbLine
 62
7
  6
CONTINUOUS
 10
5.9912356288
 20
12.6421462385
 11
5.9966276922
 21
12.6421462385
  0
LINE
  5
2B4
100
AcDbEntity
  8
0
100
AcDbLine
 62
7
  6
CONTINUOUS
 10
7.2472665757
 20
12.6610305115
 11
7.0503915757
 21
12.6610305115
  0
LINE
  5
2B5
100
AcDbEntity
  8
0
100
AcDbLine
 62
7
  6
CONTINUOUS
 10
5.3412059696
 20
12.6610305115
 11
5.1443309696
 21
12.6610305115
  0
LINE
  5
2B6
100
AcDbEntity
  8
0
100
AcDbLine
 62
7
  6
CONTINUOUS
 10
5.9261956007
 20
12.6842446956
 11
5.9208035373
 21
12.6842446956
  0
LINE
  5
2B7
100
AcDbEntity
  8
0
100
AcDbLine
 62
7
  6
CONTINUOUS
 10
4.591632106
 20
12.704214448
 11
4.7582987727
 21
12.704214448
  0
LINE
  5
2B8
100
AcDbEntity
  8
0
100
AcDbLine
 62
7
  6
CONTINUOUS
 10
7.6332987727
 20
12.704214448
 11
7.7999654393
 21
12.704214448
  0
LINE
  5
2B9
100
AcDbEntity
  8
0
100
AcDbLine
 62
7
  6
CONTINUOUS
 10
7.7999654393
 20
12.8241008117
 11
7.6332987727
 21
12.8241008117
  0
LINE
  5
2BA
100
AcDbEntity
  8
0
100
AcDbLine
 62
7
  6
CONTINUOUS
 10
4.7582987727
 20
12.8241008117
 11
4.591632106
 21
12.8241008117
  0
LINE
  5
2BB
100
AcDbEntity
  8
0
100
AcDbLine
 62
7
  6
CONTINUOUS
 10
5.1443309696
 20
13.0020280142
 11
5.3412059696
 21
13.0020280142
  0
LINE
  5
2BC
100
AcDbEntity
  8
0
100
AcDbLine
 62
7
  6
CONTINUOUS
 10
7.0503915757
 20
13.0020280142
 11
7.2472665757
 21
13.0020280142
  0
LINE
  5
2BD
100
AcDbEntity
  8
0
100
AcDbLine
 62
7
  6
CONTINUOUS
 10
7.2425790757
 20
13.0875477814
 11
7.1341830094
 21
13.0875477814
  0
LINE
  5
2BE
100
AcDbEntity
  8
0
100
AcDbLine
 62
7
  6
CONTINUOUS
 10
5.257414536
 20
13.0875477814
 11
5.1490184696
 21
13.0875477814
  0
LINE
  5
2BF
100
AcDbEntity
  8
0
100
AcDbLine
 62
7
  6
CONTINUOUS
 10
6.9519540757
 20
12.8315292628
 11
7.0503915757
 21
13.0020280142
  0
LINE
  5
2C0
100
AcDbEntity
  8
0
100
AcDbLine
 62
7
  6
CONTINUOUS
 10
6.0050796882
 20
11.9508683819
 11
5.9465066589
 21
11.9158674622
  0
LINE
  5
2C1
100
AcDbEntity
  8
0
100
AcDbLine
 62
7
  6
CONTINUOUS
 10
4.3874654393
 20
13.1208811147
 11
5.2122513446
 21
13.1208811147
  0
LINE
  5
2C2
100
AcDbEntity
  8
0
100
AcDbLine
 62
7
  6
CONTINUOUS
 10
7.1793457234
 20
13.1208811147
 11
8.004132106
 21
13.1208811147
  0
LINE
  5
2C3
100
AcDbEntity
  8
0
100
AcDbLine
 62
7
  6
CONTINUOUS
 10
6.9519540757
 20
12.3685662999
 11
7.0503915757
 21
12.1980675485
  0
LINE
  5
2C4
100
AcDbEntity
  8
0
100
AcDbLine
 62
7
  6
CONTINUOUS
 10
5.2707987727
 20
13.3083811147
 11
7.1207987727
 21
13.3083811147
  0
LINE
  5
2C5
100
AcDbEntity
  8
0
100
AcDbLine
 62
7
  6
CONTINUOUS
 10
5.322882106
 20
13.391714448
 11
7.0687154393
 21
13.391714448
  0
LINE
  5
2C6
100
AcDbEntity
  8
0
100
AcDbLine
 62
7
  6
CONTINUOUS
 10
7.0145487727
 20
11.8083811147
 11
7.0145487727
 21
11.891714448
  0
LINE
  5
2C7
100
AcDbEntity
  8
0
100
AcDbLine
 62
7
  6
CONTINUOUS
 10
7.0503915757
 20
12.5390650513
 11
6.9519540757
 21
12.3685662999
  0
LINE
  5
2C8
100
AcDbEntity
  8
0
100
AcDbLine
 62
7
  6
CONTINUOUS
 10
7.3457040757
 20
12.8315292628
 11
7.2472665757
 21
12.6610305115
  0
LINE
  5
2C9
100
AcDbEntity
  8
0
100
AcDbLine
 62
7
  6
CONTINUOUS
 10
7.0503915757
 20
12.6610305115
 11
6.9519540757
 21
12.8315292628
  0
LINE
  5
2CA
100
AcDbEntity
  8
0
100
AcDbLine
 62
7
  6
CONTINUOUS
 10
7.3457040757
 20
12.3685662999
 11
7.2472665757
 21
12.5390650513
  0
LINE
  5
2CB
100
AcDbEntity
  8
0
100
AcDbLine
 62
7
  6
CONTINUOUS
 10
7.0687154393
 20
13.391714448
 11
7.0687154393
 21
13.3083811147
  0
LINE
  5
2CC
100
AcDbEntity
  8
0
100
AcDbLine
 62
7
  6
CONTINUOUS
 10
7.1260368508
 20
12.129214448
 11
7.1260368508
 21
12.1394890395
  0
LINE
  5
2CD
100
AcDbEntity
  8
0
100
AcDbLine
 62
7
  6
CONTINUOUS
 10
7.1260368508
 20
12.5976435603
 11
7.1260368508
 21
12.6024520025
  0
LINE
  5
2CE
100
AcDbEntity
  8
0
100
AcDbLine
 62
7
  6
CONTINUOUS
 10
7.1260368508
 20
13.0606065232
 11
7.1260368508
 21
13.0708811147
  0
LINE
  5
2CF
100
AcDbEntity
  8
0
100
AcDbLine
 62
7
  6
CONTINUOUS
 10
7.154132106
 20
13.2750477814
 11
7.154132106
 21
13.1523252549
  0
LINE
  5
2D0
100
AcDbEntity
  8
0
100
AcDbLine
 62
7
  6
CONTINUOUS
 10
7.154132106
 20
11.9250477814
 11
7.154132106
 21
12.0477579575
  0
LINE
  5
2D1
100
AcDbEntity
  8
0
100
AcDbLine
 62
7
  6
CONTINUOUS
 10
7.2472665757
 20
12.1980675485
 11
7.3457040757
 21
12.3685662999
  0
LINE
  5
2D2
100
AcDbEntity
  8
0
100
AcDbLine
 62
7
  6
CONTINUOUS
 10
7.2472665757
 20
13.0020280142
 11
7.3457040757
 21
12.8315292628
  0
LINE
  5
2D3
100
AcDbEntity
  8
0
100
AcDbLine
 62
7
  6
CONTINUOUS
 10
7.4092457424
 20
12.279214448
 11
7.4092457424
 21
12.9208811147
  0
LINE
  5
2D4
100
AcDbEntity
  8
0
100
AcDbLine
 62
7
  6
CONTINUOUS
 10
8.0707987727
 20
12.1458811147
 11
8.0707987727
 21
13.054214448
  0
LINE
  5
2D5
100
AcDbEntity
  8
0
100
AcDbLine
 62
7
  6
CONTINUOUS
 10
16.0811885903
 20
4.355429727
 11
15.0395219236
 21
4.355429727
  0
LINE
  5
2D6
100
AcDbEntity
  8
0
100
AcDbLine
 62
7
  6
CONTINUOUS
 10
14.8853552569
 20
4.3887630603
 11
15.0395219236
 21
4.3887630603
  0
LINE
  5
2D7
100
AcDbEntity
  8
0
100
AcDbLine
 62
7
  6
CONTINUOUS
 10
16.0811885903
 20
4.3887630603
 11
16.2353552569
 21
4.3887630603
  0
LINE
  5
2D8
100
AcDbEntity
  8
0
100
AcDbLine
 62
7
  6
CONTINUOUS
 10
15.5104454199
 20
6.480429727
 11
15.5182567998
 21
6.4839314728
  0
LINE
  5
2D9
100
AcDbEntity
  8
0
100
AcDbLine
 62
7
  6
CONTINUOUS
 10
16.2853552569
 20
4.5437630603
 11
16.3406885903
 21
4.5471796666
  0
LINE
  5
2DA
100
AcDbEntity
  8
0
100
AcDbLine
 62
7
  6
CONTINUOUS
 10
16.2853552569
 20
4.5437630603
 11
16.2686885903
 21
4.5437630603
  0
LINE
  5
2DB
100
AcDbEntity
  8
0
100
AcDbLine
 62
7
  6
CONTINUOUS
 10
14.8353552569
 20
4.5437630603
 11
14.8520219236
 21
4.5437630603
  0
LINE
  5
2DC
100
AcDbEntity
  8
0
100
AcDbLine
 62
7
  6
CONTINUOUS
 10
14.8353552569
 20
4.5437630603
 11
14.7800219236
 21
4.5471796666
  0
LINE
  5
2DD
100
AcDbEntity
  8
0
100
AcDbLine
 62
7
  6
CONTINUOUS
 10
14.8353552569
 20
4.605429727
 11
14.7800219236
 21
4.605429727
  0
LINE
  5
2DE
100
AcDbEntity
  8
0
100
AcDbLine
 62
7
  6
CONTINUOUS
 10
16.2853552569
 20
4.605429727
 11
16.3406885903
 21
4.605429727
  0
LINE
  5
2DF
100
AcDbEntity
  8
0
100
AcDbLine
 62
7
  6
CONTINUOUS
 10
14.7686885903
 20
4.7720963936
 11
14.7686885903
 21
6.2575128604
  0
LINE
  5
2E0
100
AcDbEntity
  8
0
100
AcDbLine
 62
7
  6
CONTINUOUS
 10
14.7800219236
 20
4.5471796666
 11
14.7800219236
 21
4.6636797873
  0
LINE
  5
2E1
100
AcDbEntity
  8
0
100
AcDbLine
 62
7
  6
CONTINUOUS
 10
14.8353552569
 20
4.5437630603
 11
14.8353552569
 21
4.6670963936
  0
LINE
  5
2E2
100
AcDbEntity
  8
0
100
AcDbLine
 62
7
  6
CONTINUOUS
 10
14.8353552569
 20
4.6670963936
 11
14.7800219236
 21
4.6636797873
  0
LINE
  5
2E3
100
AcDbEntity
  8
0
100
AcDbLine
 62
7
  6
CONTINUOUS
 10
16.2853552569
 20
4.6670963936
 11
16.2686885903
 21
4.6670963936
  0
LINE
  5
2E4
100
AcDbEntity
  8
0
100
AcDbLine
 62
7
  6
CONTINUOUS
 10
14.8353552569
 20
4.6670963936
 11
14.8520219236
 21
4.6670963936
  0
LINE
  5
2E5
100
AcDbEntity
  8
0
100
AcDbLine
 62
7
  6
CONTINUOUS
 10
16.2686885903
 20
4.6887630603
 11
16.3520219236
 21
4.6887630603
  0
LINE
  5
2E6
100
AcDbEntity
  8
0
100
AcDbLine
 62
7
  6
CONTINUOUS
 10
15.0728552569
 20
4.730429727
 11
16.0478552569
 21
4.730429727
  0
LINE
  5
2E7
100
AcDbEntity
  8
0
100
AcDbLine
 62
7
  6
CONTINUOUS
 10
16.2853552569
 20
4.6670963936
 11
16.3406885903
 21
4.6636797873
  0
LINE
  5
2E8
100
AcDbEntity
  8
0
100
AcDbLine
 62
7
  6
CONTINUOUS
 10
14.8520219236
 20
4.4220963936
 11
14.8520219236
 21
6.3637627945
  0
LINE
  5
2E9
100
AcDbEntity
  8
0
100
AcDbLine
 62
7
  6
CONTINUOUS
 10
14.7686885903
 20
4.7720963936
 11
14.8520219236
 21
4.7720963936
  0
LINE
  5
2EA
100
AcDbEntity
  8
0
100
AcDbLine
 62
7
  6
CONTINUOUS
 10
15.0395219236
 20
4.355429727
 11
15.0395219236
 21
4.730429727
  0
LINE
  5
2EB
100
AcDbEntity
  8
0
100
AcDbLine
 62
7
  6
CONTINUOUS
 10
15.0728552569
 20
5.3522827805
 11
15.0728552569
 21
5.8908463936
  0
LINE
  5
2EC
100
AcDbEntity
  8
0
100
AcDbLine
 62
7
  6
CONTINUOUS
 10
15.0395219236
 20
4.730429727
 11
15.0425181432
 21
6.4471353551
  0
LINE
  5
2ED
100
AcDbEntity
  8
0
100
AcDbLine
 62
7
  6
CONTINUOUS
 10
15.8811885903
 20
4.967863906
 11
15.2395219236
 21
4.967863906
  0
LINE
  5
2EE
100
AcDbEntity
  8
0
100
AcDbLine
 62
7
  6
CONTINUOUS
 10
15.1319987755
 20
5.9075130603
 11
15.1319987755
 21
5.9408463936
  0
LINE
  5
2EF
100
AcDbEntity
  8
0
100
AcDbLine
 62
7
  6
CONTINUOUS
 10
15.1583750241
 20
5.9408463936
 11
15.1583750241
 21
6.071054727
  0
LINE
  5
2F0
100
AcDbEntity
  8
0
100
AcDbLine
 62
7
  6
CONTINUOUS
 10
15.3288737755
 20
5.9408463936
 11
15.3288737755
 21
6.0446784783
  0
LINE
  5
2F1
100
AcDbEntity
  8
0
100
AcDbLine
 62
7
  6
CONTINUOUS
 10
15.3363022266
 20
4.7889296884
 11
15.3363022266
 21
4.730429727
  0
LINE
  5
2F2
100
AcDbEntity
  8
0
100
AcDbLine
 62
7
  6
CONTINUOUS
 10
15.4993725268
 20
5.9408463936
 11
15.4993725268
 21
6.071054727
  0
LINE
  5
2F3
100
AcDbEntity
  8
0
100
AcDbLine
 62
7
  6
CONTINUOUS
 10
15.5182567998
 20
6.480429727
 11
15.5182567998
 21
6.4839314728
  0
LINE
  5
2F4
100
AcDbEntity
  8
0
100
AcDbLine
 62
7
  6
CONTINUOUS
 10
15.5257487755
 20
5.9075130603
 11
15.5257487755
 21
5.9408463936
  0
LINE
  5
2F5
100
AcDbEntity
  8
0
100
AcDbLine
 62
7
  6
CONTINUOUS
 10
16.1132857001
 20
5.4387690987
 11
16.1126327305
 21
5.4387630603
  0
LINE
  5
2F6
100
AcDbEntity
  8
0
100
AcDbLine
 62
7
  6
CONTINUOUS
 10
15.0080654331
 20
5.4387630603
 11
15.0728552569
 21
5.4387630603
  0
LINE
  5
2F7
100
AcDbEntity
  8
0
100
AcDbLine
 62
7
  6
CONTINUOUS
 10
16.0478552569
 20
5.4387630603
 11
16.1126327305
 21
5.4387630603
  0
LINE
  5
2F8
100
AcDbEntity
  8
0
100
AcDbLine
 62
7
  6
CONTINUOUS
 10
15.0080654331
 20
5.4387630603
 11
15.0074248139
 21
5.4387685749
  0
LINE
  5
2F9
100
AcDbEntity
  8
0
100
AcDbLine
 62
7
  6
CONTINUOUS
 10
15.5949617384
 20
5.9075130603
 11
15.5949617384
 21
5.9408463936
  0
LINE
  5
2FA
100
AcDbEntity
  8
0
100
AcDbLine
 62
7
  6
CONTINUOUS
 10
15.6024537141
 20
6.4839314728
 11
15.6024537141
 21
6.480429727
  0
LINE
  5
2FB
100
AcDbEntity
  8
0
100
AcDbLine
 62
7
  6
CONTINUOUS
 10
15.621337987
 20
5.9408463936
 11
15.621337987
 21
6.071054727
  0
LINE
  5
2FC
100
AcDbEntity
  8
0
100
AcDbLine
 62
7
  6
CONTINUOUS
 10
15.7844082872
 20
4.73407155
 11
15.7844082872
 21
4.7889310384
  0
LINE
  5
2FD
100
AcDbEntity
  8
0
100
AcDbLine
 62
7
  6
CONTINUOUS
 10
15.7918367384
 20
5.9408463936
 11
15.7918367384
 21
6.0446784783
  0
LINE
  5
2FE
100
AcDbEntity
  8
0
100
AcDbLine
 62
7
  6
CONTINUOUS
 10
15.9623354898
 20
5.9408463936
 11
15.9623354898
 21
6.071054727
  0
LINE
  5
2FF
100
AcDbEntity
  8
0
100
AcDbLine
 62
7
  6
CONTINUOUS
 10
15.9887117384
 20
5.9075130603
 11
15.9887117384
 21
5.9408463936
  0
LINE
  5
300
100
AcDbEntity
  8
0
100
AcDbLine
 62
7
  6
CONTINUOUS
 10
15.0895219236
 20
5.9075130603
 11
16.0311885903
 21
5.9075130603
  0
LINE
  5
301
100
AcDbEntity
  8
0
100
AcDbLine
 62
7
  6
CONTINUOUS
 10
16.0478552569
 20
5.8908463936
 11
16.0478552569
 21
5.3522827805
  0
LINE
  5
302
100
AcDbEntity
  8
0
100
AcDbLine
 62
7
  6
CONTINUOUS
 10
16.0811885903
 20
4.355429727
 11
16.0811885903
 21
4.7099383699
  0
LINE
  5
303
100
AcDbEntity
  8
0
100
AcDbLine
 62
7
  6
CONTINUOUS
 10
16.0811885903
 20
4.7099383699
 11
16.0781923701
 21
6.447135677
  0
LINE
  5
304
100
AcDbEntity
  8
0
100
AcDbLine
 62
7
  6
CONTINUOUS
 10
15.1319987755
 20
5.9408463936
 11
15.5257487755
 21
5.9408463936
  0
LINE
  5
305
100
AcDbEntity
  8
0
100
AcDbLine
 62
7
  6
CONTINUOUS
 10
15.5949617384
 20
5.9408463936
 11
15.9887117384
 21
5.9408463936
  0
LINE
  5
306
100
AcDbEntity
  8
0
100
AcDbLine
 62
7
  6
CONTINUOUS
 10
15.1583750241
 20
6.071054727
 11
15.4993725268
 21
6.071054727
  0
LINE
  5
307
100
AcDbEntity
  8
0
100
AcDbLine
 62
7
  6
CONTINUOUS
 10
15.621337987
 20
6.071054727
 11
15.9623354898
 21
6.071054727
  0
LINE
  5
308
100
AcDbEntity
  8
0
100
AcDbLine
 62
7
  6
CONTINUOUS
 10
16.2686885903
 20
4.4220963936
 11
16.2686885903
 21
6.3637627945
  0
LINE
  5
309
100
AcDbEntity
  8
0
100
AcDbLine
 62
7
  6
CONTINUOUS
 10
16.2853552569
 20
4.6670963936
 11
16.2853552569
 21
4.5437630603
  0
LINE
  5
30A
100
AcDbEntity
  8
0
100
AcDbLine
 62
7
  6
CONTINUOUS
 10
16.3406885903
 20
4.6636797873
 11
16.3406885903
 21
4.5471796666
  0
LINE
  5
30B
100
AcDbEntity
  8
0
100
AcDbLine
 62
7
  6
CONTINUOUS
 10
16.3520219236
 20
4.6887630603
 11
16.3520219236
 21
6.3116794944
  0
LINE
  5
30C
100
AcDbEntity
  8
0
100
AcDbLine
 62
7
  6
CONTINUOUS
 10
14.7686885903
 20
6.2575130603
 11
14.8520219236
 21
6.2575130603
  0
LINE
  5
30D
100
AcDbEntity
  8
0
100
AcDbLine
 62
7
  6
CONTINUOUS
 10
16.3520219236
 20
6.311679727
 11
16.2686885903
 21
6.311679727
  0
LINE
  5
30E
100
AcDbEntity
  8
0
100
AcDbLine
 62
7
  6
CONTINUOUS
 10
14.8853552569
 20
6.3970963936
 11
15.009108724
 21
6.3970963936
  0
LINE
  5
30F
100
AcDbEntity
  8
0
100
AcDbLine
 62
7
  6
CONTINUOUS
 10
16.1116026914
 20
6.3970963936
 11
16.2353552569
 21
6.3970963936
  0
LINE
  5
310
100
AcDbEntity
  8
0
100
AcDbLine
 62
7
  6
CONTINUOUS
 10
15.6024537141
 20
6.4839314728
 11
15.6102650939
 21
6.480429727
  0
LINE
  5
311
100
AcDbEntity
  8
0
100
AcDbLine
 62
7
  6
CONTINUOUS
 10
15.0758059749
 20
6.480429727
 11
16.0449042603
 21
6.480429727
  0
LINE
  5
312
100
AcDbEntity
  8
0
100
AcDbLine
 62
7
  6
CONTINUOUS
 10
15.5182567998
 20
6.4839314728
 11
15.6024537141
 21
6.4839314728
  0
LINE
  5
313
100
AcDbEntity
  8
0
100
AcDbLine
 62
7
  6
CONTINUOUS
 10
13.8291150935
 20
11.4679002138
 11
13.7248924558
 21
11.6802836197
  0
LINE
  5
314
100
AcDbEntity
  8
0
100
AcDbLine
 62
7
  6
CONTINUOUS
 10
13.7221918381
 20
11.7194947127
 11
13.9420687485
 21
12.4310166556
  0
LINE
  5
315
100
AcDbEntity
  8
0
100
AcDbLine
 62
7
  6
CONTINUOUS
 10
14.0002269754
 20
12.5610644107
 11
14.0419565442
 21
12.6961013449
  0
LINE
  5
316
100
AcDbEntity
  8
0
100
AcDbLine
 62
7
  6
CONTINUOUS
 10
14.0658098811
 20
12.7732907712
 11
14.1540253056
 21
13.0587559895
  0
LINE
  5
317
100
AcDbEntity
  8
0
100
AcDbLine
 62
7
  6
CONTINUOUS
 10
14.8218294366
 20
11.3971770928
 11
14.8932500023
 21
11.3609682747
  0
LINE
  5
318
100
AcDbEntity
  8
0
100
AcDbLine
 62
7
  6
CONTINUOUS
 10
14.9291331536
 20
11.3971770928
 11
14.857712588
 21
11.433385911
  0
LINE
  5
319
100
AcDbEntity
  8
0
100
AcDbLine
 62
7
  6
CONTINUOUS
 10
14.004687863
 20
12.4827198364
 11
14.275073548
 21
11.931731741
  0
LINE
  5
31A
100
AcDbEntity
  8
0
100
AcDbLine
 62
7
  6
CONTINUOUS
 10
14.5886828603
 20
11.3717612751
 11
14.2887250248
 21
11.9830110772
  0
LINE
  5
31B
100
AcDbEntity
  8
0
100
AcDbLine
 62
7
  6
CONTINUOUS
 10
14.5712961927
 20
11.5333417138
 11
14.3882710728
 21
11.9063076947
  0
LINE
  5
31C
100
AcDbEntity
  8
0
100
AcDbLine
 62
7
  6
CONTINUOUS
 10
14.0641147261
 20
12.0143821965
 11
14.0610726035
 21
12.0045378842
  0
LINE
  5
31D
100
AcDbEntity
  8
0
100
AcDbLine
 62
7
  6
CONTINUOUS
 10
14.2212908899
 20
12.4537456083
 11
14.2277355683
 21
12.4746005953
  0
LINE
  5
31E
100
AcDbEntity
  8
0
100
AcDbLine
 62
7
  6
CONTINUOUS
 10
14.2550191903
 20
12.2806412319
 11
14.2847676337
 21
12.37690723
  0
LINE
  5
31F
100
AcDbEntity
  8
0
100
AcDbLine
 62
7
  6
CONTINUOUS
 10
16.3020361167
 20
11.3323923665
 11
14.6594773441
 21
11.3323923665
  0
LINE
  5
320
100
AcDbEntity
  8
0
100
AcDbLine
 62
7
  6
CONTINUOUS
 10
14.8700647166
 20
11.4788537965
 11
14.945674393
 21
11.4405211818
  0
LINE
  5
321
100
AcDbEntity
  8
0
100
AcDbLine
 62
7
  6
CONTINUOUS
 10
14.0702953351
 20
12.5704839838
 11
14.0804633973
 21
12.5497636515
  0
LINE
  5
322
100
AcDbEntity
  8
0
100
AcDbLine
 62
7
  6
CONTINUOUS
 10
14.1150973069
 20
12.5236595696
 11
14.083424174
 21
12.5882026284
  0
LINE
  5
323
100
AcDbEntity
  8
0
100
AcDbLine
 62
7
  6
CONTINUOUS
 10
14.3601389454
 20
12.1480414801
 11
14.380311139
 21
12.2133187226
  0
LINE
  5
324
100
AcDbEntity
  8
0
100
AcDbLine
 62
7
  6
CONTINUOUS
 10
14.7880561479
 20
13.2303511492
 11
14.7734182542
 21
13.2209085226
  0
LINE
  5
325
100
AcDbEntity
  8
0
100
AcDbLine
 62
7
  6
CONTINUOUS
 10
17.2039967105
 20
11.4450479338
 11
16.3797546907
 21
11.4450479338
  0
LINE
  5
326
100
AcDbEntity
  8
0
100
AcDbLine
 62
7
  6
CONTINUOUS
 10
14.5527189918
 20
11.4450479338
 11
13.8728261156
 21
11.4450479338
  0
LINE
  5
327
100
AcDbEntity
  8
0
100
AcDbLine
 62
7
  6
CONTINUOUS
 10
16.0384656286
 20
11.4919010492
 11
14.6530363834
 21
11.4919010492
  0
LINE
  5
328
100
AcDbEntity
  8
0
100
AcDbLine
 62
7
  6
CONTINUOUS
 10
14.2707042884
 20
12.5760854831
 11
14.2647580571
 21
12.5882026284
  0
LINE
  5
329
100
AcDbEntity
  8
0
100
AcDbLine
 62
7
  6
CONTINUOUS
 10
14.1823630774
 20
12.9331353308
 11
14.1925311396
 21
12.9124149985
  0
LINE
  5
32A
100
AcDbEntity
  8
0
100
AcDbLine
 62
7
  6
CONTINUOUS
 10
14.2271650492
 20
12.8863109166
 11
14.1954919163
 21
12.9508539755
  0
LINE
  5
32B
100
AcDbEntity
  8
0
100
AcDbLine
 62
7
  6
CONTINUOUS
 10
14.6121731369
 20
12.6195210904
 11
14.6121052715
 21
12.6191906173
  0
LINE
  5
32C
100
AcDbEntity
  8
0
100
AcDbLine
 62
7
  6
CONTINUOUS
 10
14.6134724143
 20
12.6245436098
 11
14.6121799405
 21
12.6195230682
  0
LINE
  5
32D
100
AcDbEntity
  8
0
100
AcDbLine
 62
7
  6
CONTINUOUS
 10
14.7122955523
 20
13.1647562265
 11
14.6983688573
 21
13.1196894249
  0
LINE
  5
32E
100
AcDbEntity
  8
0
100
AcDbLine
 62
7
  6
CONTINUOUS
 10
14.8165997261
 20
13.1431517476
 11
14.8369809635
 21
13.2091054562
  0
LINE
  5
32F
100
AcDbEntity
  8
0
100
AcDbLine
 62
7
  6
CONTINUOUS
 10
14.8277046416
 20
13.1306428075
 11
14.848085879
 21
13.1965965162
  0
LINE
  5
330
100
AcDbEntity
  8
0
100
AcDbLine
 62
7
  6
CONTINUOUS
 10
14.747293673
 20
13.0984437319
 11
14.8165997261
 21
13.1431517476
  0
LINE
  5
331
100
AcDbEntity
  8
0
100
AcDbLine
 62
7
  6
CONTINUOUS
 10
14.7583985885
 20
13.0859347919
 11
14.8277046416
 21
13.1306428075
  0
LINE
  5
332
100
AcDbEntity
  8
0
100
AcDbLine
 62
7
  6
CONTINUOUS
 10
16.791884726
 20
11.6781516719
 11
16.3067041656
 21
11.6781516719
  0
LINE
  5
333
100
AcDbEntity
  8
0
100
AcDbLine
 62
7
  6
CONTINUOUS
 10
14.4383282918
 20
11.6781516719
 11
14.0561567002
 21
11.6781516719
  0
LINE
  5
334
100
AcDbEntity
  8
0
100
AcDbLine
 62
7
  6
CONTINUOUS
 10
14.3773023822
 20
12.7941809376
 11
14.3473020689
 21
12.8553151485
  0
LINE
  5
335
100
AcDbEntity
  8
0
100
AcDbLine
 62
7
  6
CONTINUOUS
 10
14.3827720308
 20
12.9387368301
 11
14.3768257995
 21
12.9508539755
  0
LINE
  5
336
100
AcDbEntity
  8
0
100
AcDbLine
 62
7
  6
CONTINUOUS
 10
14.7309893809
 20
12.6622098312
 11
14.7136887139
 21
12.6065039948
  0
LINE
  5
337
100
AcDbEntity
  8
03__ASM_ALL_CURVES
100
AcDbLine
 62
4
  6
CONTINUOUS
 10
13.4387252691
 20
11.8530306992
 11
13.763457579
 21
11.8530306992
  0
LINE
  5
338
100
AcDbEntity
  8
0
100
AcDbLine
 62
7
  6
CONTINUOUS
 10
14.7136887139
 20
12.6065039948
 11
14.6550436255
 21
12.5687298518
  0
LINE
  5
339
100
AcDbEntity
  8
0
100
AcDbLine
 62
7
  6
CONTINUOUS
 10
17.0024170257
 20
12.0045378842
 11
16.84890686
 21
12.0045378842
  0
LINE
  5
33A
100
AcDbEntity
  8
0
100
AcDbLine
 62
7
  6
CONTINUOUS
 10
14.2008565023
 20
12.0045378842
 11
14.0473463366
 21
12.0045378842
  0
LINE
  5
33B
100
AcDbEntity
  8
0
100
AcDbLine
 62
7
  6
CONTINUOUS
 10
17.1028064984
 20
12.0511791214
 11
16.9565326941
 21
12.0511791214
  0
LINE
  5
33C
100
AcDbEntity
  8
0
100
AcDbLine
 62
7
  6
CONTINUOUS
 10
14.1549721706
 20
12.0511791214
 11
14.2164572875
 21
12.0511791214
  0
LINE
  5
33D
100
AcDbEntity
  8
0
100
AcDbLine
 62
7
  6
CONTINUOUS
 10
14.6108776124
 20
12.5898493072
 11
14.6136992042
 21
12.5866615451
  0
LINE
  5
33E
100
AcDbEntity
  8
0
100
AcDbLine
 62
7
  6
CONTINUOUS
 10
14.6550436255
 20
12.5687298518
 11
14.6522220337
 21
12.5719176139
  0
LINE
  5
33F
100
AcDbEntity
  8
0
100
AcDbLine
 62
7
  6
CONTINUOUS
 10
14.7136887139
 20
12.6065039948
 11
14.7108671221
 21
12.6096917569
  0
LINE
  5
340
100
AcDbEntity
  8
0
100
AcDbLine
 62
7
  6
CONTINUOUS
 10
14.7281677891
 20
12.6653975933
 11
14.7309893809
 21
12.6622098312
  0
LINE
  5
341
100
AcDbEntity
  8
0
100
AcDbLine
 62
7
  6
CONTINUOUS
 10
14.4893701245
 20
13.1568322847
 11
14.4602428368
 21
13.2161874565
  0
LINE
  5
342
100
AcDbEntity
  8
0
100
AcDbLine
 62
7
  6
CONTINUOUS
 10
14.8320768704
 20
11.4405211818
 11
14.8218294366
 21
11.3971770928
  0
LINE
  5
343
100
AcDbEntity
  8
0
100
AcDbLine
 62
7
  6
CONTINUOUS
 10
14.8700647166
 20
11.4788537965
 11
14.857712588
 21
11.433385911
  0
LINE
  5
344
100
AcDbEntity
  8
0
100
AcDbLine
 62
7
  6
CONTINUOUS
 10
14.829958013
 20
11.4587281031
 11
14.8339924517
 21
11.4717835516
  0
LINE
  5
345
100
AcDbEntity
  8
0
100
AcDbLine
 62
7
  6
CONTINUOUS
 10
14.0977768206
 20
12.1677309904
 11
14.1592619375
 21
12.1677309904
  0
LINE
  5
346
100
AcDbEntity
  8
0
100
AcDbLine
 62
7
  6
CONTINUOUS
 10
16.8993373441
 20
12.1677309904
 11
17.0528475097
 21
12.1677309904
  0
LINE
  5
347
100
AcDbEntity
  8
03__ASM_ALL_CURVES
100
AcDbLine
 62
4
  6
CONTINUOUS
 10
17.4948887657
 20
12.1897360987
 11
17.0343582687
 21
12.1897360987
  0
LINE
  5
348
100
AcDbEntity
  8
03__ASM_ALL_CURVES
100
AcDbLine
 62
4
  6
CONTINUOUS
 10
13.5036244584
 20
12.1897360987
 11
13.9641549554
 21
12.1897360987
  0
LINE
  5
349
100
AcDbEntity
  8
0
100
AcDbLine
 62
7
  6
CONTINUOUS
 10
14.9477932504
 20
11.4223142606
 11
14.9518276891
 21
11.4353697091
  0
LINE
  5
34A
100
AcDbEntity
  8
0
100
AcDbLine
 62
7
  6
CONTINUOUS
 10
16.9283577953
 20
12.2616412052
 11
17.081867961
 21
12.2616412052
  0
LINE
  5
34B
100
AcDbEntity
  8
0
100
AcDbLine
 62
7
  6
CONTINUOUS
 10
14.6550436255
 20
12.5687298518
 11
14.6136992042
 21
12.5866615451
  0
LINE
  5
34C
100
AcDbEntity
  8
0
100
AcDbLine
 62
7
  6
CONTINUOUS
 10
14.6983688573
 20
13.1196894249
 11
14.7094737728
 21
13.1071804849
  0
LINE
  5
34D
100
AcDbEntity
  8
0
100
AcDbLine
 62
7
  6
CONTINUOUS
 10
14.7583985885
 20
13.0859347919
 11
14.747293673
 21
13.0984437319
  0
LINE
  5
34E
100
AcDbEntity
  8
0
100
AcDbLine
 62
7
  6
CONTINUOUS
 10
14.945674393
 20
11.4405211818
 11
14.9291331536
 21
11.3971770928
  0
LINE
  5
34F
100
AcDbEntity
  8
0
100
AcDbLine
 62
7
  6
CONTINUOUS
 10
17.3438576155
 20
12.4806193068
 11
17.1558076626
 21
12.4806193068
  0
LINE
  5
350
100
AcDbEntity
  8
0
100
AcDbLine
 62
7
  6
CONTINUOUS
 10
14.1150973069
 20
12.5236595696
 11
14.2463888959
 21
12.5236595696
  0
LINE
  5
351
100
AcDbEntity
  8
0
100
AcDbLine
 62
7
  6
CONTINUOUS
 10
15.8706953833
 20
12.5236595696
 11
16.0520292665
 21
12.5236595696
  0
LINE
  5
352
100
AcDbEntity
  8
0
100
AcDbLine
 62
7
  6
CONTINUOUS
 10
14.8277046416
 20
13.1306428075
 11
14.8165997261
 21
13.1431517476
  0
LINE
  5
353
100
AcDbEntity
  8
0
100
AcDbLine
 62
7
  6
CONTINUOUS
 10
14.8369809635
 20
13.2091054562
 11
14.848085879
 21
13.1965965162
  0
LINE
  5
354
100
AcDbEntity
  8
0
100
AcDbLine
 62
7
  6
CONTINUOUS
 10
15.8965084504
 20
11.9063076947
 11
16.0795335704
 21
11.5333417138
  0
LINE
  5
355
100
AcDbEntity
  8
0
100
AcDbLine
 62
7
  6
CONTINUOUS
 10
15.9166806441
 20
11.9715849372
 11
16.099705764
 21
11.5986189562
  0
LINE
  5
356
100
AcDbEntity
  8
0
100
AcDbLine
 62
7
  6
CONTINUOUS
 10
16.2960359563
 20
13.0198671766
 11
16.1640970088
 21
12.8863109166
  0
LINE
  5
357
100
AcDbEntity
  8
0
100
AcDbLine
 62
7
  6
CONTINUOUS
 10
14.8320768704
 20
11.4405211818
 11
14.8700647166
 21
11.4788537965
  0
LINE
  5
358
100
AcDbEntity
  8
0
100
AcDbLine
 62
7
  6
CONTINUOUS
 10
14.857712588
 20
11.433385911
 11
14.8218294366
 21
11.3971770928
  0
LINE
  5
359
100
AcDbEntity
  8
0
100
AcDbLine
 62
7
  6
CONTINUOUS
 10
14.7094737728
 20
13.1071804849
 11
14.7583985885
 21
13.0859347919
  0
LINE
  5
35A
100
AcDbEntity
  8
0
100
AcDbLine
 62
7
  6
CONTINUOUS
 10
14.6983688573
 20
13.1196894249
 11
14.747293673
 21
13.0984437319
  0
LINE
  5
35B
100
AcDbEntity
  8
0
100
AcDbLine
 62
7
  6
CONTINUOUS
 10
15.9338703409
 20
12.4490047509
 11
15.9363574735
 21
12.4570531149
  0
LINE
  5
35C
100
AcDbEntity
  8
0
100
AcDbLine
 62
7
  6
CONTINUOUS
 10
16.0520292665
 20
12.5236595696
 11
16.183968214
 21
12.6572158296
  0
LINE
  5
35D
100
AcDbEntity
  8
0
100
AcDbLine
 62
7
  6
CONTINUOUS
 10
14.8932500023
 20
11.3609682747
 11
14.9291331536
 21
11.3971770928
  0
LINE
  5
35E
100
AcDbEntity
  8
0
100
AcDbLine
 62
7
  6
CONTINUOUS
 10
16.1640970088
 20
12.8863109166
 11
15.9827631257
 21
12.8863109166
  0
LINE
  5
35F
100
AcDbEntity
  8
0
100
AcDbLine
 62
7
  6
CONTINUOUS
 10
14.3584566382
 20
12.8863109166
 11
14.2271650492
 21
12.8863109166
  0
LINE
  5
360
100
AcDbEntity
  8
0
100
AcDbLine
 62
7
  6
CONTINUOUS
 10
14.8369809635
 20
13.2091054562
 11
14.7880561479
 21
13.2303511492
  0
LINE
  5
361
100
AcDbEntity
  8
0
100
AcDbLine
 62
7
  6
CONTINUOUS
 10
15.8258934115
 20
12.5704839838
 11
15.8360614738
 21
12.5497636515
  0
LINE
  5
362
100
AcDbEntity
  8
0
100
AcDbLine
 62
7
  6
CONTINUOUS
 10
15.8706953833
 20
12.5236595696
 11
15.8390222504
 21
12.5882026284
  0
LINE
  5
363
100
AcDbEntity
  8
0
100
AcDbLine
 62
7
  6
CONTINUOUS
 10
16.390590679
 20
11.5072089306
 11
16.3067041656
 21
11.6781516719
  0
LINE
  5
364
100
AcDbEntity
  8
0
100
AcDbLine
 62
7
  6
CONTINUOUS
 10
16.3067041656
 20
11.6781516719
 11
16.0954975775
 21
12.1100902913
  0
LINE
  5
365
100
AcDbEntity
  8
0
100
AcDbLine
 62
7
  6
CONTINUOUS
 10
16.0520292665
 20
12.5236595696
 11
16.0203561336
 21
12.5882026284
  0
LINE
  5
366
100
AcDbEntity
  8
0
100
AcDbLine
 62
7
  6
CONTINUOUS
 10
15.9379611539
 20
12.9331353308
 11
15.9481292161
 21
12.9124149985
  0
LINE
  5
367
100
AcDbEntity
  8
0
100
AcDbLine
 62
7
  6
CONTINUOUS
 10
15.9827631257
 20
12.8863109166
 11
15.9510899927
 21
12.9508539755
  0
LINE
  5
368
100
AcDbEntity
  8
0
100
AcDbLine
 62
7
  6
CONTINUOUS
 10
16.0830182864
 20
12.0938180172
 11
16.0828615319
 21
12.0933196309
  0
LINE
  5
369
100
AcDbEntity
  8
0
100
AcDbLine
 62
7
  6
CONTINUOUS
 10
16.2272471002
 20
13.1929440913
 11
16.2742426574
 21
13.1929440913
  0
LINE
  5
36A
100
AcDbEntity
  8
0
100
AcDbLine
 62
7
  6
CONTINUOUS
 10
16.183968214
 20
12.6572158296
 11
16.1522950811
 21
12.7217588884
  0
LINE
  5
36B
100
AcDbEntity
  8
0
100
AcDbLine
 62
7
  6
CONTINUOUS
 10
16.1345732783
 20
12.7907720896
 11
16.1029001454
 21
12.8553151485
  0
LINE
  5
36C
100
AcDbEntity
  8
0
100
AcDbLine
 62
7
  6
CONTINUOUS
 10
16.1793752501
 20
12.7439476754
 11
16.1895433123
 21
12.7232273431
  0
LINE
  5
36D
100
AcDbEntity
  8
0
100
AcDbLine
 62
7
  6
CONTINUOUS
 10
16.1640970088
 20
12.8863109166
 11
16.1324238759
 21
12.9508539755
  0
LINE
  5
36E
100
AcDbEntity
  8
0
100
AcDbLine
 62
7
  6
CONTINUOUS
 10
16.183968214
 20
12.6572158296
 11
16.1345732783
 21
12.7907720896
  0
LINE
  5
36F
100
AcDbEntity
  8
0
100
AcDbLine
 62
7
  6
CONTINUOUS
 10
16.0818242271
 20
11.5136585557
 11
16.1019964207
 21
11.5789357981
  0
LINE
  5
370
100
AcDbEntity
  8
0
100
AcDbLine
 62
7
  6
CONTINUOUS
 10
16.2466410206
 20
13.1534234366
 11
16.2960359563
 21
13.0198671766
  0
LINE
  5
371
100
AcDbEntity
  8
0
100
AcDbLine
 62
7
  6
CONTINUOUS
 10
16.2960359563
 20
13.0198671766
 11
16.2643628234
 21
13.0844102355
  0
LINE
  5
372
100
AcDbEntity
  8
0
100
AcDbLine
 62
7
  6
CONTINUOUS
 10
16.2466410206
 20
13.1534234366
 11
16.2149678877
 21
13.2179664955
  0
LINE
  5
373
100
AcDbEntity
  8
0
100
AcDbLine
 62
7
  6
CONTINUOUS
 10
16.2914429924
 20
13.1065990224
 11
16.3016110546
 21
13.0858786902
  0
LINE
  5
374
100
AcDbEntity
  8
0
100
AcDbLine
 62
7
  6
CONTINUOUS
 10
16.3875546512
 20
13.132202173
 11
16.6579403362
 21
12.5812140777
  0
LINE
  5
375
100
AcDbEntity
  8
0
100
AcDbLine
 62
7
  6
CONTINUOUS
 10
16.6729911755
 20
12.4850432733
 11
16.5176652846
 21
11.9824085063
  0
LINE
  5
376
100
AcDbEntity
  8
0
100
AcDbLine
 62
7
  6
CONTINUOUS
 10
16.3555627775
 20
11.366762874
 11
16.3928813356
 21
11.4875257725
  0
LINE
  5
377
100
AcDbEntity
  8
0
100
AcDbLine
 62
7
  6
CONTINUOUS
 10
16.8656796328
 20
12.0143963808
 11
16.8626331269
 21
12.0045378842
  0
LINE
  5
378
100
AcDbEntity
  8
0
100
AcDbLine
 62
7
  6
CONTINUOUS
 10
17.4998601527
 20
12.2381611846
 11
17.395637515
 21
12.4505445904
  0
LINE
  5
379
100
AcDbEntity
  8
0
100
AcDbLine
 62
7
  6
CONTINUOUS
 10
17.5014154421
 20
12.2087916707
 11
17.2815385317
 21
11.4972697278
  0
ARC
  5
37A
100
AcDbEntity
  8
0
100
AcDbCircle
 62
7
  6
CONTINUOUS
 10
6.2552362767
 20
5.4981770803
 40
1.0415898673
100
AcDbArc
 50
154.2713290622
 51
179.9955348688
  0
ARC
  5
37B
100
AcDbEntity
  8
0
100
AcDbCircle
 62
7
  6
CONTINUOUS
 10
4.4805735574
 20
5.4983749054
 40
0.7330728644
100
AcDbArc
 50
353.2158841172
 51
359.9908826115
  0
ARC
  5
37C
100
AcDbEntity
  8
0
100
AcDbCircle
 62
7
  6
CONTINUOUS
 10
4.4823022232
 20
5.4982582526
 40
0.7313250751
100
AcDbArc
 50
285.5104342147
 51
345.7549833874
  0
ARC
  5
37D
100
AcDbEntity
  8
0
100
AcDbCircle
 62
7
  6
CONTINUOUS
 10
4.4829560744
 20
5.4982745034
 40
0.7306951914
100
AcDbArc
 50
345.7888412567
 51
353.2016330365
  0
ARC
  5
37E
100
AcDbEntity
  8
0
100
AcDbCircle
 62
7
  6
CONTINUOUS
 10
4.6511272983
 20
4.8899249193
 40
0.1
100
AcDbArc
 50
270.0
 51
285.5104342147
  0
ARC
  5
37F
100
AcDbEntity
  8
0
100
AcDbCircle
 62
7
  6
CONTINUOUS
 10
5.5032106316
 20
4.8982582526
 40
0.0666666667
100
AcDbArc
 50
180.0
 51
270.0
  0
ARC
  5
380
100
AcDbEntity
  8
0
100
AcDbCircle
 62
7
  6
CONTINUOUS
 10
5.3636272983
 20
4.5149249193
 40
0.0666666667
100
AcDbArc
 50
180.0
 51
270.0
  0
CIRCLE
  5
381
100
AcDbEntity
  8
0
100
AcDbCircle
 62
7
  6
CONTINUOUS
 10
5.686543965
 20
4.6649249193
 40
0.0616666667
  0
ARC
  5
382
100
AcDbEntity
  8
0
100
AcDbCircle
 62
7
  6
CONTINUOUS
 10
4.4136272983
 20
4.756591586
 40
0.0333333333
100
AcDbArc
 50
90.0
 51
180.0
  0
ARC
  5
383
100
AcDbEntity
  8
0
100
AcDbCircle
 62
7
  6
CONTINUOUS
 10
6.045888977
 20
6.5848110541
 40
0.0416666667
100
AcDbArc
 50
186.341655464
 51
276.6730896051
  0
ARC
  5
384
100
AcDbEntity
  8
0
100
AcDbCircle
 62
7
  6
CONTINUOUS
 10
5.8933676035
 20
6.5439430753
 40
0.0416666667
100
AcDbArc
 50
293.3269103949
 51
23.658344536
  0
ARC
  5
385
100
AcDbEntity
  8
0
100
AcDbCircle
 62
7
  6
CONTINUOUS
 10
5.9785821157
 20
6.5953559882
 40
0.03
100
AcDbArc
 50
329.6746095644
 51
105.0
  0
ARC
  5
386
100
AcDbEntity
  8
0
100
AcDbCircle
 62
7
  6
CONTINUOUS
 10
5.9463845882
 20
6.5867286867
 40
0.03
100
AcDbArc
 50
105.0
 51
240.3253904356
  0
ARC
  5
387
100
AcDbEntity
  8
0
100
AcDbCircle
 62
7
  6
CONTINUOUS
 10
5.058513662
 20
5.950341586
 40
0.0166666667
100
AcDbArc
 50
90.0
 51
180.0
  0
ARC
  5
388
100
AcDbEntity
  8
0
100
AcDbCircle
 62
7
  6
CONTINUOUS
 10
6.255293965
 20
5.4982582526
 40
1.0416666667
100
AcDbArc
 50
26.2075187637
 51
153.7924812363
  0
ARC
  5
389
100
AcDbEntity
  8
0
100
AcDbCircle
 62
7
  6
CONTINUOUS
 10
6.255316892
 20
5.4981710979
 40
1.0416237482
100
AcDbArc
 50
0.0047940551
 51
25.7281373269
  0
ARC
  5
38A
100
AcDbEntity
  8
0
100
AcDbCircle
 62
7
  6
CONTINUOUS
 10
6.255293965
 20
5.4982582526
 40
0.9583333333
100
AcDbArc
 50
0.0
 51
180.0
  0
ARC
  5
38B
100
AcDbEntity
  8
0
100
AcDbCircle
 62
7
  6
CONTINUOUS
 10
6.255293965
 20
5.4982582526
 40
0.81875
100
AcDbArc
 50
0.0
 51
180.0
  0
ARC
  5
38C
100
AcDbEntity
  8
0
100
AcDbCircle
 62
7
  6
CONTINUOUS
 10
8.0297661721
 20
5.4983654304
 40
0.7328252828
100
AcDbArc
 50
180.0083796644
 51
186.7856726128
  0
ARC
  5
38D
100
AcDbEntity
  8
0
100
AcDbCircle
 62
7
  6
CONTINUOUS
 10
8.0282857067
 20
5.4982582526
 40
0.7313250751
100
AcDbArc
 50
194.2450166126
 51
254.4895657853
  0
ARC
  5
38E
100
AcDbEntity
  8
0
100
AcDbCircle
 62
7
  6
CONTINUOUS
 10
8.0276327074
 20
5.4982746614
 40
0.7306960559
100
AcDbArc
 50
186.7983713604
 51
194.2111543558
  0
CIRCLE
  5
38F
100
AcDbEntity
  8
0
100
AcDbCircle
 62
7
  6
CONTINUOUS
 10
6.255293965
 20
5.4982582526
 40
0.46875
  0
ARC
  5
390
100
AcDbEntity
  8
0
100
AcDbCircle
 62
7
  6
CONTINUOUS
 10
7.8594606316
 20
4.8899249193
 40
0.1
100
AcDbArc
 50
254.4895657853
 51
270.0
  0
ARC
  5
391
100
AcDbEntity
  8
0
100
AcDbCircle
 62
7
  6
CONTINUOUS
 10
7.0073772983
 20
4.8982582526
 40
0.0666666667
100
AcDbArc
 50
270.0
 51
360.0
  0
ARC
  5
392
100
AcDbEntity
  8
0
100
AcDbCircle
 62
7
  6
CONTINUOUS
 10
7.1469606316
 20
4.5149249193
 40
0.0666666667
100
AcDbArc
 50
270.0
 51
360.0
  0
ARC
  5
393
100
AcDbEntity
  8
0
100
AcDbCircle
 62
7
  6
CONTINUOUS
 10
8.0969606316
 20
4.756591586
 40
0.0333333333
100
AcDbArc
 50
0.0
 51
90.0
  0
ARC
  5
394
100
AcDbEntity
  8
0
100
AcDbCircle
 62
7
  6
CONTINUOUS
 10
7.452074268
 20
5.950341586
 40
0.0166666667
100
AcDbArc
 50
0.0
 51
90.0
  0
ARC
  5
395
100
AcDbEntity
  8
0
100
AcDbCircle
 62
7
  6
CONTINUOUS
 10
6.1605451539
 20
12.3525776906
 40
0.3646645113
100
AcDbArc
 50
233.8049606467
 51
234.8757804567
  0
ARC
  5
396
100
AcDbEntity
  8
0
100
AcDbCircle
 62
7
  6
CONTINUOUS
 10
6.1479393893
 20
12.3348173668
 40
0.342885498
100
AcDbArc
 50
234.8911396854
 51
235.0534664998
  0
ARC
  5
397
100
AcDbEntity
  8
0
100
AcDbCircle
 62
7
  6
CONTINUOUS
 10
6.0867364501
 20
12.2258659395
 40
0.3402197676
100
AcDbArc
 50
233.7551081805
 51
239.178179918
  0
ARC
  5
398
100
AcDbEntity
  8
0
100
AcDbCircle
 62
7
  6
CONTINUOUS
 10
6.1454145314
 20
12.3312014718
 40
0.3384753278
100
AcDbArc
 50
235.053189875
 51
239.1860927242
  0
ARC
  5
399
100
AcDbEntity
  8
0
100
AcDbCircle
 62
7
  6
CONTINUOUS
 10
6.1430397805
 20
11.6468577286
 40
0.3339717353
100
AcDbArc
 50
120.8096775147
 51
126.3401463102
  0
ARC
  5
39A
100
AcDbEntity
  8
0
100
AcDbCircle
 62
7
  6
CONTINUOUS
 10
6.0835167331
 20
11.7536737525
 40
0.3339640915
100
AcDbArc
 50
120.809614175
 51
126.3402096499
  0
ARC
  5
39B
100
AcDbEntity
  8
0
100
AcDbCircle
 62
7
  6
CONTINUOUS
 10
5.2427684696
 20
12.3685662999
 40
0.2302083333
100
AcDbArc
 50
275.6819891182
 51
84.3180108818
  0
CIRCLE
  5
39C
100
AcDbEntity
  8
0
100
AcDbCircle
 62
7
  6
CONTINUOUS
 10
5.2427684696
 20
12.3685662999
 40
0.196875
  0
CIRCLE
  5
39D
100
AcDbEntity
  8
0
100
AcDbCircle
 62
7
  6
CONTINUOUS
 10
5.2427684696
 20
12.3685662999
 40
0.1704987514
  0
ARC
  5
39E
100
AcDbEntity
  8
0
100
AcDbCircle
 62
7
  6
CONTINUOUS
 10
5.1490184696
 20
12.279214448
 40
0.1666666667
100
AcDbArc
 50
180.0
 51
270.0
  0
ARC
  5
39F
100
AcDbEntity
  8
0
100
AcDbCircle
 62
7
  6
CONTINUOUS
 10
4.3874654393
 20
12.1458811147
 40
0.0666666667
100
AcDbArc
 50
180.0
 51
270.0
  0
ARC
  5
3A0
100
AcDbEntity
  8
0
100
AcDbCircle
 62
7
  6
CONTINUOUS
 10
5.9448351995
 20
11.9870902163
 40
0.0629661672
100
AcDbArc
 50
347.6884429263
 51
12.1564212656
  0
ARC
  5
3A1
100
AcDbEntity
  8
0
100
AcDbCircle
 62
7
  6
CONTINUOUS
 10
5.9469182347
 20
11.9886534744
 40
0.0602362455
100
AcDbArc
 50
54.4440697396
 51
59.2948999288
  0
ARC
  5
3A2
100
AcDbEntity
  8
0
100
AcDbCircle
 62
7
  6
CONTINUOUS
 10
5.9411222428
 20
11.9889544987
 40
0.0601077069
100
AcDbArc
 50
43.9986703014
 51
59.0554869354
  0
ARC
  5
3A3
100
AcDbEntity
  8
0
100
AcDbCircle
 62
7
  6
CONTINUOUS
 10
5.9412363084
 20
11.9850848952
 40
0.0598839497
100
AcDbArc
 50
300.893642917
 51
316.0135098652
  0
ARC
  5
3A4
100
AcDbEntity
  8
0
100
AcDbCircle
 62
7
  6
CONTINUOUS
 10
5.9471821535
 20
11.9890828502
 40
0.0597323037
100
AcDbArc
 50
59.3022584928
 51
63.9962501519
  0
ARC
  5
3A5
100
AcDbEntity
  8
0
100
AcDbCircle
 62
7
  6
CONTINUOUS
 10
5.9474985625
 20
11.985193384
 40
0.059696243
100
AcDbArc
 50
295.5664283449
 51
299.1490877323
  0
ARC
  5
3A6
100
AcDbEntity
  8
0
100
AcDbCircle
 62
7
  6
CONTINUOUS
 10
5.9421400283
 20
11.9906212684
 40
0.0581548247
100
AcDbArc
 50
59.071106583
 51
84.175041612
  0
ARC
  5
3A7
100
AcDbEntity
  8
0
100
AcDbCircle
 62
7
  6
CONTINUOUS
 10
5.9421034275
 20
11.9835677845
 40
0.0581368753
100
AcDbArc
 50
273.9274338942
 51
300.9279991794
  0
ARC
  5
3A8
100
AcDbEntity
  8
0
100
AcDbCircle
 62
7
  6
CONTINUOUS
 10
5.9484181914
 20
11.9834336971
 40
0.0577123631
100
AcDbArc
 50
300.8287088683
 51
305.9785000928
  0
ARC
  5
3A9
100
AcDbEntity
  8
0
100
AcDbCircle
 62
7
  6
CONTINUOUS
 10
5.942237041
 20
11.9910911437
 40
0.0576775505
100
AcDbArc
 50
84.2235428013
 51
85.3716109681
  0
ARC
  5
3AA
100
AcDbEntity
  8
0
100
AcDbCircle
 62
7
  6
CONTINUOUS
 10
5.9421949123
 20
11.9829385476
 40
0.0575028703
100
AcDbArc
 50
270.0022503892
 51
273.8794357738
  0
ARC
  5
3AB
100
AcDbEntity
  8
0
100
AcDbCircle
 62
7
  6
CONTINUOUS
 10
5.9487152447
 20
11.9829797308
 40
0.0571703133
100
AcDbArc
 50
299.1647608465
 51
300.806224585
  0
ARC
  5
3AC
100
AcDbEntity
  8
0
100
AcDbCircle
 62
7
  6
CONTINUOUS
 10
5.187462541
 20
12.113833315
 40
0.0333346341
100
AcDbArc
 50
182.2101313726
 51
269.9990377616
  0
ARC
  5
3AD
100
AcDbEntity
  8
0
100
AcDbCircle
 62
7
  6
CONTINUOUS
 10
5.2707987727
 20
11.9250477814
 40
0.0333333333
100
AcDbArc
 50
180.0
 51
270.0
  0
ARC
  5
3AE
100
AcDbEntity
  8
0
100
AcDbCircle
 62
7
  6
CONTINUOUS
 10
5.2427684696
 20
12.8315292628
 40
0.2302083333
100
AcDbArc
 50
275.6819891182
 51
84.3180108818
  0
ARC
  5
3AF
100
AcDbEntity
  8
0
100
AcDbCircle
 62
7
  6
CONTINUOUS
 10
4.7582987727
 20
12.6000477814
 40
0.2240530303
100
AcDbArc
 50
270.0
 51
90.0
  0
CIRCLE
  5
3B0
100
AcDbEntity
  8
0
100
AcDbCircle
 62
7
  6
CONTINUOUS
 10
5.2427684696
 20
12.8315292628
 40
0.196875
  0
CIRCLE
  5
3B1
100
AcDbEntity
  8
0
100
AcDbCircle
 62
7
  6
CONTINUOUS
 10
5.2427684696
 20
12.8315292628
 40
0.1704987514
  0
ARC
  5
3B2
100
AcDbEntity
  8
0
100
AcDbCircle
 62
7
  6
CONTINUOUS
 10
5.1490184696
 20
12.9208811147
 40
0.1666666667
100
AcDbArc
 50
90.0
 51
180.0
  0
ARC
  5
3B3
100
AcDbEntity
  8
0
100
AcDbCircle
 62
7
  6
CONTINUOUS
 10
4.591632106
 20
12.6000477814
 40
0.1041666667
100
AcDbArc
 50
90.0
 51
270.0
  0
ARC
  5
3B4
100
AcDbEntity
  8
0
100
AcDbCircle
 62
7
  6
CONTINUOUS
 10
4.7582987727
 20
12.6000477814
 40
0.1041666667
100
AcDbArc
 50
270.0
 51
90.0
  0
ARC
  5
3B5
100
AcDbEntity
  8
0
100
AcDbCircle
 62
7
  6
CONTINUOUS
 10
5.92511704
 20
12.6000479591
 40
0.0747455942
100
AcDbArc
 50
179.373724408
 51
180.626275592
  0
ARC
  5
3B6
100
AcDbEntity
  8
0
100
AcDbCircle
 62
7
  6
CONTINUOUS
 10
4.3874654393
 20
13.054214448
 40
0.0666666667
100
AcDbArc
 50
90.0
 51
180.0
  0
ARC
  5
3B7
100
AcDbEntity
  8
0
100
AcDbCircle
 62
7
  6
CONTINUOUS
 10
5.1874645306
 20
13.086262093
 40
0.0333357114
100
AcDbArc
 50
89.9984342204
 51
177.7896739795
  0
ARC
  5
3B8
100
AcDbEntity
  8
0
100
AcDbCircle
 62
7
  6
CONTINUOUS
 10
5.2707987727
 20
13.2750477814
 40
0.0333333333
100
AcDbArc
 50
90.0
 51
180.0
  0
ARC
  5
3B9
100
AcDbEntity
  8
0
100
AcDbCircle
 62
7
  6
CONTINUOUS
 10
7.1488290757
 20
12.3685662999
 40
0.2302083333
100
AcDbArc
 50
95.6819891182
 51
264.3180108818
  0
CIRCLE
  5
3BA
100
AcDbEntity
  8
0
100
AcDbCircle
 62
7
  6
CONTINUOUS
 10
7.1488290757
 20
12.3685662999
 40
0.196875
  0
CIRCLE
  5
3BB
100
AcDbEntity
  8
0
100
AcDbCircle
 62
7
  6
CONTINUOUS
 10
7.1488290757
 20
12.3685662999
 40
0.1704987514
  0
ARC
  5
3BC
100
AcDbEntity
  8
0
100
AcDbCircle
 62
7
  6
CONTINUOUS
 10
7.2425790757
 20
12.279214448
 40
0.1666666667
100
AcDbArc
 50
270.0
 51
360.0
  0
ARC
  5
3BD
100
AcDbEntity
  8
0
100
AcDbCircle
 62
7
  6
CONTINUOUS
 10
8.004132106
 20
12.1458811147
 40
0.0666666667
100
AcDbArc
 50
270.0
 51
360.0
  0
ARC
  5
3BE
100
AcDbEntity
  8
0
100
AcDbCircle
 62
7
  6
CONTINUOUS
 10
7.2041337008
 20
12.1138316555
 40
0.0333346339
100
AcDbArc
 50
269.9972629483
 51
357.7927230166
  0
ARC
  5
3BF
100
AcDbEntity
  8
0
100
AcDbCircle
 62
7
  6
CONTINUOUS
 10
7.1207987727
 20
11.9250477814
 40
0.0333333333
100
AcDbArc
 50
270.0
 51
360.0
  0
ARC
  5
3C0
100
AcDbEntity
  8
0
100
AcDbCircle
 62
7
  6
CONTINUOUS
 10
7.187423248
 20
12.0471858134
 40
0.0332922347
100
AcDbArc
 50
89.9339107182
 51
179.0154073226
  0
ARC
  5
3C1
100
AcDbEntity
  8
0
100
AcDbCircle
 62
7
  6
CONTINUOUS
 10
7.1488290757
 20
12.8315292628
 40
0.2302083333
100
AcDbArc
 50
95.6819891182
 51
264.3180108818
  0
ARC
  5
3C2
100
AcDbEntity
  8
0
100
AcDbCircle
 62
7
  6
CONTINUOUS
 10
7.6332987727
 20
12.6000477814
 40
0.2240530303
100
AcDbArc
 50
90.0
 51
270.0
  0
CIRCLE
  5
3C3
100
AcDbEntity
  8
0
100
AcDbCircle
 62
7
  6
CONTINUOUS
 10
7.1488290757
 20
12.8315292628
 40
0.196875
  0
CIRCLE
  5
3C4
100
AcDbEntity
  8
0
100
AcDbCircle
 62
7
  6
CONTINUOUS
 10
7.1488290757
 20
12.8315292628
 40
0.1704987514
  0
ARC
  5
3C5
100
AcDbEntity
  8
0
100
AcDbCircle
 62
7
  6
CONTINUOUS
 10
7.2425790757
 20
12.9208811147
 40
0.1666666667
100
AcDbArc
 50
0.0
 51
90.0
  0
ARC
  5
3C6
100
AcDbEntity
  8
0
100
AcDbCircle
 62
7
  6
CONTINUOUS
 10
7.6332987727
 20
12.6000477814
 40
0.1041666667
100
AcDbArc
 50
90.0
 51
270.0
  0
ARC
  5
3C7
100
AcDbEntity
  8
0
100
AcDbCircle
 62
7
  6
CONTINUOUS
 10
7.7999654393
 20
12.6000477814
 40
0.1041666667
100
AcDbArc
 50
270.0
 51
90.0
  0
ARC
  5
3C8
100
AcDbEntity
  8
0
100
AcDbCircle
 62
7
  6
CONTINUOUS
 10
8.004132106
 20
13.054214448
 40
0.0666666667
100
AcDbArc
 50
0.0
 51
90.0
  0
ARC
  5
3C9
100
AcDbEntity
  8
0
100
AcDbCircle
 62
7
  6
CONTINUOUS
 10
7.2041330148
 20
13.086262093
 40
0.0333357114
100
AcDbArc
 50
2.210326021
 51
90.0015657795
  0
ARC
  5
3CA
100
AcDbEntity
  8
0
100
AcDbCircle
 62
7
  6
CONTINUOUS
 10
7.1207987727
 20
13.2750477814
 40
0.0333333333
100
AcDbArc
 50
0.0
 51
90.0
  0
ARC
  5
3CB
100
AcDbEntity
  8
0
100
AcDbCircle
 62
7
  6
CONTINUOUS
 10
15.633853323
 20
6.5048981752
 40
0.0362129519
100
AcDbArc
 50
171.0338884679
 51
179.9999638107
  0
ARC
  5
3CC
100
AcDbEntity
  8
0
100
AcDbCircle
 62
7
  6
CONTINUOUS
 10
15.4868627779
 20
6.5048990256
 40
0.0362073007
100
AcDbArc
 50
0.0010011093
 51
8.9661600919
  0
ARC
  5
3CD
100
AcDbEntity
  8
0
100
AcDbCircle
 62
7
  6
CONTINUOUS
 10
16.0449042603
 20
6.447090268
 40
0.0333353271
100
AcDbArc
 50
0.1
 51
90.0
  0
ARC
  5
3CE
100
AcDbEntity
  8
0
100
AcDbCircle
 62
7
  6
CONTINUOUS
 10
16.1116026914
 20
6.4304344181
 40
0.0333350498
100
AcDbArc
 50
180.1
 51
270.0
  0
ARC
  5
3CF
100
AcDbEntity
  8
0
100
AcDbCircle
 62
7
  6
CONTINUOUS
 10
15.009108724
 20
6.4304341309
 40
0.0333348763
100
AcDbArc
 50
270.0
 51
359.9
  0
ARC
  5
3D0
100
AcDbEntity
  8
0
100
AcDbCircle
 62
7
  6
CONTINUOUS
 10
15.0758059749
 20
6.4470905871
 40
0.0333342497
100
AcDbArc
 50
90.0
 51
179.9
  0
ARC
  5
3D1
100
AcDbEntity
  8
0
100
AcDbCircle
 62
7
  6
CONTINUOUS
 10
16.2353552569
 20
6.3637630603
 40
0.0333333333
100
AcDbArc
 50
0.0
 51
90.0
  0
ARC
  5
3D2
100
AcDbEntity
  8
0
100
AcDbCircle
 62
7
  6
CONTINUOUS
 10
14.8853552569
 20
6.3637630603
 40
0.0333333333
100
AcDbArc
 50
90.0
 51
180.0
  0
ARC
  5
3D3
100
AcDbEntity
  8
0
100
AcDbCircle
 62
7
  6
CONTINUOUS
 10
14.8853552569
 20
4.4220963936
 40
0.0333333333
100
AcDbArc
 50
180.0
 51
270.0
  0
ARC
  5
3D4
100
AcDbEntity
  8
0
100
AcDbCircle
 62
7
  6
CONTINUOUS
 10
15.0728552569
 20
4.6970963936
 40
0.0333333333
100
AcDbArc
 50
90.0
 51
180.0
  0
ARC
  5
3D5
100
AcDbEntity
  8
0
100
AcDbCircle
 62
7
  6
CONTINUOUS
 10
16.0478552569
 20
4.6970963936
 40
0.0333333333
100
AcDbArc
 50
0.0
 51
90.0
  0
ARC
  5
3D6
100
AcDbEntity
  8
0
100
AcDbCircle
 62
7
  6
CONTINUOUS
 10
16.2353552569
 20
4.4220963936
 40
0.0333333333
100
AcDbArc
 50
270.0
 51
360.0
  0
ARC
  5
3D7
100
AcDbEntity
  8
0
100
AcDbCircle
 62
7
  6
CONTINUOUS
 10
15.5745640597
 20
6.532388322
 40
0.0327209563
100
AcDbArc
 50
316.1899591721
 51
317.1534178448
  0
ARC
  5
3D8
100
AcDbEntity
  8
0
100
AcDbCircle
 62
7
  6
CONTINUOUS
 10
15.4907179203
 20
6.502943696
 40
0.0318718918
100
AcDbArc
 50
319.1167222847
 51
325.5819161174
  0
ARC
  5
3D9
100
AcDbEntity
  8
0
100
AcDbCircle
 62
7
  6
CONTINUOUS
 10
15.6296502922
 20
6.5026938393
 40
0.0314486313
100
AcDbArc
 50
215.0639965741
 51
220.9898862896
  0
ARC
  5
3DA
100
AcDbEntity
  8
0
100
AcDbCircle
 62
7
  6
CONTINUOUS
 10
15.0895219236
 20
5.8908463936
 40
0.0166666667
100
AcDbArc
 50
90.0
 51
180.0
  0
ARC
  5
3DB
100
AcDbEntity
  8
0
100
AcDbCircle
 62
7
  6
CONTINUOUS
 10
16.0311885903
 20
5.8908463936
 40
0.0166666667
100
AcDbArc
 50
0.0
 51
90.0
  0
ARC
  5
3DC
100
AcDbEntity
  8
0
100
AcDbCircle
 62
7
  6
CONTINUOUS
 10
15.3427914496
 20
12.1951364406
 40
1.3088335092
100
AcDbArc
 50
52.5283226824
 51
53.303408209
  0
ARC
  5
3DD
100
AcDbEntity
  8
0
100
AcDbCircle
 62
7
  6
CONTINUOUS
 10
14.2818353892
 20
12.604743736
 40
0.6384047492
100
AcDbArc
 50
73.8537154338
 51
74.0386229499
  0
ARC
  5
3DE
100
AcDbEntity
  8
0
100
AcDbCircle
 62
7
  6
CONTINUOUS
 10
14.4845024818
 20
12.3070870875
 40
0.4333118975
100
AcDbArc
 50
55.7827492052
 51
56.2866944236
  0
ARC
  5
3DF
100
AcDbEntity
  8
0
100
AcDbCircle
 62
7
  6
CONTINUOUS
 10
14.5710426605
 20
12.3456433734
 40
0.366074511
100
AcDbArc
 50
163.5822290368
 51
167.3850381513
  0
ARC
  5
3E0
100
AcDbEntity
  8
0
100
AcDbCircle
 62
7
  6
CONTINUOUS
 10
14.5708760862
 20
12.3456877409
 40
0.3659021886
100
AcDbArc
 50
162.8225870952
 51
163.5815209532
  0
ARC
  5
3E1
100
AcDbEntity
  8
0
100
AcDbCircle
 62
7
  6
CONTINUOUS
 10
14.5308716254
 20
12.3767422403
 40
0.3496343754
100
AcDbArc
 50
56.271912169
 51
56.9759745057
  0
ARC
  5
3E2
100
AcDbEntity
  8
0
100
AcDbCircle
 62
7
  6
CONTINUOUS
 10
15.0102945912
 20
12.2409897692
 40
0.2578054939
100
AcDbArc
 50
202.6134599502
 51
206.1742364448
  0
ARC
  5
3E3
100
AcDbEntity
  8
0
100
AcDbCircle
 62
7
  6
CONTINUOUS
 10
14.2092767393
 20
12.7069188781
 40
0.2246410293
100
AcDbArc
 50
270.0690611772
 51
275.5414059004
  0
ARC
  5
3E4
100
AcDbEntity
  8
0
100
AcDbCircle
 62
7
  6
CONTINUOUS
 10
14.3221534899
 20
12.6307278422
 40
0.1851886846
100
AcDbArc
 50
71.2218514124
 51
74.9524313233
  0
ARC
  5
3E5
100
AcDbEntity
  8
0
100
AcDbCircle
 62
7
  6
CONTINUOUS
 10
14.013346757
 20
12.4045522283
 40
0.0761085372
100
AcDbArc
 50
99.2980607535
 51
104.2821508236
  0
ARC
  5
3E6
100
AcDbEntity
  8
0
100
AcDbCircle
 62
7
  6
CONTINUOUS
 10
14.0130228052
 20
12.406460141
 40
0.0741733521
100
AcDbArc
 50
96.1609851981
 51
99.2892290948
  0
ARC
  5
3E7
100
AcDbEntity
  8
0
100
AcDbCircle
 62
7
  6
CONTINUOUS
 10
14.6767496843
 20
12.6455885641
 40
0.051377853
100
AcDbArc
 50
342.8150426233
 51
346.6598581171
  0
ARC
  5
3E8
100
AcDbEntity
  8
0
100
AcDbCircle
 62
7
  6
CONTINUOUS
 10
14.9212170849
 20
11.4276944416
 40
0.0275570541
100
AcDbArc
 50
13.5174078181
 51
14.8575399154
  0
ARC
  5
3E9
100
AcDbEntity
  8
0
100
AcDbCircle
 62
7
  6
CONTINUOUS
 10
14.6335639858
 20
12.6080014794
 40
0.0217352764
100
AcDbArc
 50
221.6797531667
 51
224.2759156955
  0
ARC
  5
3EA
100
AcDbEntity
  8
0
100
AcDbCircle
 62
7
  6
CONTINUOUS
 10
14.8496274866
 20
11.4526257978
 40
0.0205942319
100
AcDbArc
 50
149.5444541597
 51
162.7638808751
  0
ARC
  5
3EB
100
AcDbEntity
  8
0
100
AcDbCircle
 62
7
  6
CONTINUOUS
 10
14.8534009705
 20
11.465782806
 40
0.020314862
100
AcDbArc
 50
155.129543942
 51
162.819363588
  0
ARC
  5
3EC
100
AcDbEntity
  8
0
100
AcDbCircle
 62
7
  6
CONTINUOUS
 10
14.9324842422
 20
11.4413455021
 40
0.0202453256
100
AcDbArc
 50
343.4455045803
 51
344.9221157051
  0
ARC
  5
3ED
100
AcDbEntity
  8
0
100
AcDbCircle
 62
7
  6
CONTINUOUS
 10
15.1255398551
 20
13.3905319257
 40
1.0266753057
100
AcDbArc
 50
199.1726316095
 51
200.3186740252
  0
ARC
  5
3EE
100
AcDbEntity
  8
0
100
AcDbCircle
 62
7
  6
CONTINUOUS
 10
14.3113507836
 20
13.0711446201
 40
0.2054949515
100
AcDbArc
 50
266.1217555539
 51
270.0268796675
  0
ARC
  5
3EF
100
AcDbEntity
  8
0
100
AcDbCircle
 62
7
  6
CONTINUOUS
 10
14.4342212322
 20
12.9933791892
 40
0.1851886846
100
AcDbArc
 50
71.2218514124
 51
74.9524313233
  0
ARC
  5
3F0
100
AcDbEntity
  8
0
100
AcDbCircle
 62
7
  6
CONTINUOUS
 10
14.3019384008
 20
13.0199293709
 40
0.153241012
100
AcDbArc
 50
250.3157733916
 51
251.0976593681
  0
ARC
  5
3F1
100
AcDbEntity
  8
0
100
AcDbCircle
 62
7
  6
CONTINUOUS
 10
14.2971275854
 20
12.9699052013
 40
0.1202182438
100
AcDbArc
 50
229.2117670075
 51
236.3660657899
  0
ARC
  5
3F2
100
AcDbEntity
  8
0
100
AcDbCircle
 62
7
  6
CONTINUOUS
 10
14.2562951975
 20
13.0667706617
 40
0.0992815246
100
AcDbArc
 50
181.8994679373
 51
184.1805358874
  0
ARC
  5
3F3
100
AcDbEntity
  8
0
100
AcDbCircle
 62
7
  6
CONTINUOUS
 10
14.7905694034
 20
13.1257507074
 40
0.0863770878
100
AcDbArc
 50
153.4161862238
 51
154.6147694913
  0
ARC
  5
3F4
100
AcDbEntity
  8
0
100
AcDbCircle
 62
7
  6
CONTINUOUS
 10
14.7289987515
 20
13.2132067449
 40
0.0462234502
100
AcDbArc
 50
339.2516477304
 51
342.8166951246
  0
ARC
  5
3F5
100
AcDbEntity
  8
0
100
AcDbCircle
 62
7
  6
CONTINUOUS
 10
14.7364605649
 20
13.2120430662
 40
0.0386260201
100
AcDbArc
 50
3.2076474791
 51
6.6643881674
  0
ARC
  5
3F6
100
AcDbEntity
  8
0
100
AcDbCircle
 62
7
  6
CONTINUOUS
 10
14.791678799
 20
13.1922196364
 40
0.037682339
100
AcDbArc
 50
5.2747301541
 51
6.392321195
  0
ARC
  5
3F7
100
AcDbEntity
  8
0
100
AcDbCircle
 62
7
  6
CONTINUOUS
 10
14.732498041
 20
13.1331795759
 40
0.0258850544
100
AcDbArc
 50
222.4355937875
 51
226.1407519106
  0
ARC
  5
3F8
100
AcDbEntity
  8
0
100
AcDbCircle
 62
7
  6
CONTINUOUS
 10
16.6138014508
 20
12.362110671
 40
0.4893453936
100
AcDbArc
 50
213.6700958874
 51
222.1982879713
  0
ARC
  5
3F9
100
AcDbEntity
  8
0
100
AcDbCircle
 62
7
  6
CONTINUOUS
 10
15.9923243919
 20
12.5754085257
 40
0.2011371547
100
AcDbArc
 50
154.6349120742
 51
155.2323507953
  0
ARC
  5
3FA
100
AcDbEntity
  8
0
100
AcDbCircle
 62
7
  6
CONTINUOUS
 10
16.1217539792
 20
12.0757632508
 40
0.0434101494
100
AcDbArc
 50
125.6525379295
 51
130.21272789
  0
ARC
  5
3FB
100
AcDbEntity
  8
0
100
AcDbCircle
 62
7
  6
CONTINUOUS
 10
15.9953166391
 20
13.4103398769
 40
1.740075543
100
AcDbArc
 50
200.3601469656
 51
201.1805779159
  0
ARC
  5
3FC
100
AcDbEntity
  8
0
100
AcDbCircle
 62
7
  6
CONTINUOUS
 10
17.1212128918
 20
14.0997564354
 40
1.6695898245
100
AcDbArc
 50
226.83336545
 51
227.3974188001
  0
ARC
  5
3FD
100
AcDbEntity
  8
0
100
AcDbCircle
 62
7
  6
CONTINUOUS
 10
15.9647742585
 20
13.7188533458
 40
1.5875398557
100
AcDbArc
 50
200.3190518538
 51
201.2179055721
  0
ARC
  5
3FE
100
AcDbEntity
  8
0
100
AcDbCircle
 62
7
  6
CONTINUOUS
 10
17.1619359362
 20
13.1558493179
 40
1.2612931678
100
AcDbArc
 50
253.4209656745
 51
260.2185939592
  0
ARC
  5
3FF
100
AcDbEntity
  8
0
100
AcDbCircle
 62
7
  6
CONTINUOUS
 10
17.2679491495
 20
13.496340906
 40
1.2505067197
100
AcDbArc
 50
253.3913231098
 51
260.247682394
  0
ARC
  5
400
100
AcDbEntity
  8
0
100
AcDbCircle
 62
7
  6
CONTINUOUS
 10
16.0669488601
 20
13.0711446201
 40
0.2054949515
100
AcDbArc
 50
266.1217555539
 51
270.0268796675
  0
ARC
  5
401
100
AcDbEntity
  8
0
100
AcDbCircle
 62
7
  6
CONTINUOUS
 10
16.1043901841
 20
12.938060789
 40
0.2011350001
100
AcDbArc
 50
154.6349099407
 51
155.2336265634
  0
ARC
  5
402
100
AcDbEntity
  8
0
100
AcDbCircle
 62
7
  6
CONTINUOUS
 10
16.0575364773
 20
13.019929371
 40
0.1532410121
100
AcDbArc
 50
250.3157733917
 51
251.0976593677
  0
LINE
  5
403
100
AcDbEntity
  8
0
100
AcDbLine
 62
7
  6
CONTINUOUS
 10
5.9421538503
 20
6.4284863252
 11
5.971913258
 21
6.4365535557
  0
LINE
  5
404
100
AcDbEntity
  8
0
100
AcDbLine
 62
7
  6
CONTINUOUS
 10
5.971913258
 20
6.4365535557
 11
6.0314786778
 21
6.4525140861
  0
LINE
  5
405
100
AcDbEntity
  8
0
100
AcDbLine
 62
7
  6
CONTINUOUS
 10
6.0314786778
 20
6.4525140861
 11
6.0612846901
 21
6.4604073861
  0
SPLINE
  5
406
100
AcDbEntity
  8
0
100
AcDbSpline
 62
7
  6
CONTINUOUS
 70
0
 71
3
 72
9
 73
5
 74
0
 42
0.0000001
 43
0.0000001
 44
0.0000000001
 40
0.0
 40
0.0
 40
0.0
 40
0.0
 40
0.4838851574
 40
1.0
 40
1.0
 40
1.0
 40
1.0
 10
7.0868966419
 20
6.1226641144
 30
0.0
 10
7.0910059352
 20
6.1202458778
 30
0.0
 10
7.0990405418
 20
6.1144642855
 30
0.0
 10
7.106290695
 20
6.1077697436
 30
0.0
 10
7.109886768
 20
6.1041736707
 30
0.0
  0
LINE
  5
407
100
AcDbEntity
  8
0
100
AcDbLine
 62
7
  6
CONTINUOUS
 10
5.3169097283
 20
5.950341586
 11
5.3207101896
 21
5.9582828294
  0
SPLINE
  5
408
100
AcDbEntity
  8
0
100
AcDbSpline
 62
7
  6
CONTINUOUS
 70
0
 71
3
 72
9
 73
5
 74
0
 42
0.0000001
 43
0.0000001
 44
0.0000000001
 40
0.0
 40
0.0
 40
0.0
 40
0.0
 40
0.5212602575
 40
1.0
 40
1.0
 40
1.0
 40
1.0
 10
5.105388662
 20
6.1041736707
 30
0.0
 10
5.1098695287
 20
6.1086545374
 30
0.0
 10
5.1188898205
 20
6.1168449219
 30
0.0
 10
5.1292345746
 20
6.1234532189
 30
0.0
 10
5.1345257313
 20
6.1258772427
 30
0.0
  0
SPLINE
  5
409
100
AcDbEntity
  8
0
100
AcDbSpline
 62
7
  6
CONTINUOUS
 70
0
 71
3
 72
9
 73
5
 74
0
 42
0.0000001
 43
0.0000001
 44
0.0000000001
 40
0.0
 40
0.0
 40
0.0
 40
0.0
 40
0.5093621802
 40
1.0
 40
1.0
 40
1.0
 40
1.0
 10
5.1345257313
 20
6.1258772427
 30
0.0
 10
5.137726996
 20
6.1273438298
 30
0.0
 10
5.1442830884
 20
6.1296860011
 30
0.0
 10
5.1512156358
 20
6.1305499193
 30
0.0
 10
5.154607412
 20
6.1305499193
 30
0.0
  0
SPLINE
  5
40A
100
AcDbEntity
  8
0
100
AcDbSpline
 62
7
  6
CONTINUOUS
 70
0
 71
3
 72
11
 73
7
 74
0
 42
0.0000001
 43
0.0000001
 44
0.0000000001
 40
0.0
 40
0.0
 40
0.0
 40
0.0
 40
0.2264845937
 40
0.4659171294
 40
0.723979357
 40
1.0
 40
1.0
 40
1.0
 40
1.0
 10
5.154607412
 20
6.1305499193
 30
0.0
 10
5.1589259863
 20
6.1305499193
 30
0.0
 10
5.1678513038
 20
6.1291381482
 30
0.0
 10
5.1805197217
 20
6.1233723958
 30
0.0
 10
5.1925972751
 20
6.114806023
 30
0.0
 10
5.2001045739
 20
6.1078952587
 30
0.0
 10
5.203826162
 20
6.1041736707
 30
0.0
  0
SPLINE
  5
40B
100
AcDbEntity
  8
0
100
AcDbSpline
 62
7
  6
CONTINUOUS
 70
0
 71
3
 72
12
 73
8
 74
0
 42
0.0000001
 43
0.0000001
 44
0.0000000001
 40
0.0
 40
0.0
 40
0.0
 40
0.0
 40
0.2499350885
 40
0.4999225894
 40
0.6249577873
 40
0.7500443547
 40
1.0
 40
1.0
 40
1.0
 40
1.0
 10
5.203826162
 20
6.1041736707
 30
0.0
 10
5.2114869821
 20
6.1080040807
 30
0.0
 10
5.2270834716
 20
6.1151400912
 30
0.0
 10
5.2473389093
 20
6.1222278052
 30
0.0
 10
5.2639619521
 20
6.1264463214
 30
0.0
 10
5.280822414
 20
6.1295589906
 30
0.0
 10
5.2936979001
 20
6.1305499193
 30
0.0
 10
5.302263662
 20
6.1305499193
 30
0.0
  0
LINE
  5
40C
100
AcDbEntity
  8
0
100
AcDbLine
 62
7
  6
CONTINUOUS
 10
7.1898777404
 20
5.9582828294
 11
7.1936782017
 21
5.950341586
  0
SPLINE
  5
40D
100
AcDbEntity
  8
0
100
AcDbSpline
 62
7
  6
CONTINUOUS
 70
0
 71
3
 72
9
 73
5
 74
0
 42
0.0000001
 43
0.0000001
 44
0.0000000001
 40
0.0
 40
0.0
 40
0.0
 40
0.0
 40
0.5161758634
 40
1.0
 40
1.0
 40
1.0
 40
1.0
 10
5.400701162
 20
6.1041736707
 30
0.0
 10
5.4042949175
 20
6.1077674262
 30
0.0
 10
5.4115363171
 20
6.1144602926
 30
0.0
 10
5.4195664467
 20
6.1202360038
 30
0.0
 10
5.4236734443
 20
6.1226497862
 30
0.0
  0
SPLINE
  5
40E
100
AcDbEntity
  8
0
100
AcDbSpline
 62
7
  6
CONTINUOUS
 70
0
 71
3
 72
12
 73
8
 74
0
 42
0.0000001
 43
0.0000001
 44
0.0000000001
 40
0.0
 40
0.0
 40
0.0
 40
0.0
 40
0.2499613114
 40
0.3750549
 40
0.5000896343
 40
0.7500750778
 40
1.0
 40
1.0
 40
1.0
 40
1.0
 10
5.302263662
 20
6.1305499193
 30
0.0
 10
5.3108295811
 20
6.1305499193
 30
0.0
 10
5.3237053833
 20
6.1295582137
 30
0.0
 10
5.3405662145
 20
6.1264456114
 30
0.0
 10
5.3571889238
 20
6.1222253218
 30
0.0
 10
5.3774434564
 20
6.1151371612
 30
0.0
 10
5.3930406863
 20
6.1080039085
 30
0.0
 10
5.400701162
 20
6.1041736707
 30
0.0
  0
SPLINE
  5
40F
100
AcDbEntity
  8
0
100
AcDbSpline
 62
7
  6
CONTINUOUS
 70
0
 71
3
 72
11
 73
7
 74
0
 42
0.0000001
 43
0.0000001
 44
0.0000000001
 40
0.0
 40
0.0
 40
0.0
 40
0.0
 40
0.2264845937
 40
0.4659171294
 40
0.723979357
 40
1.0
 40
1.0
 40
1.0
 40
1.0
 10
7.355980518
 20
6.1305499193
 30
0.0
 10
7.3602990924
 20
6.1305499193
 30
0.0
 10
7.3692244098
 20
6.1291381482
 30
0.0
 10
7.3818928277
 20
6.1233723958
 30
0.0
 10
7.3939703812
 20
6.114806023
 30
0.0
 10
7.4014776799
 20
6.1078952587
 30
0.0
 10
7.405199268
 20
6.1041736707
 30
0.0
  0
SPLINE
  5
410
100
AcDbEntity
  8
0
100
AcDbSpline
 62
7
  6
CONTINUOUS
 70
0
 71
3
 72
12
 73
8
 74
0
 42
0.0000001
 43
0.0000001
 44
0.0000000001
 40
0.0
 40
0.0
 40
0.0
 40
0.0
 40
0.2499613114
 40
0.3750549
 40
0.5000896343
 40
0.7500750778
 40
1.0
 40
1.0
 40
1.0
 40
1.0
 10
7.208324268
 20
6.1305499193
 30
0.0
 10
7.2168901872
 20
6.1305499193
 30
0.0
 10
7.2297659894
 20
6.1295582137
 30
0.0
 10
7.2466268206
 20
6.1264456114
 30
0.0
 10
7.2632495299
 20
6.1222253218
 30
0.0
 10
7.2835040624
 20
6.1151371612
 30
0.0
 10
7.2991012924
 20
6.1080039085
 30
0.0
 10
7.306761768
 20
6.1041736707
 30
0.0
  0
SPLINE
  5
411
100
AcDbEntity
  8
0
100
AcDbSpline
 62
7
  6
CONTINUOUS
 70
0
 71
3
 72
12
 73
8
 74
0
 42
0.0000001
 43
0.0000001
 44
0.0000000001
 40
0.0
 40
0.0
 40
0.0
 40
0.0
 40
0.2758919529
 40
0.533751727
 40
0.7730359609
 40
0.8874932153
 40
1.0
 40
1.0
 40
1.0
 40
1.0
 10
7.306761768
 20
6.1041736707
 30
0.0
 10
7.3104836437
 20
6.1078955464
 30
0.0
 10
7.3179889202
 20
6.1148097697
 30
0.0
 10
7.3300625884
 20
6.1233688437
 30
0.0
 10
7.3407978399
 20
6.1282337803
 30
0.0
 10
7.3494977502
 20
6.1302095058
 30
0.0
 10
7.3538340889
 20
6.1305499193
 30
0.0
 10
7.355980518
 20
6.1305499193
 30
0.0
  0
SPLINE
  5
412
100
AcDbEntity
  8
0
100
AcDbSpline
 62
7
  6
CONTINUOUS
 70
0
 71
3
 72
11
 73
7
 74
0
 42
0.0000001
 43
0.0000001
 44
0.0000000001
 40
0.0
 40
0.0
 40
0.0
 40
0.0
 40
0.254523854
 40
0.5059615255
 40
0.7541282348
 40
1.0
 40
1.0
 40
1.0
 40
1.0
 10
6.0046307582
 20
6.4335810509
 30
0.0
 10
6.0019647135
 20
6.4345247463
 30
0.0
 10
5.9965886706
 20
6.4361994806
 30
0.0
 10
5.9883378412
 20
6.4377929701
 30
0.0
 10
5.9800218063
 20
6.4381150679
 30
0.0
 10
5.9745514765
 20
6.4372632182
 30
0.0
 10
5.971913258
 20
6.4365535557
 30
0.0
  0
SPLINE
  5
413
100
AcDbEntity
  8
0
100
AcDbSpline
 62
7
  6
CONTINUOUS
 70
0
 71
3
 72
11
 73
7
 74
0
 42
0.0000001
 43
0.0000001
 44
0.0000000001
 40
0.0
 40
0.0
 40
0.0
 40
0.0
 40
0.2457777027
 40
0.4939287612
 40
0.7454094332
 40
1.0
 40
1.0
 40
1.0
 40
1.0
 10
5.971913258
 20
6.4365535557
 30
0.0
 10
5.9692744678
 20
6.4358437394
 30
0.0
 10
5.9641124787
 20
6.4338369894
 30
0.0
 10
5.9570769452
 20
6.4293834557
 30
0.0
 10
5.9507334052
 20
6.4238632181
 30
0.0
 10
5.9469166244
 20
6.4197171117
 30
0.0
 10
5.9450808732
 20
6.4175625436
 30
0.0
  0
SPLINE
  5
414
100
AcDbEntity
  8
0
100
AcDbSpline
 62
7
  6
CONTINUOUS
 70
0
 71
3
 72
11
 73
7
 74
0
 42
0.0000001
 43
0.0000001
 44
0.0000000001
 40
0.0
 40
0.0
 40
0.0
 40
0.0
 40
0.2545946383
 40
0.5060727937
 40
0.7542254287
 40
1.0
 40
1.0
 40
1.0
 40
1.0
 10
6.064211713
 20
6.4494836045
 30
0.0
 10
6.0615445848
 20
6.4504316505
 30
0.0
 10
6.0561665215
 20
6.4521152403
 30
0.0
 10
6.0479123091
 20
6.4537229386
 30
0.0
 10
6.039592794
 20
6.4540601613
 30
0.0
 10
6.0341188047
 20
6.4532187536
 30
0.0
 10
6.0314786778
 20
6.4525140861
 30
0.0
  0
SPLINE
  5
415
100
AcDbEntity
  8
0
100
AcDbSpline
 62
7
  6
CONTINUOUS
 70
0
 71
3
 72
11
 73
7
 74
0
 42
0.0000001
 43
0.0000001
 44
0.0000000001
 40
0.0
 40
0.0
 40
0.0
 40
0.0
 40
0.2458749538
 40
0.4940400351
 40
0.7454801985
 40
1.0
 40
1.0
 40
1.0
 40
1.0
 10
6.0314786778
 20
6.4525140861
 30
0.0
 10
6.0288390422
 20
6.4518095498
 30
0.0
 10
6.0236750037
 20
6.4498136751
 30
0.0
 10
6.0166349201
 20
6.4453749762
 30
0.0
 10
6.0102872063
 20
6.439868733
 30
0.0
 10
6.0064677466
 20
6.4357313098
 30
0.0
 10
6.0046307582
 20
6.4335810509
 30
0.0
  0
SPLINE
  5
416
100
AcDbEntity
  8
0
100
AcDbSpline
 62
7
  6
CONTINUOUS
 70
0
 71
3
 72
31
 73
27
 74
0
 42
0.0000001
 43
0.0000001
 44
0.0000000001
 40
0.0
 40
0.0
 40
0.0
 40
0.0
 40
0.0875314755
 40
0.1315710305
 40
0.1758019099
 40
0.2197326725
 40
0.2634884629
 40
0.3075361708
 40
0.3514174197
 40
0.3945178863
 40
0.437071871
 40
0.4790283794
 40
0.5199295049
 40
0.5982959543
 40
0.6716423907
 40
0.738865033
 40
0.7991065122
 40
0.8515774135
 40
0.8956301567
 40
0.9308160916
 40
0.9570657053
 40
0.9670986659
 40
0.9756783998
 40
0.9839386555
 40
0.9899105544
 40
1.0
 40
1.0
 40
1.0
 40
1.0
 10
4.7080887254
 20
4.7693707154
 30
0.0
 10
4.7068637567
 20
4.7689453364
 30
0.0
 10
4.7049745899
 20
4.768434093
 30
0.0
 10
4.7024049161
 20
4.7680048735
 30
0.0
 10
4.7004544167
 20
4.7678056447
 30
0.0
 10
4.6984934618
 20
4.767827686
 30
0.0
 10
4.696563463
 20
4.7681946699
 30
0.0
 10
4.6947492777
 20
4.7689434756
 30
0.0
 10
4.6931030149
 20
4.7699913731
 30
0.0
 10
4.6916913849
 20
4.771305042
 30
0.0
 10
4.6905040022
 20
4.7727812664
 30
0.0
 10
4.68946862
 20
4.7743250437
 30
0.0
 10
4.6882153083
 20
4.7763586863
 30
0.0
 10
4.686847095
 20
4.7788649694
 30
0.0
 10
4.6854230719
 20
4.7817793707
 30
0.0
 10
4.6841578064
 20
4.7844717888
 30
0.0
 10
4.6830397446
 20
4.7868916649
 30
0.0
 10
4.6820537472
 20
4.7889941928
 30
0.0
 10
4.6811926028
 20
4.7907458658
 30
0.0
 10
4.6804427186
 20
4.7921165292
 30
0.0
 10
4.6798474875
 20
4.7929988475
 30
0.0
 10
4.6793765518
 20
4.793472493
 30
0.0
 10
4.6790317562
 20
4.7936822951
 30
0.0
 10
4.6786902389
 20
4.7937485086
 30
0.0
 10
4.6783323753
 20
4.793689392
 30
0.0
 10
4.6781028684
 20
4.7936276668
 30
0.0
 10
4.6779587859
 20
4.7935879028
 30
0.0
  0
SPLINE
  5
417
100
AcDbEntity
  8
0
100
AcDbSpline
 62
7
  6
CONTINUOUS
 70
0
 71
3
 72
15
 73
11
 74
0
 42
0.0000001
 43
0.0000001
 44
0.0000000001
 40
0.0
 40
0.0
 40
0.0
 40
0.0
 40
0.2500093736
 40
0.3750153995
 40
0.5000214089
 40
0.6250274517
 40
0.7500335894
 40
0.8125366321
 40
0.8750397397
 40
1.0
 40
1.0
 40
1.0
 40
1.0
 10
4.7080885505
 20
4.7693712237
 30
0.0
 10
4.7133129687
 20
4.7709322147
 30
0.0
 10
4.7211297906
 20
4.7733411641
 30
0.0
 10
4.731503928
 20
4.7767036202
 30
0.0
 10
4.7392621
 20
4.7792937904
 30
0.0
 10
4.746997665
 20
4.7819509509
 30
0.0
 10
4.7534292518
 20
4.7842065166
 30
0.0
 10
4.7585678389
 20
4.7860321734
 30
0.0
 10
4.7637071491
 20
4.787844226
 30
0.0
 10
4.7675565939
 20
4.7892535238
 30
0.0
 10
4.7701979488
 20
4.7899249193
 30
0.0
  0
SPLINE
  5
418
100
AcDbEntity
  8
0
100
AcDbSpline
 62
7
  6
CONTINUOUS
 70
0
 71
3
 72
12
 73
8
 74
0
 42
0.0000001
 43
0.0000001
 44
0.0000000001
 40
0.0
 40
0.0
 40
0.0
 40
0.0
 40
0.2499350885
 40
0.4999225894
 40
0.6249577873
 40
0.7500443547
 40
1.0
 40
1.0
 40
1.0
 40
1.0
 10
7.109886768
 20
6.1041736707
 30
0.0
 10
7.1175475882
 20
6.1080040807
 30
0.0
 10
7.1331440776
 20
6.1151400912
 30
0.0
 10
7.1533995153
 20
6.1222278052
 30
0.0
 10
7.1700225582
 20
6.1264463214
 30
0.0
 10
7.18688302
 20
6.1295589906
 30
0.0
 10
7.1997585062
 20
6.1305499193
 30
0.0
 10
7.208324268
 20
6.1305499193
 30
0.0
  0
SPLINE
  5
419
100
AcDbEntity
  8
0
100
AcDbSpline
 62
7
  6
CONTINUOUS
 70
0
 71
3
 72
15
 73
11
 74
0
 42
0.0000001
 43
0.0000001
 44
0.0000000001
 40
0.0
 40
0.0
 40
0.0
 40
0.0
 40
0.1249602899
 40
0.1874633817
 40
0.2499664285
 40
0.3749725748
 40
0.4999786268
 40
0.6249846446
 40
0.7499906815
 40
1.0
 40
1.0
 40
1.0
 40
1.0
 10
7.7403899812
 20
4.7899249193
 30
0.0
 10
7.7430226089
 20
4.7892555692
 30
0.0
 10
7.7468596702
 20
4.7878518027
 30
0.0
 10
7.751982074
 20
4.7860456675
 30
0.0
 10
7.7571037385
 20
4.7842259546
 30
0.0
 10
7.7635140615
 20
4.7819774819
 30
0.0
 10
7.7712239637
 20
4.7793284135
 30
0.0
 10
7.7789562689
 20
4.7767456961
 30
0.0
 10
7.7892958486
 20
4.7733929778
 30
0.0
 10
7.7970859444
 20
4.7709885804
 30
0.0
 10
7.8022934312
 20
4.7694335634
 30
0.0
  0
SPLINE
  5
41A
100
AcDbEntity
  8
0
100
AcDbSpline
 62
7
  6
CONTINUOUS
 70
0
 71
3
 72
32
 73
28
 74
0
 42
0.0000001
 43
0.0000001
 44
0.0000000001
 40
0.0
 40
0.0
 40
0.0
 40
0.0
 40
0.0100534975
 40
0.016076773
 40
0.0243148252
 40
0.0329054931
 40
0.0429354719
 40
0.069184964
 40
0.1043711485
 40
0.1484233159
 40
0.2008928798
 40
0.2611322546
 40
0.3283508003
 40
0.4016895403
 40
0.4403068353
 40
0.4800700574
 40
0.5209592825
 40
0.562875186
 40
0.6053990869
 40
0.648554396
 40
0.692479735
 40
0.736495625
 40
0.7802172236
 40
0.8241741535
 40
0.8684338423
 40
0.9124764036
 40
1.0
 40
1.0
 40
1.0
 40
1.0
 10
7.8326291441
 20
4.7935879028
 30
0.0
 10
7.8324855769
 20
4.7936275222
 30
0.0
 10
7.8322558118
 20
4.7936888543
 30
0.0
 10
7.8318980844
 20
4.7937490464
 30
0.0
 10
7.8315562422
 20
4.7936815753
 30
0.0
 10
7.8312111213
 20
4.793472935
 30
0.0
 10
7.8307406902
 20
4.7929983896
 30
0.0
 10
7.8301451914
 20
4.7921166163
 30
0.0
 10
7.8293953714
 20
4.7907458101
 30
0.0
 10
7.8285341452
 20
4.7889942997
 30
0.0
 10
7.8275483349
 20
4.7868917787
 30
0.0
 10
7.8264302163
 20
4.784472098
 30
0.0
 10
7.8251653642
 20
4.7817798348
 30
0.0
 10
7.8239992414
 20
4.7793948853
 30
0.0
 10
7.822946476
 20
4.7774088157
 30
0.0
 10
7.8220729739
 20
4.7758725764
 30
0.0
 10
7.8211211869
 20
4.7743259377
 30
0.0
 10
7.820087126
 20
4.7727827724
 30
0.0
 10
7.8188981462
 20
4.7713079281
 30
0.0
 10
7.8174826882
 20
4.7699972075
 30
0.0
 10
7.8158378803
 20
4.7689460727
 30
0.0
 10
7.8140253834
 20
4.7681931886
 30
0.0
 10
7.812095357
 20
4.7678287172
 30
0.0
 10
7.8101343293
 20
4.7678067714
 30
0.0
 10
7.8081828197
 20
4.7680042276
 30
0.0
 10
7.8056125114
 20
4.7684317746
 30
0.0
 10
7.8037237296
 20
4.7689444871
 30
0.0
 10
7.8024992045
 20
4.7693707154
 30
0.0
  0
SPLINE
  5
41B
100
AcDbEntity
  8
0
100
AcDbSpline
 62
7
  6
CONTINUOUS
 70
0
 71
3
 72
23
 73
19
 74
0
 42
0.0000001
 43
0.0000001
 44
0.0000000001
 40
0.0
 40
0.0
 40
0.0
 40
0.0
 40
0.0625802913
 40
0.1252537184
 40
0.1878130058
 40
0.2503248321
 40
0.3127952048
 40
0.375220689
 40
0.437609241
 40
0.4999833449
 40
0.5623593739
 40
0.6247512531
 40
0.6871822353
 40
0.7496590193
 40
0.8121763348
 40
0.8747415518
 40
0.9374189903
 40
1.0
 40
1.0
 40
1.0
 40
1.0
 10
5.8568893959
 20
12.6000477814
 30
0.0
 10
5.8568893959
 20
12.6030825762
 30
0.0
 10
5.8574826155
 20
12.6091723295
 30
0.0
 10
5.8600958182
 20
12.6179538476
 30
0.0
 10
5.8643597272
 20
12.6260647753
 30
0.0
 10
5.870110284
 20
12.6331850711
 30
0.0
 10
5.8771309922
 20
12.6390484867
 30
0.0
 10
5.8851639813
 20
12.6434132314
 30
0.0
 10
5.8938958482
 20
12.6461052891
 30
0.0
 10
5.9029857756
 20
12.6470186983
 30
0.0
 10
5.9120760389
 20
12.6461064057
 30
0.0
 10
5.9208084907
 20
12.6434145446
 30
0.0
 10
5.9288427541
 20
12.6390505724
 30
0.0
 10
5.9358642437
 20
12.6331867107
 30
0.0
 10
5.9416158135
 20
12.6260661372
 30
0.0
 10
5.9458802298
 20
12.617954588
 30
0.0
 10
5.948493636
 20
12.6091725922
 30
0.0
 10
5.9490869234
 20
12.603082611
 30
0.0
 10
5.9490869234
 20
12.6000477814
 30
0.0
  0
SPLINE
  5
41C
100
AcDbEntity
  8
0
100
AcDbSpline
 62
7
  6
CONTINUOUS
 70
0
 71
3
 72
23
 73
19
 74
0
 42
0.0000001
 43
0.0000001
 44
0.0000000001
 40
0.0
 40
0.0
 40
0.0
 40
0.0
 40
0.0625802913
 40
0.1252537184
 40
0.1878130058
 40
0.2503248321
 40
0.3127952048
 40
0.375220689
 40
0.437609241
 40
0.4999833449
 40
0.5623593739
 40
0.6247512531
 40
0.6871822353
 40
0.7496590193
 40
0.8121763348
 40
0.8747415518
 40
0.9374189903
 40
1.0
 40
1.0
 40
1.0
 40
1.0
 10
5.9490869234
 20
12.6000477814
 30
0.0
 10
5.9490869234
 20
12.5970129866
 30
0.0
 10
5.9484937038
 20
12.5909232333
 30
0.0
 10
5.9458805011
 20
12.5821417151
 30
0.0
 10
5.9416165921
 20
12.5740307875
 30
0.0
 10
5.9358660353
 20
12.5669104917
 30
0.0
 10
5.9288453271
 20
12.5610470761
 30
0.0
 10
5.920812338
 20
12.5566823313
 30
0.0
 10
5.9120804711
 20
12.5539902736
 30
0.0
 10
5.9029905437
 20
12.5530768645
 30
0.0
 10
5.8939002804
 20
12.5539891571
 30
0.0
 10
5.8851678286
 20
12.5566810181
 30
0.0
 10
5.8771335651
 20
12.5610449903
 30
0.0
 10
5.8701120756
 20
12.566908852
 30
0.0
 10
5.8643605058
 20
12.5740294255
 30
0.0
 10
5.8600960895
 20
12.5821409747
 30
0.0
 10
5.8574826833
 20
12.5909229705
 30
0.0
 10
5.8568893959
 20
12.5970129517
 30
0.0
 10
5.8568893959
 20
12.6000477814
 30
0.0
  0
SPLINE
  5
41D
100
AcDbEntity
  8
0
100
AcDbSpline
 62
7
  6
CONTINUOUS
 70
0
 71
3
 72
15
 73
11
 74
0
 42
0.0000001
 43
0.0000001
 44
0.0000000001
 40
0.0
 40
0.0
 40
0.0
 40
0.0
 40
0.1249320508
 40
0.2499915324
 40
0.3750003794
 40
0.5000218473
 40
0.6249897578
 40
0.7499719185
 40
0.8751013316
 40
1.0
 40
1.0
 40
1.0
 40
1.0
 10
5.2041321077
 20
12.0804507242
 30
0.0
 10
5.2062876933
 20
12.0804509658
 30
0.0
 10
5.2106130262
 20
12.0800551832
 30
0.0
 10
5.2168604395
 20
12.078216699
 30
0.0
 10
5.2226136468
 20
12.0751600408
 30
0.0
 10
5.2276701451
 20
12.0710603185
 30
0.0
 10
5.2318480263
 20
12.0660670507
 30
0.0
 10
5.2349784431
 20
12.0603550411
 30
0.0
 10
5.2369415103
 20
12.0541489358
 30
0.0
 10
5.237432293
 20
12.0498307193
 30
0.0
 10
5.2374654393
 20
12.0476759646
 30
0.0
  0
SPLINE
  5
41E
100
AcDbEntity
  8
0
100
AcDbSpline
 62
7
  6
CONTINUOUS
 70
0
 71
3
 72
9
 73
5
 74
0
 42
0.0000001
 43
0.0000001
 44
0.0000000001
 40
0.0
 40
0.0
 40
0.0
 40
0.0
 40
0.2513716024
 40
1.0
 40
1.0
 40
1.0
 40
1.0
 10
5.9124646702
 20
12.0405068158
 30
0.0
 10
5.9151444272
 20
12.0421081323
 30
0.0
 10
5.9258873028
 20
12.0483410556
 30
0.0
 10
5.936893934
 20
12.0541079139
 30
0.0
 10
5.9451977054
 20
12.058289257
 30
0.0
  0
SPLINE
  5
41F
100
AcDbEntity
  8
0
100
AcDbSpline
 62
7
  6
CONTINUOUS
 70
0
 71
3
 72
9
 73
5
 74
0
 42
0.0000001
 43
0.0000001
 44
0.0000000001
 40
0.0
 40
0.0
 40
0.0
 40
0.0
 40
0.4804961868
 40
1.0
 40
1.0
 40
1.0
 40
1.0
 10
5.8855862719
 20
11.9514751436
 30
0.0
 10
5.8847162066
 20
11.9571383847
 30
0.0
 10
5.8832177311
 20
11.9689767259
 30
0.0
 10
5.882655955
 20
11.980907158
 30
0.0
 10
5.882658658
 20
11.9871019918
 30
0.0
  0
SPLINE
  5
420
100
AcDbEntity
  8
0
100
AcDbSpline
 62
7
  6
CONTINUOUS
 70
0
 71
3
 72
9
 73
5
 74
0
 42
0.0000001
 43
0.0000001
 44
0.0000000001
 40
0.0
 40
0.0
 40
0.0
 40
0.0
 40
0.5197293832
 40
1.0
 40
1.0
 40
1.0
 40
1.0
 10
5.882658658
 20
11.9871019918
 30
0.0
 10
5.8826613588
 20
11.9932917937
 30
0.0
 10
5.8832324332
 20
12.0052069169
 30
0.0
 10
5.884741052
 20
12.0170290527
 30
0.0
 10
5.8856161549
 20
12.0226815756
 30
0.0
  0
SPLINE
  5
421
100
AcDbEntity
  8
0
100
AcDbSpline
 62
7
  6
CONTINUOUS
 70
0
 71
3
 72
9
 73
5
 74
0
 42
0.0000001
 43
0.0000001
 44
0.0000000001
 40
0.0
 40
0.0
 40
0.0
 40
0.0
 40
0.2447931508
 40
1.0
 40
1.0
 40
1.0
 40
1.0
 10
5.9451355659
 20
11.915876393
 30
0.0
 10
5.9424225491
 20
11.9172486305
 30
0.0
 10
5.9313696337
 20
11.9229118587
 30
0.0
 10
5.9204685627
 20
11.9288840001
 30
0.0
 10
5.9124180657
 20
11.9336971678
 30
0.0
  0
SPLINE
  5
422
100
AcDbEntity
  8
0
100
AcDbSpline
 62
7
  6
CONTINUOUS
 70
0
 71
3
 72
15
 73
11
 74
0
 42
0.0000001
 43
0.0000001
 44
0.0000000001
 40
0.0
 40
0.0
 40
0.0
 40
0.0
 40
0.1249319121
 40
0.2499921321
 40
0.3750006302
 40
0.5000216757
 40
0.6249901618
 40
0.7499724445
 40
0.8751011189
 40
1.0
 40
1.0
 40
1.0
 40
1.0
 10
7.1874654376
 20
13.1196448386
 30
0.0
 10
7.1853137364
 20
13.119644591
 30
0.0
 10
7.1809962335
 20
13.1200392175
 30
0.0
 10
7.1747593539
 20
13.1218712553
 30
0.0
 10
7.1690137221
 20
13.1249167896
 30
0.0
 10
7.1639611728
 20
13.1290025539
 30
0.0
 10
7.1597828226
 20
13.1339799413
 30
0.0
 10
7.1566468027
 20
13.1396753115
 30
0.0
 10
7.1546728127
 20
13.1458654951
 30
0.0
 10
7.1541713566
 20
13.1501744807
 30
0.0
 10
7.154132106
 20
13.1523252549
 30
0.0
  0
SPLINE
  5
423
100
AcDbEntity
  8
0
100
AcDbSpline
 62
7
  6
CONTINUOUS
 70
0
 71
3
 72
15
 73
11
 74
0
 42
0.0000001
 43
0.0000001
 44
0.0000000001
 40
0.0
 40
0.0
 40
0.0
 40
0.0
 40
0.1248988466
 40
0.2500274486
 40
0.3750096972
 40
0.4999781878
 40
0.6249992429
 40
0.7500077619
 40
0.8750680537
 40
1.0
 40
1.0
 40
1.0
 40
1.0
 10
5.2374654393
 20
13.152325255
 30
0.0
 10
5.2374261888
 20
13.1501744813
 30
0.0
 10
5.2369247341
 20
13.1458654975
 30
0.0
 10
5.2349507441
 20
13.1396753164
 30
0.0
 10
5.2318147266
 20
13.1339799471
 30
0.0
 10
5.2276363775
 20
13.1290025593
 30
0.0
 10
5.2225838299
 20
13.124916792
 30
0.0
 10
5.2168381958
 20
13.1218712573
 30
0.0
 10
5.2106013137
 20
13.120039222
 30
0.0
 10
5.2062838095
 20
13.119644591
 30
0.0
 10
5.2041321077
 20
13.1196448386
 30
0.0
  0
SPLINE
  5
424
100
AcDbEntity
  8
0
100
AcDbSpline
 62
7
  6
CONTINUOUS
 70
0
 71
3
 72
11
 73
7
 74
0
 42
0.0000001
 43
0.0000001
 44
0.0000000001
 40
0.0
 40
0.0
 40
0.0
 40
0.0
 40
0.1956819882
 40
0.4329993744
 40
0.7060433825
 40
1.0
 40
1.0
 40
1.0
 40
1.0
 10
5.2612149973
 20
12.1145613108
 30
0.0
 10
5.2618976756
 20
12.1153129531
 30
0.0
 10
5.2631405979
 20
12.1172184283
 30
0.0
 10
5.2644813451
 20
12.1206456036
 30
0.0
 10
5.2653545995
 20
12.1247431262
 30
0.0
 10
5.2655606946
 20
12.1276891137
 30
0.0
 10
5.2655606946
 20
12.129214448
 30
0.0
  0
SPLINE
  5
425
100
AcDbEntity
  8
0
100
AcDbSpline
 62
7
  6
CONTINUOUS
 70
0
 71
3
 72
10
 73
6
 74
0
 42
0.0000001
 43
0.0000001
 44
0.0000000001
 40
0.0
 40
0.0
 40
0.0
 40
0.0
 40
0.2241747758
 40
0.4586761393
 40
1.0
 40
1.0
 40
1.0
 40
1.0
 10
5.257414536
 20
12.1125477814
 30
0.0
 10
5.2577445114
 20
12.1125477814
 30
0.0
 10
5.2584228527
 20
12.1126365044
 30
0.0
 10
5.2597992283
 20
12.1131929794
 30
0.0
 10
5.2606793392
 20
12.113971422
 30
0.0
 10
5.2612149973
 20
12.1145613108
 30
0.0
  0
SPLINE
  5
426
100
AcDbEntity
  8
0
100
AcDbSpline
 62
7
  6
CONTINUOUS
 70
0
 71
3
 72
11
 73
7
 74
0
 42
0.0000001
 43
0.0000001
 44
0.0000000001
 40
0.0
 40
0.0
 40
0.0
 40
0.0
 40
0.1956819882
 40
0.4329993744
 40
0.7060433825
 40
1.0
 40
1.0
 40
1.0
 40
1.0
 10
7.1303825481
 20
13.0855342519
 30
0.0
 10
7.1296998697
 20
13.0847826096
 30
0.0
 10
7.1284569474
 20
13.0828771344
 30
0.0
 10
7.1271162002
 20
13.0794499592
 30
0.0
 10
7.1262429458
 20
13.0753524366
 30
0.0
 10
7.1260368508
 20
13.0724064491
 30
0.0
 10
7.1260368508
 20
13.0708811147
 30
0.0
  0
SPLINE
  5
427
100
AcDbEntity
  8
0
100
AcDbSpline
 62
7
  6
CONTINUOUS
 70
0
 71
3
 72
10
 73
6
 74
0
 42
0.0000001
 43
0.0000001
 44
0.0000000001
 40
0.0
 40
0.0
 40
0.0
 40
0.0
 40
0.224174887
 40
0.458675761
 40
1.0
 40
1.0
 40
1.0
 40
1.0
 10
7.1341830094
 20
13.0875477814
 30
0.0
 10
7.1338530338
 20
13.0875477814
 30
0.0
 10
7.1331746923
 20
13.0874590597
 30
0.0
 10
7.1317983222
 20
13.0869025776
 30
0.0
 10
7.1309181903
 20
13.0861241558
 30
0.0
 10
7.1303825481
 20
13.0855342519
 30
0.0
  0
SPLINE
  5
428
100
AcDbEntity
  8
0
100
AcDbSpline
 62
7
  6
CONTINUOUS
 70
0
 71
3
 72
11
 73
7
 74
0
 42
0.0000001
 43
0.0000001
 44
0.0000000001
 40
0.0
 40
0.0
 40
0.0
 40
0.0
 40
0.2470998106
 40
0.496426151
 40
0.7476645011
 40
1.0
 40
1.0
 40
1.0
 40
1.0
 10
5.956019583
 20
12.6631954671
 30
0.0
 10
5.9613498096
 20
12.6600095001
 30
0.0
 10
5.9712458799
 20
12.6521338482
 30
0.0
 10
5.9825328816
 20
12.6368583851
 30
0.0
 10
5.9896262143
 20
12.6191024862
 30
0.0
 10
5.9912356288
 20
12.606389165
 30
0.0
 10
5.9912356288
 20
12.6000477814
 30
0.0
  0
SPLINE
  5
429
100
AcDbEntity
  8
0
100
AcDbSpline
 62
7
  6
CONTINUOUS
 70
0
 71
3
 72
9
 73
5
 74
0
 42
0.0000001
 43
0.0000001
 44
0.0000000001
 40
0.0
 40
0.0
 40
0.0
 40
0.0
 40
0.2447238471
 40
1.0
 40
1.0
 40
1.0
 40
1.0
 10
6.0047165207
 20
11.951479609
 30
0.0
 10
6.0020021442
 20
11.9501127916
 30
0.0
 10
5.9909411222
 20
11.9444687709
 30
0.0
 10
5.9800348534
 20
11.938508346
 30
0.0
 10
5.9719834855
 20
11.9336971678
 30
0.0
  0
SPLINE
  5
42A
100
AcDbEntity
  8
0
100
AcDbSpline
 62
7
  6
CONTINUOUS
 70
0
 71
3
 72
11
 73
7
 74
0
 42
0.0000001
 43
0.0000001
 44
0.0000000001
 40
0.0
 40
0.0
 40
0.0
 40
0.0
 40
0.2505771788
 40
0.5
 40
0.7494228212
 40
1.0
 40
1.0
 40
1.0
 40
1.0
 10
5.8855874915
 20
12.6631954671
 30
0.0
 10
5.8908757727
 20
12.6663563625
 30
0.0
 10
5.9023286268
 20
12.6712838954
 30
0.0
 10
5.9208035373
 20
12.6738023154
 30
0.0
 10
5.9392784477
 20
12.6712838954
 30
0.0
 10
5.9507313018
 20
12.6663563625
 30
0.0
 10
5.956019583
 20
12.6631954671
 30
0.0
  0
SPLINE
  5
42B
100
AcDbEntity
  8
0
100
AcDbSpline
 62
7
  6
CONTINUOUS
 70
0
 71
3
 72
11
 73
7
 74
0
 42
0.0000001
 43
0.0000001
 44
0.0000000001
 40
0.0
 40
0.0
 40
0.0
 40
0.0
 40
0.2523686456
 40
0.5035775946
 40
0.7528935817
 40
1.0
 40
1.0
 40
1.0
 40
1.0
 10
5.8503759109
 20
12.6008645994
 30
0.0
 10
5.8504444742
 20
12.607138281
 30
0.0
 10
5.8521542371
 20
12.6196961875
 30
0.0
 10
5.8592904257
 20
12.6372087893
 30
0.0
 10
5.8705164431
 20
12.6522689509
 30
0.0
 10
5.8803144084
 20
12.6600436558
 30
0.0
 10
5.8855874915
 20
12.6631954671
 30
0.0
  0
SPLINE
  5
42C
100
AcDbEntity
  8
0
100
AcDbSpline
 62
7
  6
CONTINUOUS
 70
0
 71
3
 72
11
 73
7
 74
0
 42
0.0000001
 43
0.0000001
 44
0.0000000001
 40
0.0
 40
0.0
 40
0.0
 40
0.0
 40
0.2471064183
 40
0.4964224054
 40
0.7476313544
 40
1.0
 40
1.0
 40
1.0
 40
1.0
 10
5.8855874915
 20
12.5369000957
 30
0.0
 10
5.8803144084
 20
12.540051907
 30
0.0
 10
5.8705164431
 20
12.5478266119
 30
0.0
 10
5.8592904257
 20
12.5628867734
 30
0.0
 10
5.8521542371
 20
12.5803993752
 30
0.0
 10
5.8504444742
 20
12.5929572818
 30
0.0
 10
5.8503759109
 20
12.5992309633
 30
0.0
  0
SPLINE
  5
42D
100
AcDbEntity
  8
0
100
AcDbSpline
 62
7
  6
CONTINUOUS
 70
0
 71
3
 72
11
 73
7
 74
0
 42
0.0000001
 43
0.0000001
 44
0.0000000001
 40
0.0
 40
0.0
 40
0.0
 40
0.0
 40
0.2505771788
 40
0.5
 40
0.7494228212
 40
1.0
 40
1.0
 40
1.0
 40
1.0
 10
5.956019583
 20
12.5369000957
 30
0.0
 10
5.9507313018
 20
12.5337392002
 30
0.0
 10
5.9392784477
 20
12.5288116673
 30
0.0
 10
5.9208035373
 20
12.5262932473
 30
0.0
 10
5.9023286268
 20
12.5288116673
 30
0.0
 10
5.8908757727
 20
12.5337392002
 30
0.0
 10
5.8855874915
 20
12.5369000957
 30
0.0
  0
SPLINE
  5
42E
100
AcDbEntity
  8
0
100
AcDbSpline
 62
7
  6
CONTINUOUS
 70
0
 71
3
 72
10
 73
6
 74
0
 42
0.0000001
 43
0.0000001
 44
0.0000000001
 40
0.0
 40
0.0
 40
0.0
 40
0.0
 40
0.5413319354
 40
0.7758005427
 40
1.0
 40
1.0
 40
1.0
 40
1.0
 10
7.1303825481
 20
12.1145613108
 30
0.0
 10
7.1309182138
 20
12.1139714126
 30
0.0
 10
7.1317983472
 20
12.1131930941
 30
0.0
 10
7.1331746507
 20
12.1126364318
 30
0.0
 10
7.1338529975
 20
12.1125477814
 30
0.0
 10
7.1341830094
 20
12.1125477814
 30
0.0
  0
SPLINE
  5
42F
100
AcDbEntity
  8
0
100
AcDbSpline
 62
7
  6
CONTINUOUS
 70
0
 71
3
 72
11
 73
7
 74
0
 42
0.0000001
 43
0.0000001
 44
0.0000000001
 40
0.0
 40
0.0
 40
0.0
 40
0.0
 40
0.2939727917
 40
0.5670143738
 40
0.8043339642
 40
1.0
 40
1.0
 40
1.0
 40
1.0
 10
7.1260368508
 20
12.129214448
 30
0.0
 10
7.1260368508
 20
12.1276890068
 30
0.0
 10
7.1262403502
 20
12.1247427406
 30
0.0
 10
7.1271153031
 20
12.1206451061
 30
0.0
 10
7.1284581438
 20
12.1172190574
 30
0.0
 10
7.1296999151
 20
12.1153129031
 30
0.0
 10
7.1303825481
 20
12.1145613108
 30
0.0
  0
SPLINE
  5
430
100
AcDbEntity
  8
0
100
AcDbSpline
 62
7
  6
CONTINUOUS
 70
0
 71
3
 72
11
 73
7
 74
0
 42
0.0000001
 43
0.0000001
 44
0.0000000001
 40
0.0
 40
0.0
 40
0.0
 40
0.0
 40
0.2513848179
 40
0.502322566
 40
0.7518811266
 40
1.0
 40
1.0
 40
1.0
 40
1.0
 10
6.0017894978
 20
11.9871019918
 30
0.0
 10
6.0017912548
 20
11.9911289328
 30
0.0
 10
6.0010275997
 20
11.999196464
 30
0.0
 10
5.9976302461
 20
12.0108254843
 30
0.0
 10
5.9921058759
 20
12.0215497611
 30
0.0
 10
5.9871222836
 20
12.0278489049
 30
0.0
 10
5.9843610776
 20
12.030707817
 30
0.0
  0
SPLINE
  5
431
100
AcDbEntity
  8
0
100
AcDbSpline
 62
7
  6
CONTINUOUS
 70
0
 71
3
 72
9
 73
5
 74
0
 42
0.0000001
 43
0.0000001
 44
0.0000000001
 40
0.0
 40
0.0
 40
0.0
 40
0.0
 40
0.4987711526
 40
1.0
 40
1.0
 40
1.0
 40
1.0
 10
5.9468912041
 20
12.0485806088
 30
0.0
 10
5.9409602629
 20
12.0490607493
 30
0.0
 10
5.9288440617
 20
12.0481583564
 30
0.0
 10
5.9175977069
 20
12.043574115
 30
0.0
 10
5.9124646702
 20
12.0405068158
 30
0.0
  0
SPLINE
  5
432
100
AcDbEntity
  8
0
100
AcDbSpline
 62
7
  6
CONTINUOUS
 70
0
 71
3
 72
11
 73
7
 74
0
 42
0.0000001
 43
0.0000001
 44
0.0000000001
 40
0.0
 40
0.0
 40
0.0
 40
0.0
 40
0.2471138366
 40
0.4964533085
 40
0.7476901959
 40
1.0
 40
1.0
 40
1.0
 40
1.0
 10
5.9124646702
 20
12.0405068158
 30
0.0
 10
5.9079555552
 20
12.0378123475
 30
0.0
 10
5.8995835416
 20
12.0311518691
 30
0.0
 10
5.8900325314
 20
12.0182336099
 30
0.0
 10
5.884027004
 20
12.0032175707
 30
0.0
 10
5.8826609982
 20
11.9924652759
 30
0.0
 10
5.882658658
 20
11.9871019918
 30
0.0
  0
SPLINE
  5
433
100
AcDbEntity
  8
0
100
AcDbSpline
 62
7
  6
CONTINUOUS
 70
0
 71
3
 72
31
 73
27
 74
0
 42
0.0000001
 43
0.0000001
 44
0.0000000001
 40
0.0
 40
0.0
 40
0.0
 40
0.0
 40
0.0709639124
 40
0.1444614739
 40
0.2174993698
 40
0.2519161768
 40
0.2833691252
 40
0.3109425974
 40
0.3354354406
 40
0.380756492
 40
0.4264173314
 40
0.47510885
 40
0.528104827
 40
0.5856423594
 40
0.6475062721
 40
0.7132202524
 40
0.7821473165
 40
0.8175839987
 40
0.8535288476
 40
0.8898710684
 40
0.908160457
 40
0.9264992951
 40
0.9448748924
 40
0.9633070979
 40
0.9816866837
 40
1.0
 40
1.0
 40
1.0
 40
1.0
 10
7.7430040122
 20
13.1208472952
 30
0.0
 10
7.7442552302
 20
13.1208501046
 30
0.0
 10
7.7468024288
 20
13.1208435355
 30
0.0
 10
7.750636942
 20
13.1208231177
 30
0.0
 10
7.753827945
 20
13.1207361091
 30
0.0
 10
7.7562689286
 20
13.1205252564
 30
0.0
 10
7.7579005014
 20
13.1202842809
 30
0.0
 10
7.7593308996
 20
13.1199182267
 30
0.0
 10
7.7609261252
 20
13.1192695957
 30
0.0
 10
7.7626411274
 20
13.1181310699
 30
0.0
 10
7.7643486484
 20
13.1163346927
 30
0.0
 10
7.7657862622
 20
13.1141596272
 30
0.0
 10
7.7670491179
 20
13.1116472221
 30
0.0
 10
7.7681635957
 20
13.1088157306
 30
0.0
 10
7.7691472761
 20
13.1057015171
 30
0.0
 10
7.7700094419
 20
13.1023443697
 30
0.0
 10
7.7706322891
 20
13.0994103427
 30
0.0
 10
7.7710943141
 20
13.0969799367
 30
0.0
 10
7.7714250215
 20
13.0951095415
 30
0.0
 10
7.7716914195
 20
13.0935348918
 30
0.0
 10
7.7719046593
 20
13.0922660832
 30
0.0
 10
7.7720713885
 20
13.0913106998
 30
0.0
 10
7.772257574
 20
13.090356187
 30
0.0
 10
7.7724222864
 20
13.0893975681
 30
0.0
 10
7.7726649456
 20
13.0884523116
 30
0.0
 10
7.7729603739
 20
13.087869658
 30
0.0
 10
7.7731339518
 20
13.0875973844
 30
0.0
  0
SPLINE
  5
434
100
AcDbEntity
  8
0
100
AcDbSpline
 62
7
  6
CONTINUOUS
 70
0
 71
3
 72
11
 73
7
 74
0
 42
0.0000001
 43
0.0000001
 44
0.0000000001
 40
0.0
 40
0.0
 40
0.0
 40
0.0
 40
0.2523610459
 40
0.5036007741
 40
0.7529140216
 40
1.0
 40
1.0
 40
1.0
 40
1.0
 10
5.882658658
 20
11.9871019918
 30
0.0
 10
5.8826563181
 20
11.9817392934
 30
0.0
 10
5.8840125223
 20
11.9709879422
 30
0.0
 10
5.8900048606
 20
11.955971188
 30
0.0
 10
5.8995450069
 20
11.9430521289
 30
0.0
 10
5.9079114855
 20
11.9363915264
 30
0.0
 10
5.9124180656
 20
11.9336971678
 30
0.0
  0
SPLINE
  5
435
100
AcDbEntity
  8
0
100
AcDbSpline
 62
7
  6
CONTINUOUS
 70
0
 71
3
 72
9
 73
5
 74
0
 42
0.0000001
 43
0.0000001
 44
0.0000000001
 40
0.0
 40
0.0
 40
0.0
 40
0.0
 40
0.5011293951
 40
1.0
 40
1.0
 40
1.0
 40
1.0
 10
5.9124180656
 20
11.9336971678
 30
0.0
 10
5.9168894269
 20
11.9310238656
 30
0.0
 10
5.9265671655
 20
11.926856445
 30
0.0
 10
5.9370110828
 20
11.9254356774
 30
0.0
 10
5.9421971708
 20
11.9254356774
 30
0.0
  0
SPLINE
  5
436
100
AcDbEntity
  8
0
100
AcDbSpline
 62
7
  6
CONTINUOUS
 70
0
 71
3
 72
11
 73
7
 74
0
 42
0.0000001
 43
0.0000001
 44
0.0000000001
 40
0.0
 40
0.0
 40
0.0
 40
0.0
 40
0.2481563039
 40
0.4977352714
 40
0.7486633517
 40
1.0
 40
1.0
 40
1.0
 40
1.0
 10
5.9843230243
 20
11.9434961667
 30
0.0
 10
5.9870866941
 20
11.9463550465
 30
0.0
 10
5.9920755699
 20
11.9526538733
 30
0.0
 10
5.9976092609
 20
11.9633778216
 30
0.0
 10
6.0010168623
 20
11.9750065983
 30
0.0
 10
6.0017877405
 20
11.9830747192
 30
0.0
 10
6.0017894978
 20
11.9871019918
 30
0.0
  0
SPLINE
  5
437
100
AcDbEntity
  8
0
100
AcDbSpline
 62
7
  6
CONTINUOUS
 70
0
 71
3
 72
9
 73
5
 74
0
 42
0.0000001
 43
0.0000001
 44
0.0000000001
 40
0.0
 40
0.0
 40
0.0
 40
0.0
 40
0.4802672692
 40
1.0
 40
1.0
 40
1.0
 40
1.0
 10
6.0047469945
 20
12.0226815756
 30
0.0
 10
6.0038718977
 20
12.017029092
 30
0.0
 10
6.0023632443
 20
12.0052069596
 30
0.0
 10
6.0017921986
 20
11.9932918338
 30
0.0
 10
6.0017894978
 20
11.9871019918
 30
0.0
  0
SPLINE
  5
438
100
AcDbEntity
  8
0
100
AcDbSpline
 62
7
  6
CONTINUOUS
 70
0
 71
3
 72
9
 73
5
 74
0
 42
0.0000001
 43
0.0000001
 44
0.0000000001
 40
0.0
 40
0.0
 40
0.0
 40
0.0
 40
0.5195004474
 40
1.0
 40
1.0
 40
1.0
 40
1.0
 10
6.0017894978
 20
11.9871019918
 30
0.0
 10
6.0017867948
 20
11.9809071984
 30
0.0
 10
6.0023486005
 20
11.968976769
 30
0.0
 10
6.0038470401
 20
11.9571384242
 30
0.0
 10
6.0047171115
 20
11.9514751436
 30
0.0
  0
SPLINE
  5
439
100
AcDbEntity
  8
0
100
AcDbSpline
 62
7
  6
CONTINUOUS
 70
0
 71
3
 72
9
 73
5
 74
0
 42
0.0000001
 43
0.0000001
 44
0.0000000001
 40
0.0
 40
0.0
 40
0.0
 40
0.0
 40
0.2512850359
 40
1.0
 40
1.0
 40
1.0
 40
1.0
 10
5.9720300901
 20
12.0405068158
 30
0.0
 10
5.9747088763
 20
12.0389052442
 30
0.0
 10
5.9854498992
 20
12.0326662762
 30
0.0
 10
5.9964493809
 20
12.0268832558
 30
0.0
 10
6.0047475904
 20
12.022686041
 30
0.0
  0
SPLINE
  5
43A
100
AcDbEntity
  8
0
100
AcDbSpline
 62
7
  6
CONTINUOUS
 70
0
 71
3
 72
31
 73
27
 74
0
 42
0.0000001
 43
0.0000001
 44
0.0000000001
 40
0.0
 40
0.0
 40
0.0
 40
0.0
 40
0.0183149732
 40
0.0366944511
 40
0.0551262685
 40
0.0735032144
 40
0.0918404232
 40
0.1101293927
 40
0.1464709345
 40
0.1824148503
 40
0.2178506638
 40
0.2867762581
 40
0.3524887429
 40
0.4143506253
 40
0.4718863058
 40
0.5248796646
 40
0.573569102
 40
0.6192259681
 40
0.664512243
 40
0.6890161669
 40
0.7166553565
 40
0.7481173842
 40
0.7824887565
 40
0.8555228453
 40
0.9290519369
 40
1.0
 40
1.0
 40
1.0
 40
1.0
 10
7.7731339518
 20
12.1124981775
 30
0.0
 10
7.7729615777
 20
12.1122251076
 30
0.0
 10
7.7726675639
 20
12.1116421541
 30
0.0
 10
7.7724206222
 20
12.1106980298
 30
0.0
 10
7.7722575536
 20
12.1097389974
 30
0.0
 10
7.7720721142
 20
12.1087843898
 30
0.0
 10
7.7719042029
 20
12.1078292282
 30
0.0
 10
7.7716912225
 20
12.1065604299
 30
0.0
 10
7.7714251153
 20
12.1049857757
 30
0.0
 10
7.7710942865
 20
12.1031154559
 30
0.0
 10
7.7706324224
 20
12.1006850914
 30
0.0
 10
7.7700094328
 20
12.0977511763
 30
0.0
 10
7.7691472475
 20
12.0943941483
 30
0.0
 10
7.7681637178
 20
12.0912800035
 30
0.0
 10
7.767049236
 20
12.0884486491
 30
0.0
 10
7.7657865711
 20
12.0859363172
 30
0.0
 10
7.764349029
 20
12.0837613226
 30
0.0
 10
7.7626418321
 20
12.0819658671
 30
0.0
 10
7.7609284891
 20
12.0808257746
 30
0.0
 10
7.7593322756
 20
12.0801772333
 30
0.0
 10
7.7578998534
 20
12.0798130829
 30
0.0
 10
7.7562679792
 20
12.0795712962
 30
0.0
 10
7.7538278226
 20
12.0793587688
 30
0.0
 10
7.7506370973
 20
12.0792724556
 30
0.0
 10
7.7468024097
 20
12.0792520362
 30
0.0
 10
7.7442549442
 20
12.0792454114
 30
0.0
 10
7.7430040122
 20
12.0792482675
 30
0.0
  0
SPLINE
  5
43B
100
AcDbEntity
  8
0
100
AcDbSpline
 62
7
  6
CONTINUOUS
 70
0
 71
3
 72
10
 73
6
 74
0
 42
0.0000001
 43
0.0000001
 44
0.0000000001
 40
0.0
 40
0.0
 40
0.0
 40
0.0
 40
0.5413323012
 40
0.7758004393
 40
1.0
 40
1.0
 40
1.0
 40
1.0
 10
5.2612149973
 20
13.0855342519
 30
0.0
 10
5.260679347
 20
13.0861241648
 30
0.0
 10
5.2597991932
 20
13.0869024632
 30
0.0
 10
5.258422895
 20
13.0874591324
 30
0.0
 10
5.257744548
 20
13.0875477814
 30
0.0
 10
5.257414536
 20
13.0875477814
 30
0.0
  0
SPLINE
  5
43C
100
AcDbEntity
  8
0
100
AcDbSpline
 62
7
  6
CONTINUOUS
 70
0
 71
3
 72
31
 73
27
 74
0
 42
0.0000001
 43
0.0000001
 44
0.0000000001
 40
0.0
 40
0.0
 40
0.0
 40
0.0
 40
0.0183149732
 40
0.0366944511
 40
0.0551262685
 40
0.0735032144
 40
0.0918404232
 40
0.1101293927
 40
0.1464709345
 40
0.1824148503
 40
0.2178506638
 40
0.2867762581
 40
0.3524887429
 40
0.4143506253
 40
0.4718863058
 40
0.5248796646
 40
0.573569102
 40
0.6192259681
 40
0.664512243
 40
0.6890161669
 40
0.7166553565
 40
0.7481173842
 40
0.7824887565
 40
0.8555228453
 40
0.9290519369
 40
1.0
 40
1.0
 40
1.0
 40
1.0
 10
4.6184635935
 20
13.0875973852
 30
0.0
 10
4.6186359677
 20
13.0878704552
 30
0.0
 10
4.6189299815
 20
13.0884534087
 30
0.0
 10
4.6191769232
 20
13.0893975329
 30
0.0
 10
4.6193399918
 20
13.0903565654
 30
0.0
 10
4.6195254311
 20
13.0913111729
 30
0.0
 10
4.6196933424
 20
13.0922663345
 30
0.0
 10
4.6199063228
 20
13.0935351328
 30
0.0
 10
4.6201724301
 20
13.095109787
 30
0.0
 10
4.6205032588
 20
13.0969801068
 30
0.0
 10
4.6209651229
 20
13.0994104713
 30
0.0
 10
4.6215881126
 20
13.1023443864
 30
0.0
 10
4.6224502978
 20
13.1057014144
 30
0.0
 10
4.6234338276
 20
13.1088155593
 30
0.0
 10
4.6245483094
 20
13.1116469136
 30
0.0
 10
4.6258109743
 20
13.1141592456
 30
0.0
 10
4.6272485164
 20
13.1163342401
 30
0.0
 10
4.6289557133
 20
13.1181296956
 30
0.0
 10
4.6306690562
 20
13.1192697881
 30
0.0
 10
4.6322652697
 20
13.1199183294
 30
0.0
 10
4.6336976919
 20
13.1202824799
 30
0.0
 10
4.6353295661
 20
13.1205242665
 30
0.0
 10
4.6377697228
 20
13.1207367939
 30
0.0
 10
4.640960448
 20
13.1208231071
 30
0.0
 10
4.6447951356
 20
13.1208435265
 30
0.0
 10
4.6473426011
 20
13.1208501513
 30
0.0
 10
4.6485935331
 20
13.1208472952
 30
0.0
  0
SPLINE
  5
43D
100
AcDbEntity
  8
0
100
AcDbSpline
 62
7
  6
CONTINUOUS
 70
0
 71
3
 72
11
 73
7
 74
0
 42
0.0000001
 43
0.0000001
 44
0.0000000001
 40
0.0
 40
0.0
 40
0.0
 40
0.0
 40
0.2939727917
 40
0.5670143738
 40
0.8043339642
 40
1.0
 40
1.0
 40
1.0
 40
1.0
 10
5.2655606946
 20
13.0708811147
 30
0.0
 10
5.2655606946
 20
13.0724065559
 30
0.0
 10
5.2653571951
 20
13.0753528221
 30
0.0
 10
5.2644822422
 20
13.0794504566
 30
0.0
 10
5.2631394015
 20
13.0828765053
 30
0.0
 10
5.2618976302
 20
13.0847826596
 30
0.0
 10
5.2612149973
 20
13.0855342519
 30
0.0
  0
SPLINE
  5
43E
100
AcDbEntity
  8
0
100
AcDbSpline
 62
7
  6
CONTINUOUS
 70
0
 71
3
 72
31
 73
27
 74
0
 42
0.0000001
 43
0.0000001
 44
0.0000000001
 40
0.0
 40
0.0
 40
0.0
 40
0.0
 40
0.0709639124
 40
0.1444614739
 40
0.2174993698
 40
0.2519161768
 40
0.2833691252
 40
0.3109425974
 40
0.3354354406
 40
0.380756492
 40
0.4264173314
 40
0.47510885
 40
0.528104827
 40
0.5856423594
 40
0.6475062721
 40
0.7132202524
 40
0.7821473165
 40
0.8175839987
 40
0.8535288476
 40
0.8898710684
 40
0.908160457
 40
0.9264992951
 40
0.9448748924
 40
0.9633070979
 40
0.9816866837
 40
1.0
 40
1.0
 40
1.0
 40
1.0
 10
4.6485935331
 20
12.0792482675
 30
0.0
 10
4.6473423152
 20
12.0792454581
 30
0.0
 10
4.6447951165
 20
12.0792520273
 30
0.0
 10
4.6409606034
 20
12.079272445
 30
0.0
 10
4.6377696004
 20
12.0793594537
 30
0.0
 10
4.6353286168
 20
12.0795703064
 30
0.0
 10
4.6336970439
 20
12.0798112819
 30
0.0
 10
4.6322666457
 20
12.080177336
 30
0.0
 10
4.6306714202
 20
12.080825967
 30
0.0
 10
4.6289564179
 20
12.0819644928
 30
0.0
 10
4.6272488969
 20
12.08376087
 30
0.0
 10
4.6258112832
 20
12.0859359355
 30
0.0
 10
4.6245484274
 20
12.0884483406
 30
0.0
 10
4.6234339497
 20
12.0912798321
 30
0.0
 10
4.6224502692
 20
12.0943940456
 30
0.0
 10
4.6215881035
 20
12.097751193
 30
0.0
 10
4.6209652562
 20
12.10068522
 30
0.0
 10
4.6205032312
 20
12.1031156261
 30
0.0
 10
4.6201725239
 20
12.1049860213
 30
0.0
 10
4.6199061259
 20
12.106560671
 30
0.0
 10
4.6196928861
 20
12.1078294795
 30
0.0
 10
4.6195261569
 20
12.1087848629
 30
0.0
 10
4.6193399714
 20
12.1097393758
 30
0.0
 10
4.6191752589
 20
12.1106979947
 30
0.0
 10
4.6189325998
 20
12.1116432511
 30
0.0
 10
4.6186371714
 20
12.1122259047
 30
0.0
 10
4.6184635935
 20
12.1124981784
 30
0.0
  0
SPLINE
  5
43F
100
AcDbEntity
  8
0
100
AcDbSpline
 62
7
  6
CONTINUOUS
 70
0
 71
3
 72
11
 73
7
 74
0
 42
0.0000001
 43
0.0000001
 44
0.0000000001
 40
0.0
 40
0.0
 40
0.0
 40
0.0
 40
0.2523354989
 40
0.503573849
 40
0.7529001894
 40
1.0
 40
1.0
 40
1.0
 40
1.0
 10
5.9912356288
 20
12.6000477814
 30
0.0
 10
5.9912356288
 20
12.5937063977
 30
0.0
 10
5.9896262143
 20
12.5809930765
 30
0.0
 10
5.9825328816
 20
12.5632371776
 30
0.0
 10
5.9712458799
 20
12.5479617145
 30
0.0
 10
5.9613498096
 20
12.5400860626
 30
0.0
 10
5.956019583
 20
12.5369000957
 30
0.0
  0
SPLINE
  5
440
100
AcDbEntity
  8
0
100
AcDbSpline
 62
7
  6
CONTINUOUS
 70
0
 71
3
 72
10
 73
6
 74
0
 42
0.0000001
 43
0.0000001
 44
0.0000000001
 40
0.0
 40
0.0
 40
0.0
 40
0.0
 40
0.2357234768
 40
0.485012449
 40
1.0
 40
1.0
 40
1.0
 40
1.0
 10
15.5170101639
 20
6.4849288295
 30
0.0
 10
15.5179473128
 20
6.4862978832
 30
0.0
 10
15.5196558944
 20
6.4892714061
 30
0.0
 10
15.5222565907
 20
6.4958289415
 30
0.0
 10
15.5230710511
 20
6.5012572565
 30
0.0
 10
15.5230710511
 20
6.5048818724
 30
0.0
  0
SPLINE
  5
441
100
AcDbEntity
  8
0
100
AcDbSpline
 62
7
  6
CONTINUOUS
 70
0
 71
3
 72
10
 73
6
 74
0
 42
0.0000001
 43
0.0000001
 44
0.0000000001
 40
0.0
 40
0.0
 40
0.0
 40
0.0
 40
0.515747034
 40
0.7650412126
 40
1.0
 40
1.0
 40
1.0
 40
1.0
 10
15.5976394628
 20
6.5048818724
 30
0.0
 10
15.5976394628
 20
6.5011892973
 30
0.0
 10
15.5984845683
 20
6.4956597151
 30
0.0
 10
15.6011789282
 20
6.4890080171
 30
0.0
 10
15.6029431769
 20
6.4860040519
 30
0.0
 10
15.6039092454
 20
6.4846268826
 30
0.0
  0
SPLINE
  5
442
100
AcDbEntity
  8
0
100
AcDbSpline
 62
7
  6
CONTINUOUS
 70
0
 71
3
 72
21
 73
17
 74
0
 42
0.0000001
 43
0.0000001
 44
0.0000000001
 40
0.0
 40
0.0
 40
0.0
 40
0.0
 40
0.0630922369
 40
0.1265504352
 40
0.1902974259
 40
0.2541250072
 40
0.3179662448
 40
0.3817779921
 40
0.4454586917
 40
0.5088650809
 40
0.5716789067
 40
0.6335125133
 40
0.6938652368
 40
0.7530891946
 40
0.8729713173
 40
1.0
 40
1.0
 40
1.0
 40
1.0
 10
15.5985543197
 20
6.5101368411
 30
0.0
 10
15.5998204931
 20
6.5115019654
 30
0.0
 10
15.6021319073
 20
6.5144639127
 30
0.0
 10
15.6047609443
 20
6.5194585835
 30
0.0
 10
15.6064725666
 20
6.5248626241
 30
0.0
 10
15.6071747925
 20
6.5304992202
 30
0.0
 10
15.6068508417
 20
6.5361720659
 30
0.0
 10
15.6055028116
 20
6.5416871457
 30
0.0
 10
15.6031973153
 20
6.5468609098
 30
0.0
 10
15.6000215722
 20
6.5515136294
 30
0.0
 10
15.5961363087
 20
6.555514301
 30
0.0
 10
15.5917136719
 20
6.558754575
 30
0.0
 10
15.5869597744
 20
6.5612550754
 30
0.0
 10
15.5803084497
 20
6.5636903351
 30
0.0
 10
15.5713969706
 20
6.5654431219
 30
0.0
 10
15.5641040176
 20
6.5658607959
 30
0.0
 10
15.5603552569
 20
6.5658607959
 30
0.0
  0
SPLINE
  5
443
100
AcDbEntity
  8
0
100
AcDbSpline
 62
7
  6
CONTINUOUS
 70
0
 71
3
 72
19
 73
15
 74
0
 42
0.0000001
 43
0.0000001
 44
0.0000000001
 40
0.0
 40
0.0
 40
0.0
 40
0.0
 40
0.1271570194
 40
0.2471563507
 40
0.3064066612
 40
0.3668349187
 40
0.4286791258
 40
0.491518628
 40
0.5549179167
 40
0.6186150675
 40
0.7458459297
 40
0.8731590082
 40
0.9367032958
 40
1.0
 40
1.0
 40
1.0
 40
1.0
 10
15.5603552569
 20
6.5658607959
 30
0.0
 10
15.5566069537
 20
6.5658607959
 30
0.0
 10
15.549315106
 20
6.5654430149
 30
0.0
 10
15.5404054054
 20
6.5636918274
 30
0.0
 10
15.5337559741
 20
6.5612562048
 30
0.0
 10
15.5290031553
 20
6.558759621
 30
0.0
 10
15.5245823379
 20
6.555521648
 30
0.0
 10
15.520698914
 20
6.5515271961
 30
0.0
 10
15.5175244865
 20
6.5468786895
 30
0.0
 10
15.5144492234
 20
6.5400045312
 30
0.0
 10
15.513003516
 20
6.5305105063
 30
0.0
 10
15.5150648574
 20
6.5211353599
 30
0.0
 10
15.5185702244
 20
6.5144787242
 30
0.0
 10
15.5208829899
 20
6.5115110529
 30
0.0
 10
15.5221512863
 20
6.5101425499
 30
0.0
  0
SPLINE
  5
444
100
AcDbEntity
  8
0
100
AcDbSpline
 62
7
  6
CONTINUOUS
 70
0
 71
3
 72
10
 73
6
 74
0
 42
0.0000001
 43
0.0000001
 44
0.0000000001
 40
0.0
 40
0.0
 40
0.0
 40
0.0
 40
0.528849911
 40
0.775010278
 40
1.0
 40
1.0
 40
1.0
 40
1.0
 10
14.9474094674
 20
6.4009121938
 30
0.0
 10
14.9543734811
 20
6.4009008535
 30
0.0
 10
14.9645889374
 20
6.4004515388
 30
0.0
 10
14.9776692678
 20
6.3988983725
 30
0.0
 10
14.9837839026
 20
6.3978170539
 30
0.0
 10
14.9866802163
 20
6.3971932994
 30
0.0
  0
SPLINE
  5
445
100
AcDbEntity
  8
0
100
AcDbSpline
 62
7
  6
CONTINUOUS
 70
0
 71
3
 72
10
 73
6
 74
0
 42
0.0000001
 43
0.0000001
 44
0.0000000001
 40
0.0
 40
0.0
 40
0.0
 40
0.0
 40
0.2239405632
 40
0.4699101608
 40
1.0
 40
1.0
 40
1.0
 40
1.0
 10
14.9075118431
 20
6.3971864167
 30
0.0
 10
14.910438973
 20
6.3978243459
 30
0.0
 10
14.9166339729
 20
6.398925602
 30
0.0
 10
14.9299239228
 20
6.4004931315
 30
0.0
 10
14.9403180278
 20
6.4009237416
 30
0.0
 10
14.9474094674
 20
6.4009121938
 30
0.0
  0
SPLINE
  5
446
100
AcDbEntity
  8
0
100
AcDbSpline
 62
7
  6
CONTINUOUS
 70
0
 71
3
 72
21
 73
17
 74
0
 42
0.0000001
 43
0.0000001
 44
0.0000000001
 40
0.0
 40
0.0
 40
0.0
 40
0.0
 40
0.067567077
 40
0.1337689144
 40
0.197798011
 40
0.2597251427
 40
0.3200544394
 40
0.3795033991
 40
0.4980019225
 40
0.5580141949
 40
0.6187478912
 40
0.6803045441
 40
0.7426971337
 40
0.8059200897
 40
0.8699277127
 40
1.0
 40
1.0
 40
1.0
 40
1.0
 10
15.8811885903
 20
4.967863906
 30
0.0
 10
15.8896110602
 20
4.967863906
 30
0.0
 10
15.9063253179
 20
4.9693750221
 30
0.0
 10
15.9302101292
 20
4.9759887127
 30
0.0
 10
15.9519029954
 20
4.9864415751
 30
0.0
 10
15.9708622065
 20
5.0000382222
 30
0.0
 10
15.9869569883
 20
5.0161039607
 30
0.0
 10
16.0047909379
 20
5.0399602231
 30
0.0
 10
16.0179075955
 20
5.0668671238
 30
0.0
 10
16.0273359969
 20
5.0951701709
 30
0.0
 10
16.0329656718
 20
5.1172073874
 30
0.0
 10
16.0373327467
 20
5.1398204529
 30
0.0
 10
16.0406740772
 20
5.1629189328
 30
0.0
 10
16.0431544318
 20
5.1864301998
 30
0.0
 10
16.0455598064
 20
5.2184170384
 30
0.0
 10
16.0465160568
 20
5.2425984124
 30
0.0
 10
16.0469473293
 20
5.2588066364
 30
0.0
  0
SPLINE
  5
447
100
AcDbEntity
  8
0
100
AcDbSpline
 62
7
  6
CONTINUOUS
 70
0
 71
3
 72
12
 73
8
 74
0
 42
0.0000001
 43
0.0000001
 44
0.0000000001
 40
0.0
 40
0.0
 40
0.0
 40
0.0
 40
0.0888116806
 40
0.1801522828
 40
0.3902971006
 40
0.6602059415
 40
1.0
 40
1.0
 40
1.0
 40
1.0
 10
15.5226290899
 20
6.5105419881
 30
0.0
 10
15.52259345
 20
6.5107690431
 30
0.0
 10
15.5225829725
 20
6.5112419833
 30
0.0
 10
15.522839321
 20
6.512230881
 30
0.0
 10
15.5237391994
 20
6.5134590651
 30
0.0
 10
15.5254434369
 20
6.5147425962
 30
0.0
 10
15.526852517
 20
6.515467456
 30
0.0
 10
15.5276549552
 20
6.5158271089
 30
0.0
  0
SPLINE
  5
448
100
AcDbEntity
  8
0
100
AcDbSpline
 62
7
  6
CONTINUOUS
 70
0
 71
3
 72
12
 73
8
 74
0
 42
0.0000001
 43
0.0000001
 44
0.0000000001
 40
0.0
 40
0.0
 40
0.0
 40
0.0
 40
0.0885486585
 40
0.1906694407
 40
0.4303641891
 40
0.7060650597
 40
1.0
 40
1.0
 40
1.0
 40
1.0
 10
15.5276549552
 20
6.5158271089
 30
0.0
 10
15.5285504835
 20
6.5162284848
 30
0.0
 10
15.5305305958
 20
6.5169775849
 30
0.0
 10
15.535114239
 20
6.5183074956
 30
0.0
 10
15.5418534302
 20
6.5195807048
 30
0.0
 10
15.5507818551
 20
6.5205043901
 30
0.0
 10
15.5570976481
 20
6.5207134903
 30
0.0
 10
15.5603552569
 20
6.5207134903
 30
0.0
  0
SPLINE
  5
449
100
AcDbEntity
  8
0
100
AcDbSpline
 62
7
  6
CONTINUOUS
 70
0
 71
3
 72
12
 73
8
 74
0
 42
0.0000001
 43
0.0000001
 44
0.0000000001
 40
0.0
 40
0.0
 40
0.0
 40
0.0
 40
0.2468501913
 40
0.3709404323
 40
0.495529637
 40
0.746514485
 40
1.0
 40
1.0
 40
1.0
 40
1.0
 10
15.4141231511
 20
6.071054727
 30
0.0
 10
15.4215484248
 20
6.071054727
 30
0.0
 10
15.4327324269
 20
6.0700587642
 30
0.0
 10
15.4473191665
 20
6.0669480343
 30
0.0
 10
15.4617541247
 20
6.0627134429
 30
0.0
 10
15.4793366521
 20
6.0555937291
 30
0.0
 10
15.4927692003
 20
6.0484909107
 30
0.0
 10
15.4993725268
 20
6.0446784783
 30
0.0
  0
SPLINE
  5
44A
100
AcDbEntity
  8
0
100
AcDbSpline
 62
7
  6
CONTINUOUS
 70
0
 71
3
 72
12
 73
8
 74
0
 42
0.0000001
 43
0.0000001
 44
0.0000000001
 40
0.0
 40
0.0
 40
0.0
 40
0.0
 40
0.2468501913
 40
0.3709404323
 40
0.495529637
 40
0.746514485
 40
1.0
 40
1.0
 40
1.0
 40
1.0
 10
15.2436243998
 20
6.071054727
 30
0.0
 10
15.2510496734
 20
6.071054727
 30
0.0
 10
15.2622336755
 20
6.0700587642
 30
0.0
 10
15.2768204152
 20
6.0669480343
 30
0.0
 10
15.2912553733
 20
6.0627134429
 30
0.0
 10
15.3088379007
 20
6.0555937291
 30
0.0
 10
15.3222704489
 20
6.0484909107
 30
0.0
 10
15.3288737755
 20
6.0446784783
 30
0.0
  0
SPLINE
  5
44B
100
AcDbEntity
  8
0
100
AcDbSpline
 62
7
  6
CONTINUOUS
 70
0
 71
3
 72
22
 73
18
 74
0
 42
0.0000001
 43
0.0000001
 44
0.0000000001
 40
0.0
 40
0.0
 40
0.0
 40
0.0
 40
0.0800054398
 40
0.1253561196
 40
0.1744278981
 40
0.2271619961
 40
0.2834137442
 40
0.3430010305
 40
0.4057358235
 40
0.4714409577
 40
0.5399596071
 40
0.6111550029
 40
0.6848951399
 40
0.7610174126
 40
0.8392600887
 40
0.9191608989
 40
1.0
 40
1.0
 40
1.0
 40
1.0
 10
15.7844082872
 20
4.7889310384
 30
0.0
 10
15.7844082872
 20
4.7971456095
 30
0.0
 10
15.7817756269
 20
4.8100269066
 30
0.0
 10
15.7751324491
 20
4.8266545583
 30
0.0
 10
15.768117563
 20
4.840071979
 30
0.0
 10
15.7593832981
 20
4.8537666993
 30
0.0
 10
15.7490010086
 20
4.8676345146
 30
0.0
 10
15.7370270252
 20
4.8815371484
 30
0.0
 10
15.7234932849
 20
4.895323738
 30
0.0
 10
15.7084095767
 20
4.9088155832
 30
0.0
 10
15.6917645801
 20
4.9217967722
 30
0.0
 10
15.6735322138
 20
4.9339967882
 30
0.0
 10
15.6536879133
 20
4.9450704892
 30
0.0
 10
15.6322444612
 20
4.9545808447
 30
0.0
 10
15.609310848
 20
4.9620001386
 30
0.0
 10
15.5851796642
 20
4.9667660209
 30
0.0
 10
15.5686554243
 20
4.967863906
 30
0.0
 10
15.5603552569
 20
4.967863906
 30
0.0
  0
SPLINE
  5
44C
100
AcDbEntity
  8
0
100
AcDbSpline
 62
7
  6
CONTINUOUS
 70
0
 71
3
 72
11
 73
7
 74
0
 42
0.0000001
 43
0.0000001
 44
0.0000000001
 40
0.0
 40
0.0
 40
0.0
 40
0.0
 40
0.25353575
 40
0.5045525989
 40
0.7531087683
 40
1.0
 40
1.0
 40
1.0
 40
1.0
 10
15.3288737755
 20
6.0446784783
 30
0.0
 10
15.3354771333
 20
6.0484909288
 30
0.0
 10
15.3489080097
 20
6.0555983747
 30
0.0
 10
15.3699513744
 20
6.0641140913
 30
0.0
 10
15.391770367
 20
6.0697164283
 30
0.0
 10
15.4066980793
 20
6.071054727
 30
0.0
 10
15.4141231511
 20
6.071054727
 30
0.0
  0
SPLINE
  5
44D
100
AcDbEntity
  8
0
100
AcDbSpline
 62
7
  6
CONTINUOUS
 70
0
 71
3
 72
22
 73
18
 74
0
 42
0.0000001
 43
0.0000001
 44
0.0000000001
 40
0.0
 40
0.0
 40
0.0
 40
0.0
 40
0.0808391041
 40
0.1607399207
 40
0.2389826017
 40
0.3151048691
 40
0.3888450029
 40
0.4600403974
 40
0.5285590458
 40
0.5942641786
 40
0.6569989695
 40
0.7165862547
 40
0.7728380043
 40
0.8255721034
 40
0.8746438826
 40
0.9199945606
 40
1.0
 40
1.0
 40
1.0
 40
1.0
 10
15.5603552569
 20
4.967863906
 30
0.0
 10
15.5520550893
 20
4.967863906
 30
0.0
 10
15.5355308484
 20
4.9667660207
 30
0.0
 10
15.5113996632
 20
4.9620001379
 30
0.0
 10
15.4884660495
 20
4.9545808435
 30
0.0
 10
15.4670225979
 20
4.9450704878
 30
0.0
 10
15.4471782983
 20
4.9339967871
 30
0.0
 10
15.4289459326
 20
4.9217967714
 30
0.0
 10
15.4123009363
 20
4.9088155826
 30
0.0
 10
15.3972172286
 20
4.8953237375
 30
0.0
 10
15.3836834887
 20
4.8815371483
 30
0.0
 10
15.3717095052
 20
4.8676345147
 30
0.0
 10
15.3613272157
 20
4.8537666993
 30
0.0
 10
15.3525929506
 20
4.8400719787
 30
0.0
 10
15.3455780647
 20
4.8266545578
 30
0.0
 10
15.3389348869
 20
4.8100269064
 30
0.0
 10
15.3363022266
 20
4.7971456094
 30
0.0
 10
15.3363022266
 20
4.7889310384
 30
0.0
  0
SPLINE
  5
44E
100
AcDbEntity
  8
0
100
AcDbSpline
 62
7
  6
CONTINUOUS
 70
0
 71
3
 72
11
 73
7
 74
0
 42
0.0000001
 43
0.0000001
 44
0.0000000001
 40
0.0
 40
0.0
 40
0.0
 40
0.0
 40
0.25353575
 40
0.5045525989
 40
0.7531087683
 40
1.0
 40
1.0
 40
1.0
 40
1.0
 10
15.1583750241
 20
6.0446784783
 30
0.0
 10
15.1649783819
 20
6.0484909288
 30
0.0
 10
15.1784092584
 20
6.0555983747
 30
0.0
 10
15.199452623
 20
6.0641140913
 30
0.0
 10
15.2212716157
 20
6.0697164283
 30
0.0
 10
15.2361993279
 20
6.071054727
 30
0.0
 10
15.2436243998
 20
6.071054727
 30
0.0
  0
SPLINE
  5
44F
100
AcDbEntity
  8
0
100
AcDbSpline
 62
7
  6
CONTINUOUS
 70
0
 71
3
 72
11
 73
7
 74
0
 42
0.0000001
 43
0.0000001
 44
0.0000000001
 40
0.0
 40
0.0
 40
0.0
 40
0.0
 40
0.253560999
 40
0.5045737939
 40
0.7531229174
 40
1.0
 40
1.0
 40
1.0
 40
1.0
 10
15.9623354898
 20
6.0446784783
 30
0.0
 10
15.9557315387
 20
6.0484912713
 30
0.0
 10
15.942304559
 20
6.055607225
 30
0.0
 10
15.9212560501
 20
6.0641135517
 30
0.0
 10
15.8994363578
 20
6.0697035516
 30
0.0
 10
15.8845106881
 20
6.071054727
 30
0.0
 10
15.8770861141
 20
6.071054727
 30
0.0
  0
SPLINE
  5
450
100
AcDbEntity
  8
0
100
AcDbSpline
 62
7
  6
CONTINUOUS
 70
0
 71
3
 72
11
 73
7
 74
0
 42
0.0000001
 43
0.0000001
 44
0.0000000001
 40
0.0
 40
0.0
 40
0.0
 40
0.0
 40
0.2468790635
 40
0.4954169064
 40
0.7464561105
 40
1.0
 40
1.0
 40
1.0
 40
1.0
 10
15.8770861141
 20
6.071054727
 30
0.0
 10
15.8696612139
 20
6.071054727
 30
0.0
 10
15.8547324587
 20
6.06973378
 30
0.0
 10
15.8329144753
 20
6.064119704
 30
0.0
 10
15.8118744812
 20
6.0555954576
 30
0.0
 10
15.798440481
 20
6.0484911509
 30
0.0
 10
15.7918367384
 20
6.0446784783
 30
0.0
  0
SPLINE
  5
451
100
AcDbEntity
  8
0
100
AcDbSpline
 62
7
  6
CONTINUOUS
 70
0
 71
3
 72
11
 73
7
 74
0
 42
0.0000001
 43
0.0000001
 44
0.0000000001
 40
0.0
 40
0.0
 40
0.0
 40
0.0
 40
0.253560999
 40
0.5045737939
 40
0.7531229174
 40
1.0
 40
1.0
 40
1.0
 40
1.0
 10
15.7918367384
 20
6.0446784783
 30
0.0
 10
15.7852327873
 20
6.0484912713
 30
0.0
 10
15.7718058076
 20
6.055607225
 30
0.0
 10
15.7507572988
 20
6.0641135517
 30
0.0
 10
15.7289376064
 20
6.0697035516
 30
0.0
 10
15.7140119367
 20
6.071054727
 30
0.0
 10
15.7065873627
 20
6.071054727
 30
0.0
  0
SPLINE
  5
452
100
AcDbEntity
  8
0
100
AcDbSpline
 62
7
  6
CONTINUOUS
 70
0
 71
3
 72
9
 73
5
 74
0
 42
0.0000001
 43
0.0000001
 44
0.0000000001
 40
0.0
 40
0.0
 40
0.0
 40
0.0
 40
0.5030257834
 40
1.0
 40
1.0
 40
1.0
 40
1.0
 10
16.0478552569
 20
5.3522827805
 30
0.0
 10
16.0478552569
 20
5.3366080756
 30
0.0
 10
16.0477982832
 20
5.3054472907
 30
0.0
 10
16.0473592046
 20
5.2742872913
 30
0.0
 10
16.0469473293
 20
5.2588066364
 30
0.0
  0
SPLINE
  5
453
100
AcDbEntity
  8
0
100
AcDbSpline
 62
7
  6
CONTINUOUS
 70
0
 71
3
 72
36
 73
32
 74
0
 42
0.0000001
 43
0.0000001
 44
0.0000000001
 40
0.0
 40
0.0
 40
0.0
 40
0.0
 40
0.0131762022
 40
0.0239998439
 40
0.0325175251
 40
0.0359266264
 40
0.0387643701
 40
0.0409055446
 40
0.0416596219
 40
0.0421803153
 40
0.0424806027
 40
0.0427394146
 40
0.0432359003
 40
0.0440589455
 40
0.0468298162
 40
0.0512876733
 40
0.0575419316
 40
0.0655097993
 40
0.075085712
 40
0.0861647402
 40
0.1124198405
 40
0.1433939558
 40
0.1779036497
 40
0.2526236435
 40
0.3305312913
 40
0.3704278447
 40
0.4108396982
 40
0.4927235165
 40
0.6592491496
 40
0.8286500675
 40
1.0
 40
1.0
 40
1.0
 40
1.0
 10
16.0811547708
 20
4.7098755231
 30
0.0
 10
16.0811558067
 20
4.7097153125
 30
0.0
 10
16.0811566387
 20
4.7094234796
 30
0.0
 10
16.0811536029
 20
4.7090281158
 30
0.0
 10
16.0811474015
 20
4.7087514824
 30
0.0
 10
16.0811399997
 20
4.7085721838
 30
0.0
 10
16.0811339498
 20
4.7084701883
 30
0.0
 10
16.0811281097
 20
4.708401103
 30
0.0
 10
16.0811202278
 20
4.708359604
 30
0.0
 10
16.0811152742
 20
4.7083421636
 30
0.0
 10
16.0811065343
 20
4.7083290017
 30
0.0
 10
16.0810925678
 20
4.7083354247
 30
0.0
 10
16.0810840468
 20
4.7083526947
 30
0.0
 10
16.0810634744
 20
4.7083979762
 30
0.0
 10
16.0810373081
 20
4.7084927622
 30
0.0
 10
16.0809975896
 20
4.7086516029
 30
0.0
 10
16.0809487505
 20
4.7088735461
 30
0.0
 10
16.0808866957
 20
4.7091561361
 30
0.0
 10
16.0808107889
 20
4.7094958115
 30
0.0
 10
16.0806810291
 20
4.7100512523
 30
0.0
 10
16.0804754497
 20
4.7108561456
 30
0.0
 10
16.0801611477
 20
4.7119267034
 30
0.0
 10
16.0796243752
 20
4.7135450437
 30
0.0
 10
16.0787763145
 20
4.7156601995
 30
0.0
 10
16.0776948837
 20
4.717740812
 30
0.0
 10
16.0766933151
 20
4.7193839261
 30
0.0
 10
16.0755898098
 20
4.7210193131
 30
0.0
 10
16.0734219685
 20
4.7237881757
 30
0.0
 10
16.0697260273
 20
4.7273224472
 30
0.0
 10
16.06452128
 20
4.7306947775
 30
0.0
 10
16.060657494
 20
4.7322704169
 30
0.0
 10
16.0586624725
 20
4.7328711419
 30
0.0
  0
SPLINE
  5
454
100
AcDbEntity
  8
0
100
AcDbSpline
 62
7
  6
CONTINUOUS
 70
0
 71
3
 72
11
 73
7
 74
0
 42
0.0000001
 43
0.0000001
 44
0.0000000001
 40
0.0
 40
0.0
 40
0.0
 40
0.0
 40
0.2524946372
 40
0.5053942443
 40
0.7578057416
 40
1.0
 40
1.0
 40
1.0
 40
1.0
 10
16.0586624725
 20
4.7328711419
 30
0.0
 10
16.0577846197
 20
4.7331354739
 30
0.0
 10
16.0560048795
 20
4.7335908278
 30
0.0
 10
16.0532870058
 20
4.734051553
 30
0.0
 10
16.0505827633
 20
4.7342548642
 30
0.0
 10
16.0487709435
 20
4.7342450905
 30
0.0
 10
16.0479048599
 20
4.7340927104
 30
0.0
  0
SPLINE
  5
455
100
AcDbEntity
  8
0
100
AcDbSpline
 62
7
  6
CONTINUOUS
 70
0
 71
3
 72
12
 73
8
 74
0
 42
0.0000001
 43
0.0000001
 44
0.0000000001
 40
0.0
 40
0.0
 40
0.0
 40
0.0
 40
0.2939349403
 40
0.5696358109
 40
0.8093305593
 40
0.9114513415
 40
1.0
 40
1.0
 40
1.0
 40
1.0
 10
15.5603552569
 20
6.5207134903
 30
0.0
 10
15.5636128658
 20
6.5207134903
 30
0.0
 10
15.5699286588
 20
6.5205043901
 30
0.0
 10
15.5788570837
 20
6.5195807048
 30
0.0
 10
15.5855962749
 20
6.5183074956
 30
0.0
 10
15.5901799181
 20
6.5169775849
 30
0.0
 10
15.5921600304
 20
6.5162284848
 30
0.0
 10
15.5930555587
 20
6.5158271089
 30
0.0
  0
SPLINE
  5
456
100
AcDbEntity
  8
0
100
AcDbSpline
 62
7
  6
CONTINUOUS
 70
0
 71
3
 72
12
 73
8
 74
0
 42
0.0000001
 43
0.0000001
 44
0.0000000001
 40
0.0
 40
0.0
 40
0.0
 40
0.0
 40
0.3397940585
 40
0.6097028994
 40
0.8198477172
 40
0.9111883194
 40
1.0
 40
1.0
 40
1.0
 40
1.0
 10
15.5930555587
 20
6.5158271089
 30
0.0
 10
15.5938579969
 20
6.515467456
 30
0.0
 10
15.5952670769
 20
6.5147425962
 30
0.0
 10
15.5969713144
 20
6.5134590651
 30
0.0
 10
15.5978711929
 20
6.512230881
 30
0.0
 10
15.5981275414
 20
6.5112419833
 30
0.0
 10
15.5981170639
 20
6.5107690431
 30
0.0
 10
15.5980814239
 20
6.5105419881
 30
0.0
  0
SPLINE
  5
457
100
AcDbEntity
  8
0
100
AcDbSpline
 62
7
  6
CONTINUOUS
 70
0
 71
3
 72
11
 73
7
 74
0
 42
0.0000001
 43
0.0000001
 44
0.0000000001
 40
0.0
 40
0.0
 40
0.0
 40
0.0
 40
0.2468790635
 40
0.4954169064
 40
0.7464561105
 40
1.0
 40
1.0
 40
1.0
 40
1.0
 10
15.7065873627
 20
6.071054727
 30
0.0
 10
15.6991624625
 20
6.071054727
 30
0.0
 10
15.6842337073
 20
6.06973378
 30
0.0
 10
15.6624157239
 20
6.064119704
 30
0.0
 10
15.6413757299
 20
6.0555954576
 30
0.0
 10
15.6279417297
 20
6.0484911509
 30
0.0
 10
15.621337987
 20
6.0446784783
 30
0.0
  0
SPLINE
  5
458
100
AcDbEntity
  8
0
100
AcDbSpline
 62
7
  6
CONTINUOUS
 70
0
 71
3
 72
9
 73
5
 74
0
 42
0.0000001
 43
0.0000001
 44
0.0000000001
 40
0.0
 40
0.0
 40
0.0
 40
0.0
 40
0.4969742428
 40
1.0
 40
1.0
 40
1.0
 40
1.0
 10
15.0737631846
 20
5.2588066364
 30
0.0
 10
15.0733513092
 20
5.2742872921
 30
0.0
 10
15.072912231
 20
5.3054472915
 30
0.0
 10
15.0728552569
 20
5.3366080764
 30
0.0
 10
15.0728552569
 20
5.3522827805
 30
0.0
  0
SPLINE
  5
459
100
AcDbEntity
  8
0
100
AcDbSpline
 62
7
  6
CONTINUOUS
 70
0
 71
3
 72
9
 73
5
 74
0
 42
0.0000001
 43
0.0000001
 44
0.0000000001
 40
0.0
 40
0.0
 40
0.0
 40
0.0
 40
0.486214878
 40
1.0
 40
1.0
 40
1.0
 40
1.0
 10
15.0728056531
 20
4.7340927104
 30
0.0
 10
15.0721788722
 20
4.7342018965
 30
0.0
 10
15.0708640732
 20
4.7342664232
 30
0.0
 10
15.0695574719
 20
4.7342030634
 30
0.0
 10
15.0688869849
 20
4.7341537776
 30
0.0
  0
SPLINE
  5
45A
100
AcDbEntity
  8
0
100
AcDbSpline
 62
7
  6
CONTINUOUS
 70
0
 71
3
 72
8
 73
4
 74
0
 42
0.0000001
 43
0.0000001
 44
0.0000000001
 40
0.0
 40
0.0
 40
0.0
 40
0.0
 40
1.0
 40
1.0
 40
1.0
 40
1.0
 10
15.0688869849
 20
4.7341537776
 30
0.0
 10
15.0664884592
 20
4.7339774682
 30
0.0
 10
15.0640983284
 20
4.7335071052
 30
0.0
 10
15.0618009698
 20
4.7327956606
 30
0.0
  0
SPLINE
  5
45B
100
AcDbEntity
  8
0
100
AcDbSpline
 62
7
  6
CONTINUOUS
 70
0
 71
3
 72
37
 73
33
 74
0
 42
0.0000001
 43
0.0000001
 44
0.0000000001
 40
0.0
 40
0.0
 40
0.0
 40
0.0
 40
0.171627975
 40
0.3412813773
 40
0.5080342908
 40
0.5900073435
 40
0.6703688231
 40
0.7096888976
 40
0.7483538611
 40
0.7863104173
 40
0.8230322693
 40
0.8573861476
 40
0.8881738984
 40
0.9142763441
 40
0.9252854805
 40
0.9347835638
 40
0.9426566194
 40
0.9487902411
 40
0.9531165192
 40
0.9557809385
 40
0.9565606809
 40
0.9570223035
 40
0.9572672407
 40
0.9575854282
 40
0.9581267913
 40
0.9588984128
 40
0.9610627063
 40
0.9639090237
 40
0.9673289583
 40
0.9758861407
 40
0.9867644154
 40
1.0
 40
1.0
 40
1.0
 40
1.0
 10
15.0618009698
 20
4.7327956606
 30
0.0
 10
15.0598216438
 20
4.7321827041
 30
0.0
 10
15.0559910679
 20
4.7305881446
 30
0.0
 10
15.050837003
 20
4.7272026225
 30
0.0
 10
15.0471812843
 20
4.7236690655
 30
0.0
 10
15.0447434054
 20
4.7205258932
 30
0.0
 10
15.0434343268
 20
4.7184685335
 30
0.0
 10
15.0425217974
 20
4.7167880646
 30
0.0
 10
15.041911657
 20
4.7155276541
 30
0.0
 10
15.0413755238
 20
4.7142680982
 30
0.0
 10
15.040915301
 20
4.7130344136
 30
0.0
 10
15.0405296438
 20
4.7118663721
 30
0.0
 10
15.0402216993
 20
4.710808446
 30
0.0
 10
15.0400206156
 20
4.7100135912
 30
0.0
 10
15.0398932563
 20
4.7094654842
 30
0.0
 10
15.0398186915
 20
4.7091310228
 30
0.0
 10
15.0397577051
 20
4.7088539822
 30
0.0
 10
15.0397097003
 20
4.7086376572
 30
0.0
 10
15.0396705889
 20
4.7084846312
 30
0.0
 10
15.0396449644
 20
4.7083934131
 30
0.0
 10
15.0396249208
 20
4.7083513005
 30
0.0
 10
15.0396164357
 20
4.7083346933
 30
0.0
 10
15.039602313
 20
4.7083306882
 30
0.0
 10
15.0395947616
 20
4.7083446333
 30
0.0
 10
15.0395895905
 20
4.708362495
 30
0.0
 10
15.0395821972
 20
4.7084045827
 30
0.0
 10
15.0395763203
 20
4.7084737056
 30
0.0
 10
15.0395703713
 20
4.7085755213
 30
0.0
 10
15.0395629736
 20
4.7087542434
 30
0.0
 10
15.0395568462
 20
4.7090301896
 30
0.0
 10
15.0395538386
 20
4.7094245952
 30
0.0
 10
15.039554695
 20
4.7097157334
 30
0.0
 10
15.0395557431
 20
4.7098755231
 30
0.0
  0
SPLINE
  5
45C
100
AcDbEntity
  8
0
100
AcDbSpline
 62
7
  6
CONTINUOUS
 70
0
 71
3
 72
37
 73
33
 74
0
 42
0.0000001
 43
0.0000001
 44
0.0000000001
 40
0.0
 40
0.0
 40
0.0
 40
0.0
 40
0.0624770425
 40
0.0930738624
 40
0.1232529527
 40
0.153051333
 40
0.1825527754
 40
0.2118669634
 40
0.2411586845
 40
0.270645328
 40
0.3005828078
 40
0.3312558469
 40
0.3629164626
 40
0.3957228413
 40
0.4296828585
 40
0.4645768103
 40
0.5000054263
 40
0.5354318119
 40
0.5703265396
 40
0.6042870517
 40
0.6370897468
 40
0.6687499738
 40
0.6994220469
 40
0.7293584275
 40
0.7588429859
 40
0.788135101
 40
0.8174494172
 40
0.8469508246
 40
0.8767485674
 40
0.906926934
 40
0.9375233692
 40
1.0
 40
1.0
 40
1.0
 40
1.0
 10
15.562759478
 20
5.9075130603
 30
0.0
 10
15.563609249
 20
5.9244622906
 30
0.0
 10
15.5656640354
 20
5.9496948352
 30
0.0
 10
15.5706870025
 20
5.9828069237
 30
0.0
 10
15.5756852026
 20
6.0069111397
 30
0.0
 10
15.5821350287
 20
6.0303644001
 30
0.0
 10
15.5902190988
 20
6.0530629282
 30
0.0
 10
15.6001518137
 20
6.0748733528
 30
0.0
 10
15.6121626557
 20
6.0956177956
 30
0.0
 10
15.6264535852
 20
6.1150851645
 30
0.0
 10
15.6432116029
 20
6.1330041427
 30
0.0
 10
15.6625399516
 20
6.1490676294
 30
0.0
 10
15.6844470463
 20
6.1629133541
 30
0.0
 10
15.7087701498
 20
6.1741893717
 30
0.0
 10
15.7351694619
 20
6.1825359883
 30
0.0
 10
15.7630981184
 20
6.1876743574
 30
0.0
 10
15.7918405762
 20
6.1894092375
 30
0.0
 10
15.8205827766
 20
6.1876698153
 30
0.0
 10
15.8485113678
 20
6.1825345596
 30
0.0
 10
15.8749121743
 20
6.1741936475
 30
0.0
 10
15.8992313928
 20
6.1629107591
 30
0.0
 10
15.9211345813
 20
6.1490622041
 30
0.0
 10
15.940464659
 20
6.1330020122
 30
0.0
 10
15.9572219094
 20
6.1150834563
 30
0.0
 10
15.9715081568
 20
6.0956136044
 30
0.0
 10
15.9835185933
 20
6.0748697085
 30
0.0
 10
15.9934559215
 20
6.0530612704
 30
0.0
 10
16.0015421995
 20
6.0303635691
 30
0.0
 10
16.0079912342
 20
6.0069104372
 30
0.0
 10
16.0129875413
 20
5.9828063129
 30
0.0
 10
16.0180089885
 20
5.9496944417
 30
0.0
 10
16.0200642334
 20
5.9244621789
 30
0.0
 10
16.0209139988
 20
5.9075130603
 30
0.0
  0
SPLINE
  5
45D
100
AcDbEntity
  8
0
100
AcDbSpline
 62
7
  6
CONTINUOUS
 70
0
 71
3
 72
37
 73
33
 74
0
 42
0.0000001
 43
0.0000001
 44
0.0000000001
 40
0.0
 40
0.0
 40
0.0
 40
0.0
 40
0.0624770425
 40
0.0930738624
 40
0.1232529527
 40
0.153051333
 40
0.1825527754
 40
0.2118669634
 40
0.2411586845
 40
0.270645328
 40
0.3005828078
 40
0.3312558469
 40
0.3629164626
 40
0.3957228413
 40
0.4296828585
 40
0.4645768103
 40
0.5000054263
 40
0.5354318119
 40
0.5703265396
 40
0.6042870517
 40
0.6370897468
 40
0.6687499738
 40
0.6994220469
 40
0.7293584275
 40
0.7588429859
 40
0.788135101
 40
0.8174494172
 40
0.8469508246
 40
0.8767485674
 40
0.906926934
 40
0.9375233692
 40
1.0
 40
1.0
 40
1.0
 40
1.0
 10
15.0997965151
 20
5.9075130603
 30
0.0
 10
15.1006462861
 20
5.9244622906
 30
0.0
 10
15.1027010724
 20
5.9496948352
 30
0.0
 10
15.1077240396
 20
5.9828069237
 30
0.0
 10
15.1127222396
 20
6.0069111397
 30
0.0
 10
15.1191720658
 20
6.0303644001
 30
0.0
 10
15.1272561358
 20
6.0530629282
 30
0.0
 10
15.1371888508
 20
6.0748733528
 30
0.0
 10
15.1491996928
 20
6.0956177956
 30
0.0
 10
15.1634906222
 20
6.1150851645
 30
0.0
 10
15.1802486399
 20
6.1330041427
 30
0.0
 10
15.1995769886
 20
6.1490676294
 30
0.0
 10
15.2214840833
 20
6.1629133541
 30
0.0
 10
15.2458071869
 20
6.1741893717
 30
0.0
 10
15.2722064989
 20
6.1825359883
 30
0.0
 10
15.3001351555
 20
6.1876743574
 30
0.0
 10
15.3288776132
 20
6.1894092375
 30
0.0
 10
15.3576198136
 20
6.1876698153
 30
0.0
 10
15.3855484048
 20
6.1825345596
 30
0.0
 10
15.4119492113
 20
6.1741936475
 30
0.0
 10
15.4362684298
 20
6.1629107591
 30
0.0
 10
15.4581716184
 20
6.1490622041
 30
0.0
 10
15.477501696
 20
6.1330020122
 30
0.0
 10
15.4942589464
 20
6.1150834563
 30
0.0
 10
15.5085451938
 20
6.0956136044
 30
0.0
 10
15.5205556303
 20
6.0748697085
 30
0.0
 10
15.5304929586
 20
6.0530612704
 30
0.0
 10
15.5385792365
 20
6.0303635691
 30
0.0
 10
15.5450282712
 20
6.0069104372
 30
0.0
 10
15.5500245783
 20
5.9828063129
 30
0.0
 10
15.5550460255
 20
5.9496944417
 30
0.0
 10
15.5571012705
 20
5.9244621789
 30
0.0
 10
15.5579510358
 20
5.9075130603
 30
0.0
  0
SPLINE
  5
45E
100
AcDbEntity
  8
0
100
AcDbSpline
 62
7
  6
CONTINUOUS
 70
0
 71
3
 72
9
 73
5
 74
0
 42
0.0000001
 43
0.0000001
 44
0.0000000001
 40
0.0
 40
0.0
 40
0.0
 40
0.0
 40
0.4995048528
 40
1.0
 40
1.0
 40
1.0
 40
1.0
 10
14.9671831896
 20
6.3973217156
 30
0.0
 10
14.9640164963
 20
6.3984399355
 30
0.0
 10
14.9575098559
 20
6.4002450035
 30
0.0
 10
14.9507744483
 20
6.4009067142
 30
0.0
 10
14.9474094674
 20
6.4009121938
 30
0.0
  0
SPLINE
  5
45F
100
AcDbEntity
  8
0
100
AcDbSpline
 62
7
  6
CONTINUOUS
 70
0
 71
3
 72
9
 73
5
 74
0
 42
0.0000001
 43
0.0000001
 44
0.0000000001
 40
0.0
 40
0.0
 40
0.0
 40
0.0
 40
0.5005052254
 40
1.0
 40
1.0
 40
1.0
 40
1.0
 10
14.9474094674
 20
6.4009121938
 30
0.0
 10
14.9440073686
 20
6.4009177338
 30
0.0
 10
14.9371951677
 20
6.4002654506
 30
0.0
 10
14.9306157501
 20
6.398442496
 30
0.0
 10
14.9274141589
 20
6.3973122598
 30
0.0
  0
SPLINE
  5
460
100
AcDbEntity
  8
0
100
AcDbSpline
 62
7
  6
CONTINUOUS
 70
0
 71
3
 72
21
 73
17
 74
0
 42
0.0000001
 43
0.0000001
 44
0.0000000001
 40
0.0
 40
0.0
 40
0.0
 40
0.0
 40
0.1300723703
 40
0.1940798447
 40
0.2573023566
 40
0.3196941732
 40
0.3812496152
 40
0.4419830044
 40
0.5019958259
 40
0.6204919835
 40
0.6799391503
 40
0.7402670079
 40
0.8021960413
 40
0.8662270154
 40
0.9324313138
 40
1.0
 40
1.0
 40
1.0
 40
1.0
 10
15.0737631846
 20
5.2588066364
 30
0.0
 10
15.0741944565
 20
5.2425984346
 30
0.0
 10
15.0751506138
 20
5.2184171126
 30
0.0
 10
15.0775560745
 20
5.1864304077
 30
0.0
 10
15.0800363949
 20
5.1629193585
 30
0.0
 10
15.0833775643
 20
5.1398212058
 30
0.0
 10
15.0877448895
 20
5.1172085192
 30
0.0
 10
15.0933744605
 20
5.0951714811
 30
0.0
 10
15.1028010019
 20
5.0668681515
 30
0.0
 10
15.1159192273
 20
5.0399622371
 30
0.0
 10
15.1337552517
 20
5.0161085175
 30
0.0
 10
15.1498498589
 20
5.0000432296
 30
0.0
 10
15.1688063971
 20
4.9864426905
 30
0.0
 10
15.1904984308
 20
4.9759859271
 30
0.0
 10
15.2143844303
 20
4.9693727262
 30
0.0
 10
15.23109927
 20
4.967863906
 30
0.0
 10
15.2395219236
 20
4.967863906
 30
0.0
  0
SPLINE
  5
461
100
AcDbEntity
  8
03__ASM_ALL_CURVES
100
AcDbSpline
 62
8
  6
HIDDEN
 70
0
 71
3
 72
38
 73
34
 74
0
 42
0.0000001
 43
0.0000001
 44
0.0000000001
 40
0.0
 40
0.0
 40
0.0
 40
0.0
 40
0.0625
 40
0.125
 40
0.15625
 40
0.171875
 40
0.1875
 40
0.25
 40
0.28125
 40
0.3125
 40
0.328125
 40
0.34375
 40
0.375
 40
0.4375
 40
0.46875
 40
0.484375
 40
0.5
 40
0.515625
 40
0.53125
 40
0.5625
 40
0.625
 40
0.65625
 40
0.671875
 40
0.6875
 40
0.71875
 40
0.75
 40
0.78125
 40
0.8125
 40
0.828125
 40
0.84375
 40
0.875
 40
0.9375
 40
1.0
 40
1.0
 40
1.0
 40
1.0
 10
15.0475517087
 20
12.1954898882
 30
0.0
 10
15.0540733984
 20
12.1925861782
 30
0.0
 10
15.0671131844
 20
12.186773335
 30
0.0
 10
15.0834308837
 20
12.1795343972
 30
0.0
 10
15.0948202593
 20
12.1744173148
 30
0.0
 10
15.1013796792
 20
12.1715705487
 30
0.0
 10
15.1114964749
 20
12.1677208309
 30
0.0
 10
15.1232124758
 20
12.1630903265
 30
0.0
 10
15.1366225621
 20
12.157855034
 30
0.0
 10
15.1450522841
 20
12.1546002428
 30
0.0
 10
15.1516747657
 20
12.1519407917
 30
0.0
 10
15.1587436967
 20
12.1494900001
 30
0.0
 10
15.1713234126
 20
12.1452963652
 30
0.0
 10
15.1856040229
 20
12.1404752834
 30
0.0
 10
15.198143016
 20
12.1362360215
 30
0.0
 10
15.2052817576
 20
12.1338634476
 30
0.0
 10
15.2107025888
 20
12.13194038
 30
0.0
 10
15.2158695185
 20
12.1305669302
 30
0.0
 10
15.2228477024
 20
12.1285442067
 30
0.0
 10
15.2350142645
 20
12.1250910777
 30
0.0
 10
15.2489624259
 20
12.1211249328
 30
0.0
 10
15.2610980896
 20
12.1176196624
 30
0.0
 10
15.2681292422
 20
12.1156863241
 30
0.0
 10
15.2755208031
 20
12.1140198153
 30
0.0
 10
15.2846368874
 20
12.1118442292
 30
0.0
 10
15.2956277373
 20
12.1092770423
 30
0.0
 10
15.306609779
 20
12.1066837096
 30
0.0
 10
15.3157478838
 20
12.1045734881
 30
0.0
 10
15.3230954036
 20
12.1027762501
 30
0.0
 10
15.3303056571
 20
12.1013745441
 30
0.0
 10
15.3428596989
 20
12.0991052924
 30
0.0
 10
15.3608276769
 20
12.0957668022
 30
0.0
 10
15.3751918094
 20
12.0931254811
 30
0.0
 10
15.3823751569
 20
12.0918011367
 30
0.0
  0
SPLINE
  5
462
100
AcDbEntity
  8
0
100
AcDbSpline
 62
7
  6
CONTINUOUS
 70
0
 71
3
 72
9
 73
5
 74
0
 42
0.0000001
 43
0.0000001
 44
0.0000000001
 40
0.0
 40
0.0
 40
0.0
 40
0.0
 40
0.4950823661
 40
1.0
 40
1.0
 40
1.0
 40
1.0
 10
14.8299581054
 20
11.4587280787
 30
0.0
 10
14.8296182614
 20
11.4576282382
 30
0.0
 10
14.8291215966
 20
11.4553437002
 30
0.0
 10
14.829016208
 20
11.4530091521
 30
0.0
 10
14.8290557868
 20
11.4518358022
 30
0.0
  0
SPLINE
  5
463
100
AcDbEntity
  8
0
100
AcDbSpline
 62
7
  6
CONTINUOUS
 70
0
 71
3
 72
9
 73
5
 74
0
 42
0.0000001
 43
0.0000001
 44
0.0000000001
 40
0.0
 40
0.0
 40
0.0
 40
0.0
 40
0.4811305749
 40
1.0
 40
1.0
 40
1.0
 40
1.0
 10
14.8290557868
 20
11.4518358022
 30
0.0
 10
14.8291194573
 20
11.4499482336
 30
0.0
 10
14.8297496177
 20
11.4460336994
 30
0.0
 10
14.8311795804
 20
11.4423496665
 30
0.0
 10
14.8320768704
 20
11.4405211818
 30
0.0
  0
SPLINE
  5
464
100
AcDbEntity
  8
0
100
AcDbSpline
 62
7
  6
CONTINUOUS
 70
0
 71
3
 72
13
 73
9
 74
0
 42
0.0000001
 43
0.0000001
 44
0.0000000001
 40
0.0
 40
0.0
 40
0.0
 40
0.0
 40
0.2713425087
 40
0.525213442
 40
0.6469631745
 40
0.7661209821
 40
0.8835091022
 40
1.0
 40
1.0
 40
1.0
 40
1.0
 10
15.5741371025
 20
11.9063076947
 30
0.0
 10
15.5798212082
 20
11.8947247052
 30
0.0
 10
15.589249946
 20
11.8714736461
 30
0.0
 10
15.5958557849
 20
11.8412393804
 30
0.0
 10
15.5974614551
 20
11.8177321789
 30
0.0
 10
15.5969011571
 20
11.8006728519
 30
0.0
 10
15.5945856454
 20
11.7840158247
 30
0.0
 10
15.5918765012
 20
11.7732034539
 30
0.0
 10
15.590241571
 20
11.7679110146
 30
0.0
  0
SPLINE
  5
465
100
AcDbEntity
  8
0
100
AcDbSpline
 62
7
  6
CONTINUOUS
 70
0
 71
3
 72
15
 73
11
 74
0
 42
0.0000001
 43
0.0000001
 44
0.0000000001
 40
0.0
 40
0.0
 40
0.0
 40
0.0
 40
0.1557233317
 40
0.3032430028
 40
0.4411562214
 40
0.5690949589
 40
0.6873820226
 40
0.7971213768
 40
0.9003387561
 40
1.0
 40
1.0
 40
1.0
 40
1.0
 10
16.0384656286
 20
11.4919010492
 30
0.0
 10
16.0411491993
 20
11.4919010492
 30
0.0
 10
16.0463788393
 20
11.4921336968
 30
0.0
 10
16.0539168157
 20
11.4932212606
 30
0.0
 10
16.0608241563
 20
11.4950329716
 30
0.0
 10
16.0669767334
 20
11.497534103
 30
0.0
 10
16.0722670105
 20
11.5006929026
 30
0.0
 10
16.0766012398
 20
11.5044623705
 30
0.0
 10
16.0798778573
 20
11.5087900353
 30
0.0
 10
16.0813169731
 20
11.5120177167
 30
0.0
 10
16.0818240516
 20
11.5136586089
 30
0.0
  0
SPLINE
  5
466
100
AcDbEntity
  8
0
100
AcDbSpline
 62
7
  6
CONTINUOUS
 70
0
 71
3
 72
15
 73
11
 74
0
 42
0.0000001
 43
0.0000001
 44
0.0000000001
 40
0.0
 40
0.0
 40
0.0
 40
0.0
 40
0.1002313829
 40
0.2118978032
 40
0.3337742674
 40
0.4637217067
 40
0.5987484672
 40
0.7354307179
 40
0.8703684713
 40
1.0
 40
1.0
 40
1.0
 40
1.0
 10
14.5712961927
 20
11.5333417138
 30
0.0
 10
14.5727032315
 20
11.5304744702
 30
0.0
 10
14.5764293604
 20
11.5247726714
 30
0.0
 10
14.5838083092
 20
11.5170530681
 30
0.0
 10
14.5930123632
 20
11.5099576622
 30
0.0
 10
14.6036937394
 20
11.5037432646
 30
0.0
 10
14.6154613546
 20
11.498639974
 30
0.0
 10
14.62787596
 20
11.4948333107
 30
0.0
 10
14.6404684234
 20
11.4924727241
 30
0.0
 10
14.6489056709
 20
11.4919010492
 30
0.0
 10
14.6530363834
 20
11.4919010492
 30
0.0
  0
SPLINE
  5
467
100
AcDbEntity
  8
0
100
AcDbSpline
 62
7
  6
CONTINUOUS
 70
0
 71
3
 72
23
 73
19
 74
0
 42
0.0000001
 43
0.0000001
 44
0.0000000001
 40
0.0
 40
0.0
 40
0.0
 40
0.0
 40
0.051064517
 40
0.1062938582
 40
0.1655409552
 40
0.2284642204
 40
0.2944991255
 40
0.3629455606
 40
0.433001745
 40
0.5038006811
 40
0.5744477263
 40
0.644054206
 40
0.7117721563
 40
0.7768284994
 40
0.8385644831
 40
0.8964826118
 40
0.9502978851
 40
1.0
 40
1.0
 40
1.0
 40
1.0
 10
14.7789252961
 20
12.1272711605
 30
0.0
 10
14.7857360383
 20
12.113392327
 30
0.0
 10
14.8023878241
 20
12.0856824993
 30
0.0
 10
14.833974552
 20
12.0466093876
 30
0.0
 10
14.8725592906
 20
12.0090848194
 30
0.0
 10
14.9174077412
 20
11.9737894673
 30
0.0
 10
14.967705996
 20
11.941361393
 30
0.0
 10
15.0225201312
 20
11.9123962915
 30
0.0
 10
15.0808339411
 20
11.8874284274
 30
0.0
 10
15.1415642375
 20
11.8669239488
 30
0.0
 10
15.2035805838
 20
11.8512654154
 30
0.0
 10
15.2657287092
 20
11.8407421167
 30
0.0
 10
15.3268544519
 20
11.8355493233
 30
0.0
 10
15.3858268592
 20
11.8357860964
 30
0.0
 10
15.4415584352
 20
11.8414520484
 30
0.0
 10
15.4930360165
 20
11.8524558119
 30
0.0
 10
15.5393092577
 20
11.8686076778
 30
0.0
 10
15.5672128079
 20
11.8832251966
 30
0.0
 10
15.579864545
 20
11.8913712646
 30
0.0
  0
SPLINE
  5
468
100
AcDbEntity
  8
0
100
AcDbSpline
 62
7
  6
CONTINUOUS
 70
0
 71
3
 72
11
 73
7
 74
0
 42
0.0000001
 43
0.0000001
 44
0.0000000001
 40
0.0
 40
0.0
 40
0.0
 40
0.0
 40
0.2604016007
 40
0.5121254521
 40
0.7576630849
 40
1.0
 40
1.0
 40
1.0
 40
1.0
 10
14.1736276763
 20
13.0028880099
 30
0.0
 10
14.1725366355
 20
12.996784805
 30
0.0
 10
14.1712128584
 20
12.9846127868
 30
0.0
 10
14.1719988271
 20
12.9665185478
 30
0.0
 10
14.1755830387
 20
12.94920004
 30
0.0
 10
14.1798227409
 20
12.9383158581
 30
0.0
 10
14.182363683
 20
12.9331356259
 30
0.0
  0
SPLINE
  5
469
100
AcDbEntity
  8
0
100
AcDbSpline
 62
7
  6
CONTINUOUS
 70
0
 71
3
 72
9
 73
5
 74
0
 42
0.0000001
 43
0.0000001
 44
0.0000000001
 40
0.0
 40
0.0
 40
0.0
 40
0.0
 40
0.569343894
 40
1.0
 40
1.0
 40
1.0
 40
1.0
 10
14.1558107875
 20
13.0533558312
 30
0.0
 10
14.1537905308
 20
13.0591921744
 30
0.0
 10
14.1503634312
 20
13.0694863226
 30
0.0
 10
14.147304746
 20
13.0798973998
 30
0.0
 10
14.1460969806
 20
13.0844102355
 30
0.0
  0
SPLINE
  5
46A
100
AcDbEntity
  8
0
100
AcDbSpline
 62
7
  6
CONTINUOUS
 70
0
 71
3
 72
10
 73
6
 74
0
 42
0.0000001
 43
0.0000001
 44
0.0000000001
 40
0.0
 40
0.0
 40
0.0
 40
0.0
 40
0.5324554585
 40
0.7777825744
 40
1.0
 40
1.0
 40
1.0
 40
1.0
 10
14.1954919163
 20
12.9508539755
 30
0.0
 10
14.1895006617
 20
12.9655446853
 30
0.0
 10
14.1808218724
 20
12.9870344556
 30
0.0
 10
14.169980222
 20
13.0147891253
 30
0.0
 10
14.1650454032
 20
13.0278176126
 30
0.0
 10
14.1627485883
 20
13.0340278446
 30
0.0
  0
SPLINE
  5
46B
100
AcDbEntity
  8
0
100
AcDbSpline
 62
7
  6
CONTINUOUS
 70
0
 71
3
 72
11
 73
7
 74
0
 42
0.0000001
 43
0.0000001
 44
0.0000000001
 40
0.0
 40
0.0
 40
0.0
 40
0.0
 40
0.2669088222
 40
0.5221123109
 40
0.7659020366
 40
1.0
 40
1.0
 40
1.0
 40
1.0
 10
14.2040205942
 20
13.1675841046
 30
0.0
 10
14.2096505348
 20
13.1732830572
 30
0.0
 10
14.2212435991
 20
13.1838781402
 30
0.0
 10
14.2397890121
 20
13.1975268508
 30
0.0
 10
14.2587185671
 20
13.2088005041
 30
0.0
 10
14.271621002
 20
13.2151003108
 30
0.0
 10
14.2780359281
 20
13.2179664955
 30
0.0
  0
SPLINE
  5
46C
100
AcDbEntity
  8
0
100
AcDbSpline
 62
7
  6
CONTINUOUS
 70
0
 71
3
 72
9
 73
5
 74
0
 42
0.0000001
 43
0.0000001
 44
0.0000000001
 40
0.0
 40
0.0
 40
0.0
 40
0.0
 40
0.253004367
 40
1.0
 40
1.0
 40
1.0
 40
1.0
 10
14.1460969806
 20
13.0844102355
 30
0.0
 10
14.15006727
 20
13.0919971986
 30
0.0
 10
14.1663722254
 20
13.1216190829
 30
0.0
 10
14.1862525361
 20
13.149598245
 30
0.0
 10
14.2040205942
 20
13.1675841046
 30
0.0
  0
SPLINE
  5
46D
100
AcDbEntity
  8
0
100
AcDbSpline
 62
7
  6
CONTINUOUS
 70
0
 71
3
 72
10
 73
6
 74
0
 42
0.0000001
 43
0.0000001
 44
0.0000000001
 40
0.0
 40
0.0
 40
0.0
 40
0.0
 40
0.4903595107
 40
0.7442438609
 40
1.0
 40
1.0
 40
1.0
 40
1.0
 10
14.3606570095
 20
13.2343622346
 30
0.0
 10
14.3767196211
 20
13.2343622346
 30
0.0
 10
14.4011219409
 20
13.2318084869
 30
0.0
 10
14.4331863009
 20
13.2251116511
 30
0.0
 10
14.4493350846
 20
13.220839984
 30
0.0
 10
14.4573898701
 20
13.2185362482
 30
0.0
  0
SPLINE
  5
46E
100
AcDbEntity
  8
0
100
AcDbSpline
 62
7
  6
CONTINUOUS
 70
0
 71
3
 72
11
 73
7
 74
0
 42
0.0000001
 43
0.0000001
 44
0.0000000001
 40
0.0
 40
0.0
 40
0.0
 40
0.0
 40
0.2298163037
 40
0.4716333285
 40
0.7280218302
 40
1.0
 40
1.0
 40
1.0
 40
1.0
 10
14.2780359281
 20
13.2179664955
 30
0.0
 10
14.2840541668
 20
13.2204003291
 30
0.0
 10
14.2965973954
 20
13.224938475
 30
0.0
 10
14.3165087487
 20
13.2302034197
 30
0.0
 10
14.3380349738
 20
13.2336147482
 30
0.0
 10
14.3529742965
 20
13.2343622346
 30
0.0
 10
14.3606570095
 20
13.2343622346
 30
0.0
  0
SPLINE
  5
46F
100
AcDbEntity
  8
0
100
AcDbSpline
 62
7
  6
CONTINUOUS
 70
0
 71
3
 72
11
 73
7
 74
0
 42
0.0000001
 43
0.0000001
 44
0.0000000001
 40
0.0
 40
0.0
 40
0.0
 40
0.0
 40
0.2267108859
 40
0.4707453665
 40
0.7298698097
 40
1.0
 40
1.0
 40
1.0
 40
1.0
 10
14.6845280686
 20
12.6835645034
 30
0.0
 10
14.6818457787
 20
12.6833471377
 30
0.0
 10
14.6763084131
 20
12.6824355496
 30
0.0
 10
14.6680067009
 20
12.6798846372
 30
0.0
 10
14.6595951942
 20
12.6761632789
 30
0.0
 10
14.6541409668
 20
12.6730199223
 30
0.0
 10
14.651445292
 20
12.6712835995
 30
0.0
  0
SPLINE
  5
470
100
AcDbEntity
  8
0
100
AcDbSpline
 62
7
  6
CONTINUOUS
 70
0
 71
3
 72
11
 73
7
 74
0
 42
0.0000001
 43
0.0000001
 44
0.0000000001
 40
0.0
 40
0.0
 40
0.0
 40
0.0
 40
0.2604016007
 40
0.5121254521
 40
0.7576630849
 40
1.0
 40
1.0
 40
1.0
 40
1.0
 10
15.9292257527
 20
13.0028880099
 30
0.0
 10
15.928134712
 20
12.996784805
 30
0.0
 10
15.9268109349
 20
12.9846127868
 30
0.0
 10
15.9275969036
 20
12.9665185478
 30
0.0
 10
15.9311811151
 20
12.94920004
 30
0.0
 10
15.9354208173
 20
12.9383158581
 30
0.0
 10
15.9379617595
 20
12.9331356259
 30
0.0
  0
SPLINE
  5
471
100
AcDbEntity
  8
0
100
AcDbSpline
 62
7
  6
CONTINUOUS
 70
0
 71
3
 72
11
 73
7
 74
0
 42
0.0000001
 43
0.0000001
 44
0.0000000001
 40
0.0
 40
0.0
 40
0.0
 40
0.0
 40
0.2603999231
 40
0.5121234136
 40
0.7576617756
 40
1.0
 40
1.0
 40
1.0
 40
1.0
 10
15.8171567399
 20
12.6402295549
 30
0.0
 10
15.8160661414
 20
12.6341269464
 30
0.0
 10
15.8147431033
 20
12.6219561454
 30
0.0
 10
15.8155296719
 20
12.6038638033
 30
0.0
 10
15.8191139413
 20
12.5865471011
 30
0.0
 10
15.8233533174
 20
12.5756640168
 30
0.0
 10
15.8258940171
 20
12.5704842788
 30
0.0
  0
SPLINE
  5
472
100
AcDbEntity
  8
0
100
AcDbSpline
 62
7
  6
CONTINUOUS
 70
0
 71
3
 72
9
 73
5
 74
0
 42
0.0000001
 43
0.0000001
 44
0.0000000001
 40
0.0
 40
0.0
 40
0.0
 40
0.0
 40
0.4861269081
 40
1.0
 40
1.0
 40
1.0
 40
1.0
 10
14.8349700886
 20
11.4743265879
 30
0.0
 10
14.8356861795
 20
11.4758716078
 30
0.0
 10
14.8375658274
 20
11.4788725385
 30
0.0
 10
14.8400662718
 20
11.4813667834
 30
0.0
 10
14.8414558259
 20
11.4825111109
 30
0.0
  0
SPLINE
  5
473
100
AcDbEntity
  8
0
100
AcDbSpline
 62
7
  6
CONTINUOUS
 70
0
 71
3
 72
19
 73
15
 74
0
 42
0.0000001
 43
0.0000001
 44
0.0000000001
 40
0.0
 40
0.0
 40
0.0
 40
0.0
 40
0.099389127
 40
0.1557039107
 40
0.2162118633
 40
0.2804900905
 40
0.3478823148
 40
0.4886146382
 40
0.631176713
 40
0.7678833983
 40
0.8319433485
 40
0.8922405803
 40
0.9483486744
 40
1.0
 40
1.0
 40
1.0
 40
1.0
 10
14.8414558259
 20
11.4825111109
 30
0.0
 10
14.8446002675
 20
11.4851006258
 30
0.0
 10
14.850405985
 20
11.4881127271
 30
0.0
 10
14.8589372825
 20
11.490520342
 30
0.0
 10
14.8662918911
 20
11.4916655894
 30
0.0
 10
14.8741719007
 20
11.492037098
 30
0.0
 10
14.8853373123
 20
11.4914976804
 30
0.0
 10
14.8995478733
 20
11.4888868027
 30
0.0
 10
14.9158285029
 20
11.4830931104
 30
0.0
 10
14.9282056765
 20
11.4762245099
 30
0.0
 10
14.936719211
 20
11.4697168371
 30
0.0
 10
14.9420930043
 20
11.4646097098
 30
0.0
 10
14.9464745631
 20
11.4592718151
 30
0.0
 10
14.9487762339
 20
11.4554770648
 30
0.0
 10
14.9497088317
 20
11.4535766303
 30
0.0
  0
SPLINE
  5
474
100
AcDbEntity
  8
0
100
AcDbSpline
 62
7
  6
CONTINUOUS
 70
0
 71
3
 72
13
 73
9
 74
0
 42
0.0000001
 43
0.0000001
 44
0.0000000001
 40
0.0
 40
0.0
 40
0.0
 40
0.0
 40
0.2534491288
 40
0.5015357456
 40
0.6256554295
 40
0.750086031
 40
0.8746613869
 40
1.0
 40
1.0
 40
1.0
 40
1.0
 10
16.3020361167
 20
11.3323923665
 30
0.0
 10
16.3077888381
 20
11.3323923665
 30
0.0
 10
16.3192270111
 20
11.333632624
 30
0.0
 10
16.3326446652
 20
11.3389490001
 30
0.0
 10
16.3418302022
 20
11.3455687751
 30
0.0
 10
16.3477799956
 20
11.3516616392
 30
0.0
 10
16.3525173232
 20
11.3587734301
 30
0.0
 10
16.3547228274
 20
11.3640447946
 30
0.0
 10
16.3555627775
 20
11.366762874
 30
0.0
  0
SPLINE
  5
475
100
AcDbEntity
  8
0
100
AcDbSpline
 62
7
  6
CONTINUOUS
 70
0
 71
3
 72
9
 73
5
 74
0
 42
0.0000001
 43
0.0000001
 44
0.0000000001
 40
0.0
 40
0.0
 40
0.0
 40
0.0
 40
0.4969914452
 40
1.0
 40
1.0
 40
1.0
 40
1.0
 10
14.5886828603
 20
11.3717612751
 30
0.0
 10
14.5904650124
 20
11.368129631
 30
0.0
 10
14.5949087136
 20
11.3612218807
 30
0.0
 10
14.6006297604
 20
11.3553606875
 30
0.0
 10
14.6037298662
 20
11.3526861951
 30
0.0
  0
SPLINE
  5
476
100
AcDbEntity
  8
0
100
AcDbSpline
 62
7
  6
CONTINUOUS
 70
0
 71
3
 72
9
 73
5
 74
0
 42
0.0000001
 43
0.0000001
 44
0.0000000001
 40
0.0
 40
0.0
 40
0.0
 40
0.0
 40
0.494115907
 40
1.0
 40
1.0
 40
1.0
 40
1.0
 10
14.6037298662
 20
11.3526861951
 30
0.0
 10
14.6091010242
 20
11.3480524431
 30
0.0
 10
14.6213909632
 20
11.3402659597
 30
0.0
 10
14.6351446683
 20
11.3356663594
 30
0.0
 10
14.6422568246
 20
11.3341953982
 30
0.0
  0
SPLINE
  5
477
100
AcDbEntity
  8
0
100
AcDbSpline
 62
7
  6
CONTINUOUS
 70
0
 71
3
 72
9
 73
5
 74
0
 42
0.0000001
 43
0.0000001
 44
0.0000000001
 40
0.0
 40
0.0
 40
0.0
 40
0.0
 40
0.2527766907
 40
1.0
 40
1.0
 40
1.0
 40
1.0
 10
14.6422568246
 20
11.3341953982
 30
0.0
 10
14.6436868647
 20
11.3338996323
 30
0.0
 10
14.6493714771
 20
11.3328679443
 30
0.0
 10
14.6551605922
 20
11.3323923665
 30
0.0
 10
14.6594773441
 20
11.3323923665
 30
0.0
  0
SPLINE
  5
478
100
AcDbEntity
  8
0
100
AcDbSpline
 62
7
  6
CONTINUOUS
 70
0
 71
3
 72
11
 73
7
 74
0
 42
0.0000001
 43
0.0000001
 44
0.0000000001
 40
0.0
 40
0.0
 40
0.0
 40
0.0
 40
0.239040065
 40
0.4828737631
 40
0.7357657998
 40
1.0
 40
1.0
 40
1.0
 40
1.0
 10
17.4998591885
 20
12.238160708
 30
0.0
 10
17.5009158534
 20
12.2360086163
 30
0.0
 10
17.5025996759
 20
12.2314242367
 30
0.0
 10
17.5036917296
 20
12.2240783454
 30
0.0
 10
17.5033419759
 20
12.216411585
 30
0.0
 10
17.5021979059
 20
12.2113237243
 30
0.0
 10
17.5014154421
 20
12.2087916707
 30
0.0
  0
SPLINE
  5
479
100
AcDbEntity
  8
0
100
AcDbSpline
 62
7
  6
CONTINUOUS
 70
0
 71
3
 72
18
 73
14
 74
0
 42
0.0000001
 43
0.0000001
 44
0.0000000001
 40
0.0
 40
0.0
 40
0.0
 40
0.0
 40
0.0504890092
 40
0.1018112456
 40
0.1546955218
 40
0.2097067064
 40
0.267198359
 40
0.3273134675
 40
0.4548071979
 40
0.5901430859
 40
0.7292872027
 40
0.8674380407
 40
1.0
 40
1.0
 40
1.0
 40
1.0
 10
17.1211450037
 20
12.1320238217
 30
0.0
 10
17.1226428528
 20
12.1289726985
 30
0.0
 10
17.1250843364
 20
12.122517251
 30
0.0
 10
17.1269145763
 20
12.1122096193
 30
0.0
 10
17.1269020112
 20
12.1014379615
 30
0.0
 10
17.1250599629
 20
12.0904110659
 30
0.0
 10
17.1214314132
 20
12.0793282006
 30
0.0
 10
17.1141784599
 20
12.0644592194
 30
0.0
 10
17.1009669365
 20
12.0469156156
 30
0.0
 10
17.0803098614
 20
12.0291592548
 30
0.0
 10
17.0559525637
 20
12.015434199
 30
0.0
 10
17.029608212
 20
12.0066932872
 30
0.0
 10
17.0113411923
 20
12.0045378842
 30
0.0
 10
17.0024170257
 20
12.0045378842
 30
0.0
  0
SPLINE
  5
47A
100
AcDbEntity
  8
0
100
AcDbSpline
 62
7
  6
CONTINUOUS
 70
0
 71
3
 72
14
 73
10
 74
0
 42
0.0000001
 43
0.0000001
 44
0.0000000001
 40
0.0
 40
0.0
 40
0.0
 40
0.0
 40
0.123019345
 40
0.2470828416
 40
0.3718222431
 40
0.4970188018
 40
0.7479829243
 40
0.8739277121
 40
1.0
 40
1.0
 40
1.0
 40
1.0
 10
16.6135412055
 20
12.108558041
 30
0.0
 10
16.6181466292
 20
12.0991734784
 30
0.0
 10
16.6284569216
 20
12.0808289592
 30
0.0
 10
16.6466739056
 20
12.0549561019
 30
0.0
 10
16.6674344416
 20
12.0308220824
 30
0.0
 10
16.6981837907
 20
12.0013257282
 30
0.0
 10
16.7332339876
 20
11.9763829202
 30
0.0
 10
16.771587701
 20
11.9573766508
 30
0.0
 10
16.791772842
 20
11.9500479755
 30
0.0
 10
16.8020410595
 20
11.9469926679
 30
0.0
  0
SPLINE
  5
47B
100
AcDbEntity
  8
0
100
AcDbSpline
 62
7
  6
CONTINUOUS
 70
0
 71
3
 72
13
 73
9
 74
0
 42
0.0000001
 43
0.0000001
 44
0.0000000001
 40
0.0
 40
0.0
 40
0.0
 40
0.0
 40
0.2529366115
 40
0.5026510957
 40
0.6271868989
 40
0.7515026803
 40
0.8756838084
 40
1.0
 40
1.0
 40
1.0
 40
1.0
 10
17.3438576155
 20
12.4806193068
 30
0.0
 10
17.3491719374
 20
12.4806193068
 30
0.0
 10
17.3597811093
 20
12.4794008984
 30
0.0
 10
17.3722179425
 20
12.4745455338
 30
0.0
 10
17.3809738914
 20
12.468737144
 30
0.0
 10
17.3868295087
 20
12.4634821799
 30
0.0
 10
17.3918173424
 20
12.4574049783
 30
0.0
 10
17.3944868421
 20
12.4528894152
 30
0.0
 10
17.395637515
 20
12.4505445904
 30
0.0
  0
SPLINE
  5
47C
100
AcDbEntity
  8
0
100
AcDbSpline
 62
7
  6
CONTINUOUS
 70
0
 71
3
 72
9
 73
5
 74
0
 42
0.0000001
 43
0.0000001
 44
0.0000000001
 40
0.0
 40
0.0
 40
0.0
 40
0.0
 40
0.5127185989
 40
1.0
 40
1.0
 40
1.0
 40
1.0
 10
17.1230300598
 20
12.4839060778
 30
0.0
 10
17.1285630515
 20
12.482831426
 30
0.0
 10
17.1394529017
 20
12.4812093882
 30
0.0
 10
17.150450909
 20
12.4806193068
 30
0.0
 10
17.1558076626
 20
12.4806193068
 30
0.0
  0
SPLINE
  5
47D
100
AcDbEntity
  8
0
100
AcDbSpline
 62
7
  6
CONTINUOUS
 70
0
 71
3
 72
15
 73
11
 74
0
 42
0.0000001
 43
0.0000001
 44
0.0000000001
 40
0.0
 40
0.0
 40
0.0
 40
0.0
 40
0.1275327404
 40
0.2561947066
 40
0.3849721482
 40
0.5129960054
 40
0.6393689834
 40
0.7632041861
 40
0.88367107
 40
1.0
 40
1.0
 40
1.0
 40
1.0
 10
17.1230228394
 20
12.4838768953
 30
0.0
 10
17.0987348091
 20
12.4881179292
 30
0.0
 10
17.0501861583
 20
12.4980920408
 30
0.0
 10
16.9782283426
 20
12.5172485471
 30
0.0
 10
16.9073903045
 20
12.5405171133
 30
0.0
 10
16.8384159825
 20
12.5676497078
 30
0.0
 10
16.7720074306
 20
12.5983585555
 30
0.0
 10
16.7088557837
 20
12.6323271937
 30
0.0
 10
16.6496208826
 20
12.669184405
 30
0.0
 10
16.6124202108
 20
12.6959399989
 30
0.0
 10
16.5946575989
 20
12.7097337757
 30
0.0
  0
SPLINE
  5
47E
100
AcDbEntity
  8
0
100
AcDbSpline
 62
7
  6
CONTINUOUS
 70
0
 71
3
 72
9
 73
5
 74
0
 42
0.0000001
 43
0.0000001
 44
0.0000000001
 40
0.0
 40
0.0
 40
0.0
 40
0.0
 40
0.2405150351
 40
1.0
 40
1.0
 40
1.0
 40
1.0
 10
16.0830182864
 20
12.0938180172
 30
0.0
 10
16.0832433275
 20
12.0944998242
 30
0.0
 10
16.0842984598
 20
12.0972946681
 30
0.0
 10
16.0857956473
 20
12.0999150159
 30
0.0
 10
16.0871066943
 20
12.1017647263
 30
0.0
  0
SPLINE
  5
47F
100
AcDbEntity
  8
0
100
AcDbSpline
 62
7
  6
CONTINUOUS
 70
0
 71
3
 72
9
 73
5
 74
0
 42
0.0000001
 43
0.0000001
 44
0.0000000001
 40
0.0
 40
0.0
 40
0.0
 40
0.0
 40
0.2436610012
 40
1.0
 40
1.0
 40
1.0
 40
1.0
 10
16.0871066943
 20
12.1017647263
 30
0.0
 10
16.0875650052
 20
12.1024113411
 30
0.0
 10
16.0895373388
 20
12.1049996894
 30
0.0
 10
16.091848804
 20
12.1073247912
 30
0.0
 10
16.0937271997
 20
12.1089135254
 30
0.0
  0
SPLINE
  5
480
100
AcDbEntity
  8
0
100
AcDbSpline
 62
7
  6
CONTINUOUS
 70
0
 71
3
 72
9
 73
5
 74
0
 42
0.0000001
 43
0.0000001
 44
0.0000000001
 40
0.0
 40
0.0
 40
0.0
 40
0.0
 40
0.5090454386
 40
1.0
 40
1.0
 40
1.0
 40
1.0
 10
16.096451579
 20
12.1110368899
 30
0.0
 10
16.100154466
 20
12.1136960298
 30
0.0
 10
16.1082482722
 20
12.1178564989
 30
0.0
 10
16.1172394153
 20
12.1194456975
 30
0.0
 10
16.1216361734
 20
12.1194450399
 30
0.0
  0
SPLINE
  5
481
100
AcDbEntity
  8
0
100
AcDbSpline
 62
7
  6
CONTINUOUS
 70
0
 71
3
 72
9
 73
5
 74
0
 42
0.0000001
 43
0.0000001
 44
0.0000000001
 40
0.0
 40
0.0
 40
0.0
 40
0.0
 40
0.2564830986
 40
1.0
 40
1.0
 40
1.0
 40
1.0
 10
14.2365214853
 20
12.0098416325
 30
0.0
 10
14.2335579641
 20
12.0089721651
 30
0.0
 10
14.2218960703
 20
12.0059690704
 30
0.0
 10
14.2098095432
 20
12.0045378842
 30
0.0
 10
14.2008565023
 20
12.0045378842
 30
0.0
  0
SPLINE
  5
482
100
AcDbEntity
  8
0
100
AcDbSpline
 62
7
  6
CONTINUOUS
 70
0
 71
3
 72
11
 73
7
 74
0
 42
0.0000001
 43
0.0000001
 44
0.0000000001
 40
0.0
 40
0.0
 40
0.0
 40
0.0
 40
0.2445152972
 40
0.4935621386
 40
0.7465214599
 40
1.0
 40
1.0
 40
1.0
 40
1.0
 10
13.9420687485
 20
12.4310166556
 30
0.0
 10
13.9438380262
 20
12.4367420403
 30
0.0
 10
13.9492175864
 20
12.4477987587
 30
0.0
 10
13.9614664514
 20
12.4616425545
 30
0.0
 10
13.9768511303
 20
12.4722411166
 30
0.0
 10
13.9885507046
 20
12.4767763209
 30
0.0
 10
13.9945709996
 20
12.4783084509
 30
0.0
  0
SPLINE
  5
483
100
AcDbEntity
  8
0
100
AcDbSpline
 62
7
  6
CONTINUOUS
 70
0
 71
3
 72
11
 73
7
 74
0
 42
0.0000001
 43
0.0000001
 44
0.0000000001
 40
0.0
 40
0.0
 40
0.0
 40
0.0
 40
0.2495803693
 40
0.4991529675
 40
0.7491342524
 40
1.0
 40
1.0
 40
1.0
 40
1.0
 10
13.7248924558
 20
11.6802836197
 30
0.0
 10
13.7234189596
 20
11.6832862891
 30
0.0
 10
13.7210624257
 20
11.6896022448
 30
0.0
 10
13.7194556037
 20
11.6995739281
 30
0.0
 10
13.7197648758
 20
11.7096831888
 30
0.0
 10
13.7211992296
 20
11.7162826305
 30
0.0
 10
13.7221918381
 20
11.7194947127
 30
0.0
  0
SPLINE
  5
484
100
AcDbEntity
  8
0
100
AcDbSpline
 62
7
  6
CONTINUOUS
 70
0
 71
3
 72
13
 73
9
 74
0
 42
0.0000001
 43
0.0000001
 44
0.0000000001
 40
0.0
 40
0.0
 40
0.0
 40
0.0
 40
0.2452539156
 40
0.4960273284
 40
0.6226111748
 40
0.7492727563
 40
0.875329571
 40
1.0
 40
1.0
 40
1.0
 40
1.0
 10
15.979008953
 20
12.8820124787
 30
0.0
 10
15.9662466617
 20
12.8939888951
 30
0.0
 10
15.9408586763
 20
12.9186695383
 30
0.0
 10
15.9106901413
 20
12.951340623
 30
0.0
 10
15.8879535931
 20
12.9792253149
 30
0.0
 10
15.8719080875
 20
13.0010419848
 30
0.0
 10
15.8572870397
 20
13.0236798084
 30
0.0
 10
15.8486865531
 20
13.0393961738
 30
0.0
 10
15.8447669645
 20
13.0473829095
 30
0.0
  0
SPLINE
  5
485
100
AcDbEntity
  8
0
100
AcDbSpline
 62
7
  6
CONTINUOUS
 70
0
 71
3
 72
9
 73
5
 74
0
 42
0.0000001
 43
0.0000001
 44
0.0000000001
 40
0.0
 40
0.0
 40
0.0
 40
0.0
 40
0.2439275329
 40
1.0
 40
1.0
 40
1.0
 40
1.0
 10
15.9363574735
 20
12.4570531149
 30
0.0
 10
15.9306438111
 20
12.4620411029
 30
0.0
 10
15.9072457913
 20
12.482517896
 30
0.0
 10
15.8840840267
 20
12.5032739338
 30
0.0
 10
15.8669412106
 20
12.5193611316
 30
0.0
  0
SPLINE
  5
486
100
AcDbEntity
  8
0
100
AcDbSpline
 62
7
  6
CONTINUOUS
 70
0
 71
3
 72
13
 73
9
 74
0
 42
0.0000001
 43
0.0000001
 44
0.0000000001
 40
0.0
 40
0.0
 40
0.0
 40
0.0
 40
0.2452539156
 40
0.4960273284
 40
0.6226111748
 40
0.7492727563
 40
0.875329571
 40
1.0
 40
1.0
 40
1.0
 40
1.0
 10
15.8669412106
 20
12.5193611316
 30
0.0
 10
15.8541789194
 20
12.5313375481
 30
0.0
 10
15.828790934
 20
12.5560181912
 30
0.0
 10
15.798622399
 20
12.588689276
 30
0.0
 10
15.7758858508
 20
12.6165739679
 30
0.0
 10
15.7598403452
 20
12.6383906377
 30
0.0
 10
15.7452192974
 20
12.6610284614
 30
0.0
 10
15.7366188108
 20
12.6767448267
 30
0.0
 10
15.7326992222
 20
12.6847315625
 30
0.0
  0
SPLINE
  5
487
100
AcDbEntity
  8
0
100
AcDbSpline
 62
7
  6
CONTINUOUS
 70
0
 71
3
 72
9
 73
5
 74
0
 42
0.0000001
 43
0.0000001
 44
0.0000000001
 40
0.0
 40
0.0
 40
0.0
 40
0.0
 40
0.4967432828
 40
1.0
 40
1.0
 40
1.0
 40
1.0
 10
14.2818590695
 20
11.9291374636
 30
0.0
 10
14.2844179954
 20
11.9374220531
 30
0.0
 10
14.2885797686
 20
11.954421758
 30
0.0
 10
14.2907006327
 20
11.971792526
 30
0.0
 10
14.2912686788
 20
11.9805586199
 30
0.0
  0
SPLINE
  5
488
100
AcDbEntity
  8
0
100
AcDbSpline
 62
7
  6
CONTINUOUS
 70
0
 71
3
 72
23
 73
19
 74
0
 42
0.0000001
 43
0.0000001
 44
0.0000000001
 40
0.0
 40
0.0
 40
0.0
 40
0.0
 40
0.0513921187
 40
0.1065362669
 40
0.1652890011
 40
0.227321102
 40
0.2921585143
 40
0.3592179844
 40
0.4278372009
 40
0.4973015126
 40
0.5668686933
 40
0.6357930999
 40
0.7033502665
 40
0.7688598056
 40
0.8317141528
 40
0.8914075588
 40
0.9475629904
 40
1.0
 40
1.0
 40
1.0
 40
1.0
 10
14.8869005678
 20
13.6134796229
 30
0.0
 10
14.9112197045
 20
13.6255686994
 30
0.0
 10
14.9635282678
 20
13.6469195961
 30
0.0
 10
15.0480054585
 20
13.6698061549
 30
0.0
 10
15.1399886115
 20
13.6843884773
 30
0.0
 10
15.2380266707
 20
13.6904476892
 30
0.0
 10
15.3405949612
 20
13.6879026322
 30
0.0
 10
15.4460811326
 20
13.6767963496
 30
0.0
 10
15.5528236468
 20
13.6573053352
 30
0.0
 10
15.6591365406
 20
13.6297372335
 30
0.0
 10
15.7633384346
 20
13.5945270489
 30
0.0
 10
15.863781671
 20
13.5522323293
 30
0.0
 10
15.958878541
 20
13.5035215431
 30
0.0
 10
16.0471296404
 20
13.4491629743
 30
0.0
 10
16.1271449336
 20
13.3900090822
 30
0.0
 10
16.1976699229
 20
13.3269732205
 30
0.0
 10
16.2575972341
 20
13.2610412726
 30
0.0
 10
16.2910153337
 20
13.2141595737
 30
0.0
 10
16.3054650705
 20
13.1905149511
 30
0.0
  0
SPLINE
  5
489
100
AcDbEntity
  8
0
100
AcDbSpline
 62
7
  6
CONTINUOUS
 70
0
 71
3
 72
29
 73
25
 74
0
 42
0.0000001
 43
0.0000001
 44
0.0000000001
 40
0.0
 40
0.0
 40
0.0
 40
0.0
 40
0.0585033359
 40
0.0892001605
 40
0.1207936071
 40
0.1532229728
 40
0.186414413
 40
0.2547263395
 40
0.3249786269
 40
0.3963046542
 40
0.4677870946
 40
0.538501391
 40
0.6075589739
 40
0.6741519905
 40
0.7376011851
 40
0.7679948164
 40
0.7974346743
 40
0.825895895
 40
0.8533744142
 40
0.9054227186
 40
0.9301334918
 40
0.9540584675
 40
0.9773069542
 40
1.0
 40
1.0
 40
1.0
 40
1.0
 10
16.3017486186
 20
13.1910552922
 30
0.0
 10
16.2790491095
 20
13.2196590889
 30
0.0
 10
16.2414019947
 20
13.2609328143
 30
0.0
 10
16.186030464
 20
13.3121333622
 30
0.0
 10
16.1404882748
 20
13.349882506
 30
0.0
 10
16.0918299491
 20
13.3861769123
 30
0.0
 10
16.0224511671
 20
13.4328646113
 30
0.0
 10
15.9293964219
 20
13.4864156458
 30
0.0
 10
15.8105181296
 20
13.5418235835
 30
0.0
 10
15.6856292243
 20
13.5879524586
 30
0.0
 10
15.5571464503
 20
13.623916816
 30
0.0
 10
15.4275453096
 20
13.6490207736
 30
0.0
 10
15.2993076423
 20
13.6627680304
 30
0.0
 10
15.1748784269
 20
13.6648665897
 30
0.0
 10
15.0748676195
 20
13.6567151901
 30
0.0
 10
14.9989287142
 20
13.6440503078
 30
0.0
 10
14.9451652413
 20
13.6317834082
 30
0.0
 10
14.8940236423
 20
13.6166432125
 30
0.0
 10
14.8308211669
 20
13.5931297736
 30
0.0
 10
14.7723655088
 20
13.5637995867
 30
0.0
 10
14.7203556055
 20
13.5283908374
 30
0.0
 10
14.685751127
 20
13.4997122601
 30
0.0
 10
14.6551246391
 20
13.4685618366
 30
0.0
 10
14.637310568
 20
13.4460003321
 30
0.0
 10
14.6291897832
 20
13.4343949678
 30
0.0
  0
SPLINE
  5
48A
100
AcDbEntity
  8
0
100
AcDbSpline
 62
7
  6
CONTINUOUS
 70
0
 71
3
 72
14
 73
10
 74
0
 42
0.0000001
 43
0.0000001
 44
0.0000000001
 40
0.0
 40
0.0
 40
0.0
 40
0.0
 40
0.1167337705
 40
0.2343622055
 40
0.3538391397
 40
0.4759340428
 40
0.6012958348
 40
0.7303895186
 40
1.0
 40
1.0
 40
1.0
 40
1.0
 10
16.3875546512
 20
13.132202173
 30
0.0
 10
16.3852337882
 20
13.1369315946
 30
0.0
 10
16.3797662887
 20
13.1460532504
 30
0.0
 10
16.3693708845
 20
13.1582631236
 30
0.0
 10
16.3569864778
 20
13.168825879
 30
0.0
 10
16.3428651353
 20
13.1775855275
 30
0.0
 10
16.3272620268
 20
13.1844542257
 30
0.0
 10
16.3045137405
 20
13.1911032937
 30
0.0
 10
16.2864101684
 20
13.1929440913
 30
0.0
 10
16.2742426574
 20
13.1929440913
 30
0.0
  0
SPLINE
  5
48B
100
AcDbEntity
  8
0
100
AcDbSpline
 62
7
  6
CONTINUOUS
 70
0
 71
3
 72
10
 73
6
 74
0
 42
0.0000001
 43
0.0000001
 44
0.0000000001
 40
0.0
 40
0.0
 40
0.0
 40
0.0
 40
0.4044180255
 40
0.6757775866
 40
1.0
 40
1.0
 40
1.0
 40
1.0
 10
14.0340292382
 20
12.7217588884
 30
0.0
 10
14.0358790717
 20
12.7148469548
 30
0.0
 10
14.0393891806
 20
12.7034095421
 30
0.0
 10
14.0451021389
 20
12.6866649606
 30
0.0
 10
14.048691031
 20
12.6767566492
 30
0.0
 10
14.050680846
 20
12.6713764975
 30
0.0
  0
SPLINE
  5
48C
100
AcDbEntity
  8
0
100
AcDbSpline
 62
7
  6
CONTINUOUS
 70
0
 71
3
 72
11
 73
7
 74
0
 42
0.0000001
 43
0.0000001
 44
0.0000000001
 40
0.0
 40
0.0
 40
0.0
 40
0.0
 40
0.2448694901
 40
0.4950533279
 40
0.7474356684
 40
1.0
 40
1.0
 40
1.0
 40
1.0
 10
14.0919528519
 20
12.8049327575
 30
0.0
 10
14.0861185252
 20
12.7990269135
 30
0.0
 10
14.0749493984
 20
12.7864557301
 30
0.0
 10
14.0598995212
 20
12.7660355552
 30
0.0
 10
14.0462679604
 20
12.7443441423
 30
0.0
 10
14.037999328
 20
12.7293454701
 30
0.0
 10
14.0340292382
 20
12.7217588884
 30
0.0
  0
SPLINE
  5
48D
100
AcDbEntity
  8
0
100
AcDbSpline
 62
7
  6
CONTINUOUS
 70
0
 71
3
 72
9
 73
5
 74
0
 42
0.0000001
 43
0.0000001
 44
0.0000000001
 40
0.0
 40
0.0
 40
0.0
 40
0.0
 40
0.4675103546
 40
1.0
 40
1.0
 40
1.0
 40
1.0
 10
14.050680846
 20
12.6713764975
 30
0.0
 10
14.0555129498
 20
12.6583112369
 30
0.0
 10
14.0662794741
 20
12.6305247288
 30
0.0
 10
14.0774325743
 20
12.6028941844
 30
0.0
 10
14.083424174
 20
12.5882026284
 30
0.0
  0
SPLINE
  5
48E
100
AcDbEntity
  8
0
100
AcDbSpline
 62
7
  6
CONTINUOUS
 70
0
 71
3
 72
11
 73
7
 74
0
 42
0.0000001
 43
0.0000001
 44
0.0000000001
 40
0.0
 40
0.0
 40
0.0
 40
0.0
 40
0.234078475
 40
0.4778776222
 40
0.7331171135
 40
1.0
 40
1.0
 40
1.0
 40
1.0
 10
14.1659681857
 20
12.8553151485
 30
0.0
 10
14.1595538708
 20
12.8524492367
 30
0.0
 10
14.1466503913
 20
12.8461525434
 30
0.0
 10
14.1277238448
 20
12.8348720412
 30
0.0
 10
14.1091830409
 20
12.8212177694
 30
0.0
 10
14.0975821778
 20
12.8106310879
 30
0.0
 10
14.0919528519
 20
12.8049327575
 30
0.0
  0
SPLINE
  5
48F
100
AcDbEntity
  8
0
100
AcDbSpline
 62
7
  6
CONTINUOUS
 70
0
 71
3
 72
11
 73
7
 74
0
 42
0.0000001
 43
0.0000001
 44
0.0000000001
 40
0.0
 40
0.0
 40
0.0
 40
0.0
 40
0.2719845399
 40
0.5283828627
 40
0.7701902379
 40
1.0
 40
1.0
 40
1.0
 40
1.0
 10
14.2485892672
 20
12.8717108875
 30
0.0
 10
14.240906377
 20
12.8717108875
 30
0.0
 10
14.225966678
 20
12.8709625501
 30
0.0
 10
14.2044400726
 20
12.8675524677
 30
0.0
 10
14.1845291372
 20
12.8622865719
 30
0.0
 10
14.171986251
 20
12.8577489119
 30
0.0
 10
14.1659681857
 20
12.8553151485
 30
0.0
  0
SPLINE
  5
490
100
AcDbEntity
  8
0
100
AcDbSpline
 62
7
  6
CONTINUOUS
 70
0
 71
3
 72
21
 73
17
 74
0
 42
0.0000001
 43
0.0000001
 44
0.0000000001
 40
0.0
 40
0.0
 40
0.0
 40
0.0
 40
0.0238424308
 40
0.053251951
 40
0.0888187643
 40
0.1309501657
 40
0.179725163
 40
0.2350495781
 40
0.2965708493
 40
0.363692743
 40
0.4356899449
 40
0.5116576388
 40
0.5906577881
 40
0.6717413139
 40
0.8365464805
 40
1.0
 40
1.0
 40
1.0
 40
1.0
 10
14.5024984019
 20
13.2502142856
 30
0.0
 10
14.5033065891
 20
13.2485677972
 30
0.0
 10
14.5046430179
 20
13.2446606773
 30
0.0
 10
14.5057675089
 20
13.23790267
 30
0.0
 10
14.50611862
 20
13.2296533817
 30
0.0
 10
14.5055889993
 20
13.2199269951
 30
0.0
 10
14.5041169324
 20
13.208765193
 30
0.0
 10
14.5016344621
 20
13.1962609344
 30
0.0
 10
14.4981296576
 20
13.1825435596
 30
0.0
 10
14.4936201955
 20
13.1677771534
 30
0.0
 10
14.4881541493
 20
13.152155977
 30
0.0
 10
14.4818340076
 20
13.1358769883
 30
0.0
 10
14.4747627339
 20
13.1191490552
 30
0.0
 10
14.4644737567
 20
13.0963699684
 30
0.0
 10
14.4506272296
 20
13.0680802941
 30
0.0
 10
14.4389626796
 20
13.0456824245
 30
0.0
 10
14.4330861449
 20
13.0345660028
 30
0.0
  0
SPLINE
  5
491
100
AcDbEntity
  8
0
100
AcDbSpline
 62
7
  6
CONTINUOUS
 70
0
 71
3
 72
9
 73
5
 74
0
 42
0.0000001
 43
0.0000001
 44
0.0000000001
 40
0.0
 40
0.0
 40
0.0
 40
0.0
 40
0.5205128578
 40
1.0
 40
1.0
 40
1.0
 40
1.0
 10
14.4330861449
 20
13.0345660028
 30
0.0
 10
14.424907284
 20
13.0190943563
 30
0.0
 10
14.408944992
 20
12.989503997
 30
0.0
 10
14.3932031819
 20
12.9597923922
 30
0.0
 10
14.3858814567
 20
12.9454298664
 30
0.0
  0
SPLINE
  5
492
100
AcDbEntity
  8
0
100
AcDbSpline
 62
7
  6
CONTINUOUS
 70
0
 71
3
 72
9
 73
5
 74
0
 42
0.0000001
 43
0.0000001
 44
0.0000000001
 40
0.0
 40
0.0
 40
0.0
 40
0.0
 40
0.5289510374
 40
1.0
 40
1.0
 40
1.0
 40
1.0
 10
14.3858814567
 20
12.9454298664
 30
0.0
 10
14.377993272
 20
12.9299561557
 30
0.0
 10
14.3635643298
 20
12.9004475007
 30
0.0
 10
14.3510644212
 20
12.8700401638
 30
0.0
 10
14.3458728103
 20
12.8554703899
 30
0.0
  0
SPLINE
  5
493
100
AcDbEntity
  8
0
100
AcDbSpline
 62
7
  6
CONTINUOUS
 70
0
 71
3
 72
10
 73
6
 74
0
 42
0.0000001
 43
0.0000001
 44
0.0000000001
 40
0.0
 40
0.0
 40
0.0
 40
0.0
 40
0.2556827639
 40
0.509584379
 40
1.0
 40
1.0
 40
1.0
 40
1.0
 10
14.3473020689
 20
12.8553151485
 30
0.0
 10
14.3390886793
 20
12.8576929478
 30
0.0
 10
14.3226179985
 20
12.8621076205
 30
0.0
 10
14.2899052983
 20
12.8690501114
 30
0.0
 10
14.2649899611
 20
12.8717108875
 30
0.0
 10
14.2485892672
 20
12.8717108875
 30
0.0
  0
SPLINE
  5
494
100
AcDbEntity
  8
0
100
AcDbSpline
 62
7
  6
CONTINUOUS
 70
0
 71
3
 72
11
 73
7
 74
0
 42
0.0000001
 43
0.0000001
 44
0.0000000001
 40
0.0
 40
0.0
 40
0.0
 40
0.0
 40
0.2595124782
 40
0.5111586361
 40
0.7570125661
 40
1.0
 40
1.0
 40
1.0
 40
1.0
 10
14.0002269754
 20
12.5610644107
 30
0.0
 10
13.9981765891
 20
12.5544293583
 30
0.0
 10
13.9951696672
 20
12.5410070569
 30
0.0
 10
13.9942989777
 20
12.520654327
 30
0.0
 10
13.9972668887
 20
12.5009358562
 30
0.0
 10
14.001823268
 20
12.4885572673
 30
0.0
 10
14.004687863
 20
12.4827198364
 30
0.0
  0
SPLINE
  5
495
100
AcDbEntity
  8
0
100
AcDbSpline
 62
7
  6
CONTINUOUS
 70
0
 71
3
 72
11
 73
7
 74
0
 42
0.0000001
 43
0.0000001
 44
0.0000000001
 40
0.0
 40
0.0
 40
0.0
 40
0.0
 40
0.2603999231
 40
0.5121234136
 40
0.7576617756
 40
1.0
 40
1.0
 40
1.0
 40
1.0
 10
14.0615586635
 20
12.6402295549
 30
0.0
 10
14.060468065
 20
12.6341269464
 30
0.0
 10
14.0591450268
 20
12.6219561454
 30
0.0
 10
14.0599315954
 20
12.6038638033
 30
0.0
 10
14.0635158648
 20
12.5865471011
 30
0.0
 10
14.067755241
 20
12.5756640168
 30
0.0
 10
14.0702959407
 20
12.5704842788
 30
0.0
  0
SPLINE
  5
496
100
AcDbEntity
  8
0
100
AcDbSpline
 62
7
  6
CONTINUOUS
 70
0
 71
3
 72
21
 73
17
 74
0
 42
0.0000001
 43
0.0000001
 44
0.0000000001
 40
0.0
 40
0.0
 40
0.0
 40
0.0
 40
0.0238424308
 40
0.053251951
 40
0.0888187643
 40
0.1309501657
 40
0.179725163
 40
0.2350495781
 40
0.2965708493
 40
0.363692743
 40
0.4356899449
 40
0.5116576388
 40
0.5906577881
 40
0.6717413139
 40
0.8365464805
 40
1.0
 40
1.0
 40
1.0
 40
1.0
 10
14.3904306596
 20
12.8875629386
 30
0.0
 10
14.3912388468
 20
12.8859164501
 30
0.0
 10
14.3925752756
 20
12.8820093302
 30
0.0
 10
14.3936997666
 20
12.875251323
 30
0.0
 10
14.3940508777
 20
12.8670020346
 30
0.0
 10
14.3935212569
 20
12.8572756481
 30
0.0
 10
14.3920491901
 20
12.846113846
 30
0.0
 10
14.3895667198
 20
12.8336095874
 30
0.0
 10
14.3860619153
 20
12.8198922126
 30
0.0
 10
14.3815524532
 20
12.8051258064
 30
0.0
 10
14.376086407
 20
12.7895046299
 30
0.0
 10
14.3697662653
 20
12.7732256412
 30
0.0
 10
14.3626949916
 20
12.7564977082
 30
0.0
 10
14.3524060144
 20
12.7337186214
 30
0.0
 10
14.3385594873
 20
12.7054289471
 30
0.0
 10
14.3268949373
 20
12.6830310774
 30
0.0
 10
14.3210184026
 20
12.6719146557
 30
0.0
  0
SPLINE
  5
497
100
AcDbEntity
  8
0
100
AcDbSpline
 62
7
  6
CONTINUOUS
 70
0
 71
3
 72
9
 73
5
 74
0
 42
0.0000001
 43
0.0000001
 44
0.0000000001
 40
0.0
 40
0.0
 40
0.0
 40
0.0
 40
0.5205128578
 40
1.0
 40
1.0
 40
1.0
 40
1.0
 10
14.3210184026
 20
12.6719146557
 30
0.0
 10
14.3128395416
 20
12.6564430092
 30
0.0
 10
14.2968772497
 20
12.62685265
 30
0.0
 10
14.2811354395
 20
12.5971410451
 30
0.0
 10
14.2738137144
 20
12.5827785194
 30
0.0
  0
SPLINE
  5
498
100
AcDbEntity
  8
0
100
AcDbSpline
 62
7
  6
CONTINUOUS
 70
0
 71
3
 72
9
 73
5
 74
0
 42
0.0000001
 43
0.0000001
 44
0.0000000001
 40
0.0
 40
0.0
 40
0.0
 40
0.0
 40
0.5346795223
 40
1.0
 40
1.0
 40
1.0
 40
1.0
 10
14.2738137144
 20
12.5827785194
 30
0.0
 10
14.2642870406
 20
12.564090697
 30
0.0
 10
14.2471558988
 20
12.5287715875
 30
0.0
 10
14.2331262483
 20
12.4920395619
 30
0.0
 10
14.2277358585
 20
12.4745985869
 30
0.0
  0
SPLINE
  5
499
100
AcDbEntity
  8
0
100
AcDbSpline
 62
7
  6
CONTINUOUS
 70
0
 71
3
 72
12
 73
8
 74
0
 42
0.0000001
 43
0.0000001
 44
0.0000000001
 40
0.0
 40
0.0
 40
0.0
 40
0.0
 40
0.277713018
 40
0.5345457478
 40
0.7725317912
 40
0.8870203684
 40
1.0
 40
1.0
 40
1.0
 40
1.0
 10
13.8728261156
 20
11.4450479338
 30
0.0
 10
13.868025035
 20
11.4450479338
 30
0.0
 10
13.8587418628
 20
11.4459698742
 30
0.0
 10
13.8460009099
 20
11.4504142148
 30
0.0
 10
13.8372666228
 20
11.4566205347
 30
0.0
 10
13.832013234
 20
11.4627570906
 30
0.0
 10
13.8299768937
 20
11.4661474407
 30
0.0
 10
13.8291160578
 20
11.4679006905
 30
0.0
  0
SPLINE
  5
49A
100
AcDbEntity
  8
0
100
AcDbSpline
 62
7
  6
CONTINUOUS
 70
0
 71
3
 72
13
 73
9
 74
0
 42
0.0000001
 43
0.0000001
 44
0.0000000001
 40
0.0
 40
0.0
 40
0.0
 40
0.0
 40
0.2295912645
 40
0.3545071927
 40
0.4839009318
 40
0.6155874141
 40
0.7471418964
 40
1.0
 40
1.0
 40
1.0
 40
1.0
 10
17.2815385317
 20
11.4972697278
 30
0.0
 10
17.2793003855
 20
11.4900270841
 30
0.0
 10
17.27332267
 20
11.479556531
 30
0.0
 10
17.2623307636
 20
11.4679292842
 30
0.0
 10
17.2522518944
 20
11.4600427513
 30
0.0
 10
17.2409629191
 20
11.4535753272
 30
0.0
 10
17.2251126274
 20
11.4472381245
 30
0.0
 10
17.212345508
 20
11.4450479338
 30
0.0
 10
17.2039967105
 20
11.4450479338
 30
0.0
  0
SPLINE
  5
49B
100
AcDbEntity
  8
0
100
AcDbSpline
 62
7
  6
CONTINUOUS
 70
0
 71
3
 72
14
 73
10
 74
0
 42
0.0000001
 43
0.0000001
 44
0.0000000001
 40
0.0
 40
0.0
 40
0.0
 40
0.0
 40
0.1164577259
 40
0.233822418
 40
0.3529569812
 40
0.4746709062
 40
0.5997000663
 40
0.728685793
 40
1.0
 40
1.0
 40
1.0
 40
1.0
 10
14.3601390868
 20
12.1480414344
 30
0.0
 10
14.3572822376
 20
12.1387978686
 30
0.0
 10
14.3525511449
 20
12.1199113146
 30
0.0
 10
14.3485130852
 20
12.0908150458
 30
0.0
 10
14.3475293082
 20
12.0610181404
 30
0.0
 10
14.3496089198
 20
12.030644395
 30
0.0
 10
14.3547320922
 20
11.9998046818
 30
0.0
 10
14.3657782191
 20
11.9575368598
 30
0.0
 10
14.3783412386
 20
11.9265425692
 30
0.0
 10
14.3882710728
 20
11.9063076947
 30
0.0
  0
SPLINE
  5
49C
100
AcDbEntity
  8
0
100
AcDbSpline
 62
7
  6
CONTINUOUS
 70
0
 71
3
 72
14
 73
10
 74
0
 42
0.0000001
 43
0.0000001
 44
0.0000000001
 40
0.0
 40
0.0
 40
0.0
 40
0.0
 40
0.118322587
 40
0.2372747882
 40
0.3576018766
 40
0.4799398768
 40
0.6048555949
 40
0.7329184868
 40
1.0
 40
1.0
 40
1.0
 40
1.0
 10
14.2550191903
 20
12.2806412319
 30
0.0
 10
14.2514470578
 20
12.2690818069
 30
0.0
 10
14.2455337005
 20
12.2454943066
 30
0.0
 10
14.2404771429
 20
12.2092138729
 30
0.0
 10
14.2392366146
 20
12.1721918222
 30
0.0
 10
14.2417699725
 20
12.1346309986
 30
0.0
 10
14.2480398107
 20
12.0967096367
 30
0.0
 10
14.2614547253
 20
12.0451962315
 30
0.0
 10
14.2766939145
 20
12.0075279023
 30
0.0
 10
14.2887250248
 20
11.9830110772
 30
0.0
  0
SPLINE
  5
49D
100
AcDbEntity
  8
0
100
AcDbSpline
 62
7
  6
CONTINUOUS
 70
0
 71
3
 72
11
 73
7
 74
0
 42
0.0000001
 43
0.0000001
 44
0.0000000001
 40
0.0
 40
0.0
 40
0.0
 40
0.0
 40
0.2632813553
 40
0.515875863
 40
0.7604233066
 40
1.0
 40
1.0
 40
1.0
 40
1.0
 10
14.2390195752
 20
12.1730563985
 30
0.0
 10
14.2307150411
 20
12.1940646952
 30
0.0
 10
14.2169161889
 20
12.2362766097
 30
0.0
 10
14.2053395686
 20
12.3007153832
 30
0.0
 10
14.2036683338
 20
12.364153741
 30
0.0
 10
14.2093156932
 20
12.4055333935
 30
0.0
 10
14.2138052746
 20
12.4255933432
 30
0.0
  0
SPLINE
  5
49E
100
AcDbEntity
  8
0
100
AcDbSpline
 62
7
  6
CONTINUOUS
 70
0
 71
3
 72
29
 73
25
 74
0
 42
0.0000001
 43
0.0000001
 44
0.0000000001
 40
0.0
 40
0.0
 40
0.0
 40
0.0
 40
0.0676724182
 40
0.1378335345
 40
0.2097698542
 40
0.2826926244
 40
0.3557723594
 40
0.4281734122
 40
0.4990876765
 40
0.5677694941
 40
0.6335724682
 40
0.6959900001
 40
0.7258325514
 40
0.7547268746
 40
0.7826689481
 40
0.8096742312
 40
0.8357757308
 40
0.861026248
 40
0.8854998449
 40
0.909287702
 40
0.9325007885
 40
0.9552651379
 40
0.9777154777
 40
1.0
 40
1.0
 40
1.0
 40
1.0
 10
16.1249208441
 20
13.2445737971
 30
0.0
 10
16.0911266892
 20
13.2697619491
 30
0.0
 10
16.0198237332
 20
13.3178131821
 30
0.0
 10
15.9055357133
 20
13.3814056383
 30
0.0
 10
15.7835535822
 20
13.4370163695
 30
0.0
 10
15.6559594476
 20
13.4837088956
 30
0.0
 10
15.5249209631
 20
13.5206967882
 30
0.0
 10
15.3926680668
 20
13.5473479061
 30
0.0
 10
15.2614417032
 20
13.5632003209
 30
0.0
 10
15.133441547
 20
13.567965073
 30
0.0
 10
15.0108017841
 20
13.5615238016
 30
0.0
 10
14.9132817448
 20
13.5466276019
 30
0.0
 10
14.8398952898
 20
13.528903287
 30
0.0
 10
14.7882408978
 20
13.5130852296
 30
0.0
 10
14.7393675652
 20
13.4945839563
 30
0.0
 10
14.6934750873
 20
13.4734526573
 30
0.0
 10
14.6507632231
 20
13.4497397306
 30
0.0
 10
14.6114216791
 20
13.4235123232
 30
0.0
 10
14.5756472476
 20
13.3948372062
 30
0.0
 10
14.5436288107
 20
13.3638082748
 30
0.0
 10
14.5155659306
 20
13.3305328061
 30
0.0
 10
14.4916475765
 20
13.295156185
 30
0.0
 10
14.4720483427
 20
13.2578681901
 30
0.0
 10
14.4619531932
 20
13.2318217406
 30
0.0
 10
14.4576870103
 20
13.2186141949
 30
0.0
  0
SPLINE
  5
49F
100
AcDbEntity
  8
0
100
AcDbSpline
 62
7
  6
CONTINUOUS
 70
0
 71
3
 72
11
 73
7
 74
0
 42
0.0000001
 43
0.0000001
 44
0.0000000001
 40
0.0
 40
0.0
 40
0.0
 40
0.0
 40
0.2433453258
 40
0.4895168645
 40
0.7411649021
 40
1.0
 40
1.0
 40
1.0
 40
1.0
 10
16.1793746445
 20
12.7439473803
 30
0.0
 10
16.1770274891
 20
12.7487325385
 30
0.0
 10
16.1715396728
 20
12.7580027152
 30
0.0
 10
16.161177043
 20
12.770576807
 30
0.0
 10
16.1488022123
 20
12.7816859136
 30
0.0
 10
16.1394796589
 20
12.7879320549
 30
0.0
 10
16.1345732783
 20
12.7907720896
 30
0.0
  0
SPLINE
  5
4A0
100
AcDbEntity
  8
0
100
AcDbSpline
 62
7
  6
CONTINUOUS
 70
0
 71
3
 72
11
 73
7
 74
0
 42
0.0000001
 43
0.0000001
 44
0.0000000001
 40
0.0
 40
0.0
 40
0.0
 40
0.0
 40
0.2433453258
 40
0.4895168645
 40
0.7411649021
 40
1.0
 40
1.0
 40
1.0
 40
1.0
 10
16.2914423868
 20
13.1065987274
 30
0.0
 10
16.2890952314
 20
13.1113838855
 30
0.0
 10
16.2836074151
 20
13.1206540622
 30
0.0
 10
16.2732447854
 20
13.133228154
 30
0.0
 10
16.2608699546
 20
13.1443372606
 30
0.0
 10
16.2515474012
 20
13.150583402
 30
0.0
 10
16.2466410206
 20
13.1534234366
 30
0.0
  0
LINE
  5
4A1
100
AcDbEntity
  8
0
100
AcDbLine
 62
7
  6
CONTINUOUS
 10
14.718857104
 20
13.163066931
 11
14.7200436799
 21
13.1609063993
  0
LINE
  5
4A2
100
AcDbEntity
  8
0
100
AcDbLine
 62
7
  6
CONTINUOUS
 10
14.7200436799
 20
13.1609063993
 11
14.7204900621
 21
13.1595116545
  0
SPLINE
  5
4A3
100
AcDbEntity
  8
0
100
AcDbSpline
 62
7
  6
CONTINUOUS
 70
0
 71
3
 72
25
 73
21
 74
0
 42
0.0000001
 43
0.0000001
 44
0.0000000001
 40
0.0
 40
0.0
 40
0.0
 40
0.0
 40
0.0925560537
 40
0.1659252647
 40
0.220092051
 40
0.23994293
 40
0.2549427044
 40
0.2650641443
 40
0.270350525
 40
0.2711547777
 40
0.2750174499
 40
0.2830841108
 40
0.295159583
 40
0.3305366778
 40
0.3795921734
 40
0.4408639985
 40
0.5130108848
 40
0.5948535178
 40
0.7836814423
 40
1.0
 40
1.0
 40
1.0
 40
1.0
 10
14.7769590789
 20
13.2106134319
 30
0.0
 10
14.7771360761
 20
13.2106169037
 30
0.0
 10
14.7774535264
 20
13.2106172991
 30
0.0
 10
14.7778743435
 20
13.2106025789
 30
0.0
 10
14.7781555051
 20
13.2105811462
 30
0.0
 10
14.7783250849
 20
13.2105664138
 30
0.0
 10
14.7784104151
 20
13.2105541276
 30
0.0
 10
14.7784686094
 20
13.2105540008
 30
0.0
 10
14.7784988945
 20
13.2105416782
 30
0.0
 10
14.7785186538
 20
13.2105522966
 30
0.0
 10
14.7784727389
 20
13.2105582797
 30
0.0
 10
14.7784447214
 20
13.2105722279
 30
0.0
 10
14.7783319335
 20
13.2106015589
 30
0.0
 10
14.7781641037
 20
13.2106573675
 30
0.0
 10
14.7778972973
 20
13.2107499707
 30
0.0
 10
14.7775748815
 20
13.2108803905
 30
0.0
 10
14.7772003226
 20
13.2110529254
 30
0.0
 10
14.7766214762
 20
13.211361246
 30
0.0
 10
14.7758350698
 20
13.2118634604
 30
0.0
 10
14.7752218176
 20
13.212339215
 30
0.0
 10
14.7749068091
 20
13.2126074676
 30
0.0
  0
SPLINE
  5
4A4
100
AcDbEntity
  8
0
100
AcDbSpline
 62
7
  6
CONTINUOUS
 70
0
 71
3
 72
9
 73
5
 74
0
 42
0.0000001
 43
0.0000001
 44
0.0000000001
 40
0.0
 40
0.0
 40
0.0
 40
0.0
 40
0.2478365354
 40
1.0
 40
1.0
 40
1.0
 40
1.0
 10
14.688809545
 20
13.2119029913
 30
0.0
 10
14.6891969761
 20
13.2131567189
 30
0.0
 10
14.6909807505
 20
13.2181460127
 30
0.0
 10
14.6935939354
 20
13.222827334
 30
0.0
 10
14.6959025248
 20
13.2260724367
 30
0.0
  0
SPLINE
  5
4A5
100
AcDbEntity
  8
0
100
AcDbSpline
 62
7
  6
CONTINUOUS
 70
0
 71
3
 72
18
 73
14
 74
0
 42
0.0000001
 43
0.0000001
 44
0.0000000001
 40
0.0
 40
0.0
 40
0.0
 40
0.0
 40
0.1271645864
 40
0.1909473487
 40
0.2544354432
 40
0.3795905424
 40
0.503292158
 40
0.565244025
 40
0.6273287315
 40
0.6895311747
 40
0.7518404914
 40
0.8760043996
 40
1.0
 40
1.0
 40
1.0
 40
1.0
 10
14.6959025248
 20
13.2260724367
 30
0.0
 10
14.6984414659
 20
13.2296413366
 30
0.0
 10
14.7029193159
 20
13.2345633705
 30
0.0
 10
14.7098351656
 20
13.2399669903
 30
0.0
 10
14.7172691917
 20
13.2445074421
 30
0.0
 10
14.7274122086
 20
13.2484401809
 30
0.0
 10
14.7382439162
 20
13.2494450988
 30
0.0
 10
14.7467204735
 20
13.248207098
 30
0.0
 10
14.7528570753
 20
13.2462335839
 30
0.0
 10
14.7585729191
 20
13.2432211744
 30
0.0
 10
14.7653632295
 20
13.2379382256
 30
0.0
 10
14.7719041129
 20
13.2291695156
 30
0.0
 10
14.7743299216
 20
13.2207676092
 30
0.0
 10
14.774825588
 20
13.2165257477
 30
0.0
  0
SPLINE
  5
4A6
100
AcDbEntity
  8
0
100
AcDbSpline
 62
7
  6
CONTINUOUS
 70
0
 71
3
 72
9
 73
5
 74
0
 42
0.0000001
 43
0.0000001
 44
0.0000000001
 40
0.0
 40
0.0
 40
0.0
 40
0.0
 40
0.4990014475
 40
1.0
 40
1.0
 40
1.0
 40
1.0
 10
14.7750260698
 20
13.2142043762
 30
0.0
 10
14.7751640853
 20
13.2117414374
 30
0.0
 10
14.7749651393
 20
13.2067694765
 30
0.0
 10
14.7738902261
 20
13.2019172329
 30
0.0
 10
14.7731589942
 20
13.1995509656
 30
0.0
  0
SPLINE
  5
4A7
100
AcDbEntity
  8
0
100
AcDbSpline
 62
7
  6
CONTINUOUS
 70
0
 71
3
 72
9
 73
5
 74
0
 42
0.0000001
 43
0.0000001
 44
0.0000000001
 40
0.0
 40
0.0
 40
0.0
 40
0.0
 40
0.5011897738
 40
1.0
 40
1.0
 40
1.0
 40
1.0
 10
14.7349303335
 20
13.1637233179
 30
0.0
 10
14.7326234127
 20
13.1631510047
 30
0.0
 10
14.7279260057
 20
13.1623563526
 30
0.0
 10
14.7231567665
 20
13.1623446471
 30
0.0
 10
14.7208000825
 20
13.1625494627
 30
0.0
  0
SPLINE
  5
4A8
100
AcDbEntity
  8
0
100
AcDbSpline
 62
7
  6
CONTINUOUS
 70
0
 71
3
 72
15
 73
11
 74
0
 42
0.0000001
 43
0.0000001
 44
0.0000000001
 40
0.0
 40
0.0
 40
0.0
 40
0.0
 40
0.124706376
 40
0.2496825605
 40
0.3749188233
 40
0.500251585
 40
0.6254805346
 40
0.7505008008
 40
0.8750353937
 40
1.0
 40
1.0
 40
1.0
 40
1.0
 10
14.7208000825
 20
13.1625494627
 30
0.0
 10
14.7179964777
 20
13.1627931195
 30
0.0
 10
14.7124139967
 20
13.1638753557
 30
0.0
 10
14.7046078971
 20
13.1673191625
 30
0.0
 10
14.6977883634
 20
13.1724837214
 30
0.0
 10
14.692371378
 20
13.1791122122
 30
0.0
 10
14.6886567157
 20
13.1868165138
 30
0.0
 10
14.6868052159
 20
13.1951434498
 30
0.0
 10
14.6868119881
 20
13.203656894
 30
0.0
 10
14.6879769474
 20
13.2092087044
 30
0.0
 10
14.688809545
 20
13.2119029913
 30
0.0
  0
SPLINE
  5
4A9
100
AcDbEntity
  8
0
100
AcDbSpline
 62
7
  6
CONTINUOUS
 70
0
 71
3
 72
32
 73
28
 74
0
 42
0.0000001
 43
0.0000001
 44
0.0000000001
 40
0.0
 40
0.0
 40
0.0
 40
0.0
 40
0.0214537188
 40
0.0432031689
 40
0.0655247817
 40
0.0886614017
 40
0.112807127
 40
0.1381100525
 40
0.1646670298
 40
0.19253193
 40
0.221717419
 40
0.2522000886
 40
0.283928109
 40
0.3168204572
 40
0.350777681
 40
0.385678134
 40
0.457735238
 40
0.5318022562
 40
0.6065480582
 40
0.6806046139
 40
0.7526398354
 40
0.8214405842
 40
0.8859900322
 40
0.9164509006
 40
0.9456221297
 40
0.9734765644
 40
1.0
 40
1.0
 40
1.0
 40
1.0
 10
14.6945379522
 20
12.0447043749
 30
0.0
 10
14.6967250351
 20
12.05178419
 30
0.0
 10
14.7021743879
 20
12.0657416775
 30
0.0
 10
14.713371385
 20
12.0854910531
 30
0.0
 10
14.7275150547
 20
12.1039855228
 30
0.0
 10
14.744500555
 20
12.1210850638
 30
0.0
 10
14.7641902778
 20
12.136690833
 30
0.0
 10
14.7864505997
 20
12.1506939452
 30
0.0
 10
14.8111207454
 20
12.1630164155
 30
0.0
 10
14.8380358145
 20
12.1735754289
 30
0.0
 10
14.8670122111
 20
12.182307011
 30
0.0
 10
14.8978548871
 20
12.1891564224
 30
0.0
 10
14.9303561843
 20
12.1940749771
 30
0.0
 10
14.9642959794
 20
12.1970377088
 30
0.0
 10
14.9994458098
 20
12.1980168287
 30
0.0
 10
15.0481185065
 20
12.1966651205
 30
0.0
 10
15.1103984002
 20
12.1899217552
 30
0.0
 10
15.1851868552
 20
12.1743184984
 30
0.0
 10
15.2588337947
 20
12.1515296728
 30
0.0
 10
15.329356954
 20
12.1221682217
 30
0.0
 10
15.3948745838
 20
12.087018652
 30
0.0
 10
15.4536267257
 20
12.0470199648
 30
0.0
 10
15.4964770789
 20
12.009813686
 30
0.0
 10
15.5257920187
 20
11.9784594728
 30
0.0
 10
15.544751757
 20
11.9548898942
 30
0.0
 10
15.5609676713
 20
11.9309808804
 30
0.0
 10
15.5701013036
 20
11.9145317882
 30
0.0
 10
15.5741371025
 20
11.9063076947
 30
0.0
  0
SPLINE
  5
4AA
100
AcDbEntity
  8
0
100
AcDbSpline
 62
7
  6
CONTINUOUS
 70
0
 71
3
 72
14
 73
10
 74
0
 42
0.0000001
 43
0.0000001
 44
0.0000000001
 40
0.0
 40
0.0
 40
0.0
 40
0.0
 40
0.1413083465
 40
0.2778316116
 40
0.5343818252
 40
0.6555522741
 40
0.7727820064
 40
0.8871446461
 40
1.0
 40
1.0
 40
1.0
 40
1.0
 10
14.0473463366
 20
12.0045378842
 30
0.0
 10
14.043525059
 20
12.0045378842
 30
0.0
 10
14.0360027077
 20
12.0049243668
 30
0.0
 10
14.0217223162
 20
12.0072389107
 30
0.0
 10
14.0084173092
 20
12.0118929235
 30
0.0
 10
13.9969779637
 20
12.0189211102
 30
0.0
 10
13.9896608624
 20
12.0251042636
 30
0.0
 10
13.9835752257
 20
12.032208646
 30
0.0
 10
13.9803944275
 20
12.0375058637
 30
0.0
 10
13.9790493714
 20
12.0402453166
 30
0.0
  0
SPLINE
  5
4AB
100
AcDbEntity
  8
0
100
AcDbSpline
 62
7
  6
CONTINUOUS
 70
0
 71
3
 72
11
 73
7
 74
0
 42
0.0000001
 43
0.0000001
 44
0.0000000001
 40
0.0
 40
0.0
 40
0.0
 40
0.0
 40
0.2321658566
 40
0.4766509698
 40
0.732858832
 40
1.0
 40
1.0
 40
1.0
 40
1.0
 10
14.1539907017
 20
11.9469926679
 30
0.0
 10
14.1614404013
 20
11.9501236846
 30
0.0
 10
14.1762770927
 20
11.9576768213
 30
0.0
 10
14.1974793167
 20
11.9719480469
 30
0.0
 10
14.2180111369
 20
11.9891214216
 30
0.0
 10
14.2308936796
 20
12.0020349653
 30
0.0
 10
14.2372029939
 20
12.0088651083
 30
0.0
  0
SPLINE
  5
4AC
100
AcDbEntity
  8
0
100
AcDbSpline
 62
7
  6
CONTINUOUS
 70
0
 71
3
 72
9
 73
5
 74
0
 42
0.0000001
 43
0.0000001
 44
0.0000000001
 40
0.0
 40
0.0
 40
0.0
 40
0.0
 40
0.514003223
 40
1.0
 40
1.0
 40
1.0
 40
1.0
 10
14.0418454244
 20
11.912891463
 30
0.0
 10
14.0615375893
 20
11.9169529948
 30
0.0
 10
14.0995387737
 20
11.9264771984
 30
0.0
 10
14.1364646069
 20
11.9396266666
 30
0.0
 10
14.1539907017
 20
11.9469926679
 30
0.0
  0
SPLINE
  5
4AD
100
AcDbEntity
  8
0
100
AcDbSpline
 62
7
  6
CONTINUOUS
 70
0
 71
3
 72
9
 73
5
 74
0
 42
0.0000001
 43
0.0000001
 44
0.0000000001
 40
0.0
 40
0.0
 40
0.0
 40
0.0
 40
0.2604744435
 40
1.0
 40
1.0
 40
1.0
 40
1.0
 10
14.0183258853
 20
11.9106276695
 30
0.0
 10
14.0203793203
 20
11.9106276695
 30
0.0
 10
14.0282603616
 20
11.9108057896
 30
0.0
 10
14.0361355999
 20
11.9117138051
 30
0.0
 10
14.0418454244
 20
11.912891463
 30
0.0
  0
SPLINE
  5
4AE
100
AcDbEntity
  8
0
100
AcDbSpline
 62
7
  6
CONTINUOUS
 70
0
 71
3
 72
9
 73
5
 74
0
 42
0.0000001
 43
0.0000001
 44
0.0000000001
 40
0.0
 40
0.0
 40
0.0
 40
0.0
 40
0.264845349
 40
1.0
 40
1.0
 40
1.0
 40
1.0
 10
14.9497088317
 20
11.4535766303
 30
0.0
 10
14.9501477465
 20
11.4526822159
 30
0.0
 10
14.9516615375
 20
11.4492400059
 30
0.0
 10
14.9525594154
 20
11.4455013174
 30
0.0
 10
14.9527097098
 20
11.4427398729
 30
0.0
  0
SPLINE
  5
4AF
100
AcDbEntity
  8
0
100
AcDbSpline
 62
7
  6
CONTINUOUS
 70
0
 71
3
 72
9
 73
5
 74
0
 42
0.0000001
 43
0.0000001
 44
0.0000000001
 40
0.0
 40
0.0
 40
0.0
 40
0.0
 40
0.5055036704
 40
1.0
 40
1.0
 40
1.0
 40
1.0
 10
14.9527097098
 20
11.4427398729
 30
0.0
 10
14.9527779512
 20
11.4414860338
 30
0.0
 10
14.9527065671
 20
11.4389889562
 30
0.0
 10
14.9521901346
 20
11.4365433634
 30
0.0
 10
14.9518275474
 20
11.4353697453
 30
0.0
  0
SPLINE
  5
4B0
100
AcDbEntity
  8
0
100
AcDbSpline
 62
7
  6
CONTINUOUS
 70
0
 71
3
 72
11
 73
7
 74
0
 42
0.0000001
 43
0.0000001
 44
0.0000000001
 40
0.0
 40
0.0
 40
0.0
 40
0.0
 40
0.2437136676
 40
0.4977416468
 40
0.7529844738
 40
1.0
 40
1.0
 40
1.0
 40
1.0
 10
14.1549721706
 20
12.0511791214
 30
0.0
 10
14.145705667
 20
12.0511791214
 30
0.0
 10
14.1267345725
 20
12.0488565056
 30
0.0
 10
14.0994880901
 20
12.0394746206
 30
0.0
 10
14.0745315515
 20
12.0248215943
 30
0.0
 10
14.0602545418
 20
12.0118710024
 30
0.0
 10
14.0540843295
 20
12.0047901104
 30
0.0
  0
SPLINE
  5
4B1
100
AcDbEntity
  8
0
100
AcDbSpline
 62
7
  6
CONTINUOUS
 70
0
 71
3
 72
11
 73
7
 74
0
 42
0.0000001
 43
0.0000001
 44
0.0000000001
 40
0.0
 40
0.0
 40
0.0
 40
0.0
 40
0.275330893
 40
0.5301997838
 40
0.7694296606
 40
1.0
 40
1.0
 40
1.0
 40
1.0
 10
14.9336429348
 20
11.4073614801
 30
0.0
 10
14.9353897759
 20
11.4082075966
 30
0.0
 10
14.9386425808
 20
11.410089219
 30
0.0
 10
14.9427967462
 20
11.4136287555
 30
0.0
 10
14.9459432071
 20
11.4177046304
 30
0.0
 10
14.9473132967
 20
11.4207613053
 30
0.0
 10
14.9477931579
 20
11.422314285
 30
0.0
  0
SPLINE
  5
4B2
100
AcDbEntity
  8
0
100
AcDbSpline
 62
7
  6
CONTINUOUS
 70
0
 71
3
 72
14
 73
10
 74
0
 42
0.0000001
 43
0.0000001
 44
0.0000000001
 40
0.0
 40
0.0
 40
0.0
 40
0.0
 40
0.1413093221
 40
0.277833844
 40
0.5343894453
 40
0.6555625734
 40
0.7727932948
 40
0.887150751
 40
1.0
 40
1.0
 40
1.0
 40
1.0
 10
16.84890686
 20
12.0045378842
 30
0.0
 10
16.8450855468
 20
12.0045378842
 30
0.0
 10
16.8375631146
 20
12.0049243538
 30
0.0
 10
16.8232824898
 20
12.0072389088
 30
0.0
 10
16.8099771239
 20
12.0118928618
 30
0.0
 10
16.7985377214
 20
12.0189215444
 30
0.0
 10
16.7912209164
 20
12.0251049744
 30
0.0
 10
16.7851350234
 20
12.0322087465
 30
0.0
 10
16.7819541824
 20
12.037505658
 30
0.0
 10
16.7806093661
 20
12.0402450529
 30
0.0
  0
SPLINE
  5
4B3
100
AcDbEntity
  8
0
100
AcDbSpline
 62
7
  6
CONTINUOUS
 70
0
 71
3
 72
9
 73
5
 74
0
 42
0.0000001
 43
0.0000001
 44
0.0000000001
 40
0.0
 40
0.0
 40
0.0
 40
0.0
 40
0.2558766367
 40
1.0
 40
1.0
 40
1.0
 40
1.0
 10
16.9476552184
 20
11.912891463
 30
0.0
 10
16.9498289406
 20
11.9125186064
 30
0.0
 10
16.9583517433
 20
11.9112311123
 30
0.0
 10
16.9669827786
 20
11.9106276695
 30
0.0
 10
16.9733965744
 20
11.9106276695
 30
0.0
  0
SPLINE
  5
4B4
100
AcDbEntity
  8
0
100
AcDbSpline
 62
7
  6
CONTINUOUS
 70
0
 71
3
 72
11
 73
7
 74
0
 42
0.0000001
 43
0.0000001
 44
0.0000000001
 40
0.0
 40
0.0
 40
0.0
 40
0.0
 40
0.2437114618
 40
0.4977412085
 40
0.7529783536
 40
1.0
 40
1.0
 40
1.0
 40
1.0
 10
16.9565326941
 20
12.0511791214
 30
0.0
 10
16.9472663196
 20
12.0511791214
 30
0.0
 10
16.9282953083
 20
12.048856703
 30
0.0
 10
16.9010492191
 20
12.0394748641
 30
0.0
 10
16.876092386
 20
12.0248225208
 30
0.0
 10
16.8618155932
 20
12.0118715603
 30
0.0
 10
16.8556458686
 20
12.0047899957
 30
0.0
  0
SPLINE
  5
4B5
100
AcDbEntity
  8
0
100
AcDbSpline
 62
7
  6
CONTINUOUS
 70
0
 71
3
 72
10
 73
6
 74
0
 42
0.0000001
 43
0.0000001
 44
0.0000000001
 40
0.0
 40
0.0
 40
0.0
 40
0.0
 40
0.2556827639
 40
0.509584379
 40
1.0
 40
1.0
 40
1.0
 40
1.0
 10
16.1029001454
 20
12.8553151485
 30
0.0
 10
16.0946867557
 20
12.8576929478
 30
0.0
 10
16.0782160749
 20
12.8621076205
 30
0.0
 10
16.0455033748
 20
12.8690501114
 30
0.0
 10
16.0205880375
 20
12.8717108875
 30
0.0
 10
16.0041873437
 20
12.8717108875
 30
0.0
  0
SPLINE
  5
4B6
100
AcDbEntity
  8
0
100
AcDbSpline
 62
7
  6
CONTINUOUS
 70
0
 71
3
 72
9
 73
5
 74
0
 42
0.0000001
 43
0.0000001
 44
0.0000000001
 40
0.0
 40
0.0
 40
0.0
 40
0.0
 40
0.5144772011
 40
1.0
 40
1.0
 40
1.0
 40
1.0
 10
14.6108777486
 20
12.5898444383
 30
0.0
 10
14.6105492148
 20
12.5948812543
 30
0.0
 10
14.6102385718
 20
12.6046961405
 30
0.0
 10
14.6111485208
 20
12.6145230451
 30
0.0
 10
14.6121069957
 20
12.6191890677
 30
0.0
  0
SPLINE
  5
4B7
100
AcDbEntity
  8
0
100
AcDbSpline
 62
7
  6
CONTINUOUS
 70
0
 71
3
 72
11
 73
7
 74
0
 42
0.0000001
 43
0.0000001
 44
0.0000000001
 40
0.0
 40
0.0
 40
0.0
 40
0.0
 40
0.234078475
 40
0.4778776222
 40
0.7331171135
 40
1.0
 40
1.0
 40
1.0
 40
1.0
 10
15.9215662622
 20
12.8553151485
 30
0.0
 10
15.9151519472
 20
12.8524492367
 30
0.0
 10
15.9022484678
 20
12.8461525434
 30
0.0
 10
15.8833219212
 20
12.8348720412
 30
0.0
 10
15.8647811174
 20
12.8212177694
 30
0.0
 10
15.8531802542
 20
12.8106310879
 30
0.0
 10
15.8475509283
 20
12.8049327575
 30
0.0
  0
SPLINE
  5
4B8
100
AcDbEntity
  8
0
100
AcDbSpline
 62
7
  6
CONTINUOUS
 70
0
 71
3
 72
10
 73
6
 74
0
 42
0.0000001
 43
0.0000001
 44
0.0000000001
 40
0.0
 40
0.0
 40
0.0
 40
0.0
 40
0.2152492861
 40
0.4578773951
 40
1.0
 40
1.0
 40
1.0
 40
1.0
 10
14.7014400468
 20
12.6812048243
 30
0.0
 10
14.7029528338
 20
12.680548706
 30
0.0
 10
14.7061151515
 20
12.6790243243
 30
0.0
 10
14.7128355901
 20
12.6753433838
 30
0.0
 10
14.7179367846
 20
12.6721533657
 30
0.0
 10
14.7214190951
 20
12.6698904252
 30
0.0
  0
SPLINE
  5
4B9
100
AcDbEntity
  8
0
100
AcDbSpline
 62
7
  6
CONTINUOUS
 70
0
 71
3
 72
11
 73
7
 74
0
 42
0.0000001
 43
0.0000001
 44
0.0000000001
 40
0.0
 40
0.0
 40
0.0
 40
0.0
 40
0.2614262416
 40
0.5224382981
 40
0.771787329
 40
1.0
 40
1.0
 40
1.0
 40
1.0
 10
14.651445292
 20
12.6712835995
 30
0.0
 10
14.6469555106
 20
12.6683916668
 30
0.0
 10
14.6384411779
 20
12.661871713
 30
0.0
 10
14.6274893453
 20
12.6504440046
 30
0.0
 10
14.6188798111
 20
12.6379741373
 30
0.0
 10
14.6148551617
 20
12.6289958715
 30
0.0
 10
14.6134724143
 20
12.6245436098
 30
0.0
  0
SPLINE
  5
4BA
100
AcDbEntity
  8
0
100
AcDbSpline
 62
7
  6
CONTINUOUS
 70
0
 71
3
 72
9
 73
5
 74
0
 42
0.0000001
 43
0.0000001
 44
0.0000000001
 40
0.0
 40
0.0
 40
0.0
 40
0.0
 40
0.4675103546
 40
1.0
 40
1.0
 40
1.0
 40
1.0
 10
15.8062789224
 20
12.6713764975
 30
0.0
 10
15.8111110262
 20
12.6583112369
 30
0.0
 10
15.8218775506
 20
12.6305247288
 30
0.0
 10
15.8330306507
 20
12.6028941844
 30
0.0
 10
15.8390222504
 20
12.5882026284
 30
0.0
  0
SPLINE
  5
4BB
100
AcDbEntity
  8
0
100
AcDbSpline
 62
7
  6
CONTINUOUS
 70
0
 71
3
 72
11
 73
7
 74
0
 42
0.0000001
 43
0.0000001
 44
0.0000000001
 40
0.0
 40
0.0
 40
0.0
 40
0.0
 40
0.2448694901
 40
0.4950533279
 40
0.7474356684
 40
1.0
 40
1.0
 40
1.0
 40
1.0
 10
15.8475509283
 20
12.8049327575
 30
0.0
 10
15.8417166017
 20
12.7990269135
 30
0.0
 10
15.8305474748
 20
12.7864557301
 30
0.0
 10
15.8154975977
 20
12.7660355552
 30
0.0
 10
15.8018660368
 20
12.7443441423
 30
0.0
 10
15.7935974045
 20
12.7293454701
 30
0.0
 10
15.7896273147
 20
12.7217588884
 30
0.0
  0
SPLINE
  5
4BC
100
AcDbEntity
  8
0
100
AcDbSpline
 62
7
  6
CONTINUOUS
 70
0
 71
3
 72
10
 73
6
 74
0
 42
0.0000001
 43
0.0000001
 44
0.0000000001
 40
0.0
 40
0.0
 40
0.0
 40
0.0
 40
0.4044180255
 40
0.6757775866
 40
1.0
 40
1.0
 40
1.0
 40
1.0
 10
15.7896273147
 20
12.7217588884
 30
0.0
 10
15.7914771481
 20
12.7148469548
 30
0.0
 10
15.794987257
 20
12.7034095421
 30
0.0
 10
15.8007002153
 20
12.6866649606
 30
0.0
 10
15.8042891075
 20
12.6767566492
 30
0.0
 10
15.8062789224
 20
12.6713764975
 30
0.0
  0
SPLINE
  5
4BD
100
AcDbEntity
  8
0
100
AcDbSpline
 62
7
  6
CONTINUOUS
 70
0
 71
3
 72
9
 73
5
 74
0
 42
0.0000001
 43
0.0000001
 44
0.0000000001
 40
0.0
 40
0.0
 40
0.0
 40
0.0
 40
0.5956286044
 40
1.0
 40
1.0
 40
1.0
 40
1.0
 10
15.9183466647
 20
13.0340278446
 30
0.0
 10
15.9146912724
 20
13.0439114597
 30
0.0
 10
15.9087404899
 20
13.0605764691
 30
0.0
 10
15.9035446294
 20
13.0774992771
 30
0.0
 10
15.901695057
 20
13.0844102355
 30
0.0
  0
SPLINE
  5
4BE
100
AcDbEntity
  8
0
100
AcDbSpline
 62
7
  6
CONTINUOUS
 70
0
 71
3
 72
10
 73
6
 74
0
 42
0.0000001
 43
0.0000001
 44
0.0000000001
 40
0.0
 40
0.0
 40
0.0
 40
0.0
 40
0.5324554585
 40
0.7777825744
 40
1.0
 40
1.0
 40
1.0
 40
1.0
 10
15.9510899927
 20
12.9508539755
 30
0.0
 10
15.9450987381
 20
12.9655446853
 30
0.0
 10
15.9364199488
 20
12.9870344556
 30
0.0
 10
15.9255782985
 20
13.0147891253
 30
0.0
 10
15.9206434797
 20
13.0278176126
 30
0.0
 10
15.9183466647
 20
13.0340278446
 30
0.0
  0
SPLINE
  5
4BF
100
AcDbEntity
  8
0
100
AcDbSpline
 62
7
  6
CONTINUOUS
 70
0
 71
3
 72
11
 73
7
 74
0
 42
0.0000001
 43
0.0000001
 44
0.0000000001
 40
0.0
 40
0.0
 40
0.0
 40
0.0
 40
0.2669088222
 40
0.5221123109
 40
0.7659020366
 40
1.0
 40
1.0
 40
1.0
 40
1.0
 10
15.9596186706
 20
13.1675841046
 30
0.0
 10
15.9652486112
 20
13.1732830572
 30
0.0
 10
15.9768416756
 20
13.1838781402
 30
0.0
 10
15.9953870885
 20
13.1975268508
 30
0.0
 10
16.0143166435
 20
13.2088005041
 30
0.0
 10
16.0272190785
 20
13.2151003108
 30
0.0
 10
16.0336340045
 20
13.2179664955
 30
0.0
  0
SPLINE
  5
4C0
100
AcDbEntity
  8
0
100
AcDbSpline
 62
7
  6
CONTINUOUS
 70
0
 71
3
 72
9
 73
5
 74
0
 42
0.0000001
 43
0.0000001
 44
0.0000000001
 40
0.0
 40
0.0
 40
0.0
 40
0.0
 40
0.253004367
 40
1.0
 40
1.0
 40
1.0
 40
1.0
 10
15.901695057
 20
13.0844102355
 30
0.0
 10
15.9056653464
 20
13.0919971986
 30
0.0
 10
15.9219703018
 20
13.1216190829
 30
0.0
 10
15.9418506126
 20
13.149598245
 30
0.0
 10
15.9596186706
 20
13.1675841046
 30
0.0
  0
SPLINE
  5
4C1
100
AcDbEntity
  8
0
100
AcDbSpline
 62
7
  6
CONTINUOUS
 70
0
 71
3
 72
11
 73
7
 74
0
 42
0.0000001
 43
0.0000001
 44
0.0000000001
 40
0.0
 40
0.0
 40
0.0
 40
0.0
 40
0.2412602806
 40
0.4906278933
 40
0.7444207768
 40
1.0
 40
1.0
 40
1.0
 40
1.0
 10
16.116255086
 20
13.2343622346
 30
0.0
 10
16.1243271678
 20
13.2343622346
 30
0.0
 10
16.1407501629
 20
13.2335004523
 30
0.0
 10
16.165437389
 20
13.2300287556
 30
0.0
 10
16.1902865616
 20
13.2247602362
 30
0.0
 10
16.2067540084
 20
13.2203444366
 30
0.0
 10
16.2149678877
 20
13.2179664955
 30
0.0
  0
SPLINE
  5
4C2
100
AcDbEntity
  8
0
100
AcDbSpline
 62
7
  6
CONTINUOUS
 70
0
 71
3
 72
11
 73
7
 74
0
 42
0.0000001
 43
0.0000001
 44
0.0000000001
 40
0.0
 40
0.0
 40
0.0
 40
0.0
 40
0.2298163037
 40
0.4716333285
 40
0.7280218302
 40
1.0
 40
1.0
 40
1.0
 40
1.0
 10
16.0336340045
 20
13.2179664955
 30
0.0
 10
16.0396522432
 20
13.2204003291
 30
0.0
 10
16.0521954719
 20
13.224938475
 30
0.0
 10
16.0721068251
 20
13.2302034197
 30
0.0
 10
16.0936330503
 20
13.2336147482
 30
0.0
 10
16.1085723729
 20
13.2343622346
 30
0.0
 10
16.116255086
 20
13.2343622346
 30
0.0
  0
SPLINE
  5
4C3
100
AcDbEntity
  8
0
100
AcDbSpline
 62
7
  6
CONTINUOUS
 70
0
 71
3
 72
9
 73
5
 74
0
 42
0.0000001
 43
0.0000001
 44
0.0000000001
 40
0.0
 40
0.0
 40
0.0
 40
0.0
 40
0.2424571174
 40
1.0
 40
1.0
 40
1.0
 40
1.0
 10
14.7085594761
 20
13.1526662792
 30
0.0
 10
14.7088189014
 20
13.1535057801
 30
0.0
 10
14.7099573366
 20
13.156946934
 30
0.0
 10
14.7113555707
 20
13.160300419
 30
0.0
 10
14.7125323834
 20
13.1627807602
 30
0.0
  0
SPLINE
  5
4C4
100
AcDbEntity
  8
0
100
AcDbSpline
 62
7
  6
CONTINUOUS
 70
0
 71
3
 72
11
 73
7
 74
0
 42
0.0000001
 43
0.0000001
 44
0.0000000001
 40
0.0
 40
0.0
 40
0.0
 40
0.0
 40
0.2336479463
 40
0.4745077242
 40
0.7287055553
 40
1.0
 40
1.0
 40
1.0
 40
1.0
 10
16.0818240516
 20
11.5136586089
 30
0.0
 10
16.0822902705
 20
11.5151672805
 30
0.0
 10
16.0829025947
 20
11.5183450363
 30
0.0
 10
16.0827951046
 20
11.5233014776
 30
0.0
 10
16.0816801819
 20
11.5283879641
 30
0.0
 10
16.0803413024
 20
11.531695729
 30
0.0
 10
16.0795335704
 20
11.5333417138
 30
0.0
  0
SPLINE
  5
4C5
100
AcDbEntity
  8
0
100
AcDbSpline
 62
7
  6
CONTINUOUS
 70
0
 71
3
 72
9
 73
5
 74
0
 42
0.0000001
 43
0.0000001
 44
0.0000000001
 40
0.0
 40
0.0
 40
0.0
 40
0.0
 40
0.5069999944
 40
1.0
 40
1.0
 40
1.0
 40
1.0
 10
14.7228312651
 20
13.1090665784
 30
0.0
 10
14.7212901019
 20
13.1097358314
 30
0.0
 10
14.718352338
 20
13.1113088921
 30
0.0
 10
14.7157405472
 20
13.1133831921
 30
0.0
 10
14.7145625675
 20
13.1145153097
 30
0.0
  0
SPLINE
  5
4C6
100
AcDbEntity
  8
0
100
AcDbSpline
 62
7
  6
CONTINUOUS
 70
0
 71
3
 72
12
 73
8
 74
0
 42
0.0000001
 43
0.0000001
 44
0.0000000001
 40
0.0
 40
0.0
 40
0.0
 40
0.0
 40
0.1097697991
 40
0.2212061402
 40
0.4552722154
 40
0.7134793186
 40
1.0
 40
1.0
 40
1.0
 40
1.0
 10
14.7133939312
 20
13.1157133505
 30
0.0
 10
14.712432769
 20
13.1167648066
 30
0.0
 10
14.7106698475
 20
13.1190503363
 30
0.0
 10
14.7078564667
 20
13.1242710618
 30
0.0
 10
14.7058420527
 20
13.1319698243
 30
0.0
 10
14.7059236115
 20
13.1421627229
 30
0.0
 10
14.7074616282
 20
13.1491136421
 30
0.0
 10
14.7085594761
 20
13.1526662792
 30
0.0
  0
SPLINE
  5
4C7
100
AcDbEntity
  8
0
100
AcDbSpline
 62
7
  6
CONTINUOUS
 70
0
 71
3
 72
9
 73
5
 74
0
 42
0.0000001
 43
0.0000001
 44
0.0000000001
 40
0.0
 40
0.0
 40
0.0
 40
0.0
 40
0.504870998
 40
1.0
 40
1.0
 40
1.0
 40
1.0
 10
14.2185931994
 20
12.8788844544
 30
0.0
 10
14.213160952
 20
12.8835845555
 30
0.0
 10
14.2032521173
 20
12.8939385588
 30
0.0
 10
14.1956350349
 20
12.9060909173
 30
0.0
 10
14.1925321476
 20
12.9124154891
 30
0.0
  0
SPLINE
  5
4C8
100
AcDbEntity
  8
0
100
AcDbSpline
 62
7
  6
CONTINUOUS
 70
0
 71
3
 72
9
 73
5
 74
0
 42
0.0000001
 43
0.0000001
 44
0.0000000001
 40
0.0
 40
0.0
 40
0.0
 40
0.0
 40
0.4913615282
 40
1.0
 40
1.0
 40
1.0
 40
1.0
 10
16.175438627
 20
12.1445696298
 30
0.0
 10
16.1799231064
 20
12.1354326238
 30
0.0
 10
16.1897255721
 20
12.117163676
 30
0.0
 10
16.2006990177
 20
12.0995768213
 30
0.0
 10
16.2065468807
 20
12.0908126258
 30
0.0
  0
SPLINE
  5
4C9
100
AcDbEntity
  8
0
100
AcDbSpline
 62
7
  6
CONTINUOUS
 70
0
 71
3
 72
24
 73
20
 74
0
 42
0.0000001
 43
0.0000001
 44
0.0000000001
 40
0.0
 40
0.0
 40
0.0
 40
0.0
 40
0.1251465404
 40
0.2523412791
 40
0.3804810258
 40
0.4445573423
 40
0.508390938
 40
0.5717428388
 40
0.6344461775
 40
0.6654857361
 40
0.6962967772
 40
0.7268603124
 40
0.7571604613
 40
0.8170680741
 40
0.8468711234
 40
0.8767130527
 40
0.9067583966
 40
0.9372173719
 40
1.0
 40
1.0
 40
1.0
 40
1.0
 10
16.2512823124
 20
12.033418127
 30
0.0
 10
16.2603002869
 20
12.0234831733
 30
0.0
 10
16.2793590377
 20
12.0042195871
 30
0.0
 10
16.3107843238
 20
11.9781031409
 30
0.0
 10
16.3395901504
 20
11.9593771938
 30
0.0
 10
16.3641363878
 20
11.9470289072
 30
0.0
 10
16.3831874092
 20
11.9393654273
 30
0.0
 10
16.4027605759
 20
11.9336368086
 30
0.0
 10
16.4194085617
 20
11.9307751736
 30
0.0
 10
16.4327423772
 20
11.9298739107
 30
0.0
 10
16.4426600723
 20
11.9299463796
 30
0.0
 10
16.4524632455
 20
11.930825371
 30
0.0
 10
16.4652137691
 20
11.9331453094
 30
0.0
 10
16.4775024185
 20
11.9373585202
 30
0.0
 10
16.4887153639
 20
11.9436281777
 30
0.0
 10
16.496451403
 20
11.9493885066
 30
0.0
 10
16.5033831657
 20
11.9562024
 30
0.0
 10
16.5114168669
 20
11.9667420606
 30
0.0
 10
16.5156779285
 20
11.9759774194
 30
0.0
 10
16.5176652846
 20
11.9824085063
 30
0.0
  0
SPLINE
  5
4CA
100
AcDbEntity
  8
0
100
AcDbSpline
 62
7
  6
CONTINUOUS
 70
0
 71
3
 72
11
 73
7
 74
0
 42
0.0000001
 43
0.0000001
 44
0.0000000001
 40
0.0
 40
0.0
 40
0.0
 40
0.0
 40
0.2433453258
 40
0.4895168645
 40
0.7411649021
 40
1.0
 40
1.0
 40
1.0
 40
1.0
 10
14.0702959407
 20
12.5704842788
 30
0.0
 10
14.0726430961
 20
12.5656991206
 30
0.0
 10
14.0781309124
 20
12.5564289439
 30
0.0
 10
14.0884935422
 20
12.5438548522
 30
0.0
 10
14.1008683729
 20
12.5327457456
 30
0.0
 10
14.1101909263
 20
12.5264996042
 30
0.0
 10
14.1150973069
 20
12.5236595696
 30
0.0
  0
SPLINE
  5
4CB
100
AcDbEntity
  8
0
100
AcDbSpline
 62
7
  6
CONTINUOUS
 70
0
 71
3
 72
13
 73
9
 74
0
 42
0.0000001
 43
0.0000001
 44
0.0000000001
 40
0.0
 40
0.0
 40
0.0
 40
0.0
 40
0.2907688902
 40
0.4279695184
 40
0.5580377141
 40
0.6803262594
 40
0.7946306614
 40
1.0
 40
1.0
 40
1.0
 40
1.0
 10
14.7819466995
 20
13.1207977398
 30
0.0
 10
14.7768619917
 20
13.1175176915
 30
0.0
 10
14.7689739773
 20
13.1132573183
 30
0.0
 10
14.7580739218
 20
13.1092102801
 30
0.0
 10
14.7502141775
 20
13.1071650242
 30
0.0
 10
14.7426364589
 20
13.1060927578
 30
0.0
 10
14.7334318715
 20
13.1059788406
 30
0.0
 10
14.7267513179
 20
13.1073642882
 30
0.0
 10
14.7228312651
 20
13.1090665784
 30
0.0
  0
SPLINE
  5
4CC
100
AcDbEntity
  8
0
100
AcDbSpline
 62
7
  6
CONTINUOUS
 70
0
 71
3
 72
9
 73
5
 74
0
 42
0.0000001
 43
0.0000001
 44
0.0000000001
 40
0.0
 40
0.0
 40
0.0
 40
0.0
 40
0.4909680027
 40
1.0
 40
1.0
 40
1.0
 40
1.0
 10
14.6298201724
 20
12.5794688229
 30
0.0
 10
14.6308253118
 20
12.5784306431
 30
0.0
 10
14.6331076259
 20
12.5765324615
 30
0.0
 10
14.635734113
 20
12.5751547324
 30
0.0
 10
14.6371210088
 20
12.5745880544
 30
0.0
  0
SPLINE
  5
4CD
100
AcDbEntity
  8
0
100
AcDbSpline
 62
7
  6
CONTINUOUS
 70
0
 71
3
 72
9
 73
5
 74
0
 42
0.0000001
 43
0.0000001
 44
0.0000000001
 40
0.0
 40
0.0
 40
0.0
 40
0.0
 40
0.2387418151
 40
1.0
 40
1.0
 40
1.0
 40
1.0
 10
14.6371210088
 20
12.5745880544
 30
0.0
 10
14.6377744034
 20
12.5743210809
 30
0.0
 10
14.6405616198
 20
12.5733256258
 30
0.0
 10
14.6434944935
 20
12.572780419
 30
0.0
 10
14.6457315057
 20
12.5725331695
 30
0.0
  0
SPLINE
  5
4CE
100
AcDbEntity
  8
0
100
AcDbSpline
 62
7
  6
CONTINUOUS
 70
0
 71
3
 72
26
 73
22
 74
0
 42
0.0000001
 43
0.0000001
 44
0.0000000001
 40
0.0
 40
0.0
 40
0.0
 40
0.0
 40
0.0712024603
 40
0.1402582992
 40
0.2066808727
 40
0.2388564062
 40
0.2703447392
 40
0.301188844
 40
0.3314605072
 40
0.3906227044
 40
0.4198325612
 40
0.4489256237
 40
0.4780032909
 40
0.5071449449
 40
0.5658540664
 40
0.6254347144
 40
0.6860085054
 40
0.7475053885
 40
0.8098229569
 40
0.872784261
 40
1.0
 40
1.0
 40
1.0
 40
1.0
 10
15.7326992222
 20
12.6847315625
 30
0.0
 10
15.7283551446
 20
12.6935832566
 30
0.0
 10
15.7206522254
 20
12.7114639251
 30
0.0
 10
15.7125818628
 20
12.739007313
 30
0.0
 10
15.7094279547
 20
12.7621269548
 30
0.0
 10
15.7094024406
 20
12.780165042
 30
0.0
 10
15.7106492543
 20
12.7932145536
 30
0.0
 10
15.7131561691
 20
12.8058164768
 30
0.0
 10
15.7181437916
 20
12.8217339052
 30
0.0
 10
15.7256516111
 20
12.8365341344
 30
0.0
 10
15.7353941196
 20
12.8495944593
 30
0.0
 10
15.7436798096
 20
12.8584482302
 30
0.0
 10
15.7528628673
 20
12.8663495378
 30
0.0
 10
15.766198215
 20
12.8755783993
 30
0.0
 10
15.7846407031
 20
12.884639558
 30
0.0
 10
15.8085365258
 20
12.8915491525
 30
0.0
 10
15.8335653942
 20
12.8948123104
 30
0.0
 10
15.8591633305
 20
12.8947351779
 30
0.0
 10
15.8849005514
 20
12.8916965422
 30
0.0
 10
15.9190804208
 20
12.8841277156
 30
0.0
 10
15.9439548558
 20
12.8750415364
 30
0.0
 10
15.9600445219
 20
12.8678665352
 30
0.0
  0
SPLINE
  5
4CF
100
AcDbEntity
  8
0
100
AcDbSpline
 62
7
  6
CONTINUOUS
 70
0
 71
3
 72
26
 73
22
 74
0
 42
0.0000001
 43
0.0000001
 44
0.0000000001
 40
0.0
 40
0.0
 40
0.0
 40
0.0
 40
0.0712025241
 40
0.1402584928
 40
0.2066812759
 40
0.2388569382
 40
0.2703454102
 40
0.3011896586
 40
0.331461459
 40
0.3906238814
 40
0.4198338086
 40
0.4489269072
 40
0.4780045821
 40
0.5071462122
 40
0.565855209
 40
0.6254356703
 40
0.6860092556
 40
0.7475059213
 40
0.8098233129
 40
0.8727844555
 40
1.0
 40
1.0
 40
1.0
 40
1.0
 10
15.8447669645
 20
13.0473829095
 30
0.0
 10
15.8404229904
 20
13.0562343929
 30
0.0
 10
15.8327202314
 20
13.074114633
 30
0.0
 10
15.8246499243
 20
13.1016573514
 30
0.0
 10
15.8214958666
 20
13.1247764483
 30
0.0
 10
15.8214700897
 20
13.1428141537
 30
0.0
 10
15.8227166448
 20
13.1558634206
 30
0.0
 10
15.8252232407
 20
13.168465141
 30
0.0
 10
15.8302103572
 20
13.1843823677
 30
0.0
 10
15.8377175737
 20
13.1991825008
 30
0.0
 10
15.8474594195
 20
13.2122428739
 30
0.0
 10
15.855744599
 20
13.221096733
 30
0.0
 10
15.8649271355
 20
13.2289981905
 30
0.0
 10
15.8782617826
 20
13.2382273255
 30
0.0
 10
15.8967034264
 20
13.2472889462
 30
0.0
 10
15.9205983303
 20
13.2541992514
 30
0.0
 10
15.9456263804
 20
13.2574632219
 30
0.0
 10
15.9712236054
 20
13.2573869714
 30
0.0
 10
15.9969602138
 20
13.2543492523
 30
0.0
 10
16.0311394009
 20
13.2467816813
 30
0.0
 10
16.0560134366
 20
13.2376964448
 30
0.0
 10
16.0721028753
 20
13.2305220689
 30
0.0
  0
SPLINE
  5
4D0
100
AcDbEntity
  8
0
100
AcDbSpline
 62
7
  6
CONTINUOUS
 70
0
 71
3
 72
9
 73
5
 74
0
 42
0.0000001
 43
0.0000001
 44
0.0000000001
 40
0.0
 40
0.0
 40
0.0
 40
0.0
 40
0.4870879998
 40
1.0
 40
1.0
 40
1.0
 40
1.0
 10
14.9477931579
 20
11.422314285
 30
0.0
 10
14.9483651265
 20
11.4241653524
 30
0.0
 10
14.9489860156
 20
11.4281569073
 30
0.0
 10
14.9484875443
 20
11.4321520021
 30
0.0
 10
14.9480107797
 20
11.434135649
 30
0.0
  0
SPLINE
  5
4D1
100
AcDbEntity
  8
0
100
AcDbSpline
 62
7
  6
CONTINUOUS
 70
0
 71
3
 72
9
 73
5
 74
0
 42
0.0000001
 43
0.0000001
 44
0.0000000001
 40
0.0
 40
0.0
 40
0.0
 40
0.0
 40
0.2426714699
 40
1.0
 40
1.0
 40
1.0
 40
1.0
 10
14.9478528066
 20
11.434760527
 30
0.0
 10
14.9477249686
 20
11.4352425095
 30
0.0
 10
14.9471450202
 20
11.4372144011
 30
0.0
 10
14.9463599564
 20
11.4391241504
 30
0.0
 10
14.945674393
 20
11.4405211818
 30
0.0
  0
SPLINE
  5
4D2
100
AcDbEntity
  8
0
100
AcDbSpline
 62
7
  6
CONTINUOUS
 70
0
 71
3
 72
13
 73
9
 74
0
 42
0.0000001
 43
0.0000001
 44
0.0000000001
 40
0.0
 40
0.0
 40
0.0
 40
0.0
 40
0.2713425087
 40
0.525213442
 40
0.6469631745
 40
0.7661209821
 40
0.8835091022
 40
1.0
 40
1.0
 40
1.0
 40
1.0
 10
14.7106424207
 20
11.9063076947
 30
0.0
 10
14.704958315
 20
11.9178906843
 30
0.0
 10
14.6955295772
 20
11.9411417434
 30
0.0
 10
14.6889237383
 20
11.9713760091
 30
0.0
 10
14.6873180681
 20
11.9948832106
 30
0.0
 10
14.6878783661
 20
12.0119425376
 30
0.0
 10
14.6901938778
 20
12.0285995647
 30
0.0
 10
14.692903022
 20
12.0394119355
 30
0.0
 10
14.6945379522
 20
12.0447043749
 30
0.0
  0
SPLINE
  5
4D3
100
AcDbEntity
  8
0
100
AcDbSpline
 62
7
  6
CONTINUOUS
 70
0
 71
3
 72
11
 73
7
 74
0
 42
0.0000001
 43
0.0000001
 44
0.0000000001
 40
0.0
 40
0.0
 40
0.0
 40
0.0
 40
0.2298097972
 40
0.4716172289
 40
0.7280154991
 40
1.0
 40
1.0
 40
1.0
 40
1.0
 10
14.083424174
 20
12.5882026284
 30
0.0
 10
14.0894422401
 20
12.5906363922
 30
0.0
 10
14.1019851282
 20
12.595174055
 30
0.0
 10
14.1218960663
 20
12.6004399446
 30
0.0
 10
14.1434226696
 20
12.6038500332
 30
0.0
 10
14.1583623663
 20
12.6045983675
 30
0.0
 10
14.1660452554
 20
12.6045983675
 30
0.0
  0
SPLINE
  5
4D4
100
AcDbEntity
  8
0
100
AcDbSpline
 62
7
  6
CONTINUOUS
 70
0
 71
3
 72
11
 73
7
 74
0
 42
0.0000001
 43
0.0000001
 44
0.0000000001
 40
0.0
 40
0.0
 40
0.0
 40
0.0
 40
0.2427017075
 40
0.4955310213
 40
0.7506985425
 40
1.0
 40
1.0
 40
1.0
 40
1.0
 10
14.2485892672
 20
12.8717108875
 30
0.0
 10
14.2344895853
 20
12.8717108875
 30
0.0
 10
14.2056387909
 20
12.8684250004
 30
0.0
 10
14.1638725905
 20
12.8550319584
 30
0.0
 10
14.1249758154
 20
12.8339547343
 30
0.0
 10
14.1021313704
 20
12.8152360447
 30
0.0
 10
14.0919528519
 20
12.8049327575
 30
0.0
  0
SPLINE
  5
4D5
100
AcDbEntity
  8
0
100
AcDbSpline
 62
7
  6
CONTINUOUS
 70
0
 71
3
 72
9
 73
5
 74
0
 42
0.0000001
 43
0.0000001
 44
0.0000000001
 40
0.0
 40
0.0
 40
0.0
 40
0.0
 40
0.4965042789
 40
1.0
 40
1.0
 40
1.0
 40
1.0
 10
14.3639536767
 20
12.8049327575
 30
0.0
 10
14.3616066926
 20
12.811278639
 30
0.0
 10
14.35539039
 20
12.8235585417
 30
0.0
 10
14.3465466975
 20
12.834093458
 30
0.0
 10
14.3415998932
 20
12.8388480344
 30
0.0
  0
SPLINE
  5
4D6
100
AcDbEntity
  8
0
100
AcDbSpline
 62
7
  6
CONTINUOUS
 70
0
 71
3
 72
11
 73
7
 74
0
 42
0.0000001
 43
0.0000001
 44
0.0000000001
 40
0.0
 40
0.0
 40
0.0
 40
0.0
 40
0.2294063612
 40
0.4714925447
 40
0.7283904305
 40
1.0
 40
1.0
 40
1.0
 40
1.0
 10
14.3415998932
 20
12.8388480344
 30
0.0
 10
14.3360361622
 20
12.8441955642
 30
0.0
 10
14.3232382733
 20
12.8538314648
 30
0.0
 10
14.300840354
 20
12.8641457149
 30
0.0
 10
14.2755428372
 20
12.8703919037
 30
0.0
 10
14.257725871
 20
12.8717108875
 30
0.0
 10
14.2485892672
 20
12.8717108875
 30
0.0
  0
SPLINE
  5
4D7
100
AcDbEntity
  8
0
100
AcDbSpline
 62
7
  6
CONTINUOUS
 70
0
 71
3
 72
9
 73
5
 74
0
 42
0.0000001
 43
0.0000001
 44
0.0000000001
 40
0.0
 40
0.0
 40
0.0
 40
0.0
 40
0.5061282983
 40
1.0
 40
1.0
 40
1.0
 40
1.0
 10
14.3696898522
 20
12.771977489
 30
0.0
 10
14.36969689
 20
12.7776433765
 30
0.0
 10
14.3687766055
 20
12.7888630488
 30
0.0
 10
14.3658714662
 20
12.7997473516
 30
0.0
 10
14.3639536767
 20
12.8049327575
 30
0.0
  0
SPLINE
  5
4D8
100
AcDbEntity
  8
0
100
AcDbSpline
 62
7
  6
CONTINUOUS
 70
0
 71
3
 72
11
 73
7
 74
0
 42
0.0000001
 43
0.0000001
 44
0.0000000001
 40
0.0
 40
0.0
 40
0.0
 40
0.0
 40
0.2423575289
 40
0.4947476226
 40
0.7498669948
 40
1.0
 40
1.0
 40
1.0
 40
1.0
 10
14.1660452554
 20
12.6045983675
 30
0.0
 10
14.1797322099
 20
12.6045983675
 30
0.0
 10
14.2077313727
 20
12.6076947247
 30
0.0
 10
14.2483823084
 20
12.6203587034
 30
0.0
 10
14.2864691823
 20
12.6403463308
 30
0.0
 10
14.309043814
 20
12.6581313707
 30
0.0
 10
14.3192071474
 20
12.6679422049
 30
0.0
  0
SPLINE
  5
4D9
100
AcDbEntity
  8
0
100
AcDbSpline
 62
7
  6
CONTINUOUS
 70
0
 71
3
 72
15
 73
11
 74
0
 42
0.0000001
 43
0.0000001
 44
0.0000000001
 40
0.0
 40
0.0
 40
0.0
 40
0.0
 40
0.1133561023
 40
0.2275816101
 40
0.3442067196
 40
0.4647225938
 40
0.5901546602
 40
0.7211133369
 40
0.8578649508
 40
1.0
 40
1.0
 40
1.0
 40
1.0
 10
14.050680846
 20
12.6713764975
 30
0.0
 10
14.052540756
 20
12.6663475888
 30
0.0
 10
14.0572038737
 20
12.6565675304
 30
0.0
 10
14.0667993109
 20
12.6433107537
 30
0.0
 10
14.0788220578
 20
12.6317149542
 30
0.0
 10
14.0930344255
 20
12.6219856873
 30
0.0
 10
14.1091767678
 20
12.6142665807
 30
0.0
 10
14.1269752496
 20
12.6086829334
 30
0.0
 10
14.1461163212
 20
12.6053212837
 30
0.0
 10
14.1593221632
 20
12.6045983675
 30
0.0
 10
14.1660452554
 20
12.6045983675
 30
0.0
  0
SPLINE
  5
4DA
100
AcDbEntity
  8
0
100
AcDbSpline
 62
7
  6
CONTINUOUS
 70
0
 71
3
 72
15
 73
11
 74
0
 42
0.0000001
 43
0.0000001
 44
0.0000000001
 40
0.0
 40
0.0
 40
0.0
 40
0.0
 40
0.1422270018
 40
0.2798763545
 40
0.4121907965
 40
0.5390129278
 40
0.660470832
 40
0.7770822459
 40
0.8898655855
 40
1.0
 40
1.0
 40
1.0
 40
1.0
 10
14.0919528519
 20
12.8049327575
 30
0.0
 10
14.0870437924
 20
12.7999635226
 30
0.0
 10
14.0778765296
 20
12.7896805793
 30
0.0
 10
14.0661154567
 20
12.7731522073
 30
0.0
 10
14.0567502729
 20
12.7560059462
 30
0.0
 10
14.0499493791
 20
12.7385350184
 30
0.0
 10
14.0458272728
 20
12.7210293045
 30
0.0
 10
14.0444772937
 20
12.7037763293
 30
0.0
 10
14.045942325
 20
12.687088448
 30
0.0
 10
14.0488045768
 20
12.6764496391
 30
0.0
 10
14.050680846
 20
12.6713764975
 30
0.0
  0
SPLINE
  5
4DB
100
AcDbEntity
  8
0
100
AcDbSpline
 62
7
  6
CONTINUOUS
 70
0
 71
3
 72
11
 73
7
 74
0
 42
0.0000001
 43
0.0000001
 44
0.0000000001
 40
0.0
 40
0.0
 40
0.0
 40
0.0
 40
0.2643566226
 40
0.5171078293
 40
0.7609100347
 40
1.0
 40
1.0
 40
1.0
 40
1.0
 10
16.2960359563
 20
13.0198671766
 30
0.0
 10
16.2983477637
 20
13.0273481879
 30
0.0
 10
16.3017322234
 20
13.0423719883
 30
0.0
 10
16.3027556681
 20
13.0650121091
 30
0.0
 10
16.299534502
 20
13.0867022347
 30
0.0
 10
16.2945610384
 20
13.1002407159
 30
0.0
 10
16.2914423868
 20
13.1065987274
 30
0.0
  0
SPLINE
  5
4DC
100
AcDbEntity
  8
0
100
AcDbSpline
 62
7
  6
CONTINUOUS
 70
0
 71
3
 72
10
 73
6
 74
0
 42
0.0000001
 43
0.0000001
 44
0.0000000001
 40
0.0
 40
0.0
 40
0.0
 40
0.0
 40
0.2519217214
 40
0.6291490546
 40
1.0
 40
1.0
 40
1.0
 40
1.0
 10
14.2647580571
 20
12.5882026284
 30
0.0
 10
14.2684124695
 20
12.5951859712
 30
0.0
 10
14.2778862041
 20
12.6124472282
 30
0.0
 10
14.2947020642
 20
12.6388780836
 30
0.0
 10
14.3093912484
 20
12.6571942531
 30
0.0
 10
14.3172693436
 20
12.6657122487
 30
0.0
  0
SPLINE
  5
4DD
100
AcDbEntity
  8
0
100
AcDbSpline
 62
7
  6
CONTINUOUS
 70
0
 71
3
 72
10
 73
6
 74
0
 42
0.0000001
 43
0.0000001
 44
0.0000000001
 40
0.0
 40
0.0
 40
0.0
 40
0.0
 40
0.490415744
 40
0.744317306
 40
1.0
 40
1.0
 40
1.0
 40
1.0
 10
14.1660452554
 20
12.6045983675
 30
0.0
 10
14.1824459534
 20
12.6045983675
 30
0.0
 10
14.2073612937
 20
12.6019375943
 30
0.0
 10
14.2400739919
 20
12.5949950945
 30
0.0
 10
14.2565446697
 20
12.5905804272
 30
0.0
 10
14.2647580571
 20
12.5882026284
 30
0.0
  0
SPLINE
  5
4DE
100
AcDbEntity
  8
0
100
AcDbSpline
 62
7
  6
CONTINUOUS
 70
0
 71
3
 72
9
 73
5
 74
0
 42
0.0000001
 43
0.0000001
 44
0.0000000001
 40
0.0
 40
0.0
 40
0.0
 40
0.0
 40
0.5956343853
 40
1.0
 40
1.0
 40
1.0
 40
1.0
 10
14.3639536767
 20
12.8049327575
 30
0.0
 10
14.3602982492
 20
12.8148164676
 30
0.0
 10
14.3543477
 20
12.8314815531
 30
0.0
 10
14.3491516147
 20
12.8484042896
 30
0.0
 10
14.3473020689
 20
12.8553151485
 30
0.0
  0
SPLINE
  5
4DF
100
AcDbEntity
  8
0
100
AcDbSpline
 62
7
  6
CONTINUOUS
 70
0
 71
3
 72
12
 73
8
 74
0
 42
0.0000001
 43
0.0000001
 44
0.0000000001
 40
0.0
 40
0.0
 40
0.0
 40
0.0
 40
0.2659115577
 40
0.5256486766
 40
0.6509835971
 40
0.7721703345
 40
1.0
 40
1.0
 40
1.0
 40
1.0
 10
16.1640970088
 20
12.8863109166
 30
0.0
 10
16.1798445491
 20
12.8930244978
 30
0.0
 10
16.2097975607
 20
12.9092573973
 30
0.0
 10
16.2424341052
 20
12.9360003566
 30
0.0
 10
16.2641714667
 20
12.9603714546
 30
0.0
 10
16.281895633
 20
12.9852785748
 30
0.0
 10
16.2917054837
 20
13.0058537622
 30
0.0
 10
16.2960359563
 20
13.0198671766
 30
0.0
  0
SPLINE
  5
4E0
100
AcDbEntity
  8
0
100
AcDbSpline
 62
7
  6
CONTINUOUS
 70
0
 71
3
 72
9
 73
5
 74
0
 42
0.0000001
 43
0.0000001
 44
0.0000000001
 40
0.0
 40
0.0
 40
0.0
 40
0.0
 40
0.2453570771
 40
1.0
 40
1.0
 40
1.0
 40
1.0
 10
14.199379447
 20
12.5029983442
 30
0.0
 10
14.2026392764
 20
12.5029983442
 30
0.0
 10
14.2159241925
 20
12.503304592
 30
0.0
 10
14.2291766535
 20
12.5047994328
 30
0.0
 10
14.23905255
 20
12.5065291777
 30
0.0
  0
SPLINE
  5
4E1
100
AcDbEntity
  8
0
100
AcDbSpline
 62
7
  6
CONTINUOUS
 70
0
 71
3
 72
11
 73
7
 74
0
 42
0.0000001
 43
0.0000001
 44
0.0000000001
 40
0.0
 40
0.0
 40
0.0
 40
0.0
 40
0.2343145651
 40
0.479014356
 40
0.7343991589
 40
1.0
 40
1.0
 40
1.0
 40
1.0
 10
14.1150973069
 20
12.5236595696
 30
0.0
 10
14.1210261307
 20
12.5202276986
 30
0.0
 10
14.1337169511
 20
12.5141625737
 30
0.0
 10
14.1542624384
 20
12.5077151856
 30
0.0
 10
14.17636636
 20
12.5038314874
 30
0.0
 10
14.1916143054
 20
12.5029983442
 30
0.0
 10
14.199379447
 20
12.5029983442
 30
0.0
  0
SPLINE
  5
4E2
100
AcDbEntity
  8
0
100
AcDbSpline
 62
7
  6
CONTINUOUS
 70
0
 71
3
 72
9
 73
5
 74
0
 42
0.0000001
 43
0.0000001
 44
0.0000000001
 40
0.0
 40
0.0
 40
0.0
 40
0.0
 40
0.4897559371
 40
1.0
 40
1.0
 40
1.0
 40
1.0
 10
16.0670452657
 20
12.8656496913
 30
0.0
 10
16.0833253622
 20
12.8656496913
 30
0.0
 10
16.1166296681
 20
12.8694396874
 30
0.0
 10
16.1484945963
 20
12.8796592071
 30
0.0
 10
16.1640970088
 20
12.8863109166
 30
0.0
  0
SPLINE
  5
4E3
100
AcDbEntity
  8
0
100
AcDbSpline
 62
7
  6
CONTINUOUS
 70
0
 71
3
 72
9
 73
5
 74
0
 42
0.0000001
 43
0.0000001
 44
0.0000000001
 40
0.0
 40
0.0
 40
0.0
 40
0.0
 40
0.245077304
 40
1.0
 40
1.0
 40
1.0
 40
1.0
 10
15.9827631257
 20
12.8863109166
 30
0.0
 10
15.9845670966
 20
12.8852666967
 30
0.0
 10
15.99202996
 20
12.881183621
 30
0.0
 10
15.9998739492
 20
12.8778060433
 30
0.0
 10
16.0059193784
 20
12.8756432562
 30
0.0
  0
SPLINE
  5
4E4
100
AcDbEntity
  8
0
100
AcDbSpline
 62
7
  6
CONTINUOUS
 70
0
 71
3
 72
9
 73
5
 74
0
 42
0.0000001
 43
0.0000001
 44
0.0000000001
 40
0.0
 40
0.0
 40
0.0
 40
0.0
 40
0.2465132077
 40
1.0
 40
1.0
 40
1.0
 40
1.0
 10
16.0078931217
 20
12.8749523209
 30
0.0
 10
16.0093884754
 20
12.8744402575
 30
0.0
 10
16.0154861983
 20
12.872456413
 30
0.0
 10
16.0217031644
 20
12.8708422628
 30
0.0
 10
16.0264259976
 20
12.8698246396
 30
0.0
  0
SPLINE
  5
4E5
100
AcDbEntity
  8
0
100
AcDbSpline
 62
7
  6
CONTINUOUS
 70
0
 71
3
 72
20
 73
16
 74
0
 42
0.0000001
 43
0.0000001
 44
0.0000000001
 40
0.0
 40
0.0
 40
0.0
 40
0.0
 40
0.1877574712
 40
0.3570684997
 40
0.5059370823
 40
0.5721547637
 40
0.6326045683
 40
0.6872957619
 40
0.7365253378
 40
0.7809433457
 40
0.8217966619
 40
0.8612065664
 40
0.9020751571
 40
0.947452842
 40
1.0
 40
1.0
 40
1.0
 40
1.0
 10
14.4590754829
 20
13.2182808124
 30
0.0
 10
14.4607549371
 20
13.2220708088
 30
0.0
 10
14.4641913438
 20
13.2291763478
 30
0.0
 10
14.4698823408
 20
13.2388039428
 30
0.0
 10
14.4749637541
 20
13.2456341104
 30
0.0
 10
14.4791286786
 20
13.2500770052
 30
0.0
 10
14.4821226559
 20
13.2527457085
 30
0.0
 10
14.4850903235
 20
13.2548507123
 30
0.0
 10
14.4880146168
 20
13.2563559316
 30
0.0
 10
14.4908769877
 20
13.2572213734
 30
0.0
 10
14.4936556486
 20
13.2573900406
 30
0.0
 10
14.4963024289
 20
13.2567869371
 30
0.0
 10
14.4987315746
 20
13.2553642329
 30
0.0
 10
14.5008721744
 20
13.2531275224
 30
0.0
 10
14.5019871908
 20
13.2512557563
 30
0.0
 10
14.5024984019
 20
13.2502142856
 30
0.0
  0
SPLINE
  5
4E6
100
AcDbEntity
  8
0
100
AcDbSpline
 62
7
  6
CONTINUOUS
 70
0
 71
3
 72
20
 73
16
 74
0
 42
0.0000001
 43
0.0000001
 44
0.0000000001
 40
0.0
 40
0.0
 40
0.0
 40
0.0
 40
0.1877574712
 40
0.3570684997
 40
0.5059370823
 40
0.5721547637
 40
0.6326045683
 40
0.6872957619
 40
0.7365253378
 40
0.7809433457
 40
0.8217966619
 40
0.8612065664
 40
0.9020751571
 40
0.947452842
 40
1.0
 40
1.0
 40
1.0
 40
1.0
 10
14.3470077406
 20
12.8556294653
 30
0.0
 10
14.3486871948
 20
12.8594194618
 30
0.0
 10
14.3521236015
 20
12.8665250007
 30
0.0
 10
14.3578145985
 20
12.8761525957
 30
0.0
 10
14.3628960118
 20
12.8829827634
 30
0.0
 10
14.3670609363
 20
12.8874256582
 30
0.0
 10
14.3700549135
 20
12.8900943615
 30
0.0
 10
14.3730225811
 20
12.8921993653
 30
0.0
 10
14.3759468744
 20
12.8937045846
 30
0.0
 10
14.3788092454
 20
12.8945700263
 30
0.0
 10
14.3815879063
 20
12.8947386936
 30
0.0
 10
14.3842346866
 20
12.8941355901
 30
0.0
 10
14.3866638323
 20
12.8927128858
 30
0.0
 10
14.388804432
 20
12.8904761754
 30
0.0
 10
14.3899194485
 20
12.8886044093
 30
0.0
 10
14.3904306596
 20
12.8875629386
 30
0.0
  0
SPLINE
  5
4E7
100
AcDbEntity
  8
0
100
AcDbSpline
 62
7
  6
CONTINUOUS
 70
0
 71
3
 72
11
 73
7
 74
0
 42
0.0000001
 43
0.0000001
 44
0.0000000001
 40
0.0
 40
0.0
 40
0.0
 40
0.0
 40
0.280738892
 40
0.5370424543
 40
0.7738957586
 40
1.0
 40
1.0
 40
1.0
 40
1.0
 10
14.6121743797
 20
12.6195214473
 30
0.0
 10
14.6116588115
 20
12.6170085899
 30
0.0
 10
14.611044536
 20
12.6121093254
 30
0.0
 10
14.6115679895
 20
12.6050026351
 30
0.0
 10
14.6135913403
 20
12.598677886
 30
0.0
 10
14.6159567154
 20
12.5950913139
 30
0.0
 10
14.6173304902
 20
12.5935482494
 30
0.0
  0
SPLINE
  5
4E8
100
AcDbEntity
  8
0
100
AcDbSpline
 62
7
  6
CONTINUOUS
 70
0
 71
3
 72
9
 73
5
 74
0
 42
0.0000001
 43
0.0000001
 44
0.0000000001
 40
0.0
 40
0.0
 40
0.0
 40
0.0
 40
0.4927111272
 40
1.0
 40
1.0
 40
1.0
 40
1.0
 10
14.6180018268
 20
12.5928277703
 30
0.0
 10
14.6190461415
 20
12.5917566809
 30
0.0
 10
14.6213964848
 20
12.5897979342
 30
0.0
 10
14.6240812724
 20
12.5883376924
 30
0.0
 10
14.6254942914
 20
12.5877248449
 30
0.0
  0
LINE
  5
4E9
100
AcDbEntity
  8
0
100
AcDbLine
 62
7
  6
CONTINUOUS
 10
14.4593698112
 20
13.2179664955
 11
14.4635147308
 21
13.2037539764
  0
SPLINE
  5
4EA
100
AcDbEntity
  8
0
100
AcDbSpline
 62
7
  6
CONTINUOUS
 70
0
 71
3
 72
9
 73
5
 74
0
 42
0.0000001
 43
0.0000001
 44
0.0000000001
 40
0.0
 40
0.0
 40
0.0
 40
0.0
 40
0.4420555153
 40
1.0
 40
1.0
 40
1.0
 40
1.0
 10
14.4635147308
 20
13.2037539764
 30
0.0
 10
14.4651977272
 20
13.1983711865
 30
0.0
 10
14.4692266752
 20
13.1862637897
 30
0.0
 10
14.4735522318
 20
13.1742604045
 30
0.0
 10
14.476021419
 20
13.1675841046
 30
0.0
  0
SPLINE
  5
4EB
100
AcDbEntity
  8
0
100
AcDbSpline
 62
7
  6
CONTINUOUS
 70
0
 71
3
 72
33
 73
29
 74
0
 42
0.0000001
 43
0.0000001
 44
0.0000000001
 40
0.0
 40
0.0
 40
0.0
 40
0.0
 40
0.0265280408
 40
0.0543785951
 40
0.0835432581
 40
0.1140025233
 40
0.1457099526
 40
0.1785840888
 40
0.2125235767
 40
0.2474091197
 40
0.3194441951
 40
0.393499454
 40
0.4682441114
 40
0.5423095301
 40
0.6143645446
 40
0.6831929579
 40
0.7160847912
 40
0.7478108007
 40
0.7782926631
 40
0.8074763767
 40
0.8353400217
 40
0.8618957759
 40
0.8871971095
 40
0.9113420885
 40
0.9344774178
 40
0.9567990458
 40
0.9785475511
 40
1.0
 40
1.0
 40
1.0
 40
1.0
 10
15.8965084504
 20
11.9063076947
 30
0.0
 10
15.8894577917
 20
11.9206754266
 30
0.0
 10
15.8735060217
 20
11.9494091369
 30
0.0
 10
15.8451812617
 20
11.9911679097
 30
0.0
 10
15.8120671306
 20
12.0323292751
 30
0.0
 10
15.7744070422
 20
12.072614203
 30
0.0
 10
15.7324500464
 20
12.111755841
 30
0.0
 10
15.6864837455
 20
12.1494965179
 30
0.0
 10
15.6368151322
 20
12.1855769736
 30
0.0
 10
15.5653527917
 20
12.2316329694
 30
0.0
 10
15.468956205
 20
12.2833473062
 30
0.0
 10
15.3457779516
 20
12.3346300927
 30
0.0
 10
15.2171402565
 20
12.3744347853
 30
0.0
 10
15.0864982854
 20
12.4016901261
 30
0.0
 10
14.9573616144
 20
12.4156664106
 30
0.0
 10
14.8522806096
 20
12.4159404198
 30
0.0
 10
14.7720317072
 20
12.4089450597
 30
0.0
 10
14.7152627585
 20
12.4003477187
 30
0.0
 10
14.661391231
 20
12.3883881917
 30
0.0
 10
14.6107802564
 20
12.3731344233
 30
0.0
 10
14.5637695728
 20
12.3546917262
 30
0.0
 10
14.5206790051
 20
12.3331699319
 30
0.0
 10
14.4818004943
 20
12.3087082018
 30
0.0
 10
14.4474060331
 20
12.2814548094
 30
0.0
 10
14.4177428964
 20
12.2515826067
 30
0.0
 10
14.3930341617
 20
12.2192823414
 30
0.0
 10
14.3734813068
 20
12.1847839629
 30
0.0
 10
14.3639607371
 20
12.160406692
 30
0.0
 10
14.3601390868
 20
12.1480414344
 30
0.0
  0
SPLINE
  5
4EC
100
AcDbEntity
  8
0
100
AcDbSpline
 62
7
  6
CONTINUOUS
 70
0
 71
3
 72
10
 73
6
 74
0
 42
0.0000001
 43
0.0000001
 44
0.0000000001
 40
0.0
 40
0.0
 40
0.0
 40
0.0
 40
0.2461510383
 40
0.6221113368
 40
1.0
 40
1.0
 40
1.0
 40
1.0
 10
14.4293783851
 20
13.0284101157
 30
0.0
 10
14.4241423824
 20
13.0227549966
 30
0.0
 10
14.4115680523
 20
13.0078419473
 30
0.0
 10
14.3938847584
 20
12.9819319505
 30
0.0
 10
14.3823115576
 20
12.9613369
 30
0.0
 10
14.3768257995
 20
12.9508539755
 30
0.0
  0
SPLINE
  5
4ED
100
AcDbEntity
  8
0
100
AcDbSpline
 62
7
  6
CONTINUOUS
 70
0
 71
3
 72
11
 73
7
 74
0
 42
0.0000001
 43
0.0000001
 44
0.0000000001
 40
0.0
 40
0.0
 40
0.0
 40
0.0
 40
0.271978168
 40
0.528366626
 40
0.770183669
 40
1.0
 40
1.0
 40
1.0
 40
1.0
 10
14.2781129978
 20
12.9672497146
 30
0.0
 10
14.2704302847
 20
12.9672497146
 30
0.0
 10
14.2554909628
 20
12.9665022349
 30
0.0
 10
14.2339647392
 20
12.9630908994
 30
0.0
 10
14.2140533862
 20
12.9578259543
 30
0.0
 10
14.2015101557
 20
12.9532878093
 30
0.0
 10
14.1954919163
 20
12.9508539755
 30
0.0
  0
SPLINE
  5
4EE
100
AcDbEntity
  8
0
100
AcDbSpline
 62
7
  6
CONTINUOUS
 70
0
 71
3
 72
15
 73
11
 74
0
 42
0.0000001
 43
0.0000001
 44
0.0000000001
 40
0.0
 40
0.0
 40
0.0
 40
0.0
 40
0.1271306272
 40
0.228855661
 40
0.3191100774
 40
0.4138038102
 40
0.524941386
 40
0.6585662801
 40
0.8168444609
 40
1.0
 40
1.0
 40
1.0
 40
1.0
 10
14.275072817
 20
11.9317296999
 30
0.0
 10
14.275244802
 20
11.9313790548
 30
0.0
 10
14.2756126293
 20
11.9307705902
 30
0.0
 10
14.276370771
 20
11.9301117062
 30
0.0
 10
14.2772508696
 20
11.929870211
 30
0.0
 10
14.2781679901
 20
11.9300442972
 30
0.0
 10
14.2790880018
 20
11.9305578574
 30
0.0
 10
14.2800255746
 20
11.9313755067
 30
0.0
 10
14.2809800718
 20
11.9324839255
 30
0.0
 10
14.281579872
 20
11.9333463883
 30
0.0
 10
14.2818837706
 20
11.9338199238
 30
0.0
  0
LINE
  5
4EF
100
AcDbEntity
  8
0
100
AcDbLine
 62
7
  6
CONTINUOUS
 10
14.2818837706
 20
11.9338199238
 11
14.282985804
 21
11.9357107798
  0
SPLINE
  5
4F0
100
AcDbEntity
  8
0
100
AcDbSpline
 62
7
  6
CONTINUOUS
 70
0
 71
3
 72
11
 73
7
 74
0
 42
0.0000001
 43
0.0000001
 44
0.0000000001
 40
0.0
 40
0.0
 40
0.0
 40
0.0
 40
0.2643566226
 40
0.5171078293
 40
0.7609100347
 40
1.0
 40
1.0
 40
1.0
 40
1.0
 10
16.183968214
 20
12.6572158296
 30
0.0
 10
16.1862800214
 20
12.6646968409
 30
0.0
 10
16.189664481
 20
12.6797206412
 30
0.0
 10
16.1906879258
 20
12.7023607621
 30
0.0
 10
16.1874667597
 20
12.7240508876
 30
0.0
 10
16.182493296
 20
12.7375893689
 30
0.0
 10
16.1793746445
 20
12.7439473803
 30
0.0
  0
SPLINE
  5
4F1
100
AcDbEntity
  8
0
100
AcDbSpline
 62
7
  6
CONTINUOUS
 70
0
 71
3
 72
12
 73
8
 74
0
 42
0.0000001
 43
0.0000001
 44
0.0000000001
 40
0.0
 40
0.0
 40
0.0
 40
0.0
 40
0.2659115577
 40
0.5256486766
 40
0.6509835971
 40
0.7721703345
 40
1.0
 40
1.0
 40
1.0
 40
1.0
 10
16.0520292665
 20
12.5236595696
 30
0.0
 10
16.0677768068
 20
12.5303731507
 30
0.0
 10
16.0977298184
 20
12.5466060502
 30
0.0
 10
16.1303663629
 20
12.5733490095
 30
0.0
 10
16.1521037244
 20
12.5977201076
 30
0.0
 10
16.1698278907
 20
12.6226272278
 30
0.0
 10
16.1796377414
 20
12.6432024151
 30
0.0
 10
16.183968214
 20
12.6572158296
 30
0.0
  0
SPLINE
  5
4F2
100
AcDbEntity
  8
0
100
AcDbSpline
 62
7
  6
CONTINUOUS
 70
0
 71
3
 72
9
 73
5
 74
0
 42
0.0000001
 43
0.0000001
 44
0.0000000001
 40
0.0
 40
0.0
 40
0.0
 40
0.0
 40
0.4897559371
 40
1.0
 40
1.0
 40
1.0
 40
1.0
 10
15.9549775234
 20
12.5029983442
 30
0.0
 10
15.9712576199
 20
12.5029983442
 30
0.0
 10
16.0045619258
 20
12.5067883403
 30
0.0
 10
16.036426854
 20
12.51700786
 30
0.0
 10
16.0520292665
 20
12.5236595696
 30
0.0
  0
SPLINE
  5
4F3
100
AcDbEntity
  8
0
100
AcDbSpline
 62
7
  6
CONTINUOUS
 70
0
 71
3
 72
33
 73
29
 74
0
 42
0.0000001
 43
0.0000001
 44
0.0000000001
 40
0.0
 40
0.0
 40
0.0
 40
0.0
 40
0.0214525814
 40
0.0432012924
 40
0.0655231902
 40
0.0886588507
 40
0.1128042331
 40
0.1381059919
 40
0.1646622385
 40
0.1925263345
 40
0.2217105352
 40
0.2521927719
 40
0.2839191395
 40
0.3168111917
 40
0.3856397804
 40
0.457694492
 40
0.5317591124
 40
0.6065026275
 40
0.6805566654
 40
0.7525907156
 40
0.787475879
 40
0.8214151188
 40
0.854289119
 40
0.8859964976
 40
0.9164557983
 40
0.9456207841
 40
0.9734717769
 40
1.0
 40
1.0
 40
1.0
 40
1.0
 10
14.3803113074
 20
12.2133186693
 30
0.0
 10
14.3841330064
 20
12.2256839954
 30
0.0
 10
14.3936535768
 20
12.2500614857
 30
0.0
 10
14.4132067435
 20
12.2845601197
 30
0.0
 10
14.4379158432
 20
12.3168607142
 30
0.0
 10
14.4675795186
 20
12.3467332493
 30
0.0
 10
14.5019747314
 20
12.3739868166
 30
0.0
 10
14.5408540024
 20
12.3984488441
 30
0.0
 10
14.5839455464
 20
12.4199705336
 30
0.0
 10
14.6309570986
 20
12.438413379
 30
0.0
 10
14.6815690151
 20
12.4536667757
 30
0.0
 10
14.7354413087
 20
12.4656262294
 30
0.0
 10
14.7922109187
 20
12.4742230593
 30
0.0
 10
14.8724603075
 20
12.4812179964
 30
0.0
 10
14.9775413698
 20
12.4809431844
 30
0.0
 10
15.1066773925
 20
12.4669662236
 30
0.0
 10
15.2373179028
 20
12.439710545
 30
0.0
 10
15.3659536354
 20
12.3999059987
 30
0.0
 10
15.4891298908
 20
12.348623766
 30
0.0
 10
15.5855250696
 20
12.2969101694
 30
0.0
 10
15.6569865597
 20
12.2508547026
 30
0.0
 10
15.7066548809
 20
12.2147746285
 30
0.0
 10
15.7526209684
 20
12.1770341098
 30
0.0
 10
15.7945780561
 20
12.1378927061
 30
0.0
 10
15.8322383149
 20
12.0976076835
 30
0.0
 10
15.8653528528
 20
12.0564460242
 30
0.0
 10
15.8936778697
 20
12.0146867406
 30
0.0
 10
15.9096299369
 20
11.9859527677
 30
0.0
 10
15.9166806441
 20
11.9715849372
 30
0.0
  0
SPLINE
  5
4F4
100
AcDbEntity
  8
0
100
AcDbSpline
 62
7
  6
CONTINUOUS
 70
0
 71
3
 72
11
 73
7
 74
0
 42
0.0000001
 43
0.0000001
 44
0.0000000001
 40
0.0
 40
0.0
 40
0.0
 40
0.0
 40
0.2343145651
 40
0.479014356
 40
0.7343991589
 40
1.0
 40
1.0
 40
1.0
 40
1.0
 10
15.8706953833
 20
12.5236595696
 30
0.0
 10
15.8766242072
 20
12.5202276986
 30
0.0
 10
15.8893150275
 20
12.5141625737
 30
0.0
 10
15.9098605149
 20
12.5077151856
 30
0.0
 10
15.9319644365
 20
12.5038314874
 30
0.0
 10
15.9472123818
 20
12.5029983442
 30
0.0
 10
15.9549775234
 20
12.5029983442
 30
0.0
  0
SPLINE
  5
4F5
100
AcDbEntity
  8
0
100
AcDbSpline
 62
7
  6
CONTINUOUS
 70
0
 71
3
 72
10
 73
6
 74
0
 42
0.0000001
 43
0.0000001
 44
0.0000000001
 40
0.0
 40
0.0
 40
0.0
 40
0.0
 40
0.2635416765
 40
0.5186202131
 40
1.0
 40
1.0
 40
1.0
 40
1.0
 10
15.9651455856
 20
12.482278012
 30
0.0
 10
15.9583528565
 20
12.482278012
 30
0.0
 10
15.9449705065
 20
12.4829224433
 30
0.0
 10
15.9194666821
 20
12.4867936506
 30
0.0
 10
15.9011871624
 20
12.4927380916
 30
0.0
 10
15.8900039301
 20
12.4981121357
 30
0.0
  0
SPLINE
  5
4F6
100
AcDbEntity
  8
0
100
AcDbSpline
 62
7
  6
CONTINUOUS
 70
0
 71
3
 72
11
 73
7
 74
0
 42
0.0000001
 43
0.0000001
 44
0.0000000001
 40
0.0
 40
0.0
 40
0.0
 40
0.0
 40
0.2555800106
 40
0.5093733792
 40
0.7587405198
 40
1.0
 40
1.0
 40
1.0
 40
1.0
 10
14.3768257995
 20
12.9508539755
 30
0.0
 10
14.3686118947
 20
12.953231924
 30
0.0
 10
14.3521444225
 20
12.957647799
 30
0.0
 10
14.3272952008
 20
12.96291622
 30
0.0
 10
14.3026080078
 20
12.9663879533
 30
0.0
 10
14.2861850529
 20
12.9672497146
 30
0.0
 10
14.2781129978
 20
12.9672497146
 30
0.0
  0
SPLINE
  5
4F7
100
AcDbEntity
  8
0
100
AcDbSpline
 62
7
  6
CONTINUOUS
 70
0
 71
3
 72
15
 73
11
 74
0
 42
0.0000001
 43
0.0000001
 44
0.0000000001
 40
0.0
 40
0.0
 40
0.0
 40
0.0
 40
0.1133561023
 40
0.2275816101
 40
0.3442067196
 40
0.4647225938
 40
0.5901546602
 40
0.7211133369
 40
0.8578649508
 40
1.0
 40
1.0
 40
1.0
 40
1.0
 10
14.1627485883
 20
13.0340278446
 30
0.0
 10
14.1646084983
 20
13.0289989359
 30
0.0
 10
14.169271616
 20
13.0192188774
 30
0.0
 10
14.1788670532
 20
13.0059621007
 30
0.0
 10
14.1908898001
 20
12.9943663013
 30
0.0
 10
14.2051021678
 20
12.9846370344
 30
0.0
 10
14.2212445101
 20
12.9769179278
 30
0.0
 10
14.2390429919
 20
12.9713342805
 30
0.0
 10
14.2581840636
 20
12.9679726307
 30
0.0
 10
14.2713899055
 20
12.9672497146
 30
0.0
 10
14.2781129978
 20
12.9672497146
 30
0.0
  0
SPLINE
  5
4F8
100
AcDbEntity
  8
0
100
AcDbSpline
 62
7
  6
CONTINUOUS
 70
0
 71
3
 72
12
 73
8
 74
0
 42
0.0000001
 43
0.0000001
 44
0.0000000001
 40
0.0
 40
0.0
 40
0.0
 40
0.0
 40
0.2730691885
 40
0.5311802931
 40
0.7729380242
 40
0.8881485766
 40
1.0
 40
1.0
 40
1.0
 40
1.0
 10
14.2040205942
 20
13.1675841046
 30
0.0
 10
14.1965243071
 20
13.1599959277
 30
0.0
 10
14.1830581774
 20
13.1440610056
 30
0.0
 10
14.1678064549
 20
13.1178188693
 30
0.0
 10
14.1600156595
 20
13.0948723073
 30
0.0
 10
14.1572074022
 20
13.076739699
 30
0.0
 10
14.1569230594
 20
13.0678465718
 30
0.0
 10
14.1570682257
 20
13.0634798864
 30
0.0
  0
SPLINE
  5
4F9
100
AcDbEntity
  8
0
100
AcDbSpline
 62
7
  6
CONTINUOUS
 70
0
 71
3
 72
9
 73
5
 74
0
 42
0.0000001
 43
0.0000001
 44
0.0000000001
 40
0.0
 40
0.0
 40
0.0
 40
0.0
 40
0.5043519
 40
1.0
 40
1.0
 40
1.0
 40
1.0
 10
14.1572778312
 20
13.0595330988
 30
0.0
 10
14.1575986841
 20
13.055148552
 30
0.0
 10
14.1588215758
 20
13.0464867744
 30
0.0
 10
14.1612499274
 20
13.0380799915
 30
0.0
 10
14.1627485883
 20
13.0340278446
 30
0.0
  0
SPLINE
  5
4FA
100
AcDbEntity
  8
0
100
AcDbSpline
 62
7
  6
CONTINUOUS
 70
0
 71
3
 72
11
 73
7
 74
0
 42
0.0000001
 43
0.0000001
 44
0.0000000001
 40
0.0
 40
0.0
 40
0.0
 40
0.0
 40
0.2427017075
 40
0.4955310213
 40
0.7506985425
 40
1.0
 40
1.0
 40
1.0
 40
1.0
 10
14.3606570095
 20
13.2343622346
 30
0.0
 10
14.3465573276
 20
13.2343622346
 30
0.0
 10
14.3177065332
 20
13.2310763474
 30
0.0
 10
14.2759403328
 20
13.2176833054
 30
0.0
 10
14.2370435577
 20
13.1966060814
 30
0.0
 10
14.2141991127
 20
13.1778873917
 30
0.0
 10
14.2040205942
 20
13.1675841046
 30
0.0
  0
SPLINE
  5
4FB
100
AcDbEntity
  8
0
100
AcDbSpline
 62
7
  6
CONTINUOUS
 70
0
 71
3
 72
9
 73
5
 74
0
 42
0.0000001
 43
0.0000001
 44
0.0000000001
 40
0.0
 40
0.0
 40
0.0
 40
0.0
 40
0.4948469902
 40
1.0
 40
1.0
 40
1.0
 40
1.0
 10
14.476021419
 20
13.1675841046
 30
0.0
 10
14.4732767427
 20
13.1750052844
 30
0.0
 10
14.4656735953
 20
13.1893216638
 30
0.0
 10
14.4545589178
 20
13.2010925467
 30
0.0
 10
14.4483458949
 20
13.2062539863
 30
0.0
  0
SPLINE
  5
4FC
100
AcDbEntity
  8
0
100
AcDbSpline
 62
7
  6
CONTINUOUS
 70
0
 71
3
 72
11
 73
7
 74
0
 42
0.0000001
 43
0.0000001
 44
0.0000000001
 40
0.0
 40
0.0
 40
0.0
 40
0.0
 40
0.2306554236
 40
0.4735131831
 40
0.7300854646
 40
1.0
 40
1.0
 40
1.0
 40
1.0
 10
14.4483458949
 20
13.2062539863
 30
0.0
 10
14.4427976724
 20
13.210863146
 30
0.0
 10
14.4303550895
 20
13.2191096445
 30
0.0
 10
14.4091609344
 20
13.2279114068
 30
0.0
 10
14.3855914937
 20
13.2332327252
 30
0.0
 10
14.3690976911
 20
13.2343622346
 30
0.0
 10
14.3606570095
 20
13.2343622346
 30
0.0
  0
SPLINE
  5
4FD
100
AcDbEntity
  8
0
100
AcDbSpline
 62
7
  6
CONTINUOUS
 70
0
 71
3
 72
9
 73
5
 74
0
 42
0.0000001
 43
0.0000001
 44
0.0000000001
 40
0.0
 40
0.0
 40
0.0
 40
0.0
 40
0.5061282983
 40
1.0
 40
1.0
 40
1.0
 40
1.0
 10
14.4817575945
 20
13.1346288361
 30
0.0
 10
14.4817646323
 20
13.1402947235
 30
0.0
 10
14.4808443478
 20
13.1515143959
 30
0.0
 10
14.4779392085
 20
13.1623986986
 30
0.0
 10
14.476021419
 20
13.1675841046
 30
0.0
  0
SPLINE
  5
4FE
100
AcDbEntity
  8
0
100
AcDbSpline
 62
7
  6
CONTINUOUS
 70
0
 71
3
 72
11
 73
7
 74
0
 42
0.0000001
 43
0.0000001
 44
0.0000000001
 40
0.0
 40
0.0
 40
0.0
 40
0.0
 40
0.2712945005
 40
0.5254922905
 40
0.766352027
 40
1.0
 40
1.0
 40
1.0
 40
1.0
 10
16.390590679
 20
11.5072089306
 30
0.0
 10
16.3913984112
 20
11.5055629455
 30
0.0
 10
16.3927372912
 20
11.5022551807
 30
0.0
 10
16.3938522138
 20
11.4971686942
 30
0.0
 10
16.3939597029
 20
11.4922122533
 30
0.0
 10
16.3933473794
 20
11.4890344974
 30
0.0
 10
16.3928811603
 20
11.4875258257
 30
0.0
  0
SPLINE
  5
4FF
100
AcDbEntity
  8
0
100
AcDbSpline
 62
7
  6
CONTINUOUS
 70
0
 71
3
 72
32
 73
28
 74
0
 42
0.0000001
 43
0.0000001
 44
0.0000000001
 40
0.0
 40
0.0
 40
0.0
 40
0.0
 40
0.015469743
 40
0.0304571481
 40
0.0454165504
 40
0.0605380403
 40
0.0758270458
 40
0.0912899056
 40
0.1227266835
 40
0.1874526928
 40
0.2540622094
 40
0.3217463788
 40
0.3896333378
 40
0.4568226054
 40
0.5223993484
 40
0.5854705127
 40
0.615759707
 40
0.6450900059
 40
0.6734423532
 40
0.7007893775
 40
0.7271053309
 40
0.7529686092
 40
0.8069838142
 40
0.8677682453
 40
0.9003451937
 40
0.93330618
 40
1.0
 40
1.0
 40
1.0
 40
1.0
 10
16.8837821277
 20
11.7065006599
 30
0.0
 10
16.8835479645
 20
11.7063203425
 30
0.0
 10
16.8831181469
 20
11.7059186374
 30
0.0
 10
16.8826437593
 20
11.7051857485
 30
0.0
 10
16.8822654108
 20
11.7044124212
 30
0.0
 10
16.8818779924
 20
11.7036369272
 30
0.0
 10
16.8815164792
 20
11.7028383543
 30
0.0
 10
16.8810545243
 20
11.7017436812
 30
0.0
 10
16.8802744776
 20
11.6997585576
 30
0.0
 10
16.8792428401
 20
11.6968239534
 30
0.0
 10
16.8781013374
 20
11.693196696
 30
0.0
 10
16.8770266152
 20
11.6894863717
 30
0.0
 10
16.8760067312
 20
11.6857492715
 30
0.0
 10
16.875033898
 20
11.682041304
 30
0.0
 10
16.8740898061
 20
11.6784210669
 30
0.0
 10
16.8733032621
 20
11.6754879117
 30
0.0
 10
16.8726297755
 20
11.673242534
 30
0.0
 10
16.8720980397
 20
11.6716477928
 30
0.0
 10
16.8715226501
 20
11.6701281871
 30
0.0
 10
16.8708959415
 20
11.6686908451
 30
0.0
 10
16.8701285971
 20
11.6673718763
 30
0.0
 10
16.868764007
 20
11.6658472528
 30
0.0
 10
16.8662678555
 20
11.6645929768
 30
0.0
 10
16.8634172291
 20
11.6644247158
 30
0.0
 10
16.8610107296
 20
11.6645660791
 30
0.0
 10
16.858495976
 20
11.664821372
 30
0.0
 10
16.8566155285
 20
11.6651366359
 30
0.0
 10
16.8553691882
 20
11.6654014656
 30
0.0
  0
SPLINE
  5
500
100
AcDbEntity
  8
0
100
AcDbSpline
 62
7
  6
CONTINUOUS
 70
0
 71
3
 72
15
 73
11
 74
0
 42
0.0000001
 43
0.0000001
 44
0.0000000001
 40
0.0
 40
0.0
 40
0.0
 40
0.0
 40
0.1248883252
 40
0.1875416577
 40
0.2501939367
 40
0.3754544293
 40
0.5006254682
 40
0.6256794354
 40
0.7506013734
 40
1.0
 40
1.0
 40
1.0
 40
1.0
 10
16.791884726
 20
11.6781516719
 30
0.0
 10
16.79453844
 20
11.6777316844
 30
0.0
 10
16.7984818704
 20
11.6768614395
 30
0.0
 10
16.8037454645
 20
11.6757402706
 30
0.0
 10
16.8090161741
 20
11.6746093955
 30
0.0
 10
16.8156049727
 20
11.6732120552
 30
0.0
 10
16.8235133273
 20
11.6715655484
 30
0.0
 10
16.8314226771
 20
11.6699601714
 30
0.0
 10
16.8419620112
 20
11.6678773924
 30
0.0
 10
16.8498749586
 20
11.6663818623
 30
0.0
 10
16.8551523006
 20
11.6654140408
 30
0.0
  0
SPLINE
  5
501
100
AcDbEntity
  8
0
100
AcDbSpline
 62
7
  6
CONTINUOUS
 70
0
 71
3
 72
11
 73
7
 74
0
 42
0.0000001
 43
0.0000001
 44
0.0000000001
 40
0.0
 40
0.0
 40
0.0
 40
0.0
 40
0.2423575289
 40
0.4947476226
 40
0.7498669948
 40
1.0
 40
1.0
 40
1.0
 40
1.0
 10
14.2781129978
 20
12.9672497146
 30
0.0
 10
14.2917999523
 20
12.9672497146
 30
0.0
 10
14.319799115
 20
12.9703460717
 30
0.0
 10
14.3604500507
 20
12.9830100504
 30
0.0
 10
14.3985369247
 20
13.0029976778
 30
0.0
 10
14.4211115564
 20
13.0207827178
 30
0.0
 10
14.4312748897
 20
13.030593552
 30
0.0
  0
SPLINE
  5
502
100
AcDbEntity
  8
0
100
AcDbSpline
 62
7
  6
CONTINUOUS
 70
0
 71
3
 72
18
 73
14
 74
0
 42
0.0000001
 43
0.0000001
 44
0.0000000001
 40
0.0
 40
0.0
 40
0.0
 40
0.0
 40
0.0504890092
 40
0.1018112456
 40
0.1546955218
 40
0.2097067064
 40
0.267198359
 40
0.3273134675
 40
0.4548071979
 40
0.5901430859
 40
0.7292872027
 40
0.8674380407
 40
1.0
 40
1.0
 40
1.0
 40
1.0
 10
16.7806093661
 20
12.0402450529
 30
0.0
 10
16.7791115169
 20
12.0432961762
 30
0.0
 10
16.7766700334
 20
12.0497516237
 30
0.0
 10
16.7748397935
 20
12.0600592553
 30
0.0
 10
16.7748523585
 20
12.0708309132
 30
0.0
 10
16.7766944069
 20
12.0818578088
 30
0.0
 10
16.7803229565
 20
12.092940674
 30
0.0
 10
16.7875759099
 20
12.1078096553
 30
0.0
 10
16.8007874332
 20
12.1253532591
 30
0.0
 10
16.8214445083
 20
12.1431096199
 30
0.0
 10
16.8458018061
 20
12.1568346756
 30
0.0
 10
16.8721461577
 20
12.1655755874
 30
0.0
 10
16.8904131775
 20
12.1677309904
 30
0.0
 10
16.8993373441
 20
12.1677309904
 30
0.0
  0
SPLINE
  5
503
100
AcDbEntity
  8
0
100
AcDbSpline
 62
7
  6
CONTINUOUS
 70
0
 71
3
 72
20
 73
16
 74
0
 42
0.0000001
 43
0.0000001
 44
0.0000000001
 40
0.0
 40
0.0
 40
0.0
 40
0.0
 40
0.0504727769
 40
0.1017760145
 40
0.1546412157
 40
0.2096334645
 40
0.2671055321
 40
0.3271996918
 40
0.3898625686
 40
0.4548657261
 40
0.590151577
 40
0.7292366278
 40
0.7987866169
 40
0.8674888673
 40
1.0
 40
1.0
 40
1.0
 40
1.0
 10
16.1895423043
 20
12.7232268526
 30
0.0
 10
16.1923720074
 20
12.7174591084
 30
0.0
 10
16.1969911258
 20
12.7052595197
 30
0.0
 10
16.2004458705
 20
12.6857761298
 30
0.0
 10
16.2004252018
 20
12.6654172882
 30
0.0
 10
16.1969406433
 20
12.6445754301
 30
0.0
 10
16.1900836048
 20
12.6236290303
 30
0.0
 10
16.1799973126
 20
12.6029513267
 30
0.0
 10
16.1668671665
 20
12.5829105381
 30
0.0
 10
16.1453614026
 20
12.5571820301
 30
0.0
 10
16.1123520869
 20
12.5288008571
 30
0.0
 10
16.0739611912
 20
12.5071741076
 30
0.0
 10
16.0409688908
 20
12.4944649238
 30
0.0
 10
16.0077075145
 20
12.4853101179
 30
0.0
 10
15.9820124336
 20
12.482278012
 30
0.0
 10
15.9651455856
 20
12.482278012
 30
0.0
  0
SPLINE
  5
504
100
AcDbEntity
  8
0
100
AcDbSpline
 62
7
  6
CONTINUOUS
 70
0
 71
3
 72
11
 73
7
 74
0
 42
0.0000001
 43
0.0000001
 44
0.0000000001
 40
0.0
 40
0.0
 40
0.0
 40
0.0
 40
0.2433453258
 40
0.4895168645
 40
0.7411649021
 40
1.0
 40
1.0
 40
1.0
 40
1.0
 10
15.8258940171
 20
12.5704842788
 30
0.0
 10
15.8282411725
 20
12.5656991206
 30
0.0
 10
15.8337289889
 20
12.5564289439
 30
0.0
 10
15.8440916186
 20
12.5438548522
 30
0.0
 10
15.8564664494
 20
12.5327457456
 30
0.0
 10
15.8657890027
 20
12.5264996042
 30
0.0
 10
15.8706953833
 20
12.5236595696
 30
0.0
  0
SPLINE
  5
505
100
AcDbEntity
  8
0
100
AcDbSpline
 62
7
  6
CONTINUOUS
 70
0
 71
3
 72
20
 73
16
 74
0
 42
0.0000001
 43
0.0000001
 44
0.0000000001
 40
0.0
 40
0.0
 40
0.0
 40
0.0
 40
0.0506504456
 40
0.1020189346
 40
0.1547498472
 40
0.2093612186
 40
0.2662028255
 40
0.3254606122
 40
0.4509449312
 40
0.5169924326
 40
0.5847401728
 40
0.7234173577
 40
0.7934951345
 40
0.8633056445
 40
1.0
 40
1.0
 40
1.0
 40
1.0
 10
16.3016100467
 20
13.0858781996
 30
0.0
 10
16.3042314552
 20
13.0805350194
 30
0.0
 10
16.3085805791
 20
13.0692874254
 30
0.0
 10
16.3121364439
 20
13.0513704841
 30
0.0
 10
16.3127185225
 20
13.0326493505
 30
0.0
 10
16.3103175009
 20
13.0134356426
 30
0.0
 10
16.3049994362
 20
12.9940270152
 30
0.0
 10
16.2939331798
 20
12.9678146204
 30
0.0
 10
16.2775234754
 20
12.9429780779
 30
0.0
 10
16.2570076208
 20
12.9204108846
 30
0.0
 10
16.233207734
 20
12.8989278228
 30
0.0
 10
16.2060622588
 20
12.8806818901
 30
0.0
 10
16.1766573286
 20
12.8662207087
 30
0.0
 10
16.1462932098
 20
12.8545522166
 30
0.0
 10
16.1224834534
 20
12.8489649394
 30
0.0
 10
16.1065572554
 20
12.8468806161
 30
0.0
  0
SPLINE
  5
506
100
AcDbEntity
  8
0
100
AcDbSpline
 62
7
  6
CONTINUOUS
 70
0
 71
3
 72
15
 73
11
 74
0
 42
0.0000001
 43
0.0000001
 44
0.0000000001
 40
0.0
 40
0.0
 40
0.0
 40
0.0
 40
0.2526450594
 40
0.3780631664
 40
0.5029014865
 40
0.6271981467
 40
0.7510608877
 40
0.8128811569
 40
0.8746953012
 40
1.0
 40
1.0
 40
1.0
 40
1.0
 10
14.0052198938
 20
11.6653752898
 30
0.0
 10
14.0095360438
 20
11.6663412109
 30
0.0
 10
14.0159843577
 20
11.6678342697
 30
0.0
 10
14.0245354916
 20
11.6699295092
 30
0.0
 10
14.0308918695
 20
11.6715396697
 30
0.0
 10
14.0372093127
 20
11.6731920267
 30
0.0
 10
14.042451085
 20
11.674595861
 30
0.0
 10
14.0466326627
 20
11.6757317838
 30
0.0
 10
14.0508389307
 20
11.6768667455
 30
0.0
 10
14.0540005625
 20
11.6777477951
 30
0.0
 10
14.0561567002
 20
11.6781516719
 30
0.0
  0
SPLINE
  5
507
100
AcDbEntity
  8
0
100
AcDbSpline
 62
7
  6
CONTINUOUS
 70
0
 71
3
 72
34
 73
30
 74
0
 42
0.0000001
 43
0.0000001
 44
0.0000000001
 40
0.0
 40
0.0
 40
0.0
 40
0.0
 40
0.0549316878
 40
0.0838332065
 40
0.1137097087
 40
0.1445501437
 40
0.1766410718
 40
0.2099761268
 40
0.2436660255
 40
0.2769586598
 40
0.310007622
 40
0.3430145417
 40
0.3759422877
 40
0.4419114523
 40
0.5083960527
 40
0.5750856461
 40
0.6415664902
 40
0.7073081277
 40
0.7717366243
 40
0.8342338951
 40
0.8645514089
 40
0.8941308885
 40
0.9228582875
 40
0.9368594019
 40
0.9505521354
 40
0.963907602
 40
0.9769944027
 40
0.9891964184
 40
1.0
 40
1.0
 40
1.0
 40
1.0
 10
14.0052283965
 20
11.6654014656
 30
0.0
 10
14.0041954911
 20
11.665125893
 30
0.0
 10
14.002589134
 20
11.664812262
 30
0.0
 10
14.0003900306
 20
11.6645630628
 30
0.0
 10
13.9986480114
 20
11.6644540731
 30
0.0
 10
13.9968387624
 20
11.6645073297
 30
0.0
 10
13.9949834285
 20
11.6648114232
 30
0.0
 10
13.9931398182
 20
11.6653997739
 30
0.0
 10
13.9913719394
 20
11.6662447866
 30
0.0
 10
13.9897623934
 20
11.6673534501
 30
0.0
 10
13.988332367
 20
11.6686613766
 30
0.0
 10
13.9870469398
 20
11.6700989774
 30
0.0
 10
13.9854731499
 20
11.6721290708
 30
0.0
 10
13.9837598748
 20
11.674864208
 30
0.0
 10
13.9820674342
 20
11.6783568199
 30
0.0
 10
13.9806794219
 20
11.6819906509
 30
0.0
 10
13.9795891028
 20
11.6857089417
 30
0.0
 10
13.9787862347
 20
11.6894542684
 30
0.0
 10
13.978263536
 20
11.6931702789
 30
0.0
 10
13.978047559
 20
11.6962252736
 30
0.0
 10
13.9779962494
 20
11.6986069965
 30
0.0
 10
13.9780157076
 20
11.700331924
 30
0.0
 10
13.9780732539
 20
11.7017381234
 30
0.0
 10
13.9781394688
 20
11.7028341834
 30
0.0
 10
13.978192628
 20
11.7036312131
 30
0.0
 10
13.9782385383
 20
11.7044111945
 30
0.0
 10
13.9783092702
 20
11.7051593755
 30
0.0
 10
13.9783298065
 20
11.7058645318
 30
0.0
 10
13.978221765
 20
11.706307682
 30
0.0
 10
13.978138312
 20
11.7065006606
 30
0.0
  0
SPLINE
  5
508
100
AcDbEntity
  8
0
100
AcDbSpline
 62
7
  6
CONTINUOUS
 70
0
 71
3
 72
11
 73
7
 74
0
 42
0.0000001
 43
0.0000001
 44
0.0000000001
 40
0.0
 40
0.0
 40
0.0
 40
0.0
 40
0.2433453258
 40
0.4895168645
 40
0.7411649021
 40
1.0
 40
1.0
 40
1.0
 40
1.0
 10
15.9379617595
 20
12.9331356259
 30
0.0
 10
15.9403089149
 20
12.9283504677
 30
0.0
 10
15.9457967312
 20
12.919080291
 30
0.0
 10
15.9561593609
 20
12.9065061992
 30
0.0
 10
15.9685341917
 20
12.8953970926
 30
0.0
 10
15.9778567451
 20
12.8891509513
 30
0.0
 10
15.9827631257
 20
12.8863109166
 30
0.0
  0
SPLINE
  5
509
100
AcDbEntity
  8
0
100
AcDbSpline
 62
7
  6
CONTINUOUS
 70
0
 71
3
 72
11
 73
7
 74
0
 42
0.0000001
 43
0.0000001
 44
0.0000000001
 40
0.0
 40
0.0
 40
0.0
 40
0.0
 40
0.2295505476
 40
0.474884034
 40
0.7332259929
 40
1.0
 40
1.0
 40
1.0
 40
1.0
 10
16.6729911755
 20
12.4850432733
 30
0.0
 10
16.6752388162
 20
12.4923166412
 30
0.0
 10
16.6776509795
 20
12.5081028773
 30
0.0
 10
16.6755385472
 20
12.5324912725
 30
0.0
 10
16.668727314
 20
12.5572283129
 30
0.0
 10
16.6618391326
 20
12.5732720764
 30
0.0
 10
16.6579418069
 20
12.5812146115
 30
0.0
  0
SPLINE
  5
50A
100
AcDbEntity
  8
0
100
AcDbSpline
 62
7
  6
CONTINUOUS
 70
0
 71
3
 72
11
 73
7
 74
0
 42
0.0000001
 43
0.0000001
 44
0.0000000001
 40
0.0
 40
0.0
 40
0.0
 40
0.0
 40
0.2395513574
 40
0.4999203198
 40
0.7602365929
 40
1.0
 40
1.0
 40
1.0
 40
1.0
 10
14.7349305914
 20
13.163724331
 30
0.0
 10
14.738919745
 20
13.1647130236
 30
0.0
 10
14.7469343791
 20
13.1680777026
 30
0.0
 10
14.7576022794
 20
13.1757356719
 30
0.0
 10
14.7664772568
 20
13.1854213785
 30
0.0
 10
14.7707644386
 20
13.1929852157
 30
0.0
 10
14.7722233526
 20
13.1968312976
 30
0.0
  0
SPLINE
  5
50B
100
AcDbEntity
  8
0
100
AcDbSpline
 62
7
  6
CONTINUOUS
 70
0
 71
3
 72
11
 73
7
 74
0
 42
0.0000001
 43
0.0000001
 44
0.0000000001
 40
0.0
 40
0.0
 40
0.0
 40
0.0
 40
0.2433453258
 40
0.4895168645
 40
0.7411649021
 40
1.0
 40
1.0
 40
1.0
 40
1.0
 10
14.182363683
 20
12.9331356259
 30
0.0
 10
14.1847108384
 20
12.9283504677
 30
0.0
 10
14.1901986547
 20
12.919080291
 30
0.0
 10
14.2005612845
 20
12.9065061992
 30
0.0
 10
14.2129361152
 20
12.8953970926
 30
0.0
 10
14.2222586686
 20
12.8891509513
 30
0.0
 10
14.2271650492
 20
12.8863109166
 30
0.0
  0
SPLINE
  5
50C
100
AcDbEntity
  8
0
100
AcDbSpline
 62
7
  6
CONTINUOUS
 70
0
 71
3
 72
9
 73
5
 74
0
 42
0.0000001
 43
0.0000001
 44
0.0000000001
 40
0.0
 40
0.0
 40
0.0
 40
0.0
 40
0.2608900987
 40
1.0
 40
1.0
 40
1.0
 40
1.0
 10
15.9369875815
 20
12.4321027441
 30
0.0
 10
15.9373678745
 20
12.4314683678
 30
0.0
 10
15.9389059652
 20
12.4290881625
 30
0.0
 10
15.9408107065
 20
12.4269274496
 30
0.0
 10
15.9424230423
 20
12.4255891362
 30
0.0
  0
SPLINE
  5
50D
100
AcDbEntity
  8
0
100
AcDbSpline
 62
7
  6
CONTINUOUS
 70
0
 71
3
 72
11
 73
7
 74
0
 42
0.0000001
 43
0.0000001
 44
0.0000000001
 40
0.0
 40
0.0
 40
0.0
 40
0.0
 40
0.2280391018
 40
0.4776999673
 40
0.7387548647
 40
1.0
 40
1.0
 40
1.0
 40
1.0
 10
15.9338703409
 20
12.4490047509
 30
0.0
 10
15.9334746969
 20
12.4477244464
 30
0.0
 10
15.9330872373
 20
12.4449013283
 30
0.0
 10
15.9335204265
 20
12.4405530226
 30
0.0
 10
15.9348325665
 20
12.4361855544
 30
0.0
 10
15.9361981641
 20
12.4334193981
 30
0.0
 10
15.9369875815
 20
12.4321027441
 30
0.0
  0
SPLINE
  5
50E
100
AcDbEntity
  8
0
100
AcDbSpline
 62
7
  6
CONTINUOUS
 70
0
 71
3
 72
32
 73
28
 74
0
 42
0.0000001
 43
0.0000001
 44
0.0000000001
 40
0.0
 40
0.0
 40
0.0
 40
0.0
 40
0.0214537188
 40
0.0432031689
 40
0.0655247817
 40
0.0886614017
 40
0.112807127
 40
0.1381100525
 40
0.1646670298
 40
0.19253193
 40
0.221717419
 40
0.2522000886
 40
0.283928109
 40
0.3168204572
 40
0.350777681
 40
0.385678134
 40
0.457735238
 40
0.5318022562
 40
0.6065480582
 40
0.6806046139
 40
0.7526398354
 40
0.8214405842
 40
0.8859900322
 40
0.9164509006
 40
0.9456221297
 40
0.9734765644
 40
1.0
 40
1.0
 40
1.0
 40
1.0
 10
15.590241571
 20
11.7679110146
 30
0.0
 10
15.5880544881
 20
11.7608311995
 30
0.0
 10
15.5826051353
 20
11.746873712
 30
0.0
 10
15.5714081382
 20
11.7271243363
 30
0.0
 10
15.5572644685
 20
11.7086298667
 30
0.0
 10
15.5402789682
 20
11.6915303256
 30
0.0
 10
15.5205892454
 20
11.6759245564
 30
0.0
 10
15.4983289235
 20
11.6619214443
 30
0.0
 10
15.4736587778
 20
11.649598974
 30
0.0
 10
15.4467437087
 20
11.6390399606
 30
0.0
 10
15.4177673121
 20
11.6303083785
 30
0.0
 10
15.3869246361
 20
11.6234589671
 30
0.0
 10
15.3544233389
 20
11.6185404124
 30
0.0
 10
15.3204835438
 20
11.6155776807
 30
0.0
 10
15.2853337134
 20
11.6145985608
 30
0.0
 10
15.2366610167
 20
11.615950269
 30
0.0
 10
15.174381123
 20
11.6226936343
 30
0.0
 10
15.099592668
 20
11.6382968911
 30
0.0
 10
15.0259457285
 20
11.6610857167
 30
0.0
 10
14.9554225692
 20
11.6904471678
 30
0.0
 10
14.8899049394
 20
11.7255967375
 30
0.0
 10
14.8311527975
 20
11.7655954247
 30
0.0
 10
14.7883024443
 20
11.8028017035
 30
0.0
 10
14.7589875045
 20
11.8341559167
 30
0.0
 10
14.7400277662
 20
11.8577254953
 30
0.0
 10
14.7238118519
 20
11.8816345091
 30
0.0
 10
14.7146782196
 20
11.8980836013
 30
0.0
 10
14.7106424207
 20
11.9063076947
 30
0.0
  0
SPLINE
  5
50F
100
AcDbEntity
  8
0
100
AcDbSpline
 62
7
  6
CONTINUOUS
 70
0
 71
3
 72
12
 73
8
 74
0
 42
0.0000001
 43
0.0000001
 44
0.0000000001
 40
0.0
 40
0.0
 40
0.0
 40
0.0
 40
0.231407059
 40
0.3567081712
 40
0.4861113806
 40
0.7480214951
 40
1.0
 40
1.0
 40
1.0
 40
1.0
 10
16.1754366898
 20
12.1445696297
 30
0.0
 10
16.1741885108
 20
12.1410468494
 30
0.0
 10
16.1711029192
 20
12.1359958986
 30
0.0
 10
16.165584439
 20
12.1303947431
 30
0.0
 10
16.1589069853
 20
12.1253431766
 30
0.0
 10
16.1493936698
 20
12.1208551392
 30
0.0
 10
16.1410659747
 20
12.1194632223
 30
0.0
 10
16.1369963632
 20
12.1194634072
 30
0.0
  0
SPLINE
  5
510
100
AcDbEntity
  8
0
100
AcDbSpline
 62
7
  6
CONTINUOUS
 70
0
 71
3
 72
14
 73
10
 74
0
 42
0.0000001
 43
0.0000001
 44
0.0000000001
 40
0.0
 40
0.0
 40
0.0
 40
0.0
 40
0.2294213061
 40
0.3542447634
 40
0.4835427168
 40
0.6151317163
 40
0.7465888134
 40
0.875646372
 40
1.0
 40
1.0
 40
1.0
 40
1.0
 10
13.9766177251
 20
12.0861344373
 30
0.0
 10
13.9801148285
 20
12.0974510681
 30
0.0
 10
13.9894552629
 20
12.1138113768
 30
0.0
 10
14.0066293929
 20
12.131978752
 30
0.0
 10
14.0223799621
 20
12.1443020982
 30
0.0
 10
14.0400100208
 20
12.1544049975
 30
0.0
 10
14.058873208
 20
12.1619425888
 30
0.0
 10
14.0782553374
 20
12.1666129435
 30
0.0
 10
14.0913566415
 20
12.1677309904
 30
0.0
 10
14.0977768206
 20
12.1677309904
 30
0.0
  0
SPLINE
  5
511
100
AcDbEntity
  8
0
100
AcDbSpline
 62
7
  6
CONTINUOUS
 70
0
 71
3
 72
23
 73
19
 74
0
 42
0.0000001
 43
0.0000001
 44
0.0000000001
 40
0.0
 40
0.0
 40
0.0
 40
0.0
 40
0.0073187398
 40
0.0218695265
 40
0.0443173675
 40
0.0747291209
 40
0.1130531227
 40
0.1591766
 40
0.2741736648
 40
0.4181055341
 40
0.5888480421
 40
0.6835011233
 40
0.7329990416
 40
0.78382073
 40
0.8359099105
 40
0.8894197157
 40
0.9438368156
 40
1.0
 40
1.0
 40
1.0
 40
1.0
 10
17.1230235821
 20
12.4838766977
 30
0.0
 10
17.1229894759
 20
12.4838828687
 30
0.0
 10
17.1228930809
 20
12.4838101865
 30
0.0
 10
17.1227692193
 20
12.4836534908
 30
0.0
 10
17.122595857
 20
12.4833785511
 30
0.0
 10
17.1223964294
 20
12.4829977283
 30
0.0
 10
17.1221678514
 20
12.4825030388
 30
0.0
 10
17.1218072273
 20
12.4816302589
 30
0.0
 10
17.121324148
 20
12.4802675319
 30
0.0
 10
17.1207431586
 20
12.4783167256
 30
0.0
 10
17.1202852115
 20
12.4764320697
 30
0.0
 10
17.1199906074
 20
12.47496998
 30
0.0
 10
17.1198314862
 20
12.4740604038
 30
0.0
 10
17.1197241118
 20
12.4733465031
 30
0.0
 10
17.1196472974
 20
12.4726094473
 30
0.0
 10
17.1195582287
 20
12.4718575585
 30
0.0
 10
17.1195545717
 20
12.4710740195
 30
0.0
 10
17.1197123216
 20
12.4705649544
 30
0.0
 10
17.1198208077
 20
12.4703221082
 30
0.0
  0
SPLINE
  5
512
100
AcDbEntity
  8
0
100
AcDbSpline
 62
7
  6
CONTINUOUS
 70
0
 71
3
 72
11
 73
7
 74
0
 42
0.0000001
 43
0.0000001
 44
0.0000000001
 40
0.0
 40
0.0
 40
0.0
 40
0.0
 40
0.2275128391
 40
0.4701912602
 40
0.7279447905
 40
1.0
 40
1.0
 40
1.0
 40
1.0
 10
16.175438627
 20
12.1445696298
 30
0.0
 10
16.1631569384
 20
12.1695919113
 30
0.0
 10
16.1341798654
 20
12.2195885429
 30
0.0
 10
16.0806553942
 20
12.2911336821
 30
0.0
 10
16.0163628919
 20
12.360786157
 30
0.0
 10
15.9680700708
 20
12.404300914
 30
0.0
 10
15.9424230423
 20
12.4255891362
 30
0.0
  0
SPLINE
  5
513
100
AcDbEntity
  8
0
100
AcDbSpline
 62
7
  6
CONTINUOUS
 70
0
 71
3
 72
11
 73
7
 74
0
 42
0.0000001
 43
0.0000001
 44
0.0000000001
 40
0.0
 40
0.0
 40
0.0
 40
0.0
 40
0.278669746
 40
0.5398608341
 40
0.7803818515
 40
1.0
 40
1.0
 40
1.0
 40
1.0
 10
14.8700647166
 20
11.4788537965
 30
0.0
 10
14.867178355
 20
11.4788537965
 30
0.0
 10
14.8615810607
 20
11.4785632467
 30
0.0
 10
14.8535917633
 20
11.4772012862
 30
0.0
 10
14.8464456402
 20
11.4749352886
 30
0.0
 10
14.8421697713
 20
11.4727602732
 30
0.0
 10
14.8402596955
 20
11.4715249636
 30
0.0
  0
SPLINE
  5
514
100
AcDbEntity
  8
0
100
AcDbSpline
 62
7
  6
CONTINUOUS
 70
0
 71
3
 72
9
 73
5
 74
0
 42
0.0000001
 43
0.0000001
 44
0.0000000001
 40
0.0
 40
0.0
 40
0.0
 40
0.0
 40
0.5185854834
 40
1.0
 40
1.0
 40
1.0
 40
1.0
 10
14.8402596955
 20
11.4715249636
 30
0.0
 10
14.8385189013
 20
11.470399134
 30
0.0
 10
14.8353552455
 20
11.4679010754
 30
0.0
 10
14.8328492876
 20
11.4647239605
 30
0.0
 10
14.8318747915
 20
11.4630643899
 30
0.0
  0
SPLINE
  5
515
100
AcDbEntity
  8
0
100
AcDbSpline
 62
7
  6
CONTINUOUS
 70
0
 71
3
 72
9
 73
5
 74
0
 42
0.0000001
 43
0.0000001
 44
0.0000000001
 40
0.0
 40
0.0
 40
0.0
 40
0.0
 40
0.2426745844
 40
1.0
 40
1.0
 40
1.0
 40
1.0
 10
14.6638259195
 20
12.574082619
 30
0.0
 10
14.6646380432
 20
12.5743124566
 30
0.0
 10
14.6679647093
 20
12.5753299623
 30
0.0
 10
14.6712145692
 20
12.5765866448
 30
0.0
 10
14.673638151
 20
12.5776181767
 30
0.0
  0
SPLINE
  5
516
100
AcDbEntity
  8
0
100
AcDbSpline
 62
7
  6
CONTINUOUS
 70
0
 71
3
 72
9
 73
5
 74
0
 42
0.0000001
 43
0.0000001
 44
0.0000000001
 40
0.0
 40
0.0
 40
0.0
 40
0.0
 40
0.2451678302
 40
1.0
 40
1.0
 40
1.0
 40
1.0
 10
14.673638151
 20
12.5776181767
 30
0.0
 10
14.6748086249
 20
12.5781163572
 30
0.0
 10
14.6795484597
 20
12.5802273102
 30
0.0
 10
14.6841399102
 20
12.5826778211
 30
0.0
 10
14.6874748617
 20
12.5847314402
 30
0.0
  0
SPLINE
  5
517
100
AcDbEntity
  8
0
100
AcDbSpline
 62
7
  6
CONTINUOUS
 70
0
 71
3
 72
9
 73
5
 74
0
 42
0.0000001
 43
0.0000001
 44
0.0000000001
 40
0.0
 40
0.0
 40
0.0
 40
0.0
 40
0.5011122423
 40
1.0
 40
1.0
 40
1.0
 40
1.0
 10
14.6874748617
 20
12.5847314402
 30
0.0
 10
14.6918521388
 20
12.5874269097
 30
0.0
 10
14.7001688152
 20
12.5935054626
 30
0.0
 10
14.7075198356
 20
12.6007242112
 30
0.0
 10
14.7108674282
 20
12.6045953402
 30
0.0
  0
SPLINE
  5
518
100
AcDbEntity
  8
0
100
AcDbSpline
 62
7
  6
CONTINUOUS
 70
0
 71
3
 72
9
 73
5
 74
0
 42
0.0000001
 43
0.0000001
 44
0.0000000001
 40
0.0
 40
0.0
 40
0.0
 40
0.0
 40
0.5190497972
 40
1.0
 40
1.0
 40
1.0
 40
1.0
 10
14.7150762851
 20
12.6098451314
 30
0.0
 10
14.717474998
 20
12.6130827165
 30
0.0
 10
14.7216680194
 20
12.6196540592
 30
0.0
 10
14.7247314873
 20
12.6268414472
 30
0.0
 10
14.7258338226
 20
12.6304086056
 30
0.0
  0
SPLINE
  5
519
100
AcDbEntity
  8
0
100
AcDbSpline
 62
7
  6
CONTINUOUS
 70
0
 71
3
 72
9
 73
5
 74
0
 42
0.0000001
 43
0.0000001
 44
0.0000000001
 40
0.0
 40
0.0
 40
0.0
 40
0.0
 40
0.2400825538
 40
1.0
 40
1.0
 40
1.0
 40
1.0
 10
14.945674393
 20
11.4405211818
 30
0.0
 10
14.9453954542
 20
11.4410895994
 30
0.0
 10
14.9441696766
 20
11.4434256668
 30
0.0
 10
14.9427059741
 20
11.4456336257
 30
0.0
 10
14.9414991851
 20
11.4472336925
 30
0.0
  0
SPLINE
  5
51A
100
AcDbEntity
  8
0
100
AcDbSpline
 62
7
  6
CONTINUOUS
 70
0
 71
3
 72
15
 73
11
 74
0
 42
0.0000001
 43
0.0000001
 44
0.0000000001
 40
0.0
 40
0.0
 40
0.0
 40
0.0
 40
0.1072269306
 40
0.2235626869
 40
0.3475562782
 40
0.4771718166
 40
0.6098531352
 40
0.7430147824
 40
0.8740554518
 40
1.0
 40
1.0
 40
1.0
 40
1.0
 10
14.9414991851
 20
11.4472336925
 30
0.0
 10
14.9397658975
 20
11.4495318371
 30
0.0
 10
14.9357283478
 20
11.4540109921
 30
0.0
 10
14.9285514583
 20
11.4600101512
 30
0.0
 10
14.9202013179
 20
11.4654269316
 30
0.0
 10
14.9109243957
 20
11.4701028272
 30
0.0
 10
14.9009924775
 20
11.4739015509
 30
0.0
 10
14.8906963274
 20
11.4767102802
 30
0.0
 10
14.8803487623
 20
11.478436152
 30
0.0
 10
14.8734456883
 20
11.4788537965
 30
0.0
 10
14.8700647166
 20
11.4788537965
 30
0.0
  0
SPLINE
  5
51B
100
AcDbEntity
  8
0
100
AcDbSpline
 62
7
  6
CONTINUOUS
 70
0
 71
3
 72
9
 73
5
 74
0
 42
0.0000001
 43
0.0000001
 44
0.0000000001
 40
0.0
 40
0.0
 40
0.0
 40
0.0
 40
0.2585642901
 40
1.0
 40
1.0
 40
1.0
 40
1.0
 10
14.7267412323
 20
12.6337340752
 30
0.0
 10
14.726918358
 20
12.6344833396
 30
0.0
 10
14.7275349043
 20
12.6373964407
 30
0.0
 10
14.7278695013
 20
12.6403726917
 30
0.0
 10
14.7279212912
 20
12.6425798262
 30
0.0
  0
SPLINE
  5
51C
100
AcDbEntity
  8
0
100
AcDbSpline
 62
7
  6
CONTINUOUS
 70
0
 71
3
 72
9
 73
5
 74
0
 42
0.0000001
 43
0.0000001
 44
0.0000000001
 40
0.0
 40
0.0
 40
0.0
 40
0.0
 40
0.257192078
 40
1.0
 40
1.0
 40
1.0
 40
1.0
 10
14.7279212912
 20
12.6425798262
 30
0.0
 10
14.7279352204
 20
12.6431734473
 30
0.0
 10
14.7279341416
 20
12.6454822691
 30
0.0
 10
14.7277054928
 20
12.647792758
 30
0.0
 10
14.7273927689
 20
12.6494789394
 30
0.0
  0
SPLINE
  5
51D
100
AcDbEntity
  8
0
100
AcDbSpline
 62
7
  6
CONTINUOUS
 70
0
 71
3
 72
11
 73
7
 74
0
 42
0.0000001
 43
0.0000001
 44
0.0000000001
 40
0.0
 40
0.0
 40
0.0
 40
0.0
 40
0.2703691251
 40
0.5270727023
 40
0.769701323
 40
1.0
 40
1.0
 40
1.0
 40
1.0
 10
14.2095475092
 20
12.482278012
 30
0.0
 10
14.1995767732
 20
12.482278012
 30
0.0
 10
14.1801023861
 20
12.4836427987
 30
0.0
 10
14.152323009
 20
12.4900764953
 30
0.0
 10
14.12744674
 20
12.5007147337
 30
0.0
 10
14.1129481203
 20
12.5106760764
 30
0.0
 10
14.1065254571
 20
12.5162331073
 30
0.0
  0
SPLINE
  5
51E
100
AcDbEntity
  8
0
100
AcDbSpline
 62
7
  6
CONTINUOUS
 70
0
 71
3
 72
9
 73
5
 74
0
 42
0.0000001
 43
0.0000001
 44
0.0000000001
 40
0.0
 40
0.0
 40
0.0
 40
0.0
 40
0.504870998
 40
1.0
 40
1.0
 40
1.0
 40
1.0
 10
14.1065254571
 20
12.5162331073
 30
0.0
 10
14.1010932096
 20
12.5209332085
 30
0.0
 10
14.091184375
 20
12.5312872118
 30
0.0
 10
14.0835672926
 20
12.5434395702
 30
0.0
 10
14.0804644053
 20
12.549764142
 30
0.0
  0
SPLINE
  5
51F
100
AcDbEntity
  8
0
100
AcDbSpline
 62
7
  6
CONTINUOUS
 70
0
 71
3
 72
9
 73
5
 74
0
 42
0.0000001
 43
0.0000001
 44
0.0000000001
 40
0.0
 40
0.0
 40
0.0
 40
0.0
 40
0.5104124557
 40
1.0
 40
1.0
 40
1.0
 40
1.0
 10
16.6677555952
 20
12.0861344373
 30
0.0
 10
16.665309811
 20
12.0782198766
 30
0.0
 10
16.6616423117
 20
12.0623367078
 30
0.0
 10
16.6605880727
 20
12.046051334
 30
0.0
 10
16.6607909455
 20
12.038108059
 30
0.0
  0
SPLINE
  5
520
100
AcDbEntity
  8
0
100
AcDbSpline
 62
7
  6
CONTINUOUS
 70
0
 71
3
 72
15
 73
11
 74
0
 42
0.0000001
 43
0.0000001
 44
0.0000000001
 40
0.0
 40
0.0
 40
0.0
 40
0.0
 40
0.1242574412
 40
0.2531490526
 40
0.3844921408
 40
0.5159466171
 40
0.645113174
 40
0.7698281353
 40
0.8884507985
 40
1.0
 40
1.0
 40
1.0
 40
1.0
 10
16.9283577953
 20
12.2616412052
 30
0.0
 10
16.9145455638
 20
12.2616412052
 30
0.0
 10
16.8863666065
 20
12.2592405446
 30
0.0
 10
16.8446777833
 20
12.2491887879
 30
0.0
 10
16.8041078513
 20
12.232981691
 30
0.0
 10
16.7661830758
 20
12.2112404367
 30
0.0
 10
16.7323195035
 20
12.1847643242
 30
0.0
 10
16.7037760021
 20
12.1545286087
 30
0.0
 10
16.6816482958
 20
12.1216489507
 30
0.0
 10
16.6714165465
 20
12.09798128
 30
0.0
 10
16.6677555952
 20
12.0861344373
 30
0.0
  0
SPLINE
  5
521
100
AcDbEntity
  8
0
100
AcDbSpline
 62
7
  6
CONTINUOUS
 70
0
 71
3
 72
14
 73
10
 74
0
 42
0.0000001
 43
0.0000001
 44
0.0000000001
 40
0.0
 40
0.0
 40
0.0
 40
0.0
 40
0.1413093221
 40
0.277833844
 40
0.5343894453
 40
0.6555625734
 40
0.7727932948
 40
0.887150751
 40
1.0
 40
1.0
 40
1.0
 40
1.0
 10
17.0528475097
 20
12.1677309904
 30
0.0
 10
17.056668823
 20
12.1677309904
 30
0.0
 10
17.0641912552
 20
12.1673445208
 30
0.0
 10
17.07847188
 20
12.1650299659
 30
0.0
 10
17.0917772458
 20
12.1603760129
 30
0.0
 10
17.1032166484
 20
12.1533473302
 30
0.0
 10
17.1105334533
 20
12.1471639002
 30
0.0
 10
17.1166193464
 20
12.1400601281
 30
0.0
 10
17.1198001873
 20
12.1347632167
 30
0.0
 10
17.1211450037
 20
12.1320238217
 30
0.0
  0
SPLINE
  5
522
100
AcDbEntity
  8
0
100
AcDbSpline
 62
7
  6
CONTINUOUS
 70
0
 71
3
 72
11
 73
7
 74
0
 42
0.0000001
 43
0.0000001
 44
0.0000000001
 40
0.0
 40
0.0
 40
0.0
 40
0.0
 40
0.239040065
 40
0.4828737631
 40
0.7357657998
 40
1.0
 40
1.0
 40
1.0
 40
1.0
 10
13.9790493714
 20
12.0402453166
 30
0.0
 10
13.9773983324
 20
12.0436079597
 30
0.0
 10
13.9747673598
 20
12.0507710529
 30
0.0
 10
13.9730610258
 20
12.0622490081
 30
0.0
 10
13.973607516
 20
12.0742283213
 30
0.0
 10
13.9753951255
 20
12.0821781035
 30
0.0
 10
13.9766177251
 20
12.0861344373
 30
0.0
  0
SPLINE
  5
523
100
AcDbEntity
  8
0
100
AcDbSpline
 62
7
  6
CONTINUOUS
 70
0
 71
3
 72
13
 73
9
 74
0
 42
0.0000001
 43
0.0000001
 44
0.0000000001
 40
0.0
 40
0.0
 40
0.0
 40
0.0
 40
0.1143458985
 40
0.2324759019
 40
0.3542259666
 40
0.4791613912
 40
0.7362151076
 40
1.0
 40
1.0
 40
1.0
 40
1.0
 10
16.5953282301
 20
12.2337258898
 30
0.0
 10
16.5938727916
 20
12.2290160893
 30
0.0
 10
16.5915930797
 20
12.2192192931
 30
0.0
 10
16.5900690303
 20
12.2039888426
 30
0.0
 10
16.5903123164
 20
12.1882313392
 30
0.0
 10
16.5928587905
 20
12.1666336759
 30
0.0
 10
16.5998500755
 20
12.1395499058
 30
0.0
 10
16.6085312198
 20
12.1187669876
 30
0.0
 10
16.6135412055
 20
12.108558041
 30
0.0
  0
SPLINE
  5
524
100
AcDbEntity
  8
0
100
AcDbSpline
 62
7
  6
CONTINUOUS
 70
0
 71
3
 72
20
 73
16
 74
0
 42
0.0000001
 43
0.0000001
 44
0.0000000001
 40
0.0
 40
0.0
 40
0.0
 40
0.0
 40
0.141890174
 40
0.2810788428
 40
0.4153173639
 40
0.4801203543
 40
0.5431959336
 40
0.604471871
 40
0.6639336722
 40
0.7216525526
 40
0.7778359602
 40
0.8329078466
 40
0.8875932683
 40
0.942917333
 40
1.0
 40
1.0
 40
1.0
 40
1.0
 10
16.9105124461
 20
12.2980062035
 30
0.0
 10
16.8946122374
 20
12.3027373098
 30
0.0
 10
16.8626084451
 20
12.31047837
 30
0.0
 10
16.8144927164
 20
12.317445277
 30
0.0
 10
16.7749252089
 20
12.3194363474
 30
0.0
 10
16.7442794928
 20
12.3185097575
 30
0.0
 10
16.7222384024
 20
12.316526019
 30
0.0
 10
16.7009959268
 20
12.31314574
 30
0.0
 10
16.6806931619
 20
12.3082242843
 30
0.0
 10
16.6615087334
 20
12.3015673323
 30
0.0
 10
16.6436826574
 20
12.2929241226
 30
0.0
 10
16.6275526574
 20
12.281999548
 30
0.0
 10
16.6135938569
 20
12.2685066681
 30
0.0
 10
16.6024152983
 20
12.2523244236
 30
0.0
 10
16.5972986654
 20
12.240102221
 30
0.0
 10
16.5953282301
 20
12.2337258898
 30
0.0
  0
SPLINE
  5
525
100
AcDbEntity
  8
0
100
AcDbSpline
 62
7
  6
CONTINUOUS
 70
0
 71
3
 72
9
 73
5
 74
0
 42
0.0000001
 43
0.0000001
 44
0.0000000001
 40
0.0
 40
0.0
 40
0.0
 40
0.0
 40
0.2436326972
 40
1.0
 40
1.0
 40
1.0
 40
1.0
 10
17.081867961
 20
12.2616412052
 30
0.0
 10
17.0797679802
 20
12.2616412052
 30
0.0
 10
17.0711491579
 20
12.2618402627
 30
0.0
 10
17.0625522351
 20
12.2628028162
 30
0.0
 10
17.056126605
 20
12.2639049986
 30
0.0
  0
SPLINE
  5
526
100
AcDbEntity
  8
0
100
AcDbSpline
 62
7
  6
CONTINUOUS
 70
0
 71
3
 72
9
 73
5
 74
0
 42
0.0000001
 43
0.0000001
 44
0.0000000001
 40
0.0
 40
0.0
 40
0.0
 40
0.0
 40
0.5146222429
 40
1.0
 40
1.0
 40
1.0
 40
1.0
 10
15.8096890057
 20
12.6596728165
 30
0.0
 10
15.8048915132
 20
12.6492744369
 30
0.0
 10
15.7972769921
 20
12.6282141576
 30
0.0
 10
15.7939911925
 20
12.6060101798
 30
0.0
 10
15.7936410092
 20
12.595214892
 30
0.0
  0
SPLINE
  5
527
100
AcDbEntity
  8
0
100
AcDbSpline
 62
7
  6
CONTINUOUS
 70
0
 71
3
 72
9
 73
5
 74
0
 42
0.0000001
 43
0.0000001
 44
0.0000000001
 40
0.0
 40
0.0
 40
0.0
 40
0.0
 40
0.5146212692
 40
1.0
 40
1.0
 40
1.0
 40
1.0
 10
15.9217548781
 20
13.0223201105
 30
0.0
 10
15.9169579459
 20
13.0119223358
 30
0.0
 10
15.9093443264
 20
12.9908633308
 30
0.0
 10
15.9060589122
 20
12.9686608299
 30
0.0
 10
15.9057087515
 20
12.957866239
 30
0.0
  0
SPLINE
  5
528
100
AcDbEntity
  8
0
100
AcDbSpline
 62
7
  6
CONTINUOUS
 70
0
 71
3
 72
9
 73
5
 74
0
 42
0.0000001
 43
0.0000001
 44
0.0000000001
 40
0.0
 40
0.0
 40
0.0
 40
0.0
 40
0.5956343853
 40
1.0
 40
1.0
 40
1.0
 40
1.0
 10
16.1195517531
 20
12.8049327575
 30
0.0
 10
16.1158963256
 20
12.8148164676
 30
0.0
 10
16.1099457764
 20
12.8314815531
 30
0.0
 10
16.1047496912
 20
12.8484042896
 30
0.0
 10
16.1029001454
 20
12.8553151485
 30
0.0
  0
SPLINE
  5
529
100
AcDbEntity
  8
0
100
AcDbSpline
 62
7
  6
CONTINUOUS
 70
0
 71
3
 72
11
 73
7
 74
0
 42
0.0000001
 43
0.0000001
 44
0.0000000001
 40
0.0
 40
0.0
 40
0.0
 40
0.0
 40
0.2669171334
 40
0.5221327268
 40
0.7659092251
 40
1.0
 40
1.0
 40
1.0
 40
1.0
 10
16.0782797472
 20
12.6713764975
 30
0.0
 10
16.0839098449
 20
12.6770756091
 30
0.0
 10
16.0955046443
 20
12.6876695799
 30
0.0
 10
16.1140492762
 20
12.7013195488
 30
0.0
 10
16.1329792719
 20
12.7125918269
 30
0.0
 10
16.1458803728
 20
12.718892801
 30
0.0
 10
16.1522950811
 20
12.7217588884
 30
0.0
  0
SPLINE
  5
52A
100
AcDbEntity
  8
0
100
AcDbSpline
 62
7
  6
CONTINUOUS
 70
0
 71
3
 72
10
 73
6
 74
0
 42
0.0000001
 43
0.0000001
 44
0.0000000001
 40
0.0
 40
0.0
 40
0.0
 40
0.0
 40
0.5324500914
 40
0.7778207216
 40
1.0
 40
1.0
 40
1.0
 40
1.0
 10
16.1522950811
 20
12.7217588884
 30
0.0
 10
16.1463038864
 20
12.7364494512
 30
0.0
 10
16.1376250813
 20
12.7579404339
 30
0.0
 10
16.1267822241
 20
12.7856946404
 30
0.0
 10
16.1218481739
 20
12.7987235912
 30
0.0
 10
16.1195517531
 20
12.8049327575
 30
0.0
  0
SPLINE
  5
52B
100
AcDbEntity
  8
0
100
AcDbSpline
 62
7
  6
CONTINUOUS
 70
0
 71
3
 72
10
 73
6
 74
0
 42
0.0000001
 43
0.0000001
 44
0.0000000001
 40
0.0
 40
0.0
 40
0.0
 40
0.0
 40
0.490415744
 40
0.744317306
 40
1.0
 40
1.0
 40
1.0
 40
1.0
 10
15.9216433319
 20
12.6045983675
 30
0.0
 10
15.9380440299
 20
12.6045983675
 30
0.0
 10
15.9629593702
 20
12.6019375943
 30
0.0
 10
15.9956720683
 20
12.5949950945
 30
0.0
 10
16.0121427462
 20
12.5905804272
 30
0.0
 10
16.0203561336
 20
12.5882026284
 30
0.0
  0
SPLINE
  5
52C
100
AcDbEntity
  8
0
100
AcDbSpline
 62
7
  6
CONTINUOUS
 70
0
 71
3
 72
10
 73
6
 74
0
 42
0.0000001
 43
0.0000001
 44
0.0000000001
 40
0.0
 40
0.0
 40
0.0
 40
0.0
 40
0.2526303992
 40
0.630522974
 40
1.0
 40
1.0
 40
1.0
 40
1.0
 10
16.0203561336
 20
12.5882026284
 30
0.0
 10
16.0243261794
 20
12.5957891261
 30
0.0
 10
16.0346442414
 20
12.6145130868
 30
0.0
 10
16.0531175173
 20
12.6429944926
 30
0.0
 10
16.0694788874
 20
12.6624677564
 30
0.0
 10
16.0782797472
 20
12.6713764975
 30
0.0
  0
SPLINE
  5
52D
100
AcDbEntity
  8
0
100
AcDbSpline
 62
7
  6
CONTINUOUS
 70
0
 71
3
 72
10
 73
6
 74
0
 42
0.0000001
 43
0.0000001
 44
0.0000000001
 40
0.0
 40
0.0
 40
0.0
 40
0.0
 40
0.2612651235
 40
0.5147934917
 40
1.0
 40
1.0
 40
1.0
 40
1.0
 10
14.6754890463
 20
12.5976460697
 30
0.0
 10
14.6729267723
 20
12.5959956723
 30
0.0
 10
14.6681123627
 20
12.592360949
 30
0.0
 10
14.6598899656
 20
12.5840420712
 30
0.0
 10
14.6550226788
 20
12.5768363683
 30
0.0
 10
14.6522220337
 20
12.5719176139
 30
0.0
  0
SPLINE
  5
52E
100
AcDbEntity
  8
0
100
AcDbSpline
 62
7
  6
CONTINUOUS
 70
0
 71
3
 72
11
 73
7
 74
0
 42
0.0000001
 43
0.0000001
 44
0.0000000001
 40
0.0
 40
0.0
 40
0.0
 40
0.0
 40
0.2496656853
 40
0.5006163771
 40
0.7515649084
 40
1.0
 40
1.0
 40
1.0
 40
1.0
 10
14.7108671221
 20
12.6096917569
 30
0.0
 10
14.7077698036
 20
12.6092250603
 30
0.0
 10
14.7015835155
 20
12.6081094308
 30
0.0
 10
14.6924552525
 20
12.6056932675
 30
0.0
 10
14.6836414424
 20
12.6023284708
 30
0.0
 10
14.6781093677
 20
12.5993338564
 30
0.0
 10
14.6754890463
 20
12.5976460697
 30
0.0
  0
SPLINE
  5
52F
100
AcDbEntity
  8
0
100
AcDbSpline
 62
7
  6
CONTINUOUS
 70
0
 71
3
 72
11
 73
7
 74
0
 42
0.0000001
 43
0.0000001
 44
0.0000000001
 40
0.0
 40
0.0
 40
0.0
 40
0.0
 40
0.3536046205
 40
0.6262496961
 40
0.8341704645
 40
1.0
 40
1.0
 40
1.0
 40
1.0
 10
14.6254942914
 20
12.5877248449
 30
0.0
 10
14.6238596474
 20
12.5884338145
 30
0.0
 10
14.6209072981
 20
12.5895700109
 30
0.0
 10
14.6167935333
 20
12.5905229573
 30
0.0
 10
14.6135091134
 20
12.5906112759
 30
0.0
 10
14.6116519695
 20
12.5901632948
 30
0.0
 10
14.6108776124
 20
12.5898493072
 30
0.0
  0
SPLINE
  5
530
100
AcDbEntity
  8
0
100
AcDbSpline
 62
7
  6
CONTINUOUS
 70
0
 71
3
 72
11
 73
7
 74
0
 42
0.0000001
 43
0.0000001
 44
0.0000000001
 40
0.0
 40
0.0
 40
0.0
 40
0.0
 40
0.2789256019
 40
0.544434023
 40
0.7881870342
 40
1.0
 40
1.0
 40
1.0
 40
1.0
 10
14.6522220337
 20
12.5719176139
 30
0.0
 10
14.6498314658
 20
12.573542534
 30
0.0
 10
14.6451374641
 20
12.5766736038
 30
0.0
 10
14.638222224
 20
12.5810237497
 30
0.0
 10
14.6317409787
 20
12.5847470373
 30
0.0
 10
14.6275080806
 20
12.5868514344
 30
0.0
 10
14.6254942914
 20
12.5877248449
 30
0.0
  0
SPLINE
  5
531
100
AcDbEntity
  8
0
100
AcDbSpline
 62
7
  6
CONTINUOUS
 70
0
 71
3
 72
11
 73
7
 74
0
 42
0.0000001
 43
0.0000001
 44
0.0000000001
 40
0.0
 40
0.0
 40
0.0
 40
0.0
 40
0.2283073477
 40
0.4776778066
 40
0.7386515231
 40
1.0
 40
1.0
 40
1.0
 40
1.0
 10
14.8267903448
 20
13.1761286019
 30
0.0
 10
14.8251617179
 20
13.1708583633
 30
0.0
 10
14.8204157836
 20
13.1602301964
 30
0.0
 10
14.810251093
 20
13.1454670399
 30
0.0
 10
14.7973143975
 20
13.1319387492
 30
0.0
 10
14.7872529064
 20
13.1242206728
 30
0.0
 10
14.7819466995
 20
13.1207977398
 30
0.0
  0
SPLINE
  5
532
100
AcDbEntity
  8
0
100
AcDbSpline
 62
7
  6
CONTINUOUS
 70
0
 71
3
 72
9
 73
5
 74
0
 42
0.0000001
 43
0.0000001
 44
0.0000000001
 40
0.0
 40
0.0
 40
0.0
 40
0.0
 40
0.2453570771
 40
1.0
 40
1.0
 40
1.0
 40
1.0
 10
14.3114471893
 20
12.8656496913
 30
0.0
 10
14.3147070187
 20
12.8656496913
 30
0.0
 10
14.3279919348
 20
12.865955939
 30
0.0
 10
14.3412443958
 20
12.8674507799
 30
0.0
 10
14.3511202923
 20
12.8691805248
 30
0.0
  0
SPLINE
  5
533
100
AcDbEntity
  8
0
100
AcDbSpline
 62
7
  6
CONTINUOUS
 70
0
 71
3
 72
15
 73
11
 74
0
 42
0.0000001
 43
0.0000001
 44
0.0000000001
 40
0.0
 40
0.0
 40
0.0
 40
0.0
 40
0.1422270018
 40
0.2798763545
 40
0.4121907965
 40
0.5390129278
 40
0.660470832
 40
0.7770822459
 40
0.8898655855
 40
1.0
 40
1.0
 40
1.0
 40
1.0
 10
15.8475509283
 20
12.8049327575
 30
0.0
 10
15.8426418688
 20
12.7999635226
 30
0.0
 10
15.8334746061
 20
12.7896805793
 30
0.0
 10
15.8217135331
 20
12.7731522073
 30
0.0
 10
15.8123483493
 20
12.7560059462
 30
0.0
 10
15.8055474556
 20
12.7385350184
 30
0.0
 10
15.8014253492
 20
12.7210293045
 30
0.0
 10
15.8000753702
 20
12.7037763293
 30
0.0
 10
15.8015404014
 20
12.687088448
 30
0.0
 10
15.8044026532
 20
12.6764496391
 30
0.0
 10
15.8062789224
 20
12.6713764975
 30
0.0
  0
SPLINE
  5
534
100
AcDbEntity
  8
0
100
AcDbSpline
 62
7
  6
CONTINUOUS
 70
0
 71
3
 72
11
 73
7
 74
0
 42
0.0000001
 43
0.0000001
 44
0.0000000001
 40
0.0
 40
0.0
 40
0.0
 40
0.0
 40
0.2712945005
 40
0.5254922905
 40
0.766352027
 40
1.0
 40
1.0
 40
1.0
 40
1.0
 10
16.099705764
 20
11.5986189562
 30
0.0
 10
16.1005134962
 20
11.5969729711
 30
0.0
 10
16.1018523763
 20
11.5936652063
 30
0.0
 10
16.1029672989
 20
11.5885787199
 30
0.0
 10
16.103074788
 20
11.5836222789
 30
0.0
 10
16.1024624645
 20
11.5804445231
 30
0.0
 10
16.1019962454
 20
11.5789358513
 30
0.0
  0
SPLINE
  5
535
100
AcDbEntity
  8
0
100
AcDbSpline
 62
7
  6
CONTINUOUS
 70
0
 71
3
 72
15
 73
11
 74
0
 42
0.0000001
 43
0.0000001
 44
0.0000000001
 40
0.0
 40
0.0
 40
0.0
 40
0.0
 40
0.1133561023
 40
0.2275816101
 40
0.3442067196
 40
0.4647225938
 40
0.5901546602
 40
0.7211133369
 40
0.8578649508
 40
1.0
 40
1.0
 40
1.0
 40
1.0
 10
15.8062789224
 20
12.6713764975
 30
0.0
 10
15.8081388324
 20
12.6663475888
 30
0.0
 10
15.8128019501
 20
12.6565675304
 30
0.0
 10
15.8223973873
 20
12.6433107537
 30
0.0
 10
15.8344201343
 20
12.6317149542
 30
0.0
 10
15.8486325019
 20
12.6219856873
 30
0.0
 10
15.8647748442
 20
12.6142665807
 30
0.0
 10
15.882573326
 20
12.6086829334
 30
0.0
 10
15.9017143977
 20
12.6053212837
 30
0.0
 10
15.9149202396
 20
12.6045983675
 30
0.0
 10
15.9216433319
 20
12.6045983675
 30
0.0
  0
SPLINE
  5
536
100
AcDbEntity
  8
0
100
AcDbSpline
 62
7
  6
CONTINUOUS
 70
0
 71
3
 72
11
 73
7
 74
0
 42
0.0000001
 43
0.0000001
 44
0.0000000001
 40
0.0
 40
0.0
 40
0.0
 40
0.0
 40
0.2427017075
 40
0.4955310213
 40
0.7506985425
 40
1.0
 40
1.0
 40
1.0
 40
1.0
 10
15.9216433319
 20
12.6045983675
 30
0.0
 10
15.9357430138
 20
12.6045983675
 30
0.0
 10
15.9645938082
 20
12.6078842547
 30
0.0
 10
16.0063600086
 20
12.6212772967
 30
0.0
 10
16.0452567837
 20
12.6423545207
 30
0.0
 10
16.0681012287
 20
12.6610732104
 30
0.0
 10
16.0782797472
 20
12.6713764975
 30
0.0
  0
SPLINE
  5
537
100
AcDbEntity
  8
0
100
AcDbSpline
 62
7
  6
CONTINUOUS
 70
0
 71
3
 72
11
 73
7
 74
0
 42
0.0000001
 43
0.0000001
 44
0.0000000001
 40
0.0
 40
0.0
 40
0.0
 40
0.0
 40
0.2313019119
 40
0.4786649364
 40
0.7364109527
 40
1.0
 40
1.0
 40
1.0
 40
1.0
 10
14.713461924
 20
12.6443860594
 30
0.0
 10
14.7126622117
 20
12.6418110926
 30
0.0
 10
14.7114346205
 20
12.6363462283
 30
0.0
 10
14.7105511376
 20
12.6277946643
 30
0.0
 10
14.7103992479
 20
12.6188271624
 30
0.0
 10
14.7106672638
 20
12.6127530375
 30
0.0
 10
14.710867258
 20
12.6096868884
 30
0.0
  0
SPLINE
  5
538
100
AcDbEntity
  8
0
100
AcDbSpline
 62
7
  6
CONTINUOUS
 70
0
 71
3
 72
11
 73
7
 74
0
 42
0.0000001
 43
0.0000001
 44
0.0000000001
 40
0.0
 40
0.0
 40
0.0
 40
0.0
 40
0.2233484053
 40
0.460023178
 40
0.7169359475
 40
1.0
 40
1.0
 40
1.0
 40
1.0
 10
14.7281654809
 20
12.6653954778
 30
0.0
 10
14.7266176644
 20
12.6642249842
 30
0.0
 10
14.7235650304
 20
12.6616250208
 30
0.0
 10
14.7194503623
 20
12.6569130836
 30
0.0
 10
14.715919638
 20
12.6511235617
 30
0.0
 10
14.714191376
 20
12.6467347976
 30
0.0
 10
14.713461924
 20
12.6443860594
 30
0.0
  0
SPLINE
  5
539
100
AcDbEntity
  8
0
100
AcDbSpline
 62
7
  6
CONTINUOUS
 70
0
 71
3
 72
11
 73
7
 74
0
 42
0.0000001
 43
0.0000001
 44
0.0000000001
 40
0.0
 40
0.0
 40
0.0
 40
0.0
 40
0.2614262416
 40
0.522438298
 40
0.771787329
 40
1.0
 40
1.0
 40
1.0
 40
1.0
 10
14.6754890463
 20
12.5976460697
 30
0.0
 10
14.6799788277
 20
12.6005380024
 30
0.0
 10
14.6884931604
 20
12.6070579562
 30
0.0
 10
14.699444993
 20
12.6184856646
 30
0.0
 10
14.7080545272
 20
12.6309555319
 30
0.0
 10
14.7120791766
 20
12.6399337977
 30
0.0
 10
14.713461924
 20
12.6443860594
 30
0.0
  0
SPLINE
  5
53A
100
AcDbEntity
  8
0
100
AcDbSpline
 62
7
  6
CONTINUOUS
 70
0
 71
3
 72
12
 73
8
 74
0
 42
0.0000001
 43
0.0000001
 44
0.0000000001
 40
0.0
 40
0.0
 40
0.0
 40
0.0
 40
0.205333091
 40
0.3196623851
 40
0.4419984873
 40
0.7090631636
 40
1.0
 40
1.0
 40
1.0
 40
1.0
 10
14.6254942914
 20
12.5877248449
 30
0.0
 10
14.6288081079
 20
12.5862875932
 30
0.0
 10
14.6344556175
 20
12.5851196628
 30
0.0
 10
14.6422374457
 20
12.5852176831
 30
0.0
 10
14.6510359406
 20
12.5864656082
 30
0.0
 10
14.6625015013
 20
12.590192225
 30
0.0
 10
14.6711863966
 20
12.5948746713
 30
0.0
 10
14.6754890463
 20
12.5976460697
 30
0.0
  0
SPLINE
  5
53B
100
AcDbEntity
  8
0
100
AcDbSpline
 62
7
  6
CONTINUOUS
 70
0
 71
3
 72
11
 73
7
 74
0
 42
0.0000001
 43
0.0000001
 44
0.0000000001
 40
0.0
 40
0.0
 40
0.0
 40
0.0
 40
0.249220382
 40
0.4913980284
 40
0.7379765616
 40
1.0
 40
1.0
 40
1.0
 40
1.0
 10
14.8125185557
 20
13.2197283027
 30
0.0
 10
14.8148040881
 20
13.218735806
 30
0.0
 10
14.8190984484
 20
13.216212993
 30
0.0
 10
14.8242496666
 20
13.2107947274
 30
0.0
 10
14.8277296436
 20
13.2040395104
 30
0.0
 10
14.8288350956
 20
13.1990184638
 30
0.0
 10
14.8291268612
 20
13.1964150277
 30
0.0
  0
SPLINE
  5
53C
100
AcDbEntity
  8
0
100
AcDbSpline
 62
7
  6
CONTINUOUS
 70
0
 71
3
 72
9
 73
5
 74
0
 42
0.0000001
 43
0.0000001
 44
0.0000000001
 40
0.0
 40
0.0
 40
0.0
 40
0.0
 40
0.2326800672
 40
1.0
 40
1.0
 40
1.0
 40
1.0
 10
14.8292015661
 20
13.1956838274
 30
0.0
 10
14.8293426359
 20
13.1941564189
 30
0.0
 10
14.8295512895
 20
13.1875550248
 30
0.0
 10
14.8282838371
 20
13.1809615448
 30
0.0
 10
14.8267903448
 20
13.1761286019
 30
0.0
  0
SPLINE
  5
53D
100
AcDbEntity
  8
0
100
AcDbSpline
 62
7
  6
CONTINUOUS
 70
0
 71
3
 72
9
 73
5
 74
0
 42
0.0000001
 43
0.0000001
 44
0.0000000001
 40
0.0
 40
0.0
 40
0.0
 40
0.0
 40
0.4733796181
 40
1.0
 40
1.0
 40
1.0
 40
1.0
 10
14.7014400468
 20
12.6812048243
 30
0.0
 10
14.6989496123
 20
12.682284963
 30
0.0
 10
14.6933194514
 20
12.6837467442
 30
0.0
 10
14.6875380926
 20
12.6838084279
 30
0.0
 10
14.6845280686
 20
12.6835645034
 30
0.0
  0
SPLINE
  5
53E
100
AcDbEntity
  8
0
100
AcDbSpline
 62
7
  6
CONTINUOUS
 70
0
 71
3
 72
10
 73
6
 74
0
 42
0.0000001
 43
0.0000001
 44
0.0000000001
 40
0.0
 40
0.0
 40
0.0
 40
0.0
 40
0.2766468779
 40
0.535383692
 40
1.0
 40
1.0
 40
1.0
 40
1.0
 10
14.713461924
 20
12.6443860594
 30
0.0
 10
14.714093764
 20
12.6464204998
 30
0.0
 10
14.7150951867
 20
12.650435528
 30
0.0
 10
14.715977855
 20
12.6580912939
 30
0.0
 10
14.7153655769
 20
12.6637770249
 30
0.0
 10
14.7142550875
 20
12.6671780617
 30
0.0
  0
SPLINE
  5
53F
100
AcDbEntity
  8
0
100
AcDbSpline
 62
7
  6
CONTINUOUS
 70
0
 71
3
 72
11
 73
7
 74
0
 42
0.0000001
 43
0.0000001
 44
0.0000000001
 40
0.0
 40
0.0
 40
0.0
 40
0.0
 40
0.2528641215
 40
0.4989588725
 40
0.7457568359
 40
1.0
 40
1.0
 40
1.0
 40
1.0
 10
14.7142550875
 20
12.6671780617
 30
0.0
 10
14.7137431291
 20
12.6687460097
 30
0.0
 10
14.7124272594
 20
12.6717525758
 30
0.0
 10
14.7095435635
 20
12.6757184483
 30
0.0
 10
14.7058448867
 20
12.6789505605
 30
0.0
 10
14.7029615166
 20
12.6805449401
 30
0.0
 10
14.7014400468
 20
12.6812048243
 30
0.0
  0
SPLINE
  5
540
100
AcDbEntity
  8
0
100
AcDbSpline
 62
7
  6
CONTINUOUS
 70
0
 71
3
 72
15
 73
11
 74
0
 42
0.0000001
 43
0.0000001
 44
0.0000000001
 40
0.0
 40
0.0
 40
0.0
 40
0.0
 40
0.1422270018
 40
0.2798763545
 40
0.4121907965
 40
0.5390129278
 40
0.660470832
 40
0.7770822459
 40
0.8898655855
 40
1.0
 40
1.0
 40
1.0
 40
1.0
 10
16.0782797472
 20
12.6713764975
 30
0.0
 10
16.0831888067
 20
12.6763457325
 30
0.0
 10
16.0923560695
 20
12.6866286757
 30
0.0
 10
16.1041171424
 20
12.7031570477
 30
0.0
 10
16.1134823262
 20
12.7203033089
 30
0.0
 10
16.12028322
 20
12.7377742367
 30
0.0
 10
16.1244053263
 20
12.7552799505
 30
0.0
 10
16.1257553054
 20
12.7725329258
 30
0.0
 10
16.1242902741
 20
12.789220807
 30
0.0
 10
16.1214280223
 20
12.799859616
 30
0.0
 10
16.1195517531
 20
12.8049327575
 30
0.0
  0
SPLINE
  5
541
100
AcDbEntity
  8
0
100
AcDbSpline
 62
7
  6
CONTINUOUS
 70
0
 71
3
 72
15
 73
11
 74
0
 42
0.0000001
 43
0.0000001
 44
0.0000000001
 40
0.0
 40
0.0
 40
0.0
 40
0.0
 40
0.1133561023
 40
0.2275816101
 40
0.3442067196
 40
0.4647225938
 40
0.5901546602
 40
0.7211133369
 40
0.8578649508
 40
1.0
 40
1.0
 40
1.0
 40
1.0
 10
16.1195517531
 20
12.8049327575
 30
0.0
 10
16.1176918431
 20
12.8099616662
 30
0.0
 10
16.1130287254
 20
12.8197417247
 30
0.0
 10
16.1034332882
 20
12.8329985013
 30
0.0
 10
16.0914105413
 20
12.8445943008
 30
0.0
 10
16.0771981736
 20
12.8543235677
 30
0.0
 10
16.0610558313
 20
12.8620426743
 30
0.0
 10
16.0432573495
 20
12.8676263216
 30
0.0
 10
16.0241162778
 20
12.8709879714
 30
0.0
 10
16.0109104359
 20
12.8717108875
 30
0.0
 10
16.0041873437
 20
12.8717108875
 30
0.0
  0
SPLINE
  5
542
100
AcDbEntity
  8
0
100
AcDbSpline
 62
7
  6
CONTINUOUS
 70
0
 71
3
 72
11
 73
7
 74
0
 42
0.0000001
 43
0.0000001
 44
0.0000000001
 40
0.0
 40
0.0
 40
0.0
 40
0.0
 40
0.2427017075
 40
0.4955310213
 40
0.7506985425
 40
1.0
 40
1.0
 40
1.0
 40
1.0
 10
16.0041873437
 20
12.8717108875
 30
0.0
 10
15.9900876617
 20
12.8717108875
 30
0.0
 10
15.9612368673
 20
12.8684250004
 30
0.0
 10
15.919470667
 20
12.8550319584
 30
0.0
 10
15.8805738919
 20
12.8339547343
 30
0.0
 10
15.8577294468
 20
12.8152360447
 30
0.0
 10
15.8475509283
 20
12.8049327575
 30
0.0
  0
SPLINE
  5
543
100
AcDbEntity
  8
0
100
AcDbSpline
 62
7
  6
CONTINUOUS
 70
0
 71
3
 72
11
 73
7
 74
0
 42
0.0000001
 43
0.0000001
 44
0.0000000001
 40
0.0
 40
0.0
 40
0.0
 40
0.0
 40
0.2298097972
 40
0.4716172289
 40
0.7280154991
 40
1.0
 40
1.0
 40
1.0
 40
1.0
 10
15.8390222504
 20
12.5882026284
 30
0.0
 10
15.8450403166
 20
12.5906363922
 30
0.0
 10
15.8575832047
 20
12.595174055
 30
0.0
 10
15.8774941427
 20
12.6004399446
 30
0.0
 10
15.899020746
 20
12.6038500332
 30
0.0
 10
15.9139604427
 20
12.6045983675
 30
0.0
 10
15.9216433319
 20
12.6045983675
 30
0.0
  0
SPLINE
  5
544
100
AcDbEntity
  8
0
100
AcDbSpline
 62
7
  6
CONTINUOUS
 70
0
 71
3
 72
9
 73
5
 74
0
 42
0.0000001
 43
0.0000001
 44
0.0000000001
 40
0.0
 40
0.0
 40
0.0
 40
0.0
 40
0.245077304
 40
1.0
 40
1.0
 40
1.0
 40
1.0
 10
14.2271650492
 20
12.8863109166
 30
0.0
 10
14.2289690202
 20
12.8852666967
 30
0.0
 10
14.2364318835
 20
12.881183621
 30
0.0
 10
14.2442758727
 20
12.8778060433
 30
0.0
 10
14.2503213019
 20
12.8756432562
 30
0.0
  0
SPLINE
  5
545
100
AcDbEntity
  8
0
100
AcDbSpline
 62
7
  6
CONTINUOUS
 70
0
 71
3
 72
9
 73
5
 74
0
 42
0.0000001
 43
0.0000001
 44
0.0000000001
 40
0.0
 40
0.0
 40
0.0
 40
0.0
 40
0.2465132077
 40
1.0
 40
1.0
 40
1.0
 40
1.0
 10
14.2522950452
 20
12.8749523209
 30
0.0
 10
14.253790399
 20
12.8744402575
 30
0.0
 10
14.2598881219
 20
12.872456413
 30
0.0
 10
14.266105088
 20
12.8708422628
 30
0.0
 10
14.2708279211
 20
12.8698246396
 30
0.0
  0
SPLINE
  5
546
100
AcDbEntity
  8
0
100
AcDbSpline
 62
7
  6
CONTINUOUS
 70
0
 71
3
 72
11
 73
7
 74
0
 42
0.0000001
 43
0.0000001
 44
0.0000000001
 40
0.0
 40
0.0
 40
0.0
 40
0.0
 40
0.2427017075
 40
0.4955310213
 40
0.7506985425
 40
1.0
 40
1.0
 40
1.0
 40
1.0
 10
16.0337110742
 20
12.9672497146
 30
0.0
 10
16.0478107561
 20
12.9672497146
 30
0.0
 10
16.0766615505
 20
12.9705356017
 30
0.0
 10
16.1184277509
 20
12.9839286437
 30
0.0
 10
16.157324526
 20
13.0050058678
 30
0.0
 10
16.180168971
 20
13.0237245574
 30
0.0
 10
16.1903474895
 20
13.0340278446
 30
0.0
  0
SPLINE
  5
547
100
AcDbEntity
  8
0
100
AcDbSpline
 62
7
  6
CONTINUOUS
 70
0
 71
3
 72
15
 73
11
 74
0
 42
0.0000001
 43
0.0000001
 44
0.0000000001
 40
0.0
 40
0.0
 40
0.0
 40
0.0
 40
0.1422270018
 40
0.2798763545
 40
0.4121907965
 40
0.5390129278
 40
0.660470832
 40
0.7770822459
 40
0.8898655855
 40
1.0
 40
1.0
 40
1.0
 40
1.0
 10
16.1903474895
 20
13.0340278446
 30
0.0
 10
16.1952565491
 20
13.0389970795
 30
0.0
 10
16.2044238118
 20
13.0492800228
 30
0.0
 10
16.2161848847
 20
13.0658083948
 30
0.0
 10
16.2255500685
 20
13.0829546559
 30
0.0
 10
16.2323509623
 20
13.1004255837
 30
0.0
 10
16.2364730686
 20
13.1179312976
 30
0.0
 10
16.2378230477
 20
13.1351842728
 30
0.0
 10
16.2363580164
 20
13.1518721541
 30
0.0
 10
16.2334957647
 20
13.162510963
 30
0.0
 10
16.2316194954
 20
13.1675841046
 30
0.0
  0
SPLINE
  5
548
100
AcDbEntity
  8
0
100
AcDbSpline
 62
7
  6
CONTINUOUS
 70
0
 71
3
 72
15
 73
11
 74
0
 42
0.0000001
 43
0.0000001
 44
0.0000000001
 40
0.0
 40
0.0
 40
0.0
 40
0.0
 40
0.1133561023
 40
0.2275816101
 40
0.3442067196
 40
0.4647225938
 40
0.5901546602
 40
0.7211133369
 40
0.8578649508
 40
1.0
 40
1.0
 40
1.0
 40
1.0
 10
16.2316194954
 20
13.1675841046
 30
0.0
 10
16.2297595854
 20
13.1726130133
 30
0.0
 10
16.2250964677
 20
13.1823930717
 30
0.0
 10
16.2155010305
 20
13.1956498484
 30
0.0
 10
16.2034782836
 20
13.2072456479
 30
0.0
 10
16.1892659159
 20
13.2169749148
 30
0.0
 10
16.1731235736
 20
13.2246940214
 30
0.0
 10
16.1553250919
 20
13.2302776687
 30
0.0
 10
16.1361840202
 20
13.2336393184
 30
0.0
 10
16.1229781782
 20
13.2343622346
 30
0.0
 10
16.116255086
 20
13.2343622346
 30
0.0
  0
SPLINE
  5
549
100
AcDbEntity
  8
0
100
AcDbSpline
 62
7
  6
CONTINUOUS
 70
0
 71
3
 72
11
 73
7
 74
0
 42
0.0000001
 43
0.0000001
 44
0.0000000001
 40
0.0
 40
0.0
 40
0.0
 40
0.0
 40
0.2427017075
 40
0.4955310213
 40
0.7506985425
 40
1.0
 40
1.0
 40
1.0
 40
1.0
 10
16.116255086
 20
13.2343622346
 30
0.0
 10
16.1021554041
 20
13.2343622346
 30
0.0
 10
16.0733046096
 20
13.2310763474
 30
0.0
 10
16.0315384093
 20
13.2176833054
 30
0.0
 10
15.9926416342
 20
13.1966060814
 30
0.0
 10
15.9697971891
 20
13.1778873917
 30
0.0
 10
15.9596186706
 20
13.1675841046
 30
0.0
  0
SPLINE
  5
54A
100
AcDbEntity
  8
0
100
AcDbSpline
 62
7
  6
CONTINUOUS
 70
0
 71
3
 72
11
 73
7
 74
0
 42
0.0000001
 43
0.0000001
 44
0.0000000001
 40
0.0
 40
0.0
 40
0.0
 40
0.0
 40
0.2448536375
 40
0.495027513
 40
0.7474220254
 40
1.0
 40
1.0
 40
1.0
 40
1.0
 10
16.1903474895
 20
13.0340278446
 30
0.0
 10
16.1845135287
 20
13.0281223708
 30
0.0
 10
16.1733435205
 20
13.0155530796
 30
0.0
 10
16.158294979
 20
12.9951323768
 30
0.0
 10
16.1446620811
 20
12.9734411269
 30
0.0
 10
16.1363941882
 20
12.9584409824
 30
0.0
 10
16.1324238759
 20
12.9508539755
 30
0.0
  0
SPLINE
  5
54B
100
AcDbEntity
  8
0
100
AcDbSpline
 62
7
  6
CONTINUOUS
 70
0
 71
3
 72
11
 73
7
 74
0
 42
0.0000001
 43
0.0000001
 44
0.0000000001
 40
0.0
 40
0.0
 40
0.0
 40
0.0
 40
0.2340724784
 40
0.4779000415
 40
0.7331587345
 40
1.0
 40
1.0
 40
1.0
 40
1.0
 10
16.2643628234
 20
13.0844102355
 30
0.0
 10
16.2579486951
 20
13.0815444072
 30
0.0
 10
16.2450414018
 20
13.075253989
 30
0.0
 10
16.2261178498
 20
13.0639651179
 30
0.0
 10
16.2075820245
 20
13.0503050667
 30
0.0
 10
16.195975918
 20
13.0397252665
 30
0.0
 10
16.1903474895
 20
13.0340278446
 30
0.0
  0
SPLINE
  5
54C
100
AcDbEntity
  8
0
100
AcDbSpline
 62
7
  6
CONTINUOUS
 70
0
 71
3
 72
11
 73
7
 74
0
 42
0.0000001
 43
0.0000001
 44
0.0000000001
 40
0.0
 40
0.0
 40
0.0
 40
0.0
 40
0.271978168
 40
0.528366626
 40
0.770183669
 40
1.0
 40
1.0
 40
1.0
 40
1.0
 10
16.0337110742
 20
12.9672497146
 30
0.0
 10
16.0260283612
 20
12.9672497146
 30
0.0
 10
16.0110890393
 20
12.9665022349
 30
0.0
 10
15.9895628156
 20
12.9630908994
 30
0.0
 10
15.9696514626
 20
12.9578259543
 30
0.0
 10
15.9571082322
 20
12.9532878093
 30
0.0
 10
15.9510899927
 20
12.9508539755
 30
0.0
  0
SPLINE
  5
54D
100
AcDbEntity
  8
0
100
AcDbSpline
 62
7
  6
CONTINUOUS
 70
0
 71
3
 72
11
 73
7
 74
0
 42
0.0000001
 43
0.0000001
 44
0.0000000001
 40
0.0
 40
0.0
 40
0.0
 40
0.0
 40
0.2555800106
 40
0.5093733792
 40
0.7587405198
 40
1.0
 40
1.0
 40
1.0
 40
1.0
 10
16.1324238759
 20
12.9508539755
 30
0.0
 10
16.1242099712
 20
12.953231924
 30
0.0
 10
16.1077424989
 20
12.957647799
 30
0.0
 10
16.0828932772
 20
12.96291622
 30
0.0
 10
16.0582060842
 20
12.9663879533
 30
0.0
 10
16.0417831293
 20
12.9672497146
 30
0.0
 10
16.0337110742
 20
12.9672497146
 30
0.0
  0
SPLINE
  5
54E
100
AcDbEntity
  8
0
100
AcDbSpline
 62
7
  6
CONTINUOUS
 70
0
 71
3
 72
11
 73
7
 74
0
 42
0.0000001
 43
0.0000001
 44
0.0000000001
 40
0.0
 40
0.0
 40
0.0
 40
0.0
 40
0.2838015159
 40
0.5450708678
 40
0.7831862208
 40
1.0
 40
1.0
 40
1.0
 40
1.0
 10
14.7741614439
 20
13.2183862465
 30
0.0
 10
14.7776528043
 20
13.2196394544
 30
0.0
 10
14.7845221517
 20
13.2216276933
 30
0.0
 10
14.7947186611
 20
13.2229603649
 30
0.0
 10
14.804124725
 20
13.2224760984
 30
0.0
 10
14.8099191734
 20
13.2208570894
 30
0.0
 10
14.8125185557
 20
13.2197283027
 30
0.0
  0
SPLINE
  5
54F
100
AcDbEntity
  8
0
100
AcDbSpline
 62
7
  6
CONTINUOUS
 70
0
 71
3
 72
15
 73
11
 74
0
 42
0.0000001
 43
0.0000001
 44
0.0000000001
 40
0.0
 40
0.0
 40
0.0
 40
0.0
 40
0.1422270018
 40
0.2798763545
 40
0.4121907965
 40
0.5390129278
 40
0.660470832
 40
0.7770822459
 40
0.8898655855
 40
1.0
 40
1.0
 40
1.0
 40
1.0
 10
15.9596186706
 20
13.1675841046
 30
0.0
 10
15.9547096111
 20
13.1626148696
 30
0.0
 10
15.9455423484
 20
13.1523319264
 30
0.0
 10
15.9337812754
 20
13.1358035544
 30
0.0
 10
15.9244160916
 20
13.1186572932
 30
0.0
 10
15.9176151979
 20
13.1011863654
 30
0.0
 10
15.9134930916
 20
13.0836806516
 30
0.0
 10
15.9121431125
 20
13.0664276763
 30
0.0
 10
15.9136081437
 20
13.0497397951
 30
0.0
 10
15.9164703955
 20
13.0391009861
 30
0.0
 10
15.9183466647
 20
13.0340278446
 30
0.0
  0
SPLINE
  5
550
100
AcDbEntity
  8
0
100
AcDbSpline
 62
7
  6
CONTINUOUS
 70
0
 71
3
 72
15
 73
11
 74
0
 42
0.0000001
 43
0.0000001
 44
0.0000000001
 40
0.0
 40
0.0
 40
0.0
 40
0.0
 40
0.1133561023
 40
0.2275816101
 40
0.3442067196
 40
0.4647225938
 40
0.5901546602
 40
0.7211133369
 40
0.8578649508
 40
1.0
 40
1.0
 40
1.0
 40
1.0
 10
15.9183466647
 20
13.0340278446
 30
0.0
 10
15.9202065747
 20
13.0289989359
 30
0.0
 10
15.9248696925
 20
13.0192188774
 30
0.0
 10
15.9344651296
 20
13.0059621007
 30
0.0
 10
15.9464878766
 20
12.9943663013
 30
0.0
 10
15.9607002443
 20
12.9846370344
 30
0.0
 10
15.9768425866
 20
12.9769179278
 30
0.0
 10
15.9946410683
 20
12.9713342805
 30
0.0
 10
16.01378214
 20
12.9679726307
 30
0.0
 10
16.0269879819
 20
12.9672497146
 30
0.0
 10
16.0337110742
 20
12.9672497146
 30
0.0
  0
SPLINE
  5
551
100
AcDbEntity
  8
0
100
AcDbSpline
 62
7
  6
CONTINUOUS
 70
0
 71
3
 72
9
 73
5
 74
0
 42
0.0000001
 43
0.0000001
 44
0.0000000001
 40
0.0
 40
0.0
 40
0.0
 40
0.0
 40
0.4674786829
 40
1.0
 40
1.0
 40
1.0
 40
1.0
 10
16.2316194954
 20
13.1675841046
 30
0.0
 10
16.2364512719
 20
13.1545197289
 30
0.0
 10
16.2472176445
 20
13.1267331619
 30
0.0
 10
16.2583708673
 20
13.0991026655
 30
0.0
 10
16.2643628234
 20
13.0844102355
 30
0.0
  0
SPLINE
  5
552
100
AcDbEntity
  8
0
100
AcDbSpline
 62
7
  6
CONTINUOUS
 70
0
 71
3
 72
10
 73
6
 74
0
 42
0.0000001
 43
0.0000001
 44
0.0000000001
 40
0.0
 40
0.0
 40
0.0
 40
0.0
 40
0.4044526073
 40
0.6759094036
 40
1.0
 40
1.0
 40
1.0
 40
1.0
 10
16.2149678877
 20
13.2179664955
 30
0.0
 10
16.2168178787
 20
13.2110539731
 30
0.0
 10
16.2203284983
 20
13.1996142638
 30
0.0
 10
16.2260428377
 20
13.1828701668
 30
0.0
 10
16.2296304901
 20
13.1729620671
 30
0.0
 10
16.2316194954
 20
13.1675841046
 30
0.0
  0
ENDSEC
  0
SECTION
  2
OBJECTS
  0
DICTIONARY
  5
C
100
AcDbDictionary
280
0
281
1
  3
ACAD_GROUP
350
D
  3
ACAD_MLINESTYLE
350
17
  3
ACAD_LAYOUT
350
1A
  3
ACAD_PLOTSETTINGS
350
19
  3
ACAD_PLOTSTYLENAME
350
E
  0
DICTIONARY
  5
D
102
{ACAD_REACTORS
330
C
102
}
100
AcDbDictionary
280
0
281
1
  0
ACDBDICTIONARYWDFLT
  5
E
102
{ACAD_REACTORS
330
C
102
}
100
AcDbDictionary
281
1
  3
Normal
350
F
100
AcDbDictionaryWithDefault
340
F
  0
DICTIONARY
  5
17
102
{ACAD_REACTORS
330
C
102
}
100
AcDbDictionary
280
0
281
1
  3
Standard
350
18
  0
DICTIONARY
  5
19
102
{ACAD_REACTORS
330
C
102
}
100
AcDbDictionary
281
1
  0
DICTIONARY
  5
1A
102
{ACAD_REACTORS
330
C
102
}
100
AcDbDictionary
281
1
  3
Model
350
553
  3
Layout1
350
554
  0
ACDBPLACEHOLDER
  5
F
102
{ACAD_REACTORS
330
E
102
}
  0
MLINESTYLE
  5
18
102
{ACAD_REACTORS
330
17
102
}
100
AcDbMlineStyle
  2
STANDARD
 70
0
  3

 62
256
 51
90.0
 52
90.0
 71
2
 49
0.5
 62
256
  6
BYLAYER
 49
-0.5
 62
256
  6
BYLAYER
  0
LAYOUT
  5
553
102
{ACAD_REACTORS
330
1A
102
}
100
AcDbPlotSettings
  1

  2
none_device
  4
ANSI_C_(22.00_x_17.00_Inches)
  6

 40
0.0
 41
0.0
 42
0.0
 43
0.0
 44
558.8
 45
431.8
 46
0.0
 47
0.0
 48
0.0
 49
0.0
140
0.0
141
0.0
142
1.0
143
1.0
 70
1024
 72
0
 73
0
 74
0
  7

 75
0
147
1.0
148
0.0
149
0.0
100
AcDbLayout
  1
Model
 70
0
 71
0
 10
0.0
 20
0.0
 11
22.0
 21
17.0
 12
0.0
 22
0.0
 32
0.0
 14
0.0
 24
0.0
 34
0.0
 15
0.0
 25
0.0
 35
0.0
146
0.0
 13
0.0
 23
0.0
 33
0.0
 16
1.0
 26
0.0
 36
0.0
 17
0.0
 27
1.0
 37
0.0
 76
0
330
233
345
0
346
0
  0
LAYOUT
  5
554
102
{ACAD_REACTORS
330
1A
102
}
100
AcDbPlotSettings
  1

  2
none_device
  4
ANSI_C_(22.00_x_17.00_Inches)
  6

 40
0.0
 41
0.0
 42
0.0
 43
0.0
 44
558.8
 45
431.8
 46
0.0
 47
0.0
 48
0.0
 49
0.0
140
0.0
141
0.0
142
1.0
143
1.0
 70
0
 72
0
 73
0
 74
0
  7

 75
0
147
1.0
148
0.0
149
0.0
100
AcDbLayout
  1
Layout1
 70
0
 71
1
 10
0.0
 20
0.0
 11
22.0
 21
17.0
 12
0.0
 22
0.0
 32
0.0
 14
0.0
 24
0.0
 34
0.0
 15
0.0
 25
0.0
 35
0.0
146
0.0
 13
0.0
 23
0.0
 33
0.0
 16
1.0
 26
0.0
 36
0.0
 17
0.0
 27
1.0
 37
0.0
 76
0
330
234
345
0
346
0
  0
ENDSEC
  0
EOF