999
DXF file: _cgs_temp_output.dxf
999
Pro/ENGINEER 2016360 by Parametric Technology Corporation
  0
SECTION
  2
HEADER
  9
$ACADVER
  1
AC1021
  9
$DWGCODEPAGE
  3
ANSI_1252
  9
$EXTMAX
 10
22.0
 20
17.0
 30
0.0
  9
$EXTMIN
 10
0.0
 20
0.0
 30
0.0
  9
$LIMMIN
 10
0.0
 20
0.0
  9
$LIMMAX
 10
22.0
 20
17.0
  9
$VIEWCTR
 10
11.0
 20
8.5
  9
$VIEWSIZE
 40
17.0
  9
$CLAYER
  8
0
  9
$LTSCALE
 40
1.21
  9
$CELTYPE
  6
BYLAYER
  9
$DIMSCALE
 40
1.0
  9
$DIMASZ
 40
0.1875
  9
$DIMEXO
 40
0.0625
  9
$DIMDLI
 40
0.836
  9
$DIMEXE
 40
0.125
  9
$DIMCEN
 40
0.198
  9
$DIMLFAC
 40
1.0
  9
$DIMBLK
  1
_CLOSED
  9
$DIMALT
 70
0
  9
$DIMALTF
 40
25.4
  9
$DIMTXT
 40
0.15625
  9
$DIMTOL
 70
0
  9
$DIMLIM
 70
0
  9
$DIMTFAC
 40
1.0
  9
$DIMGAP
 40
0.09
  9
$DIMDSEP
 70
46
  9
$AUNITS
 70
0
  9
$PDMODE
 70
3
  9
$PDSIZE
 40
0.3125
  9
$HANDSEED
  5
5B2
  9
$TILEMODE
 70
1
  9
$MEASUREMENT
 70
0
  9
$INSUNITS
 70
1
  0
ENDSEC
  0
SECTION
  2
CLASSES
  0
CLASS
  1
ACDBDICTIONARYWDFLT
  2
AcDbDictionaryWithDefault
  3
AutoCAD 2000
 90
0
 91
1
280
0
281
0
  0
CLASS
  1
ACDBPLACEHOLDER
  2
AcDbPlaceHolder
  3
AutoCAD 2000
 90
0
 91
1
280
0
281
0
  0
CLASS
  1
LAYOUT
  2
AcDbLayout
  3
AutoCAD 2000
 90
0
 91
0
280
0
281
0
  0
ENDSEC
  0
SECTION
  2
TABLES
  0
TABLE
  2
VPORT
  5
8
100
AcDbSymbolTable
 70
2
  0
VPORT
  5
1F4
100
AcDbSymbolTableRecord
100
AcDbViewportTableRecord
  2
*ACTIVE
 70
0
 10
0.0
 20
0.0
 11
1.0
 21
1.0
 12
11.0
 22
8.5
 13
0.0
 23
0.0
 14
1.0
 24
1.0
 15
0.0
 25
0.0
 16
0.0
 26
0.0
 36
1.0
 17
0.0
 27
0.0
 37
0.0
 40
17.0
 41
1.2941176471
 42
50.0
 43
0.0
 44
0.0
 50
0.0
 51
0.0
 71
0
 72
100
 73
1
 74
1
 75
0
 76
0
 77
0
 78
0
  0
ENDTAB
  0
TABLE
  2
LTYPE
  5
5
100
AcDbSymbolTable
 70
6
  0
LTYPE
  5
14
100
AcDbSymbolTableRecord
100
AcDbLinetypeTableRecord
  2
BYBLOCK
 70
0
  3

 72
65
 73
0
 40
0.0
  0
LTYPE
  5
15
100
AcDbSymbolTableRecord
100
AcDbLinetypeTableRecord
  2
BYLAYER
 70
0
  3

 72
65
 73
0
 40
0.0
  0
LTYPE
  5
16
100
AcDbSymbolTableRecord
100
AcDbLinetypeTableRecord
  2
CONTINUOUS
 70
64
  3
Solid line
 72
65
 73
0
 40
0.0
  0
LTYPE
  5
1F5
100
AcDbSymbolTableRecord
100
AcDbLinetypeTableRecord
  2
CENTER
 70
64
  3
____ _ ____ _ ____ _ ____ _ ____ _ ____ _ ____
 72
65
 73
4
 40
0.6
 49
0.375
 74
0
 49
-0.075
 74
0
 49
0.075
 74
0
 49
-0.075
 74
0
  0
LTYPE
  5
1F6
100
AcDbSymbolTableRecord
100
AcDbLinetypeTableRecord
  2
HIDDEN
 70
64
  3
- - - - - - - - - - - - - - - - - - - -
 72
65
 73
2
 40
0.2
 49
0.1
 74
0
 49
-0.1
 74
0
  0
LTYPE
  5
1F7
100
AcDbSymbolTableRecord
100
AcDbLinetypeTableRecord
  2
PHANTOM
 70
64
  3
_____ _ _ _____ _ _ _____ _ _ _____
 72
65
 73
6
 40
0.8
 49
0.45
 74
0
 49
-0.05
 74
0
 49
0.1
 74
0
 49
-0.05
 74
0
 49
0.1
 74
0
 49
-0.05
 74
0
  0
LTYPE
  5
1F8
100
AcDbSymbolTableRecord
100
AcDbLinetypeTableRecord
  2
DOT
 70
64
  3
. . . . . . . . . . . . . . . . . . . .
 72
65
 73
2
 40
0.2
 49
0.1
 74
0
 49
-0.1
 74
0
  0
LTYPE
  5
1F9
100
AcDbSymbolTableRecord
100
AcDbLinetypeTableRecord
  2
DASHED
 70
64
  3
- - - - - - - - - - - - - - - - - - - -
 72
65
 73
2
 40
0.2
 49
0.1
 74
0
 49
-0.1
 74
0
  0
ENDTAB
  0
TABLE
  2
LAYER
  5
2
100
AcDbSymbolTable
 70
36
  0
LAYER
  5
10
100
AcDbSymbolTableRecord
100
AcDbLayerTableRecord
  2
0
 70
0
 62
7
  6
CONTINUOUS
370
-3
390
F
  0
LAYER
  5
1FA
100
AcDbSymbolTableRecord
100
AcDbLayerTableRecord
  2
DEFAULT_1
 70
0
 62
7
  6
CENTER
370
-3
390
F
  0
LAYER
  5
1FB
100
AcDbSymbolTableRecord
100
AcDbLayerTableRecord
  2
DEFAULT_2
 70
0
 62
8
  6
HIDDEN
370
-3
390
F
  0
LAYER
  5
1FC
100
AcDbSymbolTableRecord
100
AcDbLayerTableRecord
  2
DEFAULT_3
 70
0
 62
7
  6
PHANTOM
370
-3
390
F
  0
LAYER
  5
1FD
100
AcDbSymbolTableRecord
100
AcDbLayerTableRecord
  2
01_ALL_DTM_PLN
 70
0
 62
7
  6
CONTINUOUS
370
-3
390
F
  0
LAYER
  5
1FE
100
AcDbSymbolTableRecord
100
AcDbLayerTableRecord
  2
01__ASM_ALL_DTM_PLN
 70
0
 62
7
  6
CONTINUOUS
370
-3
390
F
  0
LAYER
  5
1FF
100
AcDbSymbolTableRecord
100
AcDbLayerTableRecord
  2
01__ASM_DEF_DTM_PLN
 70
0
 62
7
  6
CONTINUOUS
370
-3
390
F
  0
LAYER
  5
200
100
AcDbSymbolTableRecord
100
AcDbLayerTableRecord
  2
01___PRT_ALL_DTM_PLN
 70
0
 62
7
  6
CONTINUOUS
370
-3
390
F
  0
LAYER
  5
201
100
AcDbSymbolTableRecord
100
AcDbLayerTableRecord
  2
01___PRT_DEF_DTM_PLN
 70
0
 62
7
  6
CONTINUOUS
370
-3
390
F
  0
LAYER
  5
202
100
AcDbSymbolTableRecord
100
AcDbLayerTableRecord
  2
02_ALL_AXES
 70
0
 62
7
  6
CONTINUOUS
370
-3
390
F
  0
LAYER
  5
203
100
AcDbSymbolTableRecord
100
AcDbLayerTableRecord
  2
02__ASM_ALL_AXES
 70
0
 62
7
  6
CONTINUOUS
370
-3
390
F
  0
LAYER
  5
204
100
AcDbSymbolTableRecord
100
AcDbLayerTableRecord
  2
02___PRT_ALL_AXES
 70
0
 62
7
  6
CONTINUOUS
370
-3
390
F
  0
LAYER
  5
205
100
AcDbSymbolTableRecord
100
AcDbLayerTableRecord
  2
03_ALL_CURVES
 70
0
 62
7
  6
CONTINUOUS
370
-3
390
F
  0
LAYER
  5
206
100
AcDbSymbolTableRecord
100
AcDbLayerTableRecord
  2
03__ASM_ALL_CURVES
 70
0
 62
7
  6
CONTINUOUS
370
-3
390
F
  0
LAYER
  5
207
100
AcDbSymbolTableRecord
100
AcDbLayerTableRecord
  2
03___PRT_ALL_CURVES
 70
0
 62
7
  6
CONTINUOUS
370
-3
390
F
  0
LAYER
  5
208
100
AcDbSymbolTableRecord
100
AcDbLayerTableRecord
  2
04_ALL_DTM_PNT
 70
0
 62
7
  6
CONTINUOUS
370
-3
390
F
  0
LAYER
  5
209
100
AcDbSymbolTableRecord
100
AcDbLayerTableRecord
  2
04__ASM_ALL_DTM_PNT
 70
0
 62
7
  6
CONTINUOUS
370
-3
390
F
  0
LAYER
  5
20A
100
AcDbSymbolTableRecord
100
AcDbLayerTableRecord
  2
04___PRT_ALL_DTM_PNT
 70
0
 62
7
  6
CONTINUOUS
370
-3
390
F
  0
LAYER
  5
20B
100
AcDbSymbolTableRecord
100
AcDbLayerTableRecord
  2
05_ALL_DTM_CSYS
 70
0
 62
7
  6
CONTINUOUS
370
-3
390
F
  0
LAYER
  5
20C
100
AcDbSymbolTableRecord
100
AcDbLayerTableRecord
  2
05__ASM_ALL_DTM_CSYS
 70
0
 62
7
  6
CONTINUOUS
370
-3
390
F
  0
LAYER
  5
20D
100
AcDbSymbolTableRecord
100
AcDbLayerTableRecord
  2
05__ASM_DEF_DTM_CSYS
 70
0
 62
7
  6
CONTINUOUS
370
-3
390
F
  0
LAYER
  5
20E
100
AcDbSymbolTableRecord
100
AcDbLayerTableRecord
  2
05___PRT_ALL_DTM_CSYS
 70
0
 62
7
  6
CONTINUOUS
370
-3
390
F
  0
LAYER
  5
20F
100
AcDbSymbolTableRecord
100
AcDbLayerTableRecord
  2
05___PRT_DEF_DTM_CSYS
 70
0
 62
7
  6
CONTINUOUS
370
-3
390
F
  0
LAYER
  5
210
100
AcDbSymbolTableRecord
100
AcDbLayerTableRecord
  2
06_ALL_SURFS
 70
0
 62
7
  6
CONTINUOUS
370
-3
390
F
  0
LAYER
  5
211
100
AcDbSymbolTableRecord
100
AcDbLayerTableRecord
  2
06__ASM_ALL_SURFS
 70
0
 62
7
  6
CONTINUOUS
370
-3
390
F
  0
LAYER
  5
212
100
AcDbSymbolTableRecord
100
AcDbLayerTableRecord
  2
06___PRT_ALL_SURFS
 70
0
 62
7
  6
CONTINUOUS
370
-3
390
F
  0
LAYER
  5
213
100
AcDbSymbolTableRecord
100
AcDbLayerTableRecord
  2
07__ASM_ALL_SKELETONS
 70
0
 62
7
  6
CONTINUOUS
370
-3
390
F
  0
LAYER
  5
214
100
AcDbSymbolTableRecord
100
AcDbLayerTableRecord
  2
LAYER_7
 70
0
 62
7
  6
CONTINUOUS
370
-3
390
F
  0
LAYER
  5
215
100
AcDbSymbolTableRecord
100
AcDbLayerTableRecord
  2
NONE
 70
0
 62
7
  6
CONTINUOUS
370
-3
390
F
  0
LAYER
  5
216
100
AcDbSymbolTableRecord
100
AcDbLayerTableRecord
  2
_11407
 70
0
 62
7
  6
CONTINUOUS
370
-3
390
F
  0
LAYER
  5
217
100
AcDbSymbolTableRecord
100
AcDbLayerTableRecord
  2
_14228
 70
0
 62
7
  6
CONTINUOUS
370
-3
390
F
  0
LAYER
  5
218
100
AcDbSymbolTableRecord
100
AcDbLayerTableRecord
  2
_14788
 70
0
 62
7
  6
CONTINUOUS
370
-3
390
F
  0
LAYER
  5
219
100
AcDbSymbolTableRecord
100
AcDbLayerTableRecord
  2
_1530
 70
0
 62
7
  6
CONTINUOUS
370
-3
390
F
  0
LAYER
  5
21A
100
AcDbSymbolTableRecord
100
AcDbLayerTableRecord
  2
_16723
 70
0
 62
7
  6
CONTINUOUS
370
-3
390
F
  0
LAYER
  5
21B
100
AcDbSymbolTableRecord
100
AcDbLayerTableRecord
  2
_17076
 70
0
 62
7
  6
CONTINUOUS
370
-3
390
F
  0
LAYER
  5
21C
100
AcDbSymbolTableRecord
100
AcDbLayerTableRecord
  2
_18784
 70
0
 62
7
  6
CONTINUOUS
370
-3
390
F
  0
LAYER
  5
21D
100
AcDbSymbolTableRecord
100
AcDbLayerTableRecord
  2
_19430
 70
0
 62
7
  6
CONTINUOUS
370
-3
390
F
  0
LAYER
  5
21E
100
AcDbSymbolTableRecord
100
AcDbLayerTableRecord
  2
_19968
 70
0
 62
7
  6
CONTINUOUS
370
-3
390
F
  0
LAYER
  5
21F
100
AcDbSymbolTableRecord
100
AcDbLayerTableRecord
  2
_2904
 70
0
 62
7
  6
CONTINUOUS
370
-3
390
F
  0
LAYER
  5
220
100
AcDbSymbolTableRecord
100
AcDbLayerTableRecord
  2
_5089
 70
0
 62
7
  6
CONTINUOUS
370
-3
390
F
  0
LAYER
  5
221
100
AcDbSymbolTableRecord
100
AcDbLayerTableRecord
  2
_5520
 70
0
 62
7
  6
CONTINUOUS
370
-3
390
F
  0
LAYER
  5
222
100
AcDbSymbolTableRecord
100
AcDbLayerTableRecord
  2
_6609
 70
0
 62
7
  6
CONTINUOUS
370
-3
390
F
  0
LAYER
  5
223
100
AcDbSymbolTableRecord
100
AcDbLayerTableRecord
  2
_8239
 70
0
 62
7
  6
CONTINUOUS
370
-3
390
F
  0
LAYER
  5
224
100
AcDbSymbolTableRecord
100
AcDbLayerTableRecord
  2
_923
 70
0
 62
7
  6
CONTINUOUS
370
-3
390
F
  0
LAYER
  5
225
100
AcDbSymbolTableRecord
100
AcDbLayerTableRecord
  2
_9589
 70
0
 62
7
  6
CONTINUOUS
370
-3
390
F
  0
ENDTAB
  0
TABLE
  2
STYLE
  5
3
100
AcDbSymbolTable
 70
1
  0
STYLE
  5
11
100
AcDbSymbolTableRecord
100
AcDbTextStyleTableRecord
  2
STANDARD
 70
0
 40
0.0
 41
0.8
 50
0.0
 71
0
 42
0.2
  3
txt
  4

  0
STYLE
  5
226
100
AcDbSymbolTableRecord
100
AcDbTextStyleTableRecord
  2
TEXTSTYLE_1
 70
0
 40
0.0
 41
0.8
 50
0.0
 71
0
 42
0.2
  3
gdt
  4

  0
ENDTAB
  0
TABLE
  2
VIEW
  5
6
100
AcDbSymbolTable
 70
0
  0
ENDTAB
  0
TABLE
  2
UCS
  5
7
100
AcDbSymbolTable
 70
0
  0
ENDTAB
  0
TABLE
  2
APPID
  5
9
100
AcDbSymbolTable
 70
1
  0
APPID
  5
227
100
AcDbSymbolTableRecord
100
AcDbRegAppTableRecord
  2
ACAD
 70
0
  0
ENDTAB
  0
TABLE
  2
BLOCK_RECORD
  5
1
100
AcDbSymbolTable
 70
0
  0
BLOCK_RECORD
  5
228
100
AcDbSymbolTableRecord
100
AcDbBlockTableRecord
  2
*Model_Space
  0
BLOCK_RECORD
  5
229
100
AcDbSymbolTableRecord
100
AcDbBlockTableRecord
  2
*Paper_Space
  0
BLOCK_RECORD
  5
22A
100
AcDbSymbolTableRecord
100
AcDbBlockTableRecord
  2
_NONE
  0
ENDTAB
  0
TABLE
  2
DIMSTYLE
  5
A
100
AcDbSymbolTable
 70
1
100
AcDbDimStyleTable
 71
0
  0
DIMSTYLE
105
22B
100
AcDbSymbolTableRecord
100
AcDbDimStyleTableRecord
  2
STANDARD
 70
0
  3

  4

 40
1.0
 41
0.1875
 42
0.0625
 43
0.38
 44
0.125
 45
0.0
 46
0.0
 47
0.0001
 48
0.0001
140
0.15625
141
0.09
142
0.0
143
25.4
144
1.0
145
0.0
146
1.0
147
0.09
 71
0.0
 72
0.0
 73
1
 74
1
 75
0
 76
0
 77
0
 78
4
 79
1
170
0
171
3
172
0
173
0
174
0
175
0
176
0
177
0
178
0
270
2
179
4
271
4
272
4
273
2
274
2
275
0
280
0
281
0
282
0
283
1
284
4
285
0
286
0
287
3
288
0
340
11
278
46
  0
ENDTAB
  0
ENDSEC
  0
SECTION
  2
BLOCKS
  0
BLOCK
  5
20
100
AcDbEntity
  8
0
100
AcDbBlockBegin
  2
*Model_Space
 70
0
 10
0.0
 20
0.0
 30
0.0
  3
*Model_Space
  1

  0
ENDBLK
  5
21
100
AcDbEntity
  8
0
100
AcDbBlockEnd
  0
BLOCK
  5
1C
100
AcDbEntity
  8
0
100
AcDbBlockBegin
  2
*Paper_Space
 70
0
 10
0.0
 20
0.0
 30
0.0
  3
*Paper_Space
  1

  0
ENDBLK
  5
1D
100
AcDbEntity
  8
0
100
AcDbBlockEnd
  0
BLOCK
  5
22C
100
AcDbEntity
  8
0
100
AcDbBlockBegin
  2
_NONE
 70
64
 10
0.0
 20
0.0
  3
_NONE
  1

  0
ENDBLK
  5
22D
100
AcDbEntity
  8
0
  6
BYBLOCK
 62
0
100
AcDbBlockEnd
  0
ENDSEC
  0
SECTION
  2
ENTITIES
  0
MTEXT
  5
22E
100
AcDbEntity
  8
0
100
AcDbMText
 62
7
  6
CONTINUOUS
  7
STANDARD
 71
1
 72
1
 10
15.9560215477
 20
0.9479130325
 30
0.0
 11
1.0
 21
0.0
 31
0.0
 44
0.9
  1
SCALE: 1:0.200
 40
0.3
 41
3.36
  0
LEADER
  5
22F
100
AcDbEntity
  8
0
100
AcDbLeader
 62
2
  6
CONTINUOUS
  3
STANDARD
 71
1
 72
0
 73
0
 75
0
 40
0.15625
 41
1.5
 76
3
 10
4.347156598
 20
4.7007659855
 30
0.0
 10
7.0549789321
 20
4.0494806047
 30
0.0
 10
7.3049789321
 20
4.0494806047
 30
0.0
340
230
1001
ACAD
1000
DSTYLE
1002
{
1070
77
1070
0
1070
341
1005
22A
1002
}
  0
MTEXT
  5
230
102
{ACAD_REACTORS
330
22F
102
}
100
AcDbEntity
  8
0
100
AcDbMText
 62
2
  6
CONTINUOUS
  7
STANDARD
 71
1
 72
1
 10
7.3049789321
 20
4.1276056047
 30
0.0
 11
1.0
 21
0.0
 31
0.0
 44
0.9
  1
 0.375 BOLTS
 40
0.15625
 41
1.5
  0
LEADER
  5
231
100
AcDbEntity
  8
0
100
AcDbLeader
 62
2
  6
CONTINUOUS
  3
STANDARD
 71
1
 72
0
 73
0
 75
0
 40
0.15625
 41
1.5
 76
3
 10
5.6128890999
 20
4.4395378093
 30
0.0
 10
5.7044867685
 20
4.2267991246
 30
0.0
 10
5.9544867685
 20
4.2267991246
 30
0.0
340
232
1001
ACAD
1000
DSTYLE
1002
{
1070
77
1070
0
1070
341
1005
22A
1002
}
  0
MTEXT
  5
232
102
{ACAD_REACTORS
330
231
102
}
100
AcDbEntity
  8
0
100
AcDbMText
 62
2
  6
CONTINUOUS
  7
STANDARD
 71
2
 72
1
 10
6.7044867685
 20
4.3049241246
 30
0.0
 11
1.0
 21
0.0
 31
0.0
 44
0.9
  1
 Drain Plug 
 40
0.15625
 41
1.5
  0
LINE
  5
233
100
AcDbEntity
  8
0
100
AcDbLine
 62
7
  6
CONTINUOUS
 10
0.0
 20
0.0
 11
0.0
 21
17.0
  0
LINE
  5
234
100
AcDbEntity
  8
0
100
AcDbLine
 62
7
  6
CONTINUOUS
 10
0.0
 20
0.0
 11
22.0
 21
0.0
  0
LINE
  5
235
100
AcDbEntity
  8
0
100
AcDbLine
 62
7
  6
CONTINUOUS
 10
0.0
 20
17.0
 11
22.0
 21
17.0
  0
LINE
  5
236
100
AcDbEntity
  8
0
100
AcDbLine
 62
7
  6
CONTINUOUS
 10
22.0
 20
0.0
 11
22.0
 21
17.0
  0
LINE
  5
237
100
AcDbEntity
  8
0
100
AcDbLine
 62
7
  6
CONTINUOUS
 10
4.1178672762
 20
4.6807659855
 11
4.1178672762
 21
4.3132659855
  0
LINE
  5
238
100
AcDbEntity
  8
0
100
AcDbLine
 62
7
  6
CONTINUOUS
 10
4.6289906127
 20
4.7007659855
 11
4.6293979274
 21
4.7930502802
  0
LINE
  5
239
100
AcDbEntity
  8
0
100
AcDbLine
 62
7
  6
CONTINUOUS
 10
4.7991172762
 20
4.994158428
 11
4.7991172762
 21
5.9970159855
  0
LINE
  5
23A
100
AcDbEntity
  8
0
100
AcDbLine
 62
7
  6
CONTINUOUS
 10
4.9310287788
 20
6.1738909855
 11
4.9059922762
 21
6.1488544829
  0
LINE
  5
23B
100
AcDbEntity
  8
0
100
AcDbLine
 62
7
  6
CONTINUOUS
 10
4.9059922762
 20
6.0070159855
 11
4.9059922762
 21
6.1488544829
  0
LINE
  5
23C
100
AcDbEntity
  8
0
100
AcDbLine
 62
7
  6
CONTINUOUS
 10
4.9994297762
 20
6.0270159855
 11
4.9994297762
 21
6.1488544829
  0
LINE
  5
23D
100
AcDbEntity
  8
0
100
AcDbLine
 62
7
  6
CONTINUOUS
 10
8.1428672762
 20
4.3132659855
 11
4.1178672762
 21
4.3132659855
  0
LINE
  5
23E
100
AcDbEntity
  8
0
100
AcDbLine
 62
7
  6
CONTINUOUS
 10
5.1778672762
 20
4.3332659855
 11
7.0828672762
 21
4.3332659855
  0
LINE
  5
23F
100
AcDbEntity
  8
0
100
AcDbLine
 62
7
  6
CONTINUOUS
 10
7.0828672762
 20
4.3532659855
 11
5.1778672762
 21
4.3532659855
  0
LINE
  5
240
100
AcDbEntity
  8
0
100
AcDbLine
 62
7
  6
CONTINUOUS
 10
5.6366172762
 20
4.4142659855
 11
5.5876172762
 21
4.4632659855
  0
LINE
  5
241
100
AcDbEntity
  8
0
100
AcDbLine
 62
7
  6
CONTINUOUS
 10
5.5891609236
 20
4.4632659855
 11
5.6366172762
 21
4.415809633
  0
LINE
  5
242
100
AcDbEntity
  8
0
100
AcDbLine
 62
7
  6
CONTINUOUS
 10
5.1378672762
 20
5.5132659855
 11
5.1378672762
 21
4.3732659855
  0
LINE
  5
243
100
AcDbEntity
  8
0
100
AcDbLine
 62
7
  6
CONTINUOUS
 10
5.1578672762
 20
4.3732659855
 11
5.1578672762
 21
5.5132659855
  0
LINE
  5
244
100
AcDbEntity
  8
0
100
AcDbLine
 62
7
  6
CONTINUOUS
 10
5.6856172762
 20
4.4632659855
 11
5.6840736287
 21
4.4632659855
  0
LINE
  5
245
100
AcDbEntity
  8
0
100
AcDbLine
 62
7
  6
CONTINUOUS
 10
5.5876172762
 20
4.4632659855
 11
5.5891609236
 21
4.4632659855
  0
LINE
  5
246
100
AcDbEntity
  8
0
100
AcDbLine
 62
7
  6
CONTINUOUS
 10
5.6840736287
 20
4.4632659855
 11
5.6366172762
 21
4.5107223381
  0
LINE
  5
247
100
AcDbEntity
  8
0
100
AcDbLine
 62
7
  6
CONTINUOUS
 10
5.6366172762
 20
4.5122659855
 11
5.6856172762
 21
4.4632659855
  0
LINE
  5
248
100
AcDbEntity
  8
0
100
AcDbLine
 62
7
  6
CONTINUOUS
 10
4.1378672762
 20
4.7007659855
 11
5.1378672762
 21
4.7007659855
  0
LINE
  5
249
100
AcDbEntity
  8
0
100
AcDbLine
 62
7
  6
CONTINUOUS
 10
7.1228672762
 20
4.7007659855
 11
8.1228672762
 21
4.7007659855
  0
LINE
  5
24A
100
AcDbEntity
  8
0
100
AcDbLine
 62
7
  6
CONTINUOUS
 10
5.6366172762
 20
4.5122659855
 11
5.6366172762
 21
4.5107223381
  0
LINE
  5
24B
100
AcDbEntity
  8
0
100
AcDbLine
 62
7
  6
CONTINUOUS
 10
5.6366172762
 20
4.4142659855
 11
5.6366172762
 21
4.415809633
  0
LINE
  5
24C
100
AcDbEntity
  8
0
100
AcDbLine
 62
7
  6
CONTINUOUS
 10
4.9878633602
 20
5.5132658596
 11
4.967918167
 21
5.5132659812
  0
LINE
  5
24D
100
AcDbEntity
  8
0
100
AcDbLine
 62
7
  6
CONTINUOUS
 10
7.292814854
 20
5.5132659855
 11
7.2728672775
 21
5.5132659855
  0
LINE
  5
24E
100
AcDbEntity
  8
0
100
AcDbLine
 62
7
  6
CONTINUOUS
 10
5.1178702481
 20
5.5132659855
 11
5.1378672762
 21
5.5132659855
  0
LINE
  5
24F
100
AcDbEntity
  8
0
100
AcDbLine
 62
7
  6
CONTINUOUS
 10
7.1228672762
 20
5.5132659855
 11
7.1428643042
 21
5.5132659855
  0
LINE
  5
250
100
AcDbEntity
  8
0
100
AcDbLine
 62
7
  6
CONTINUOUS
 10
5.7710157038
 20
6.6370510005
 11
5.7751568085
 21
6.6215961873
  0
LINE
  5
251
100
AcDbEntity
  8
0
100
AcDbLine
 62
7
  6
CONTINUOUS
 10
5.7773301416
 20
6.6221785302
 11
5.7776549261
 21
6.620966418
  0
LINE
  5
252
100
AcDbEntity
  8
0
100
AcDbLine
 62
7
  6
CONTINUOUS
 10
5.8311869742
 20
6.459599646
 11
5.8276271645
 21
6.4728850166
  0
LINE
  5
253
100
AcDbEntity
  8
0
100
AcDbLine
 62
7
  6
CONTINUOUS
 10
5.8726939183
 20
6.4746965618
 11
5.8711228664
 21
6.4805597984
  0
LINE
  5
254
100
AcDbEntity
  8
0
100
AcDbLine
 62
7
  6
CONTINUOUS
 10
5.8294901362
 20
6.6361547586
 11
5.8253490315
 21
6.6516095718
  0
LINE
  5
255
100
AcDbEntity
  8
0
100
AcDbLine
 62
7
  6
CONTINUOUS
 10
5.9126286285
 20
6.495661125
 11
5.9161871421
 21
6.4823805918
  0
LINE
  5
256
100
AcDbEntity
  8
0
100
AcDbLine
 62
7
  6
CONTINUOUS
 10
5.8816501309
 20
6.650130987
 11
5.8819749153
 21
6.6489188749
  0
LINE
  5
257
100
AcDbEntity
  8
0
100
AcDbLine
 62
7
  6
CONTINUOUS
 10
5.883823464
 20
6.6507133299
 11
5.8796823592
 21
6.6661681431
  0
LINE
  5
258
100
AcDbEntity
  8
0
100
AcDbLine
 62
7
  6
CONTINUOUS
 10
5.5876172762
 20
4.4632659855
 11
5.6366172762
 21
4.5122659855
  0
LINE
  5
259
100
AcDbEntity
  8
0
100
AcDbLine
 62
7
  6
CONTINUOUS
 10
5.6366172762
 20
4.5107223381
 11
5.5891609236
 21
4.4632659855
  0
LINE
  5
25A
100
AcDbEntity
  8
0
100
AcDbLine
 62
7
  6
CONTINUOUS
 10
5.6366172762
 20
4.415809633
 11
5.6840736287
 21
4.4632659855
  0
LINE
  5
25B
100
AcDbEntity
  8
0
100
AcDbLine
 62
7
  6
CONTINUOUS
 10
5.6856172762
 20
4.4632659855
 11
5.6366172762
 21
4.4142659855
  0
LINE
  5
25C
100
AcDbEntity
  8
0
100
AcDbLine
 62
7
  6
CONTINUOUS
 10
4.8091172762
 20
6.0070159855
 11
5.0779333412
 21
6.0070159855
  0
LINE
  5
25D
100
AcDbEntity
  8
0
100
AcDbLine
 62
7
  6
CONTINUOUS
 10
7.1828012111
 20
6.0070159855
 11
7.4516172762
 21
6.0070159855
  0
LINE
  5
25E
100
AcDbEntity
  8
0
100
AcDbLine
 62
7
  6
CONTINUOUS
 10
4.9059922762
 20
6.0270159855
 11
5.0894310487
 21
6.0270159855
  0
LINE
  5
25F
100
AcDbEntity
  8
0
100
AcDbLine
 62
7
  6
CONTINUOUS
 10
7.1712876483
 20
6.0270159855
 11
7.3547422762
 21
6.0270159855
  0
LINE
  5
260
100
AcDbEntity
  8
0
100
AcDbLine
 62
7
  6
CONTINUOUS
 10
4.9310364016
 20
6.1738909855
 11
5.1759253407
 21
6.1738909855
  0
LINE
  5
261
100
AcDbEntity
  8
0
100
AcDbLine
 62
7
  6
CONTINUOUS
 10
7.0849087479
 20
6.1738909855
 11
7.3296981507
 21
6.1738909855
  0
LINE
  5
262
100
AcDbEntity
  8
0
100
AcDbLine
 62
7
  6
CONTINUOUS
 10
7.1028672762
 20
5.5132659855
 11
7.1028672762
 21
4.3732659855
  0
LINE
  5
263
100
AcDbEntity
  8
0
100
AcDbLine
 62
7
  6
CONTINUOUS
 10
7.1228672762
 20
4.3732659855
 11
7.1228672762
 21
5.5132659855
  0
LINE
  5
264
100
AcDbEntity
  8
0
100
AcDbLine
 62
7
  6
CONTINUOUS
 10
5.9152057346
 20
6.4860432487
 11
5.8302042706
 21
6.4632671403
  0
LINE
  5
265
100
AcDbEntity
  8
0
100
AcDbLine
 62
7
  6
CONTINUOUS
 10
7.2613047762
 20
6.0270159855
 11
7.2613047762
 21
6.1488544829
  0
LINE
  5
266
100
AcDbEntity
  8
0
100
AcDbLine
 62
7
  6
CONTINUOUS
 10
7.3547422762
 20
6.0070159855
 11
7.3547422762
 21
6.1488544829
  0
LINE
  5
267
100
AcDbEntity
  8
0
100
AcDbLine
 62
7
  6
CONTINUOUS
 10
5.7751568085
 20
6.6215961873
 11
5.883823464
 21
6.6507133299
  0
LINE
  5
268
100
AcDbEntity
  8
0
100
AcDbLine
 62
7
  6
CONTINUOUS
 10
5.7710157038
 20
6.6370510005
 11
5.8796823592
 21
6.6661681431
  0
LINE
  5
269
100
AcDbEntity
  8
0
100
AcDbLine
 62
7
  6
CONTINUOUS
 10
5.7880392856
 20
6.6768118457
 11
5.8450590824
 21
6.6920902542
  0
LINE
  5
26A
100
AcDbEntity
  8
0
100
AcDbLine
 62
7
  6
CONTINUOUS
 10
5.796375402
 20
6.7211035962
 11
5.8156939185
 21
6.7262799771
  0
LINE
  5
26B
100
AcDbEntity
  8
0
100
AcDbLine
 62
7
  6
CONTINUOUS
 10
7.4616172762
 20
4.994158428
 11
7.4616172762
 21
5.9970159855
  0
LINE
  5
26C
100
AcDbEntity
  8
0
100
AcDbLine
 62
7
  6
CONTINUOUS
 10
7.3297057735
 20
6.1738909855
 11
7.3547422762
 21
6.1488544829
  0
LINE
  5
26D
100
AcDbEntity
  8
0
100
AcDbLine
 62
7
  6
CONTINUOUS
 10
7.631336625
 20
4.7930502802
 11
7.6317439397
 21
4.7007659855
  0
LINE
  5
26E
100
AcDbEntity
  8
0
100
AcDbLine
 62
7
  6
CONTINUOUS
 10
8.1428672762
 20
4.3132659855
 11
8.1428672762
 21
4.6807659855
  0
LINE
  5
26F
100
AcDbEntity
  8
0
100
AcDbLine
 62
7
  6
CONTINUOUS
 10
4.0583720839
 20
13.1475477814
 11
4.0583720839
 21
12.0525477814
  0
LINE
  5
270
100
AcDbEntity
  8
0
100
AcDbLine
 62
7
  6
CONTINUOUS
 10
4.7396220839
 20
13.0675477814
 11
4.7396220839
 21
12.1325477814
  0
LINE
  5
271
100
AcDbEntity
  8
0
100
AcDbLine
 62
7
  6
CONTINUOUS
 10
4.8464970839
 20
12.8583811147
 11
4.9399345839
 21
13.020219612
  0
LINE
  5
272
100
AcDbEntity
  8
0
100
AcDbLine
 62
7
  6
CONTINUOUS
 10
5.0983720839
 20
13.3750477814
 11
5.0783720839
 21
13.3550477814
  0
LINE
  5
273
100
AcDbEntity
  8
0
100
AcDbLine
 62
7
  6
CONTINUOUS
 10
5.0983720839
 20
11.8250477814
 11
5.0783720839
 21
11.8450477814
  0
LINE
  5
274
100
AcDbEntity
  8
0
100
AcDbLine
 62
7
  6
CONTINUOUS
 10
4.8464970839
 20
12.341714448
 11
4.9399345839
 21
12.1798759507
  0
LINE
  5
275
100
AcDbEntity
  8
0
100
AcDbLine
 62
7
  6
CONTINUOUS
 10
5.0184381489
 20
13.1575477814
 11
5.0184381489
 21
13.0847640717
  0
LINE
  5
276
100
AcDbEntity
  8
0
100
AcDbLine
 62
7
  6
CONTINUOUS
 10
5.0184381489
 20
12.6319981577
 11
5.0184381489
 21
12.568097405
  0
LINE
  5
277
100
AcDbEntity
  8
0
100
AcDbLine
 62
7
  6
CONTINUOUS
 10
5.0184381489
 20
12.1153314911
 11
5.0184381489
 21
12.0425477814
  0
LINE
  5
278
100
AcDbEntity
  8
0
100
AcDbLine
 62
7
  6
CONTINUOUS
 10
5.0783720839
 20
11.8450477814
 11
5.0783720839
 21
11.9941827121
  0
LINE
  5
279
100
AcDbEntity
  8
0
100
AcDbLine
 62
7
  6
CONTINUOUS
 10
5.0783720839
 20
13.2059012279
 11
5.0783720839
 21
13.3550477814
  0
LINE
  5
27A
100
AcDbEntity
  8
0
100
AcDbLine
 62
7
  6
CONTINUOUS
 10
4.9399345839
 20
12.5035529454
 11
4.8464970839
 21
12.341714448
  0
LINE
  5
27B
100
AcDbEntity
  8
0
100
AcDbLine
 62
7
  6
CONTINUOUS
 10
5.2202470839
 20
12.8583811147
 11
5.1268095839
 21
12.6965426174
  0
LINE
  5
27C
100
AcDbEntity
  8
0
100
AcDbLine
 62
7
  6
CONTINUOUS
 10
4.9399345839
 20
12.6965426174
 11
4.8464970839
 21
12.8583811147
  0
LINE
  5
27D
100
AcDbEntity
  8
0
100
AcDbLine
 62
7
  6
CONTINUOUS
 10
5.2202470839
 20
12.341714448
 11
5.1268095839
 21
12.5035529454
  0
LINE
  5
27E
100
AcDbEntity
  8
0
100
AcDbLine
 62
7
  6
CONTINUOUS
 10
5.6245784364
 20
11.7900477814
 11
5.5296657313
 21
11.7900477814
  0
LINE
  5
27F
100
AcDbEntity
  8
0
100
AcDbLine
 62
7
  6
CONTINUOUS
 10
5.6261220839
 20
11.8150477814
 11
5.5281220839
 21
11.8150477814
  0
LINE
  5
280
100
AcDbEntity
  8
0
100
AcDbLine
 62
7
  6
CONTINUOUS
 10
7.0433720839
 20
11.8250477814
 11
5.0983720839
 21
11.8250477814
  0
LINE
  5
281
100
AcDbEntity
  8
0
100
AcDbLine
 62
7
  6
CONTINUOUS
 10
7.0633720839
 20
11.8450477814
 11
5.0783720839
 21
11.8450477814
  0
LINE
  5
282
100
AcDbEntity
  8
0
100
AcDbLine
 62
7
  6
CONTINUOUS
 10
5.5281220839
 20
11.8150477814
 11
5.5296657313
 21
11.7900477814
  0
LINE
  5
283
100
AcDbEntity
  8
0
100
AcDbLine
 62
7
  6
CONTINUOUS
 10
5.5281220839
 20
13.3850477814
 11
5.5296657313
 21
13.4100477814
  0
LINE
  5
284
100
AcDbEntity
  8
0
100
AcDbLine
 62
7
  6
CONTINUOUS
 10
5.1268095839
 20
12.1798759507
 11
5.2202470839
 21
12.341714448
  0
LINE
  5
285
100
AcDbEntity
  8
0
100
AcDbLine
 62
7
  6
CONTINUOUS
 10
5.0657469278
 20
12.0125477814
 11
4.4189477439
 21
12.0125477814
  0
LINE
  5
286
100
AcDbEntity
  8
0
100
AcDbLine
 62
7
  6
CONTINUOUS
 10
4.0983720839
 20
12.0125477814
 11
4.4009641874
 21
12.0125477814
  0
LINE
  5
287
100
AcDbEntity
  8
0
100
AcDbLine
 62
7
  6
CONTINUOUS
 10
7.0759972365
 20
12.0125477814
 11
7.7226652886
 21
12.0125477814
  0
LINE
  5
288
100
AcDbEntity
  8
0
100
AcDbLine
 62
7
  6
CONTINUOUS
 10
7.7407799803
 20
12.0125477814
 11
8.0433720839
 21
12.0125477814
  0
LINE
  5
289
100
AcDbEntity
  8
0
100
AcDbLine
 62
7
  6
CONTINUOUS
 10
4.8396220839
 20
12.0325477814
 11
5.0139437321
 21
12.0325477814
  0
LINE
  5
28A
100
AcDbEntity
  8
0
100
AcDbLine
 62
7
  6
CONTINUOUS
 10
7.1278004357
 20
12.0325477814
 11
7.3021220839
 21
12.0325477814
  0
LINE
  5
28B
100
AcDbEntity
  8
0
100
AcDbLine
 62
7
  6
CONTINUOUS
 10
5.813198726
 20
11.9008368841
 11
5.811627674
 21
11.9008471174
  0
LINE
  5
28C
100
AcDbEntity
  8
0
100
AcDbLine
 62
7
  6
CONTINUOUS
 10
5.8557105423
 20
11.9262402598
 11
5.8541394904
 21
11.9262504931
  0
LINE
  5
28D
100
AcDbEntity
  8
0
100
AcDbLine
 62
7
  6
CONTINUOUS
 10
5.8541616591
 20
11.9770572446
 11
5.855732711
 21
11.9770470113
  0
LINE
  5
28E
100
AcDbEntity
  8
0
100
AcDbLine
 62
7
  6
CONTINUOUS
 10
5.8132430633
 20
12.002450387
 11
5.8116720114
 21
12.0024606203
  0
LINE
  5
28F
100
AcDbEntity
  8
0
100
AcDbLine
 62
7
  6
CONTINUOUS
 10
5.8132430633
 20
12.002450387
 11
5.8545728592
 21
11.9777404544
  0
LINE
  5
290
100
AcDbEntity
  8
0
100
AcDbLine
 62
7
  6
CONTINUOUS
 10
5.1268095839
 20
13.020219612
 11
5.2202470839
 21
12.8583811147
  0
LINE
  5
291
100
AcDbEntity
  8
0
100
AcDbLine
 62
7
  6
CONTINUOUS
 10
5.5281220839
 20
11.8250477814
 11
5.5281220839
 21
11.8150477814
  0
LINE
  5
292
100
AcDbEntity
  8
0
100
AcDbLine
 62
7
  6
CONTINUOUS
 10
5.5281220839
 20
13.3750477814
 11
5.5281220839
 21
13.3850477814
  0
LINE
  5
293
100
AcDbEntity
  8
0
100
AcDbLine
 62
7
  6
CONTINUOUS
 10
5.5771220839
 20
11.8150477814
 11
5.5771220839
 21
11.7900477814
  0
LINE
  5
294
100
AcDbEntity
  8
0
100
AcDbLine
 62
7
  6
CONTINUOUS
 10
5.5771220839
 20
13.3850477814
 11
5.5771220839
 21
13.4100477814
  0
LINE
  5
295
100
AcDbEntity
  8
0
100
AcDbLine
 62
7
  6
CONTINUOUS
 10
5.6261220839
 20
11.8250477814
 11
5.6261220839
 21
11.8150477814
  0
LINE
  5
296
100
AcDbEntity
  8
0
100
AcDbLine
 62
7
  6
CONTINUOUS
 10
5.6261220839
 20
13.3750477814
 11
5.6261220839
 21
13.3850477814
  0
LINE
  5
297
100
AcDbEntity
  8
0
100
AcDbLine
 62
7
  6
CONTINUOUS
 10
7.7833720839
 20
12.1625477814
 11
7.6708720839
 21
12.1625477814
  0
LINE
  5
298
100
AcDbEntity
  8
0
100
AcDbLine
 62
7
  6
CONTINUOUS
 10
4.4708720839
 20
12.1625477814
 11
4.3583720839
 21
12.1625477814
  0
LINE
  5
299
100
AcDbEntity
  8
0
100
AcDbLine
 62
7
  6
CONTINUOUS
 10
4.9399345839
 20
12.1798759507
 11
5.1268095839
 21
12.1798759507
  0
LINE
  5
29A
100
AcDbEntity
  8
0
100
AcDbLine
 62
7
  6
CONTINUOUS
 10
7.0149345839
 20
12.1798759507
 11
7.2018095839
 21
12.1798759507
  0
LINE
  5
29B
100
AcDbEntity
  8
0
100
AcDbLine
 62
7
  6
CONTINUOUS
 10
5.6261220839
 20
13.3850477814
 11
5.6245784364
 21
13.4100477814
  0
LINE
  5
29C
100
AcDbEntity
  8
0
100
AcDbLine
 62
7
  6
CONTINUOUS
 10
5.7115205115
 20
12.632523734
 11
5.7115205115
 21
12.5675718287
  0
LINE
  5
29D
100
AcDbEntity
  8
0
100
AcDbLine
 62
7
  6
CONTINUOUS
 10
5.6261220839
 20
11.8150477814
 11
5.6245784364
 21
11.7900477814
  0
LINE
  5
29E
100
AcDbEntity
  8
0
100
AcDbLine
 62
7
  6
CONTINUOUS
 10
5.8201871669
 20
12.5675718287
 11
5.8201871669
 21
12.632523734
  0
LINE
  5
29F
100
AcDbEntity
  8
0
100
AcDbLine
 62
7
  6
CONTINUOUS
 10
5.8243282717
 20
12.5675718287
 11
5.8243282717
 21
12.632523734
  0
LINE
  5
2A0
100
AcDbEntity
  8
0
100
AcDbLine
 62
7
  6
CONTINUOUS
 10
5.855732711
 20
11.9770470113
 11
5.8557105423
 21
11.9262402598
  0
LINE
  5
2A1
100
AcDbEntity
  8
0
100
AcDbLine
 62
7
  6
CONTINUOUS
 10
5.7658538392
 20
12.6649996867
 11
5.7115205115
 21
12.632523734
  0
LINE
  5
2A2
100
AcDbEntity
  8
0
100
AcDbLine
 62
7
  6
CONTINUOUS
 10
4.3583720839
 20
12.3625477814
 11
4.4708720839
 21
12.3625477814
  0
LINE
  5
2A3
100
AcDbEntity
  8
0
100
AcDbLine
 62
7
  6
CONTINUOUS
 10
7.6708720839
 20
12.3625477814
 11
7.7833720839
 21
12.3625477814
  0
LINE
  5
2A4
100
AcDbEntity
  8
0
100
AcDbLine
 62
7
  6
CONTINUOUS
 10
5.7115205115
 20
12.5675718287
 11
5.7658538392
 21
12.5350958761
  0
LINE
  5
2A5
100
AcDbEntity
  8
0
100
AcDbLine
 62
7
  6
CONTINUOUS
 10
5.7658538392
 20
12.5350958761
 11
5.8201871669
 21
12.5675718287
  0
LINE
  5
2A6
100
AcDbEntity
  8
0
100
AcDbLine
 62
7
  6
CONTINUOUS
 10
5.7699949439
 20
12.5350958761
 11
5.8243282717
 21
12.5675718287
  0
LINE
  5
2A7
100
AcDbEntity
  8
0
100
AcDbLine
 62
7
  6
CONTINUOUS
 10
4.5694954203
 20
12.0125477814
 11
4.5699027351
 21
12.012708848
  0
LINE
  5
2A8
100
AcDbEntity
  8
0
100
AcDbLine
 62
7
  6
CONTINUOUS
 10
7.5722487474
 20
13.1875477814
 11
7.5718414326
 21
13.1873867147
  0
LINE
  5
2A9
100
AcDbEntity
  8
0
100
AcDbLine
 62
7
  6
CONTINUOUS
 10
7.2018095839
 20
12.5035529454
 11
7.0149345839
 21
12.5035529454
  0
LINE
  5
2AA
100
AcDbEntity
  8
0
100
AcDbLine
 62
7
  6
CONTINUOUS
 10
5.1268095839
 20
12.5035529454
 11
4.9399345839
 21
12.5035529454
  0
LINE
  5
2AB
100
AcDbEntity
  8
0
100
AcDbLine
 62
7
  6
CONTINUOUS
 10
7.7833720839
 20
12.5312977814
 11
7.6708720839
 21
12.5312977814
  0
LINE
  5
2AC
100
AcDbEntity
  8
0
100
AcDbLine
 62
7
  6
CONTINUOUS
 10
4.4708720839
 20
12.5312977814
 11
4.3583720839
 21
12.5312977814
  0
LINE
  5
2AD
100
AcDbEntity
  8
0
100
AcDbLine
 62
7
  6
CONTINUOUS
 10
5.7699949439
 20
12.5350958761
 11
5.7658538392
 21
12.5350958761
  0
LINE
  5
2AE
100
AcDbEntity
  8
0
100
AcDbLine
 62
7
  6
CONTINUOUS
 10
5.8243282717
 20
12.5675718287
 11
5.8201871669
 21
12.5675718287
  0
LINE
  5
2AF
100
AcDbEntity
  8
0
100
AcDbLine
 62
7
  6
CONTINUOUS
 10
4.5699027351
 20
13.1873867147
 11
4.5694954203
 21
13.1875477814
  0
LINE
  5
2B0
100
AcDbEntity
  8
0
100
AcDbLine
 62
7
  6
CONTINUOUS
 10
7.5718414326
 20
12.012708848
 11
7.5722487474
 21
12.0125477814
  0
LINE
  5
2B1
100
AcDbEntity
  8
0
100
AcDbLine
 62
7
  6
CONTINUOUS
 10
5.8201871669
 20
12.632523734
 11
5.7658538392
 21
12.6649996867
  0
LINE
  5
2B2
100
AcDbEntity
  8
0
100
AcDbLine
 62
7
  6
CONTINUOUS
 10
5.8243282717
 20
12.632523734
 11
5.7699949439
 21
12.6649996867
  0
LINE
  5
2B3
100
AcDbEntity
  8
0
100
AcDbLine
 62
7
  6
CONTINUOUS
 10
5.8201871669
 20
12.632523734
 11
5.8243282717
 21
12.632523734
  0
LINE
  5
2B4
100
AcDbEntity
  8
0
100
AcDbLine
 62
7
  6
CONTINUOUS
 10
5.7699949439
 20
12.6649996867
 11
5.7658538392
 21
12.6649996867
  0
LINE
  5
2B5
100
AcDbEntity
  8
0
100
AcDbLine
 62
7
  6
CONTINUOUS
 10
4.3583720839
 20
12.6687977814
 11
4.4708720839
 21
12.6687977814
  0
LINE
  5
2B6
100
AcDbEntity
  8
0
100
AcDbLine
 62
7
  6
CONTINUOUS
 10
7.6708720839
 20
12.6687977814
 11
7.7833720839
 21
12.6687977814
  0
LINE
  5
2B7
100
AcDbEntity
  8
0
100
AcDbLine
 62
7
  6
CONTINUOUS
 10
7.2018095839
 20
12.6965426174
 11
7.0149345839
 21
12.6965426174
  0
LINE
  5
2B8
100
AcDbEntity
  8
0
100
AcDbLine
 62
7
  6
CONTINUOUS
 10
5.1268095839
 20
12.6965426174
 11
4.9399345839
 21
12.6965426174
  0
LINE
  5
2B9
100
AcDbEntity
  8
0
100
AcDbLine
 62
7
  6
CONTINUOUS
 10
7.7833720839
 20
12.8375477814
 11
7.6708720839
 21
12.8375477814
  0
LINE
  5
2BA
100
AcDbEntity
  8
0
100
AcDbLine
 62
7
  6
CONTINUOUS
 10
4.4708720839
 20
12.8375477814
 11
4.3583720839
 21
12.8375477814
  0
LINE
  5
2BB
100
AcDbEntity
  8
0
100
AcDbLine
 62
7
  6
CONTINUOUS
 10
4.9399345839
 20
13.020219612
 11
5.1268095839
 21
13.020219612
  0
LINE
  5
2BC
100
AcDbEntity
  8
0
100
AcDbLine
 62
7
  6
CONTINUOUS
 10
7.0149345839
 20
13.020219612
 11
7.2018095839
 21
13.020219612
  0
LINE
  5
2BD
100
AcDbEntity
  8
0
100
AcDbLine
 62
7
  6
CONTINUOUS
 10
4.3583720839
 20
13.0375477814
 11
4.4708720839
 21
13.0375477814
  0
LINE
  5
2BE
100
AcDbEntity
  8
0
100
AcDbLine
 62
7
  6
CONTINUOUS
 10
7.6708720839
 20
13.0375477814
 11
7.7833720839
 21
13.0375477814
  0
LINE
  5
2BF
100
AcDbEntity
  8
0
100
AcDbLine
 62
7
  6
CONTINUOUS
 10
5.8545553629
 20
11.9255499704
 11
5.813198726
 21
11.9008368841
  0
LINE
  5
2C0
100
AcDbEntity
  8
0
100
AcDbLine
 62
7
  6
CONTINUOUS
 10
7.3021220839
 20
13.1675477814
 11
7.1278004357
 21
13.1675477814
  0
LINE
  5
2C1
100
AcDbEntity
  8
0
100
AcDbLine
 62
7
  6
CONTINUOUS
 10
5.0139437321
 20
13.1675477814
 11
4.8396220839
 21
13.1675477814
  0
LINE
  5
2C2
100
AcDbEntity
  8
0
100
AcDbLine
 62
7
  6
CONTINUOUS
 10
7.7226652886
 20
13.1875477814
 11
7.0759919268
 21
13.1875477814
  0
LINE
  5
2C3
100
AcDbEntity
  8
0
100
AcDbLine
 62
7
  6
CONTINUOUS
 10
5.0657522504
 20
13.1875477814
 11
4.4190788791
 21
13.1875477814
  0
LINE
  5
2C4
100
AcDbEntity
  8
0
100
AcDbLine
 62
7
  6
CONTINUOUS
 10
4.0983720839
 20
13.1875477814
 11
4.4009641874
 21
13.1875477814
  0
LINE
  5
2C5
100
AcDbEntity
  8
0
100
AcDbLine
 62
7
  6
CONTINUOUS
 10
7.7407799803
 20
13.1875477814
 11
8.0433720839
 21
13.1875477814
  0
LINE
  5
2C6
100
AcDbEntity
  8
0
100
AcDbLine
 62
7
  6
CONTINUOUS
 10
6.9214970839
 20
12.8583811147
 11
7.0149345839
 21
13.020219612
  0
LINE
  5
2C7
100
AcDbEntity
  8
0
100
AcDbLine
 62
7
  6
CONTINUOUS
 10
6.9214970839
 20
12.341714448
 11
7.0149345839
 21
12.1798759507
  0
LINE
  5
2C8
100
AcDbEntity
  8
0
100
AcDbLine
 62
7
  6
CONTINUOUS
 10
7.0149345839
 20
12.5035529454
 11
6.9214970839
 21
12.341714448
  0
LINE
  5
2C9
100
AcDbEntity
  8
0
100
AcDbLine
 62
7
  6
CONTINUOUS
 10
5.0783720839
 20
13.3550477814
 11
7.0633720839
 21
13.3550477814
  0
LINE
  5
2CA
100
AcDbEntity
  8
0
100
AcDbLine
 62
7
  6
CONTINUOUS
 10
5.0983720839
 20
13.3750477814
 11
7.0433720839
 21
13.3750477814
  0
LINE
  5
2CB
100
AcDbEntity
  8
0
100
AcDbLine
 62
7
  6
CONTINUOUS
 10
5.5281220839
 20
13.3850477814
 11
5.6261220839
 21
13.3850477814
  0
LINE
  5
2CC
100
AcDbEntity
  8
0
100
AcDbLine
 62
7
  6
CONTINUOUS
 10
5.5296657313
 20
13.4100477814
 11
5.6245784364
 21
13.4100477814
  0
LINE
  5
2CD
100
AcDbEntity
  8
0
100
AcDbLine
 62
7
  6
CONTINUOUS
 10
7.0149345839
 20
12.6965426174
 11
6.9214970839
 21
12.8583811147
  0
LINE
  5
2CE
100
AcDbEntity
  8
0
100
AcDbLine
 62
7
  6
CONTINUOUS
 10
7.0633720839
 20
11.8450477814
 11
7.0633720839
 21
11.9941827121
  0
LINE
  5
2CF
100
AcDbEntity
  8
0
100
AcDbLine
 62
7
  6
CONTINUOUS
 10
7.0633720839
 20
13.2059012279
 11
7.0633720839
 21
13.3550477814
  0
LINE
  5
2D0
100
AcDbEntity
  8
0
100
AcDbLine
 62
7
  6
CONTINUOUS
 10
7.2952470839
 20
12.8583811147
 11
7.2018095839
 21
12.6965426174
  0
LINE
  5
2D1
100
AcDbEntity
  8
0
100
AcDbLine
 62
7
  6
CONTINUOUS
 10
7.2952470839
 20
12.341714448
 11
7.2018095839
 21
12.5035529454
  0
LINE
  5
2D2
100
AcDbEntity
  8
0
100
AcDbLine
 62
7
  6
CONTINUOUS
 10
7.1233060188
 20
12.0425477814
 11
7.1233060188
 21
12.1153314911
  0
LINE
  5
2D3
100
AcDbEntity
  8
0
100
AcDbLine
 62
7
  6
CONTINUOUS
 10
7.1233060188
 20
12.568097405
 11
7.1233060188
 21
12.6319981577
  0
LINE
  5
2D4
100
AcDbEntity
  8
0
100
AcDbLine
 62
7
  6
CONTINUOUS
 10
7.1233060188
 20
13.0847640717
 11
7.1233060188
 21
13.1575477814
  0
LINE
  5
2D5
100
AcDbEntity
  8
0
100
AcDbLine
 62
7
  6
CONTINUOUS
 10
7.2018095839
 20
12.1798759507
 11
7.2952470839
 21
12.341714448
  0
LINE
  5
2D6
100
AcDbEntity
  8
0
100
AcDbLine
 62
7
  6
CONTINUOUS
 10
7.0433720839
 20
11.8250477814
 11
7.0633720839
 21
11.8450477814
  0
LINE
  5
2D7
100
AcDbEntity
  8
0
100
AcDbLine
 62
7
  6
CONTINUOUS
 10
7.0433720839
 20
13.3750477814
 11
7.0633720839
 21
13.3550477814
  0
LINE
  5
2D8
100
AcDbEntity
  8
0
100
AcDbLine
 62
7
  6
CONTINUOUS
 10
7.2018095839
 20
13.020219612
 11
7.2952470839
 21
12.8583811147
  0
LINE
  5
2D9
100
AcDbEntity
  8
0
100
AcDbLine
 62
7
  6
CONTINUOUS
 10
7.4021220839
 20
12.1325477814
 11
7.4021220839
 21
13.0675477814
  0
LINE
  5
2DA
100
AcDbEntity
  8
0
100
AcDbLine
 62
7
  6
CONTINUOUS
 10
8.0833720839
 20
12.0525477814
 11
8.0833720839
 21
13.1475477814
  0
LINE
  5
2DB
100
AcDbEntity
  8
0
100
AcDbLine
 62
7
  6
CONTINUOUS
 10
14.7853552569
 20
4.2937707932
 11
14.8053552569
 21
4.2737707932
  0
LINE
  5
2DC
100
AcDbEntity
  8
0
100
AcDbLine
 62
7
  6
CONTINUOUS
 10
14.7853552569
 20
6.4262707932
 11
14.8053552569
 21
6.4462707932
  0
LINE
  5
2DD
100
AcDbEntity
  8
0
100
AcDbLine
 62
7
  6
CONTINUOUS
 10
16.3453552569
 20
4.3547707932
 11
16.3703552569
 21
4.3563144407
  0
LINE
  5
2DE
100
AcDbEntity
  8
0
100
AcDbLine
 62
7
  6
CONTINUOUS
 10
16.1478552569
 20
4.2537707932
 11
14.9728552569
 21
4.2537707932
  0
LINE
  5
2DF
100
AcDbEntity
  8
0
100
AcDbLine
 62
7
  6
CONTINUOUS
 10
14.8053552569
 20
4.2737707932
 11
14.9728552569
 21
4.2737707932
  0
LINE
  5
2E0
100
AcDbEntity
  8
0
100
AcDbLine
 62
7
  6
CONTINUOUS
 10
16.1478552569
 20
4.2737707932
 11
16.3153552569
 21
4.2737707932
  0
LINE
  5
2E1
100
AcDbEntity
  8
0
100
AcDbLine
 62
7
  6
CONTINUOUS
 10
14.7753552569
 20
4.3547707932
 11
14.7503552569
 21
4.3563144407
  0
LINE
  5
2E2
100
AcDbEntity
  8
0
100
AcDbLine
 62
7
  6
CONTINUOUS
 10
16.3453552569
 20
4.3547707932
 11
16.3353552569
 21
4.3547707932
  0
LINE
  5
2E3
100
AcDbEntity
  8
0
100
AcDbLine
 62
7
  6
CONTINUOUS
 10
14.7753552569
 20
4.3547707932
 11
14.7853552569
 21
4.3547707932
  0
LINE
  5
2E4
100
AcDbEntity
  8
0
100
AcDbLine
 62
7
  6
CONTINUOUS
 10
14.7753552569
 20
4.4037707932
 11
14.7503552569
 21
4.4037707932
  0
LINE
  5
2E5
100
AcDbEntity
  8
0
100
AcDbLine
 62
7
  6
CONTINUOUS
 10
16.3453552569
 20
4.4037707932
 11
16.3703552569
 21
4.4037707932
  0
LINE
  5
2E6
100
AcDbEntity
  8
0
100
AcDbLine
 62
7
  6
CONTINUOUS
 10
14.7753552569
 20
4.4527707932
 11
14.7503552569
 21
4.4512271458
  0
LINE
  5
2E7
100
AcDbEntity
  8
0
100
AcDbLine
 62
7
  6
CONTINUOUS
 10
16.3453552569
 20
4.4527707932
 11
16.3353552569
 21
4.4527707932
  0
LINE
  5
2E8
100
AcDbEntity
  8
0
100
AcDbLine
 62
7
  6
CONTINUOUS
 10
14.7753552569
 20
4.4527707932
 11
14.7853552569
 21
4.4527707932
  0
LINE
  5
2E9
100
AcDbEntity
  8
0
100
AcDbLine
 62
7
  6
CONTINUOUS
 10
16.3453552569
 20
4.4527707932
 11
16.3703552569
 21
4.4512271458
  0
LINE
  5
2EA
100
AcDbEntity
  8
0
100
AcDbLine
 62
7
  6
CONTINUOUS
 10
14.7503552569
 20
4.3563144407
 11
14.7503552569
 21
4.4512271458
  0
LINE
  5
2EB
100
AcDbEntity
  8
0
100
AcDbLine
 62
7
  6
CONTINUOUS
 10
14.7753552569
 20
4.3547707932
 11
14.7753552569
 21
4.4527707932
  0
LINE
  5
2EC
100
AcDbEntity
  8
0
100
AcDbLine
 62
7
  6
CONTINUOUS
 10
14.7853552569
 20
4.2937707932
 11
14.7853552569
 21
6.4262705207
  0
LINE
  5
2ED
100
AcDbEntity
  8
0
100
AcDbLine
 62
7
  6
CONTINUOUS
 10
14.9728552569
 20
4.6412707932
 11
16.1478552569
 21
4.6412707932
  0
LINE
  5
2EE
100
AcDbEntity
  8
0
100
AcDbLine
 62
7
  6
CONTINUOUS
 10
14.8053552569
 20
4.2737707932
 11
14.8053552569
 21
6.4462707932
  0
LINE
  5
2EF
100
AcDbEntity
  8
0
100
AcDbLine
 62
7
  6
CONTINUOUS
 10
14.9730163236
 20
4.7335550879
 11
14.9728552569
 21
4.2537707932
  0
LINE
  5
2F0
100
AcDbEntity
  8
0
100
AcDbLine
 62
7
  6
CONTINUOUS
 10
14.9730163236
 20
4.7335550879
 11
14.9762674094
 21
6.5962881607
  0
LINE
  5
2F1
100
AcDbEntity
  8
0
100
AcDbLine
 62
7
  6
CONTINUOUS
 10
14.9928552569
 20
5.1121730537
 11
14.9928552569
 21
5.9375207932
  0
LINE
  5
2F2
100
AcDbEntity
  8
0
100
AcDbLine
 62
7
  6
CONTINUOUS
 10
16.0278552569
 20
4.9346632357
 11
15.0928552569
 21
4.9346632357
  0
LINE
  5
2F3
100
AcDbEntity
  8
0
100
AcDbLine
 62
7
  6
CONTINUOUS
 10
15.1151469236
 20
5.9475207932
 11
15.1151469236
 21
5.9675207932
  0
LINE
  5
2F4
100
AcDbEntity
  8
0
100
AcDbLine
 62
7
  6
CONTINUOUS
 10
15.1401834263
 20
5.9675207932
 11
15.1401834263
 21
6.1143957932
  0
LINE
  5
2F5
100
AcDbEntity
  8
0
100
AcDbLine
 62
7
  6
CONTINUOUS
 10
15.3020219236
 20
5.9675207932
 11
15.3020219236
 21
6.0893592906
  0
LINE
  5
2F6
100
AcDbEntity
  8
0
100
AcDbLine
 62
7
  6
CONTINUOUS
 10
15.4638604209
 20
5.9675207932
 11
15.4638604209
 21
6.1143957932
  0
LINE
  5
2F7
100
AcDbEntity
  8
0
100
AcDbLine
 62
7
  6
CONTINUOUS
 10
15.4888969236
 20
5.9475207932
 11
15.4888969236
 21
5.9675207932
  0
LINE
  5
2F8
100
AcDbEntity
  8
0
100
AcDbLine
 62
7
  6
CONTINUOUS
 10
15.4916052569
 20
4.6412707932
 11
15.4916052569
 21
4.6915013609
  0
LINE
  5
2F9
100
AcDbEntity
  8
0
100
AcDbLine
 62
7
  6
CONTINUOUS
 10
14.9547070674
 20
5.4537707932
 11
14.9928552569
 21
5.4537707932
  0
LINE
  5
2FA
100
AcDbEntity
  8
0
100
AcDbLine
 62
7
  6
CONTINUOUS
 10
16.165980201
 20
5.4537707932
 11
16.1278549526
 21
5.4537707922
  0
LINE
  5
2FB
100
AcDbEntity
  8
0
100
AcDbLine
 62
7
  6
CONTINUOUS
 10
15.6291052569
 20
4.6915013609
 11
15.6291052569
 21
4.6412707932
  0
LINE
  5
2FC
100
AcDbEntity
  8
0
100
AcDbLine
 62
7
  6
CONTINUOUS
 10
15.6318135903
 20
5.9475207932
 11
15.6318135903
 21
5.9675207932
  0
LINE
  5
2FD
100
AcDbEntity
  8
0
100
AcDbLine
 62
7
  6
CONTINUOUS
 10
15.6568500929
 20
5.9675207932
 11
15.6568500929
 21
6.1143957932
  0
LINE
  5
2FE
100
AcDbEntity
  8
0
100
AcDbLine
 62
7
  6
CONTINUOUS
 10
15.8186885903
 20
5.9675207932
 11
15.8186885903
 21
6.0893592906
  0
LINE
  5
2FF
100
AcDbEntity
  8
0
100
AcDbLine
 62
7
  6
CONTINUOUS
 10
15.9805270876
 20
5.9675207932
 11
15.9805270876
 21
6.1143957932
  0
LINE
  5
300
100
AcDbEntity
  8
0
100
AcDbLine
 62
7
  6
CONTINUOUS
 10
16.0055635903
 20
5.9475207932
 11
16.0055635903
 21
5.9675207932
  0
LINE
  5
301
100
AcDbEntity
  8
0
100
AcDbLine
 62
7
  6
CONTINUOUS
 10
15.0028552569
 20
5.9475207932
 11
16.1178552569
 21
5.9475207932
  0
LINE
  5
302
100
AcDbEntity
  8
0
100
AcDbLine
 62
7
  6
CONTINUOUS
 10
16.1255965084
 20
5.9438511192
 11
16.1244431278
 21
6.6162707932
  0
LINE
  5
303
100
AcDbEntity
  8
0
100
AcDbLine
 62
7
  6
CONTINUOUS
 10
16.1278552569
 20
5.9375207932
 11
16.1278552569
 21
5.1121730537
  0
LINE
  5
304
100
AcDbEntity
  8
0
100
AcDbLine
 62
7
  6
CONTINUOUS
 10
16.144443108
 20
6.5962861318
 11
16.1478552569
 21
4.6212707932
  0
LINE
  5
305
100
AcDbEntity
  8
0
100
AcDbLine
 62
7
  6
CONTINUOUS
 10
16.1478552569
 20
4.2537707932
 11
16.1478552569
 21
4.6212707932
  0
LINE
  5
306
100
AcDbEntity
  8
0
100
AcDbLine
 62
7
  6
CONTINUOUS
 10
15.1151469236
 20
5.9675207932
 11
15.4888969236
 21
5.9675207932
  0
LINE
  5
307
100
AcDbEntity
  8
0
100
AcDbLine
 62
7
  6
CONTINUOUS
 10
15.6318135903
 20
5.9675207932
 11
16.0055635903
 21
5.9675207932
  0
LINE
  5
308
100
AcDbEntity
  8
0
100
AcDbLine
 62
7
  6
CONTINUOUS
 10
15.1401834263
 20
6.1143957932
 11
15.4638604209
 21
6.1143957932
  0
LINE
  5
309
100
AcDbEntity
  8
0
100
AcDbLine
 62
7
  6
CONTINUOUS
 10
15.6568500929
 20
6.1143957932
 11
15.9805270876
 21
6.1143957932
  0
LINE
  5
30A
100
AcDbEntity
  8
0
100
AcDbLine
 62
7
  6
CONTINUOUS
 10
16.3153552569
 20
6.4462707932
 11
16.3153552569
 21
4.2737707932
  0
LINE
  5
30B
100
AcDbEntity
  8
0
100
AcDbLine
 62
7
  6
CONTINUOUS
 10
16.3353552569
 20
4.2937707932
 11
16.3353552569
 21
6.4262705207
  0
LINE
  5
30C
100
AcDbEntity
  8
0
100
AcDbLine
 62
7
  6
CONTINUOUS
 10
16.3453552569
 20
4.4527707932
 11
16.3453552569
 21
4.3547707932
  0
LINE
  5
30D
100
AcDbEntity
  8
0
100
AcDbLine
 62
7
  6
CONTINUOUS
 10
16.3703552569
 20
4.4512271458
 11
16.3703552569
 21
4.3563144407
  0
LINE
  5
30E
100
AcDbEntity
  8
0
100
AcDbLine
 62
7
  6
CONTINUOUS
 10
14.8053552569
 20
6.4462707932
 11
14.9560034505
 21
6.4462707932
  0
LINE
  5
30F
100
AcDbEntity
  8
0
100
AcDbLine
 62
7
  6
CONTINUOUS
 10
16.1647093667
 20
6.4462707932
 11
16.3153552569
 21
6.4462707932
  0
LINE
  5
310
100
AcDbEntity
  8
0
100
AcDbLine
 62
7
  6
CONTINUOUS
 10
14.9962279918
 20
6.6162707932
 11
16.1244815258
 21
6.6162707932
  0
LINE
  5
311
100
AcDbEntity
  8
0
100
AcDbLine
 62
7
  6
CONTINUOUS
 10
16.3353552569
 20
6.4262707932
 11
16.3153552569
 21
6.4462707932
  0
LINE
  5
312
100
AcDbEntity
  8
0
100
AcDbLine
 62
7
  6
CONTINUOUS
 10
16.3153552569
 20
4.2737707932
 11
16.3353552569
 21
4.2937707932
  0
LINE
  5
313
100
AcDbEntity
  8
0
100
AcDbLine
 62
7
  6
CONTINUOUS
 10
13.5424393348
 20
11.3766566492
 11
13.4303364488
 21
11.6050983126
  0
LINE
  5
314
100
AcDbEntity
  8
0
100
AcDbLine
 62
7
  6
CONTINUOUS
 10
13.8843955533
 20
11.6038191439
 11
13.8566591303
 21
11.6613101493
  0
LINE
  5
315
100
AcDbEntity
  8
0
100
AcDbLine
 62
7
  6
CONTINUOUS
 10
13.6743864278
 20
12.5065327682
 11
13.9007184402
 21
13.2389434287
  0
LINE
  5
316
100
AcDbEntity
  8
0
100
AcDbLine
 62
7
  6
CONTINUOUS
 10
13.4287160782
 20
11.6286249684
 11
13.6822300728
 21
12.4489965555
  0
LINE
  5
317
100
AcDbEntity
  8
0
100
AcDbLine
 62
7
  6
CONTINUOUS
 10
14.4256358161
 20
11.2530014875
 11
14.4172228592
 21
11.2622080602
  0
LINE
  5
318
100
AcDbEntity
  8
0
100
AcDbLine
 62
7
  6
CONTINUOUS
 10
13.6770629603
 20
12.4595260236
 11
13.975444532
 21
11.8514883094
  0
LINE
  5
319
100
AcDbEntity
  8
0
100
AcDbLine
 62
7
  6
CONTINUOUS
 10
13.9031903639
 20
12.4252476035
 11
13.9017279898
 21
12.4169034553
  0
LINE
  5
31A
100
AcDbEntity
  8
0
100
AcDbLine
 62
7
  6
CONTINUOUS
 10
13.9141212579
 20
12.4695426153
 11
13.9336054181
 21
12.5325934112
  0
LINE
  5
31B
100
AcDbEntity
  8
0
100
AcDbLine
 62
7
  6
CONTINUOUS
 10
14.0458931151
 20
12.8959565318
 11
14.0586730185
 21
12.9373123145
  0
LINE
  5
31C
100
AcDbEntity
  8
0
100
AcDbLine
 62
7
  6
CONTINUOUS
 10
14.1709500975
 20
13.3006410755
 11
14.1877447569
 21
13.3549886132
  0
LINE
  5
31D
100
AcDbEntity
  8
0
100
AcDbLine
 62
7
  6
CONTINUOUS
 10
14.4260369944
 20
11.2533680838
 11
14.4284294941
 21
11.2499567994
  0
LINE
  5
31E
100
AcDbEntity
  8
0
100
AcDbLine
 62
7
  6
CONTINUOUS
 10
14.412457101
 20
11.2690346219
 11
14.4172228592
 21
11.2622080602
  0
LINE
  5
31F
100
AcDbEntity
  8
0
100
AcDbLine
 62
7
  6
CONTINUOUS
 10
13.9543470978
 20
12.116851446
 11
13.9543283791
 21
12.1168895237
  0
LINE
  5
320
100
AcDbEntity
  8
0
100
AcDbLine
 62
7
  6
CONTINUOUS
 10
14.064709373
 20
11.9776699858
 11
14.412457101
 21
11.2690346219
  0
LINE
  5
321
100
AcDbEntity
  8
0
100
AcDbLine
 62
7
  6
CONTINUOUS
 10
14.4260369944
 20
11.2533680838
 11
14.0782892664
 21
11.9620034476
  0
LINE
  5
322
100
AcDbEntity
  8
0
100
AcDbLine
 62
7
  6
CONTINUOUS
 10
13.8615353566
 20
12.5593020221
 11
13.8243695139
 21
12.6350380466
  0
LINE
  5
323
100
AcDbEntity
  8
0
100
AcDbLine
 62
7
  6
CONTINUOUS
 10
14.0306072216
 20
12.270703002
 11
14.0668585603
 21
12.3880123769
  0
LINE
  5
324
100
AcDbEntity
  8
0
100
AcDbLine
 62
7
  6
CONTINUOUS
 10
16.2103959178
 20
11.2415015146
 11
16.2265537543
 21
11.2453014837
  0
LINE
  5
325
100
AcDbEntity
  8
0
100
AcDbLine
 62
7
  6
CONTINUOUS
 10
16.2051802452
 20
11.2409358844
 11
16.2103908503
 21
11.2415068815
  0
LINE
  5
326
100
AcDbEntity
  8
0
100
AcDbLine
 62
7
  6
CONTINUOUS
 10
16.2051802452
 20
11.2409358844
 11
14.4505590516
 21
11.2409358844
  0
LINE
  5
327
100
AcDbEntity
  8
0
100
AcDbLine
 62
7
  6
CONTINUOUS
 10
14.7873586607
 20
11.2818965391
 11
14.8455450303
 21
11.2523971973
  0
LINE
  5
328
100
AcDbEntity
  8
0
100
AcDbLine
 62
7
  6
CONTINUOUS
 10
14.8747790512
 20
11.2818965391
 11
14.8165926816
 21
11.3113958809
  0
LINE
  5
329
100
AcDbEntity
  8
0
100
AcDbLine
 62
7
  6
CONTINUOUS
 10
14.8221734626
 20
11.3319386002
 11
14.8822525027
 21
11.3014797118
  0
LINE
  5
32A
100
AcDbEntity
  8
0
100
AcDbLine
 62
7
  6
CONTINUOUS
 10
14.490593118
 20
13.2765588732
 11
14.4799749541
 21
13.2421984824
  0
LINE
  5
32B
100
AcDbEntity
  8
0
100
AcDbLine
 62
7
  6
CONTINUOUS
 10
14.5491622926
 20
13.3275660983
 11
14.5381597067
 21
13.3204685396
  0
LINE
  5
32C
100
AcDbEntity
  8
0
100
AcDbLine
 62
7
  6
CONTINUOUS
 10
14.5177169548
 20
13.2258089479
 11
14.5711816243
 21
13.2602979885
  0
LINE
  5
32D
100
AcDbEntity
  8
0
100
AcDbLine
 62
7
  6
CONTINUOUS
 10
14.5262455299
 20
13.2162020819
 11
14.5797101994
 21
13.2506911226
  0
LINE
  5
32E
100
AcDbEntity
  8
0
100
AcDbLine
 62
7
  6
CONTINUOUS
 10
17.2022515694
 20
11.3629452812
 11
16.2748076903
 21
11.3629452812
  0
LINE
  5
32F
100
AcDbEntity
  8
0
100
AcDbLine
 62
7
  6
CONTINUOUS
 10
14.366372443
 20
11.3629452812
 11
13.568665948
 21
11.3629452812
  0
LINE
  5
330
100
AcDbEntity
  8
0
100
AcDbLine
 62
7
  6
CONTINUOUS
 10
13.986602957
 20
12.9640209254
 11
13.9494371144
 21
13.0397569499
  0
LINE
  5
331
100
AcDbEntity
  8
0
100
AcDbLine
 62
7
  6
CONTINUOUS
 10
14.43910312
 20
12.126517641
 11
14.4392337218
 21
12.1272652454
  0
LINE
  5
332
100
AcDbEntity
  8
0
100
AcDbLine
 62
7
  6
CONTINUOUS
 10
14.4412744359
 20
12.1269056271
 11
14.441144258
 21
12.1261669111
  0
LINE
  5
333
100
AcDbEntity
  8
0
100
AcDbLine
 62
7
  6
CONTINUOUS
 10
14.5392454798
 20
13.3018507188
 11
14.5400095515
 21
13.3050376666
  0
LINE
  5
334
100
AcDbEntity
  8
0
100
AcDbLine
 62
7
  6
CONTINUOUS
 10
14.5711816243
 20
13.2602979885
 11
14.5869042932
 21
13.3111765638
  0
LINE
  5
335
100
AcDbEntity
  8
0
100
AcDbLine
 62
7
  6
CONTINUOUS
 10
14.5797101994
 20
13.2506911226
 11
14.5954328683
 21
13.3015696978
  0
LINE
  5
336
100
AcDbEntity
  8
0
100
AcDbLine
 62
7
  6
CONTINUOUS
 10
14.5159459385
 20
12.6857051497
 11
14.5036016788
 21
12.6459582827
  0
LINE
  5
337
100
AcDbEntity
  8
0
100
AcDbLine
 62
7
  6
CONTINUOUS
 10
14.0892361132
 20
12.8592550811
 11
14.0748440873
 21
12.8885829465
  0
LINE
  5
338
100
AcDbEntity
  8
0
100
AcDbLine
 62
7
  6
CONTINUOUS
 10
14.4399867986
 20
12.1272626598
 11
14.4398314119
 21
12.1265290451
  0
LINE
  5
339
100
AcDbEntity
  8
0
100
AcDbLine
 62
7
  6
CONTINUOUS
 10
14.4390041343
 20
12.1265480804
 11
14.4392249008
 21
12.127267971
  0
LINE
  5
33A
100
AcDbEntity
  8
0
100
AcDbLine
 62
7
  6
CONTINUOUS
 10
14.2481687196
 20
11.6038191439
 11
13.7457319608
 21
11.6038191439
  0
LINE
  5
33B
100
AcDbEntity
  8
0
100
AcDbLine
 62
7
  6
CONTINUOUS
 10
16.1814080719
 20
11.6038191439
 11
16.7886573264
 21
11.6038191439
  0
LINE
  5
33C
100
AcDbEntity
  8
0
100
AcDbLine
 62
7
  6
CONTINUOUS
 10
16.8808819361
 20
11.7213181804
 11
16.7772625743
 21
11.7213181804
  0
LINE
  5
33D
100
AcDbEntity
  8
0
100
AcDbLine
 62
7
  6
CONTINUOUS
 10
13.8298673935
 20
11.7213181804
 11
13.7262480316
 21
11.7213181804
  0
LINE
  5
33E
100
AcDbEntity
  8
0
100
AcDbLine
 62
7
  6
CONTINUOUS
 10
14.2143093787
 20
13.2639624403
 11
14.1999116877
 21
13.2933018498
  0
LINE
  5
33F
100
AcDbEntity
  8
0
100
AcDbLine
 62
7
  6
CONTINUOUS
 10
14.5036016788
 20
12.6459582827
 11
14.4617576158
 21
12.6190059212
  0
LINE
  5
340
100
AcDbEntity
  8
0
100
AcDbLine
 62
7
  6
CONTINUOUS
 10
13.7746612963
 20
11.8779835623
 11
13.8782806582
 21
11.8779835623
  0
LINE
  5
341
100
AcDbEntity
  8
0
100
AcDbLine
 62
7
  6
CONTINUOUS
 10
16.825675839
 20
11.8779835623
 11
16.9292952008
 21
11.8779835623
  0
LINE
  5
342
100
AcDbEntity
  8
0
100
AcDbLine
 62
7
  6
CONTINUOUS
 10
14.4290247223
 20
12.635453089
 11
14.4322578125
 21
12.6318004267
  0
LINE
  5
343
100
AcDbEntity
  8
0
100
AcDbLine
 62
7
  6
CONTINUOUS
 10
14.4617576158
 20
12.6190059212
 11
14.4585245256
 21
12.6226585835
  0
LINE
  5
344
100
AcDbEntity
  8
0
100
AcDbLine
 62
7
  6
CONTINUOUS
 10
14.5036016788
 20
12.6459582827
 11
14.5003685887
 21
12.649610945
  0
LINE
  5
345
100
AcDbEntity
  8
0
100
AcDbLine
 62
7
  6
CONTINUOUS
 10
13.8155099884
 20
12.0101699783
 11
13.8975748791
 21
12.0101699783
  0
LINE
  5
346
100
AcDbEntity
  8
0
100
AcDbLine
 62
7
  6
CONTINUOUS
 10
16.866524531
 20
12.0101699783
 11
16.9701438929
 21
12.0101699783
  0
LINE
  5
347
100
AcDbEntity
  8
0
100
AcDbLine
 62
7
  6
CONTINUOUS
 10
14.5127128484
 20
12.6893578121
 11
14.5159459385
 21
12.6857051497
  0
LINE
  5
348
100
AcDbEntity
  8
0
100
AcDbLine
 62
7
  6
CONTINUOUS
 10
14.7919885253
 20
11.3014797118
 11
14.7873586607
 21
11.2818965391
  0
LINE
  5
349
100
AcDbEntity
  8
0
100
AcDbLine
 62
7
  6
CONTINUOUS
 10
14.8221734626
 20
11.3319386002
 11
14.8165926816
 21
11.3113958809
  0
LINE
  5
34A
100
AcDbEntity
  8
0
100
AcDbLine
 62
7
  6
CONTINUOUS
 10
14.4617576158
 20
12.6190059212
 11
14.4322578125
 21
12.6318004267
  0
LINE
  5
34B
100
AcDbEntity
  8
0
100
AcDbLine
 62
7
  6
CONTINUOUS
 10
14.7903048927
 20
11.315946833
 11
14.7927255559
 21
11.3237801021
  0
LINE
  5
34C
100
AcDbEntity
  8
0
100
AcDbLine
 62
7
  6
CONTINUOUS
 10
14.8839361354
 20
11.2870125906
 11
14.8863567986
 21
11.2948458597
  0
LINE
  5
34D
100
AcDbEntity
  8
0
100
AcDbLine
 62
7
  6
CONTINUOUS
 10
17.0442767044
 20
12.2500638444
 11
16.9406573426
 21
12.2500638444
  0
LINE
  5
34E
100
AcDbEntity
  8
0
100
AcDbLine
 62
7
  6
CONTINUOUS
 10
14.4799749541
 20
13.2421984824
 11
14.4885035293
 21
13.2325916165
  0
LINE
  5
34F
100
AcDbEntity
  8
0
100
AcDbLine
 62
7
  6
CONTINUOUS
 10
14.5262455299
 20
13.2162020819
 11
14.5177169548
 21
13.2258089479
  0
LINE
  5
350
100
AcDbEntity
  8
0
100
AcDbLine
 62
7
  6
CONTINUOUS
 10
14.5797101994
 20
13.2506911226
 11
14.5711816243
 21
13.2602979885
  0
LINE
  5
351
100
AcDbEntity
  8
0
100
AcDbLine
 62
7
  6
CONTINUOUS
 10
14.8822525027
 20
11.3014797118
 11
14.8747790512
 21
11.2818965391
  0
LINE
  5
352
100
AcDbEntity
  8
0
100
AcDbLine
 62
7
  6
CONTINUOUS
 10
16.9890706073
 20
12.4067292263
 11
17.0926899691
 21
12.4067292263
  0
LINE
  5
353
100
AcDbEntity
  8
0
100
AcDbLine
 62
7
  6
CONTINUOUS
 10
17.3697352869
 20
12.5161295252
 11
17.1302594285
 21
12.5161295252
  0
LINE
  5
354
100
AcDbEntity
  8
0
100
AcDbLine
 62
7
  6
CONTINUOUS
 10
17.0730852564
 20
12.5242282627
 11
16.9345424474
 21
12.5242282627
  0
LINE
  5
355
100
AcDbEntity
  8
0
100
AcDbLine
 62
7
  6
CONTINUOUS
 10
14.5869042932
 20
13.3111765638
 11
14.5954328683
 21
13.3015696978
  0
LINE
  5
356
100
AcDbEntity
  8
0
100
AcDbLine
 62
7
  6
CONTINUOUS
 10
15.5089387684
 20
11.7974876643
 11
15.5088084443
 21
11.7967416498
  0
LINE
  5
357
100
AcDbEntity
  8
0
100
AcDbLine
 62
7
  6
CONTINUOUS
 10
16.1951650795
 20
13.0907933754
 11
16.0699277928
 21
12.9640209254
  0
LINE
  5
358
100
AcDbEntity
  8
0
100
AcDbLine
 62
7
  6
CONTINUOUS
 10
13.8615353566
 20
12.5593020221
 11
13.942936532
 21
12.5593020221
  0
LINE
  5
359
100
AcDbEntity
  8
0
100
AcDbLine
 62
7
  6
CONTINUOUS
 10
15.7860415375
 20
12.5593020221
 11
15.9448601924
 21
12.5593020221
  0
LINE
  5
35A
100
AcDbEntity
  8
0
100
AcDbLine
 62
7
  6
CONTINUOUS
 10
15.8697528998
 20
11.9620034476
 11
16.2175006277
 21
11.2533680838
  0
LINE
  5
35B
100
AcDbEntity
  8
0
100
AcDbLine
 62
7
  6
CONTINUOUS
 10
16.2407631741
 20
11.2690346219
 11
15.8930154461
 21
11.9776699858
  0
LINE
  5
35C
100
AcDbEntity
  8
0
100
AcDbLine
 62
7
  6
CONTINUOUS
 10
15.5090375654
 20
11.7974572826
 11
15.5088172654
 21
11.7967389242
  0
LINE
  5
35D
100
AcDbEntity
  8
0
100
AcDbLine
 62
7
  6
CONTINUOUS
 10
15.9448601924
 20
12.5593020221
 11
16.0700974791
 21
12.6860744721
  0
LINE
  5
35E
100
AcDbEntity
  8
0
100
AcDbLine
 62
7
  6
CONTINUOUS
 10
14.4885035293
 20
13.2325916165
 11
14.5262455299
 21
13.2162020819
  0
LINE
  5
35F
100
AcDbEntity
  8
0
100
AcDbLine
 62
7
  6
CONTINUOUS
 10
14.4799749541
 20
13.2421984824
 11
14.5177169548
 21
13.2258089479
  0
LINE
  5
360
100
AcDbEntity
  8
0
100
AcDbLine
 62
7
  6
CONTINUOUS
 10
16.2813092832
 20
11.4002418793
 11
16.1814080719
 21
11.6038191439
  0
LINE
  5
361
100
AcDbEntity
  8
0
100
AcDbLine
 62
7
  6
CONTINUOUS
 10
15.7626659628
 20
12.5798244733
 11
15.7355710765
 21
12.6350380466
  0
LINE
  5
362
100
AcDbEntity
  8
0
100
AcDbLine
 62
7
  6
CONTINUOUS
 10
16.1814080719
 20
11.6038191439
 11
15.9366805776
 21
12.1043113727
  0
LINE
  5
363
100
AcDbEntity
  8
0
100
AcDbLine
 62
7
  6
CONTINUOUS
 10
15.8454119331
 20
12.4392969723
 11
15.8630304181
 21
12.4963104106
  0
LINE
  5
364
100
AcDbEntity
  8
0
100
AcDbLine
 62
7
  6
CONTINUOUS
 10
15.9844081717
 20
12.8890889655
 11
15.9880980185
 21
12.9010293139
  0
LINE
  5
365
100
AcDbEntity
  8
0
100
AcDbLine
 62
7
  6
CONTINUOUS
 10
16.1094757722
 20
13.2938078688
 11
16.1153158837
 21
13.3127064765
  0
LINE
  5
366
100
AcDbEntity
  8
0
100
AcDbLine
 62
7
  6
CONTINUOUS
 10
14.7919885253
 20
11.3014797118
 11
14.8221734626
 21
11.3319386002
  0
LINE
  5
367
100
AcDbEntity
  8
0
100
AcDbLine
 62
7
  6
CONTINUOUS
 10
14.8165926816
 20
11.3113958809
 11
14.7873586607
 21
11.2818965391
  0
LINE
  5
368
100
AcDbEntity
  8
0
100
AcDbLine
 62
7
  6
CONTINUOUS
 10
14.8455450303
 20
11.2523971973
 11
14.8747790512
 21
11.2818965391
  0
LINE
  5
369
100
AcDbEntity
  8
0
100
AcDbLine
 62
7
  6
CONTINUOUS
 10
16.0699277928
 20
12.9640209254
 11
15.911116433
 21
12.9640209254
  0
LINE
  5
36A
100
AcDbEntity
  8
0
100
AcDbLine
 62
7
  6
CONTINUOUS
 10
14.0679993747
 20
12.9640209254
 11
13.986602957
 21
12.9640209254
  0
LINE
  5
36B
100
AcDbEntity
  8
0
100
AcDbLine
 62
7
  6
CONTINUOUS
 10
17.101358349
 20
12.5202873451
 11
17.0970863734
 21
12.521409626
  0
LINE
  5
36C
100
AcDbEntity
  8
0
100
AcDbLine
 62
7
  6
CONTINUOUS
 10
17.0970819715
 20
12.5214028393
 11
17.1014291389
 21
12.5200795589
  0
LINE
  5
36D
100
AcDbEntity
  8
0
100
AcDbLine
 62
7
  6
CONTINUOUS
 10
14.5869042932
 20
13.3111765638
 11
14.5491622926
 21
13.3275660983
  0
LINE
  5
36E
100
AcDbEntity
  8
0
100
AcDbLine
 62
7
  6
CONTINUOUS
 10
15.9448601924
 20
12.5593020221
 11
15.9076943497
 21
12.6350380466
  0
LINE
  5
36F
100
AcDbEntity
  8
0
100
AcDbLine
 62
7
  6
CONTINUOUS
 10
16.621627771
 20
11.6613101493
 11
16.6501145174
 21
11.6038191439
  0
LINE
  5
370
100
AcDbEntity
  8
0
100
AcDbLine
 62
7
  6
CONTINUOUS
 10
15.8877379552
 20
12.9845344269
 11
15.8606386769
 21
13.0397569499
  0
LINE
  5
371
100
AcDbEntity
  8
0
100
AcDbLine
 62
7
  6
CONTINUOUS
 10
16.0700974791
 20
12.6860744721
 11
16.0329316364
 21
12.7618104966
  0
LINE
  5
372
100
AcDbEntity
  8
0
100
AcDbLine
 62
7
  6
CONTINUOUS
 10
16.0232114925
 20
12.8128469221
 11
15.9860456498
 21
12.8885829465
  0
LINE
  5
373
100
AcDbEntity
  8
0
100
AcDbLine
 62
7
  6
CONTINUOUS
 10
16.0700974791
 20
12.6860744721
 11
16.0232114925
 21
12.8128469221
  0
LINE
  5
374
100
AcDbEntity
  8
0
100
AcDbLine
 62
7
  6
CONTINUOUS
 10
16.1199930621
 20
13.3164903768
 11
16.1198877321
 21
13.3164893011
  0
LINE
  5
375
100
AcDbEntity
  8
0
100
AcDbLine
 62
7
  6
CONTINUOUS
 10
14.0149541072
 20
13.3164903768
 11
14.1758479021
 21
13.3164903768
  0
LINE
  5
376
100
AcDbEntity
  8
0
100
AcDbLine
 62
7
  6
CONTINUOUS
 10
16.1199934769
 20
13.3164903768
 11
16.2830668049
 21
13.3164903768
  0
LINE
  5
377
100
AcDbEntity
  8
0
100
AcDbLine
 62
7
  6
CONTINUOUS
 10
16.0699277928
 20
12.9640209254
 11
16.0327619502
 21
13.0397569499
  0
LINE
  5
378
100
AcDbEntity
  8
0
100
AcDbLine
 62
7
  6
CONTINUOUS
 10
16.1951650795
 20
13.0907933754
 11
16.1579992368
 21
13.1665293999
  0
LINE
  5
379
100
AcDbEntity
  8
0
100
AcDbLine
 62
7
  6
CONTINUOUS
 10
16.1482790929
 20
13.2175658254
 11
16.1111132502
 21
13.2933018498
  0
LINE
  5
37A
100
AcDbEntity
  8
0
100
AcDbLine
 62
7
  6
CONTINUOUS
 10
16.1482790929
 20
13.2175658254
 11
16.1951650795
 21
13.0907933754
  0
LINE
  5
37B
100
AcDbEntity
  8
0
100
AcDbLine
 62
7
  6
CONTINUOUS
 10
16.6593004765
 20
12.6126047005
 11
16.4329684641
 21
11.88019404
  0
LINE
  5
37C
100
AcDbEntity
  8
0
100
AcDbLine
 62
7
  6
CONTINUOUS
 10
16.2421375681
 20
11.2572247271
 11
16.2826836772
 21
11.3884319845
  0
LINE
  5
37D
100
AcDbEntity
  8
0
100
AcDbLine
 62
7
  6
CONTINUOUS
 10
16.1249394166
 20
13.3211776646
 11
16.1242978426
 21
13.3217266
  0
LINE
  5
37E
100
AcDbEntity
  8
0
100
AcDbLine
 62
7
  6
CONTINUOUS
 10
16.1240857468
 20
13.3208545011
 11
16.1234847748
 21
13.3214180368
  0
LINE
  5
37F
100
AcDbEntity
  8
0
100
AcDbLine
 62
7
  6
CONTINUOUS
 10
16.3510540011
 20
13.2800452258
 11
16.6494355728
 21
12.6720075117
  0
LINE
  5
380
100
AcDbEntity
  8
0
100
AcDbLine
 62
7
  6
CONTINUOUS
 10
16.9345424474
 20
12.5242282627
 11
16.9059777234
 21
12.5814669324
  0
LINE
  5
381
100
AcDbEntity
  8
0
100
AcDbLine
 62
7
  6
CONTINUOUS
 10
17.5129061126
 20
12.269643032
 11
17.4008032266
 21
12.4980846953
  0
LINE
  5
382
100
AcDbEntity
  8
0
100
AcDbLine
 62
7
  6
CONTINUOUS
 10
17.5138392862
 20
12.2520213236
 11
17.2487766621
 21
11.3942783576
  0
ARC
  5
383
100
AcDbEntity
  8
0
100
AcDbCircle
 62
7
  6
CONTINUOUS
 10
6.1303672762
 20
5.5132659855
 40
1.1625
100
AcDbArc
 50
24.9340305791
 51
155.0659694209
  0
ARC
  5
384
100
AcDbEntity
  8
0
100
AcDbCircle
 62
7
  6
CONTINUOUS
 10
6.1303031453
 20
5.5130914402
 40
1.1623866592
100
AcDbArc
 50
155.3975652255
 51
179.9913964214
  0
ARC
  5
385
100
AcDbEntity
  8
0
100
AcDbCircle
 62
7
  6
CONTINUOUS
 10
6.1303672762
 20
5.5132659855
 40
0.9925
100
AcDbArc
 50
0.0
 51
180.0
  0
ARC
  5
386
100
AcDbEntity
  8
0
100
AcDbCircle
 62
7
  6
CONTINUOUS
 10
6.1303672762
 20
5.5132659855
 40
0.9725
100
AcDbArc
 50
0.0
 51
180.0
  0
ARC
  5
387
100
AcDbEntity
  8
0
100
AcDbCircle
 62
7
  6
CONTINUOUS
 10
4.0838492774
 20
5.5143145422
 40
0.884346309
100
AcDbArc
 50
335.2284580708
 51
337.2036321993
  0
ARC
  5
388
100
AcDbEntity
  8
0
100
AcDbCircle
 62
7
  6
CONTINUOUS
 10
4.084778073
 20
5.5134036862
 40
0.8831372763
100
AcDbArc
 50
337.2347629458
 51
359.9910663037
  0
ARC
  5
389
100
AcDbEntity
  8
0
100
AcDbCircle
 62
7
  6
CONTINUOUS
 10
4.0850547762
 20
5.5132659855
 40
0.8828125
100
AcDbArc
 50
293.8586443545
 51
335.2574669993
  0
CIRCLE
  5
38A
100
AcDbEntity
  8
0
100
AcDbCircle
 62
7
  6
CONTINUOUS
 10
6.1303672762
 20
5.5132659855
 40
0.55975
  0
CIRCLE
  5
38B
100
AcDbEntity
  8
0
100
AcDbCircle
 62
7
  6
CONTINUOUS
 10
6.1303672762
 20
5.5132659855
 40
0.55375
  0
CIRCLE
  5
38C
100
AcDbEntity
  8
0
100
AcDbCircle
 62
7
  6
CONTINUOUS
 10
6.1303672762
 20
5.5132659855
 40
0.49375
  0
ARC
  5
38D
100
AcDbEntity
  8
03__ASM_ALL_CURVES
100
AcDbCircle
 62
8
  6
HIDDEN
 10
6.1303672762
 20
5.5132659855
 40
0.4921259843
100
AcDbArc
 50
177.0160630645
 51
182.9327326075
  0
ARC
  5
38E
100
AcDbEntity
  8
03__ASM_ALL_CURVES
100
AcDbCircle
 62
8
  6
HIDDEN
 10
6.1303672762
 20
5.5132659855
 40
0.4921259843
100
AcDbArc
 50
357.0160630645
 51
2.9327326075
  0
ARC
  5
38F
100
AcDbEntity
  8
0
100
AcDbCircle
 62
7
  6
CONTINUOUS
 10
4.4178672762
 20
4.7607659855
 40
0.06
100
AcDbArc
 50
270.0
 51
293.8586443545
  0
CIRCLE
  5
390
100
AcDbEntity
  8
0
100
AcDbCircle
 62
7
  6
CONTINUOUS
 10
5.6366172762
 20
4.4632659855
 40
0.049
  0
ARC
  5
391
100
AcDbEntity
  8
0
100
AcDbCircle
 62
7
  6
CONTINUOUS
 10
5.1778672762
 20
4.3732659855
 40
0.04
100
AcDbArc
 50
180.0
 51
270.0
  0
ARC
  5
392
100
AcDbEntity
  8
0
100
AcDbCircle
 62
7
  6
CONTINUOUS
 10
4.1378672762
 20
4.6807659855
 40
0.02
100
AcDbArc
 50
90.0
 51
180.0
  0
ARC
  5
393
100
AcDbEntity
  8
0
100
AcDbCircle
 62
7
  6
CONTINUOUS
 10
5.1778672762
 20
4.3732659855
 40
0.02
100
AcDbArc
 50
180.0
 51
270.0
  0
ARC
  5
394
100
AcDbEntity
  8
0
100
AcDbCircle
 62
7
  6
CONTINUOUS
 10
5.0663835961
 20
5.9162400426
 40
0.2616029961
100
AcDbArc
 50
68.0606844667
 51
68.4250602843
  0
ARC
  5
395
100
AcDbEntity
  8
0
100
AcDbCircle
 62
7
  6
CONTINUOUS
 10
5.75136421
 20
6.6689895164
 40
0.0375
100
AcDbArc
 50
301.6036277714
 51
12.0400545918
  0
ARC
  5
396
100
AcDbEntity
  8
0
100
AcDbCircle
 62
7
  6
CONTINUOUS
 10
5.8807317941
 20
6.7036534561
 40
0.0375
100
AcDbArc
 50
197.9599454082
 51
268.3963722286
  0
ARC
  5
397
100
AcDbEntity
  8
0
100
AcDbCircle
 62
7
  6
CONTINUOUS
 10
5.8221643947
 20
6.7021318314
 40
0.025
100
AcDbArc
 50
336.3178125465
 51
105.0
  0
ARC
  5
398
100
AcDbEntity
  8
0
100
AcDbCircle
 62
7
  6
CONTINUOUS
 10
5.8028458781
 20
6.6969554505
 40
0.025
100
AcDbArc
 50
105.0
 51
233.6821874535
  0
ARC
  5
399
100
AcDbEntity
  8
0
100
AcDbCircle
 62
7
  6
CONTINUOUS
 10
4.8091172762
 20
5.9970159855
 40
0.01
100
AcDbArc
 50
90.0
 51
180.0
  0
ARC
  5
39A
100
AcDbEntity
  8
0
100
AcDbCircle
 62
7
  6
CONTINUOUS
 10
6.1304319639
 20
5.5130916103
 40
1.1623860797
100
AcDbArc
 50
0.0085952235
 51
24.6024385777
  0
ARC
  5
39B
100
AcDbEntity
  8
0
100
AcDbCircle
 62
7
  6
CONTINUOUS
 10
8.1768854586
 20
5.5143146232
 40
0.8843465097
100
AcDbArc
 50
202.7963680248
 51
204.771541705
  0
ARC
  5
39C
100
AcDbEntity
  8
0
100
AcDbCircle
 62
7
  6
CONTINUOUS
 10
8.1759571467
 20
5.5134038774
 40
0.8831379657
100
AcDbArc
 50
180.0089460647
 51
202.7652317422
  0
ARC
  5
39D
100
AcDbEntity
  8
0
100
AcDbCircle
 62
7
  6
CONTINUOUS
 10
8.1756797762
 20
5.5132659855
 40
0.8828125
100
AcDbArc
 50
204.7425330007
 51
246.1413556455
  0
ARC
  5
39E
100
AcDbEntity
  8
0
100
AcDbCircle
 62
7
  6
CONTINUOUS
 10
7.8428672762
 20
4.7607659855
 40
0.06
100
AcDbArc
 50
246.1413556455
 51
270.0
  0
ARC
  5
39F
100
AcDbEntity
  8
0
100
AcDbCircle
 62
7
  6
CONTINUOUS
 10
7.0828672762
 20
4.3732659855
 40
0.04
100
AcDbArc
 50
270.0
 51
360.0
  0
ARC
  5
3A0
100
AcDbEntity
  8
0
100
AcDbCircle
 62
7
  6
CONTINUOUS
 10
8.1228672762
 20
4.6807659855
 40
0.02
100
AcDbArc
 50
0.0
 51
90.0
  0
ARC
  5
3A1
100
AcDbEntity
  8
0
100
AcDbCircle
 62
7
  6
CONTINUOUS
 10
7.0828672762
 20
4.3732659855
 40
0.02
100
AcDbArc
 50
270.0
 51
360.0
  0
ARC
  5
3A2
100
AcDbEntity
  8
0
100
AcDbCircle
 62
7
  6
CONTINUOUS
 10
7.1942569369
 20
5.9165348518
 40
0.2612963779
100
AcDbArc
 50
111.623262207
 51
111.9219599662
  0
ARC
  5
3A3
100
AcDbEntity
  8
0
100
AcDbCircle
 62
7
  6
CONTINUOUS
 10
7.4516172762
 20
5.9970159855
 40
0.01
100
AcDbArc
 50
0.0
 51
90.0
  0
ARC
  5
3A4
100
AcDbEntity
  8
0
100
AcDbCircle
 62
7
  6
CONTINUOUS
 10
4.8396220839
 20
12.1325477814
 40
0.1
100
AcDbArc
 50
180.0
 51
270.0
  0
ARC
  5
3A5
100
AcDbEntity
  8
0
100
AcDbCircle
 62
7
  6
CONTINUOUS
 10
5.8074852271
 20
11.9516605303
 40
0.0456482091
100
AcDbArc
 50
345.5074207506
 51
14.4449235996
  0
ARC
  5
3A6
100
AcDbEntity
  8
0
100
AcDbCircle
 62
7
  6
CONTINUOUS
 10
5.811688384
 20
11.9516206797
 40
0.0450035688
100
AcDbArc
 50
351.7870963477
 51
8.1446951068
  0
ARC
  5
3A7
100
AcDbEntity
  8
0
100
AcDbCircle
 62
7
  6
CONTINUOUS
 10
5.808154262
 20
11.9515493691
 40
0.0449630324
100
AcDbArc
 50
330.8684420083
 51
345.4763357839
  0
ARC
  5
3A8
100
AcDbEntity
  8
0
100
AcDbCircle
 62
7
  6
CONTINUOUS
 10
5.8081922215
 20
11.9518170969
 40
0.0449245157
100
AcDbArc
 50
14.4764789845
 51
29.0925417575
  0
ARC
  5
3A9
100
AcDbEntity
  8
0
100
AcDbCircle
 62
7
  6
CONTINUOUS
 10
5.8089932437
 20
11.9511030912
 40
0.0440129268
100
AcDbArc
 50
316.0325755062
 51
330.8442226462
  0
ARC
  5
3AA
100
AcDbEntity
  8
0
100
AcDbCircle
 62
7
  6
CONTINUOUS
 10
5.8090452844
 20
11.9522698724
 40
0.0439589339
100
AcDbArc
 50
29.1174708812
 51
43.9411881834
  0
ARC
  5
3AB
100
AcDbEntity
  8
0
100
AcDbCircle
 62
7
  6
CONTINUOUS
 10
5.809784943
 20
11.9529181223
 40
0.0429765328
100
AcDbArc
 50
44.0031677185
 51
56.3314145027
  0
ARC
  5
3AC
100
AcDbEntity
  8
0
100
AcDbCircle
 62
7
  6
CONTINUOUS
 10
5.8098067765
 20
11.95036493
 40
0.0429149442
100
AcDbArc
 50
303.6081060158
 51
315.9878305439
  0
ARC
  5
3AD
100
AcDbEntity
  8
0
100
AcDbCircle
 62
7
  6
CONTINUOUS
 10
5.81339842
 20
11.9529699393
 40
0.0427776844
100
AcDbArc
 50
52.3962612502
 51
57.1263912159
  0
ARC
  5
3AE
100
AcDbEntity
  8
0
100
AcDbCircle
 62
7
  6
CONTINUOUS
 10
5.8134105271
 20
11.9503070656
 40
0.042770625
100
AcDbArc
 50
302.4621307185
 51
307.7952862631
  0
ARC
  5
3AF
100
AcDbEntity
  8
0
100
AcDbCircle
 62
7
  6
CONTINUOUS
 10
5.813553765
 20
11.9500691665
 40
0.0424929071
100
AcDbArc
 50
288.702985705
 51
302.4731999883
  0
ARC
  5
3B0
100
AcDbEntity
  8
0
100
AcDbCircle
 62
7
  6
CONTINUOUS
 10
5.8135947597
 20
11.9532912207
 40
0.0424012801
100
AcDbArc
 50
57.1135706748
 51
71.4477462756
  0
ARC
  5
3B1
100
AcDbEntity
  8
0
100
AcDbCircle
 62
7
  6
CONTINUOUS
 10
5.8103081668
 20
11.9496278217
 40
0.0420235256
100
AcDbArc
 50
300.8641963589
 51
303.5950402019
  0
ARC
  5
3B2
100
AcDbEntity
  8
0
100
AcDbCircle
 62
7
  6
CONTINUOUS
 10
5.810356979
 20
11.9537380811
 40
0.0419769908
100
AcDbArc
 50
56.3607689633
 51
59.1225833854
  0
ARC
  5
3B3
100
AcDbEntity
  8
0
100
AcDbCircle
 62
7
  6
CONTINUOUS
 10
4.0983720839
 20
12.0525477814
 40
0.04
100
AcDbArc
 50
180.0
 51
270.0
  0
ARC
  5
3B4
100
AcDbEntity
  8
0
100
AcDbCircle
 62
7
  6
CONTINUOUS
 10
4.9283705452
 20
12.0340087694
 40
0.0200008333
100
AcDbArc
 50
184.182366343
 51
269.993189775
  0
ARC
  5
3B5
100
AcDbEntity
  8
0
100
AcDbCircle
 62
7
  6
CONTINUOUS
 10
4.4708720839
 20
12.2625477814
 40
0.26875
100
AcDbArc
 50
291.6222841234
 51
90.0
  0
ARC
  5
3B6
100
AcDbEntity
  8
0
100
AcDbCircle
 62
7
  6
CONTINUOUS
 10
4.3583720839
 20
12.2625477814
 40
0.1
100
AcDbArc
 50
90.0
 51
270.0
  0
ARC
  5
3B7
100
AcDbEntity
  8
0
100
AcDbCircle
 62
7
  6
CONTINUOUS
 10
4.4708720839
 20
12.2625477814
 40
0.1
100
AcDbArc
 50
270.0
 51
90.0
  0
ARC
  5
3B8
100
AcDbEntity
  8
0
100
AcDbCircle
 62
7
  6
CONTINUOUS
 10
4.4708720839
 20
12.9375477814
 40
0.26875
100
AcDbArc
 50
270.0
 51
68.3777158766
  0
ARC
  5
3B9
100
AcDbEntity
  8
0
100
AcDbCircle
 62
7
  6
CONTINUOUS
 10
4.8396220839
 20
13.0675477814
 40
0.1
100
AcDbArc
 50
90.0
 51
180.0
  0
ARC
  5
3BA
100
AcDbEntity
  8
0
100
AcDbCircle
 62
7
  6
CONTINUOUS
 10
4.3583720839
 20
12.9375477814
 40
0.1
100
AcDbArc
 50
90.0
 51
270.0
  0
ARC
  5
3BB
100
AcDbEntity
  8
0
100
AcDbCircle
 62
7
  6
CONTINUOUS
 10
4.4708720839
 20
12.9375477814
 40
0.1
100
AcDbArc
 50
270.0
 51
90.0
  0
ARC
  5
3BC
100
AcDbEntity
  8
0
100
AcDbCircle
 62
7
  6
CONTINUOUS
 10
4.0983720839
 20
13.1475477814
 40
0.04
100
AcDbArc
 50
90.0
 51
180.0
  0
ARC
  5
3BD
100
AcDbEntity
  8
0
100
AcDbCircle
 62
7
  6
CONTINUOUS
 10
4.9283732422
 20
13.1660863349
 40
0.0200025356
100
AcDbArc
 50
90.0033019886
 51
175.8109356064
  0
ARC
  5
3BE
100
AcDbEntity
  8
0
100
AcDbCircle
 62
7
  6
CONTINUOUS
 10
5.0333720839
 20
12.341714448
 40
0.226875
100
AcDbArc
 50
266.2258047046
 51
93.7741952954
  0
CIRCLE
  5
3BF
100
AcDbEntity
  8
0
100
AcDbCircle
 62
7
  6
CONTINUOUS
 10
5.0333720839
 20
12.341714448
 40
0.186875
  0
CIRCLE
  5
3C0
100
AcDbEntity
  8
0
100
AcDbCircle
 62
7
  6
CONTINUOUS
 10
5.0333720839
 20
12.341714448
 40
0.1618384973
  0
ARC
  5
3C1
100
AcDbEntity
  8
0
100
AcDbCircle
 62
7
  6
CONTINUOUS
 10
5.7624021236
 20
12.6000959374
 40
0.0577850634
100
AcDbArc
 50
331.1304062775
 51
29.0702760225
  0
ARC
  5
3C2
100
AcDbEntity
  8
0
100
AcDbCircle
 62
7
  6
CONTINUOUS
 10
5.0333720839
 20
12.8583811147
 40
0.226875
100
AcDbArc
 50
266.2258047046
 51
93.7741952954
  0
CIRCLE
  5
3C3
100
AcDbEntity
  8
0
100
AcDbCircle
 62
7
  6
CONTINUOUS
 10
5.0333720839
 20
12.8583811147
 40
0.186875
  0
CIRCLE
  5
3C4
100
AcDbEntity
  8
0
100
AcDbCircle
 62
7
  6
CONTINUOUS
 10
5.0333720839
 20
12.8583811147
 40
0.1618384973
  0
ARC
  5
3C5
100
AcDbEntity
  8
0
100
AcDbCircle
 62
7
  6
CONTINUOUS
 10
6.2243464862
 20
11.249066678
 40
0.8590126044
100
AcDbArc
 50
118.7118964388
 51
119.3130252812
  0
ARC
  5
3C6
100
AcDbEntity
  8
0
100
AcDbCircle
 62
7
  6
CONTINUOUS
 10
6.1535250495
 20
11.3804104426
 40
0.6226942651
100
AcDbArc
 50
122.8082208516
 51
123.3026438456
  0
ARC
  5
3C7
100
AcDbEntity
  8
0
100
AcDbCircle
 62
7
  6
CONTINUOUS
 10
6.0980270151
 20
11.4727768606
 40
0.6021034683
100
AcDbArc
 50
119.2539229956
 51
120.8360411148
  0
ARC
  5
3C8
100
AcDbEntity
  8
0
100
AcDbCircle
 62
7
  6
CONTINUOUS
 10
6.1343885752
 20
11.410073805
 40
0.5873938462
100
AcDbArc
 50
122.5455936493
 51
122.8070962539
  0
ARC
  5
3C9
100
AcDbEntity
  8
0
100
AcDbCircle
 62
7
  6
CONTINUOUS
 10
6.080820315
 20
11.5031892507
 40
0.5671709671
100
AcDbArc
 50
120.9183278643
 51
123.3326781638
  0
ARC
  5
3CA
100
AcDbEntity
  8
0
100
AcDbCircle
 62
7
  6
CONTINUOUS
 10
6.1056067865
 20
11.4555556415
 40
0.533570597
100
AcDbArc
 50
120.8661958129
 51
122.5677023874
  0
ARC
  5
3CB
100
AcDbEntity
  8
0
100
AcDbCircle
 62
7
  6
CONTINUOUS
 10
7.3021220839
 20
12.1325477814
 40
0.1
100
AcDbArc
 50
270.0
 51
360.0
  0
ARC
  5
3CC
100
AcDbEntity
  8
0
100
AcDbCircle
 62
7
  6
CONTINUOUS
 10
8.0433720839
 20
12.0525477814
 40
0.04
100
AcDbArc
 50
270.0
 51
360.0
  0
ARC
  5
3CD
100
AcDbEntity
  8
0
100
AcDbCircle
 62
7
  6
CONTINUOUS
 10
7.2133721175
 20
12.034006817
 40
0.0200008326
100
AcDbArc
 50
269.9999073452
 51
355.816628869
  0
ARC
  5
3CE
100
AcDbEntity
  8
0
100
AcDbCircle
 62
7
  6
CONTINUOUS
 10
6.1624263112
 20
12.5371277271
 40
0.6394509316
100
AcDbArc
 50
236.7341754365
 51
237.4547831629
  0
ARC
  5
3CF
100
AcDbEntity
  8
0
100
AcDbCircle
 62
7
  6
CONTINUOUS
 10
6.0765539573
 20
12.3936094165
 40
0.5594004986
100
AcDbArc
 50
236.6641737888
 51
239.1103826884
  0
ARC
  5
3D0
100
AcDbEntity
  8
0
100
AcDbCircle
 62
7
  6
CONTINUOUS
 10
6.1128280756
 20
12.4595140897
 40
0.547343071
100
AcDbArc
 50
237.4606725341
 51
239.1188911793
  0
ARC
  5
3D1
100
AcDbEntity
  8
0
100
AcDbCircle
 62
7
  6
CONTINUOUS
 10
7.6708720839
 20
12.2625477814
 40
0.26875
100
AcDbArc
 50
90.0
 51
248.3777158766
  0
ARC
  5
3D2
100
AcDbEntity
  8
0
100
AcDbCircle
 62
7
  6
CONTINUOUS
 10
7.1083720839
 20
12.341714448
 40
0.226875
100
AcDbArc
 50
86.2258047046
 51
273.7741952954
  0
CIRCLE
  5
3D3
100
AcDbEntity
  8
0
100
AcDbCircle
 62
7
  6
CONTINUOUS
 10
7.1083720839
 20
12.341714448
 40
0.186875
  0
CIRCLE
  5
3D4
100
AcDbEntity
  8
0
100
AcDbCircle
 62
7
  6
CONTINUOUS
 10
7.1083720839
 20
12.341714448
 40
0.1618384973
  0
ARC
  5
3D5
100
AcDbEntity
  8
0
100
AcDbCircle
 62
7
  6
CONTINUOUS
 10
7.6708720839
 20
12.2625477814
 40
0.1
100
AcDbArc
 50
90.0
 51
270.0
  0
ARC
  5
3D6
100
AcDbEntity
  8
0
100
AcDbCircle
 62
7
  6
CONTINUOUS
 10
7.7833720839
 20
12.2625477814
 40
0.1
100
AcDbArc
 50
270.0
 51
90.0
  0
ARC
  5
3D7
100
AcDbEntity
  8
0
100
AcDbCircle
 62
7
  6
CONTINUOUS
 10
7.6708720839
 20
12.9375477814
 40
0.26875
100
AcDbArc
 50
111.6222841234
 51
270.0
  0
ARC
  5
3D8
100
AcDbEntity
  8
0
100
AcDbCircle
 62
7
  6
CONTINUOUS
 10
7.1083720839
 20
12.8583811147
 40
0.226875
100
AcDbArc
 50
86.2258047046
 51
273.7741952954
  0
CIRCLE
  5
3D9
100
AcDbEntity
  8
0
100
AcDbCircle
 62
7
  6
CONTINUOUS
 10
7.1083720839
 20
12.8583811147
 40
0.186875
  0
CIRCLE
  5
3DA
100
AcDbEntity
  8
0
100
AcDbCircle
 62
7
  6
CONTINUOUS
 10
7.1083720839
 20
12.8583811147
 40
0.1618384973
  0
ARC
  5
3DB
100
AcDbEntity
  8
0
100
AcDbCircle
 62
7
  6
CONTINUOUS
 10
7.3021220839
 20
13.0675477814
 40
0.1
100
AcDbArc
 50
0.0
 51
90.0
  0
ARC
  5
3DC
100
AcDbEntity
  8
0
100
AcDbCircle
 62
7
  6
CONTINUOUS
 10
7.6708720839
 20
12.9375477814
 40
0.1
100
AcDbArc
 50
90.0
 51
270.0
  0
ARC
  5
3DD
100
AcDbEntity
  8
0
100
AcDbCircle
 62
7
  6
CONTINUOUS
 10
7.7833720839
 20
12.9375477814
 40
0.1
100
AcDbArc
 50
270.0
 51
90.0
  0
ARC
  5
3DE
100
AcDbEntity
  8
0
100
AcDbCircle
 62
7
  6
CONTINUOUS
 10
8.0433720839
 20
13.1475477814
 40
0.04
100
AcDbArc
 50
0.0
 51
90.0
  0
ARC
  5
3DF
100
AcDbEntity
  8
0
100
AcDbCircle
 62
7
  6
CONTINUOUS
 10
7.2133709255
 20
13.1660863349
 40
0.0200025356
100
AcDbArc
 50
4.1890643315
 51
89.9966979846
  0
ARC
  5
3E0
100
AcDbEntity
  8
0
100
AcDbCircle
 62
7
  6
CONTINUOUS
 10
14.5184741991
 20
5.9790626435
 40
1.0104231142
100
AcDbArc
 50
358.2111369855
 51
359.9496787244
  0
ARC
  5
3E1
100
AcDbEntity
  8
0
100
AcDbCircle
 62
7
  6
CONTINUOUS
 10
16.5906030879
 20
5.9788759152
 40
0.9987897434
100
AcDbArc
 50
180.040195681
 51
181.798988609
  0
ARC
  5
3E2
100
AcDbEntity
  8
0
100
AcDbCircle
 62
7
  6
CONTINUOUS
 10
15.0618167137
 20
5.9786344617
 40
0.9837469838
100
AcDbArc
 50
358.187563205
 51
359.9732525049
  0
ARC
  5
3E3
100
AcDbEntity
  8
0
100
AcDbCircle
 62
7
  6
CONTINUOUS
 10
16.048367444
 20
5.9784655001
 40
0.9732205637
100
AcDbArc
 50
180.0170896318
 51
181.8220946582
  0
ARC
  5
3E4
100
AcDbEntity
  8
0
100
AcDbCircle
 62
7
  6
CONTINUOUS
 10
15.6227774667
 20
6.6268403205
 40
0.0329577863
100
AcDbArc
 50
185.845172277
 51
198.8376429555
  0
ARC
  5
3E5
100
AcDbEntity
  8
0
100
AcDbCircle
 62
7
  6
CONTINUOUS
 10
15.4980830802
 20
6.6268074418
 40
0.0328051875
100
AcDbArc
 50
341.1401094231
 51
354.183952527
  0
ARC
  5
3E6
100
AcDbEntity
  8
0
100
AcDbCircle
 62
7
  6
CONTINUOUS
 10
15.6224515785
 20
6.6268079489
 40
0.0326302957
100
AcDbArc
 50
183.0677218396
 51
185.8469025103
  0
ARC
  5
3E7
100
AcDbEntity
  8
0
100
AcDbCircle
 62
7
  6
CONTINUOUS
 10
15.4982595499
 20
6.6268079342
 40
0.0326296813
100
AcDbArc
 50
354.1516916118
 51
356.9322461119
  0
ARC
  5
3E8
100
AcDbEntity
  8
0
100
AcDbCircle
 62
7
  6
CONTINUOUS
 10
15.5692535331
 20
6.6402321578
 40
0.0261404707
100
AcDbArc
 50
323.7200096947
 51
338.7442176206
  0
ARC
  5
3E9
100
AcDbEntity
  8
0
100
AcDbCircle
 62
7
  6
CONTINUOUS
 10
15.5513312642
 20
6.6401601455
 40
0.0259961712
100
AcDbArc
 50
197.6359598058
 51
216.3061646787
  0
ARC
  5
3EA
100
AcDbEntity
  8
0
100
AcDbCircle
 62
7
  6
CONTINUOUS
 10
16.1647093667
 20
6.4662749708
 40
0.0200032617
100
AcDbArc
 50
180.1
 51
270.0
  0
ARC
  5
3EB
100
AcDbEntity
  8
0
100
AcDbCircle
 62
7
  6
CONTINUOUS
 10
16.1244815258
 20
6.5962654023
 40
0.020002523
100
AcDbArc
 50
0.1
 51
90.0
  0
ARC
  5
3EC
100
AcDbEntity
  8
0
100
AcDbCircle
 62
7
  6
CONTINUOUS
 10
14.9560034505
 20
6.466272885
 40
0.0200010039
100
AcDbArc
 50
270.0
 51
359.9
  0
ARC
  5
3ED
100
AcDbEntity
  8
0
100
AcDbCircle
 62
7
  6
CONTINUOUS
 10
14.9962279918
 20
6.5962661896
 40
0.0200008208
100
AcDbArc
 50
90.0
 51
179.9
  0
ARC
  5
3EE
100
AcDbEntity
  8
0
100
AcDbCircle
 62
7
  6
CONTINUOUS
 10
14.9928552569
 20
4.6212707932
 40
0.02
100
AcDbArc
 50
90.0
 51
180.0
  0
ARC
  5
3EF
100
AcDbEntity
  8
0
100
AcDbCircle
 62
7
  6
CONTINUOUS
 10
16.1278552569
 20
4.6212707932
 40
0.02
100
AcDbArc
 50
0.0
 51
90.0
  0
ARC
  5
3F0
100
AcDbEntity
  8
0
100
AcDbCircle
 62
7
  6
CONTINUOUS
 10
15.0028552569
 20
5.9375207932
 40
0.01
100
AcDbArc
 50
90.0
 51
180.0
  0
ARC
  5
3F1
100
AcDbEntity
  8
0
100
AcDbCircle
 62
7
  6
CONTINUOUS
 10
16.1178552569
 20
5.9375207932
 40
0.01
100
AcDbArc
 50
0.0
 51
90.0
  0
ARC
  5
3F2
100
AcDbEntity
  8
0
100
AcDbCircle
 62
7
  6
CONTINUOUS
 10
13.034920047
 20
12.2765063971
 40
1.0199654188
100
AcDbArc
 50
335.9845483085
 51
336.2489482799
  0
ARC
  5
3F3
100
AcDbEntity
  8
0
100
AcDbCircle
 62
7
  6
CONTINUOUS
 10
13.0510833793
 20
12.2693036746
 40
1.0022698678
100
AcDbArc
 50
335.6830752755
 51
335.9846067758
  0
ARC
  5
3F4
100
AcDbEntity
  8
0
100
AcDbCircle
 62
7
  6
CONTINUOUS
 10
14.5681109665
 20
12.2025103396
 40
0.5456820164
100
AcDbArc
 50
204.0371436639
 51
206.1514565166
  0
ARC
  5
3F5
100
AcDbEntity
  8
0
100
AcDbCircle
 62
7
  6
CONTINUOUS
 10
13.511380579
 20
11.9001668704
 40
0.4930799128
100
AcDbArc
 50
24.7303824921
 51
26.0661299418
  0
ARC
  5
3F6
100
AcDbEntity
  8
0
100
AcDbCircle
 62
7
  6
CONTINUOUS
 10
13.9538744829
 20
12.4898300554
 40
0.4165593865
100
AcDbArc
 50
77.2951968691
 51
77.833533786
  0
ARC
  5
3F7
100
AcDbEntity
  8
0
100
AcDbCircle
 62
7
  6
CONTINUOUS
 10
14.2963370002
 20
12.3517837138
 40
0.3999535222
100
AcDbArc
 50
167.3379761745
 51
169.0916050618
  0
ARC
  5
3F8
100
AcDbEntity
  8
0
100
AcDbCircle
 62
7
  6
CONTINUOUS
 10
14.2934797066
 20
12.3524331688
 40
0.3970233577
100
AcDbArc
 50
162.844297222
 51
167.3390358436
  0
ARC
  5
3F9
100
AcDbEntity
  8
0
100
AcDbCircle
 62
7
  6
CONTINUOUS
 10
15.1869772366
 20
11.8133172756
 40
0.3371641327
100
AcDbArc
 50
26.637270693
 51
28.4107625889
  0
ARC
  5
3FA
100
AcDbEntity
  8
0
100
AcDbCircle
 62
7
  6
CONTINUOUS
 10
15.1977085709
 20
11.8187677861
 40
0.3251281128
100
AcDbArc
 50
26.1390711085
 51
26.6265711359
  0
ARC
  5
3FB
100
AcDbEntity
  8
0
100
AcDbCircle
 62
7
  6
CONTINUOUS
 10
14.7503335951
 20
12.105239109
 40
0.3251281125
100
AcDbArc
 50
206.1390711083
 51
206.6265711361
  0
ARC
  5
3FC
100
AcDbEntity
  8
0
100
AcDbCircle
 62
7
  6
CONTINUOUS
 10
15.1984631604
 20
11.8218520613
 40
0.3181307452
100
AcDbArc
 50
25.7854441609
 51
26.1387551797
  0
ARC
  5
3FD
100
AcDbEntity
  8
0
100
AcDbCircle
 62
7
  6
CONTINUOUS
 10
14.7495790056
 20
12.1021548339
 40
0.3181307451
100
AcDbArc
 50
205.7854441608
 51
206.1387551797
  0
ARC
  5
3FE
100
AcDbEntity
  8
0
100
AcDbCircle
 62
7
  6
CONTINUOUS
 10
14.3584151909
 20
12.423106278
 40
0.3077298271
100
AcDbArc
 50
59.9069198129
 51
60.2463223405
  0
ARC
  5
3FF
100
AcDbEntity
  8
0
100
AcDbCircle
 62
7
  6
CONTINUOUS
 10
14.7387328131
 20
12.0970251
 40
0.3061330852
100
AcDbArc
 50
203.2359845041
 51
205.8040022908
  0
ARC
  5
400
100
AcDbEntity
  8
0
100
AcDbCircle
 62
7
  6
CONTINUOUS
 10
13.7167606264
 20
11.9469127555
 40
0.2796926328
100
AcDbArc
 50
343.9379378319
 51
352.7922001163
  0
ARC
  5
401
100
AcDbEntity
  8
0
100
AcDbCircle
 62
7
  6
CONTINUOUS
 10
13.7191669566
 20
11.9462630709
 40
0.2772004889
100
AcDbArc
 50
342.8063780413
 51
343.9293688894
  0
ARC
  5
402
100
AcDbEntity
  8
0
100
AcDbCircle
 62
7
  6
CONTINUOUS
 10
14.3767568001
 20
12.4552248322
 40
0.2707431287
100
AcDbArc
 50
60.2429432559
 51
60.7631709235
  0
ARC
  5
403
100
AcDbEntity
  8
0
100
AcDbCircle
 62
7
  6
CONTINUOUS
 10
14.6196457148
 20
12.0709324898
 40
0.1890402337
100
AcDbArc
 50
147.6162911899
 51
157.3691087137
  0
ARC
  5
404
100
AcDbEntity
  8
0
100
AcDbCircle
 62
7
  6
CONTINUOUS
 10
14.6152034828
 20
12.0728554343
 40
0.1842001169
100
AcDbArc
 50
157.3894961188
 51
159.9575983813
  0
ARC
  5
405
100
AcDbEntity
  8
0
100
AcDbCircle
 62
7
  6
CONTINUOUS
 10
14.6144503448
 20
12.0731374892
 40
0.1833959249
100
AcDbArc
 50
159.9597420053
 51
162.8330837102
  0
ARC
  5
406
100
AcDbEntity
  8
0
100
AcDbCircle
 62
7
  6
CONTINUOUS
 10
14.5389346047
 20
12.5494996808
 40
0.1625045222
100
AcDbArc
 50
110.0531907537
 51
110.4572526196
  0
ARC
  5
407
100
AcDbEntity
  8
0
100
AcDbCircle
 62
7
  6
CONTINUOUS
 10
14.5314898528
 20
12.5690390459
 40
0.1415955137
100
AcDbArc
 50
110.398149453
 51
113.5773775196
  0
ARC
  5
408
100
AcDbEntity
  8
0
100
AcDbCircle
 62
7
  6
CONTINUOUS
 10
13.8717153396
 20
11.9041216492
 40
0.1190065026
100
AcDbArc
 50
340.4692564081
 51
341.4668628613
  0
ARC
  5
409
100
AcDbEntity
  8
0
100
AcDbCircle
 62
7
  6
CONTINUOUS
 10
14.8650690958
 20
11.2917332933
 40
0.0196017069
100
AcDbArc
 50
7.2557776034
 51
8.6943702717
  0
ARC
  5
40A
100
AcDbEntity
  8
0
100
AcDbCircle
 62
7
  6
CONTINUOUS
 10
14.8083818471
 20
11.3189197926
 40
0.0163930779
100
AcDbArc
 50
149.2193142165
 51
162.7536605829
  0
ARC
  5
40B
100
AcDbEntity
  8
0
100
AcDbCircle
 62
7
  6
CONTINUOUS
 10
14.8683051418
 20
11.2918629532
 40
0.0163659936
100
AcDbArc
 50
329.5342174765
 51
342.7606542686
  0
ARC
  5
40C
100
AcDbEntity
  8
0
100
AcDbCircle
 62
7
  6
CONTINUOUS
 10
14.995970015
 20
12.8427974003
 40
0.931299465
100
AcDbArc
 50
102.2450501496
 51
103.2319871853
  0
ARC
  5
40D
100
AcDbEntity
  8
0
100
AcDbCircle
 62
7
  6
CONTINUOUS
 10
13.4599351486
 20
13.1002986619
 40
0.6741676772
100
AcDbArc
 50
336.7040573952
 51
337.6492095203
  0
ARC
  5
40E
100
AcDbEntity
  8
0
100
AcDbCircle
 62
7
  6
CONTINUOUS
 10
13.5936151041
 20
13.5014062706
 40
0.6648284374
100
AcDbArc
 50
336.6764236325
 51
337.6553339249
  0
ARC
  5
40F
100
AcDbEntity
  8
0
100
AcDbCircle
 62
7
  6
CONTINUOUS
 10
14.6068093824
 20
13.2066848401
 40
0.4469039819
100
AcDbArc
 50
138.051211592
 51
142.1372967685
  0
ARC
  5
410
100
AcDbEntity
  8
0
100
AcDbCircle
 62
7
  6
CONTINUOUS
 10
14.0797564131
 20
12.898172939
 40
0.4128454593
100
AcDbArc
 50
77.300968664
 51
77.9923562396
  0
ARC
  5
411
100
AcDbEntity
  8
0
100
AcDbCircle
 62
7
  6
CONTINUOUS
 10
14.5548137961
 20
13.2413498911
 40
0.384253787
100
AcDbArc
 50
151.2576339165
 51
162.797522267
  0
ARC
  5
412
100
AcDbEntity
  8
0
100
AcDbCircle
 62
7
  6
CONTINUOUS
 10
14.2967725523
 20
13.2812368745
 40
0.1235352895
100
AcDbArc
 50
146.2462999822
 51
147.1016694935
  0
ARC
  5
413
100
AcDbEntity
  8
0
100
AcDbCircle
 62
7
  6
CONTINUOUS
 10
13.923346609
 20
12.6445612353
 40
0.112425394
100
AcDbArc
 50
229.4042098171
 51
234.1381387087
  0
ARC
  5
414
100
AcDbEntity
  8
0
100
AcDbCircle
 62
7
  6
CONTINUOUS
 10
14.0484142094
 20
13.0492801386
 40
0.112425394
100
AcDbArc
 50
229.4042098171
 51
234.1381387087
  0
ARC
  5
415
100
AcDbEntity
  8
0
100
AcDbCircle
 62
7
  6
CONTINUOUS
 10
14.0149632977
 20
13.2083242368
 40
0.1081661404
100
AcDbArc
 50
90.0048682167
 51
91.780266222
  0
ARC
  5
416
100
AcDbEntity
  8
0
100
AcDbCircle
 62
7
  6
CONTINUOUS
 10
13.9782460663
 20
13.2149357486
 40
0.0811597285
100
AcDbArc
 50
158.8800587775
 51
162.7940175599
  0
ARC
  5
417
100
AcDbEntity
  8
0
100
AcDbCircle
 62
7
  6
CONTINUOUS
 10
14.4455146149
 20
12.6928797591
 40
0.0733558232
100
AcDbArc
 50
305.5811776961
 51
316.3809934615
  0
ARC
  5
418
100
AcDbEntity
  8
0
100
AcDbCircle
 62
7
  6
CONTINUOUS
 10
14.4575114721
 20
12.6831094536
 40
0.0578501459
100
AcDbArc
 50
325.6208834424
 51
328.3049554754
  0
ARC
  5
419
100
AcDbEntity
  8
0
100
AcDbCircle
 62
7
  6
CONTINUOUS
 10
14.5139954553
 20
13.2985899978
 40
0.0415174282
100
AcDbArc
 50
127.1854543288
 51
142.1518124518
  0
ARC
  5
41A
100
AcDbEntity
  8
0
100
AcDbCircle
 62
7
  6
CONTINUOUS
 10
14.5134941746
 20
13.2993122871
 40
0.0406390369
100
AcDbArc
 50
117.0354969023
 51
127.2378837511
  0
ARC
  5
41B
100
AcDbEntity
  8
0
100
AcDbCircle
 62
7
  6
CONTINUOUS
 10
14.4762825012
 20
12.6745541699
 40
0.0371474731
100
AcDbArc
 50
342.8102887258
 51
345.9879997451
  0
ARC
  5
41C
100
AcDbEntity
  8
0
100
AcDbCircle
 62
7
  6
CONTINUOUS
 10
14.5025863251
 20
13.3028606649
 40
0.0293313808
100
AcDbArc
 50
247.9380661281
 51
251.8927597202
  0
ARC
  5
41D
100
AcDbEntity
  8
0
100
AcDbCircle
 62
7
  6
CONTINUOUS
 10
14.5536964447
 20
13.2983764184
 40
0.0273148662
100
AcDbArc
 50
8.583963497
 51
9.4713984763
  0
ARC
  5
41E
100
AcDbEntity
  8
0
100
AcDbCircle
 62
7
  6
CONTINUOUS
 10
14.489497229
 20
12.6730297275
 40
0.0237865463
100
AcDbArc
 50
2.0737900656
 51
6.6763152709
  0
ARC
  5
41F
100
AcDbEntity
  8
0
100
AcDbCircle
 62
7
  6
CONTINUOUS
 10
14.5062987443
 20
13.252600917
 40
0.0199623257
100
AcDbArc
 50
222.4351774979
 51
225.9836910991
  0
ARC
  5
420
100
AcDbEntity
  8
0
100
AcDbCircle
 62
7
  6
CONTINUOUS
 10
15.2650746756
 20
12.316841976
 40
1.3221412739
100
AcDbArc
 50
49.1483762683
 51
49.4314246191
  0
ARC
  5
421
100
AcDbEntity
  8
0
100
AcDbCircle
 62
7
  6
CONTINUOUS
 10
15.6219371508
 20
12.4736154194
 40
0.5143857031
100
AcDbArc
 50
56.8435344445
 51
57.8348995328
  0
ARC
  5
422
100
AcDbEntity
  8
0
100
AcDbCircle
 62
7
  6
CONTINUOUS
 10
16.5036489813
 20
12.1801051905
 40
0.3604449077
100
AcDbArc
 50
228.0093134789
 51
232.1587040637
  0
ARC
  5
423
100
AcDbEntity
  8
0
100
AcDbCircle
 62
7
  6
CONTINUOUS
 10
15.321306321
 20
11.8525090168
 40
0.1958163977
100
AcDbArc
 50
357.2217024681
 51
357.9486003991
  0
ARC
  5
424
100
AcDbEntity
  8
0
100
AcDbCircle
 62
7
  6
CONTINUOUS
 10
15.3268489329
 20
11.8521682277
 40
0.1902637958
100
AcDbArc
 50
348.2132036192
 51
357.2433031844
  0
ARC
  5
425
100
AcDbEntity
  8
0
100
AcDbCircle
 62
7
  6
CONTINUOUS
 10
15.3371178064
 20
11.8672227012
 40
0.1848591965
100
AcDbArc
 50
337.3840772762
 51
337.7539275369
  0
ARC
  5
426
100
AcDbEntity
  8
0
100
AcDbCircle
 62
7
  6
CONTINUOUS
 10
15.3313397165
 20
11.8687264039
 40
0.1848199902
100
AcDbArc
 50
342.8843431475
 51
356.5248984464
  0
ARC
  5
427
100
AcDbEntity
  8
0
100
AcDbCircle
 62
7
  6
CONTINUOUS
 10
15.3326865494
 20
11.8511233374
 40
0.1843359061
100
AcDbArc
 50
343.0742691286
 51
348.1604898122
  0
ARC
  5
428
100
AcDbEntity
  8
0
100
AcDbCircle
 62
7
  6
CONTINUOUS
 10
15.3376701699
 20
11.8669985748
 40
0.1842630965
100
AcDbArc
 50
337.7534073997
 51
339.1980965044
  0
ARC
  5
429
100
AcDbEntity
  8
0
100
AcDbCircle
 62
7
  6
CONTINUOUS
 10
15.3335918214
 20
11.8508694059
 40
0.1833959249
100
AcDbArc
 50
339.9597420054
 51
342.8330837102
  0
ARC
  5
42A
100
AcDbEntity
  8
0
100
AcDbCircle
 62
7
  6
CONTINUOUS
 10
17.367794521
 20
13.6121247282
 40
1.5407870091
100
AcDbArc
 50
251.7190810816
 51
255.4039014994
  0
ARC
  5
42B
100
AcDbEntity
  8
0
100
AcDbCircle
 62
7
  6
CONTINUOUS
 10
17.3341422277
 20
13.5031694278
 40
1.539486651
100
AcDbArc
 50
251.7175243157
 51
255.4054582653
  0
ARC
  5
42C
100
AcDbEntity
  8
0
100
AcDbCircle
 62
7
  6
CONTINUOUS
 10
17.4740515726
 20
13.9739755925
 40
1.5003013831
100
AcDbArc
 50
245.3902154235
 51
247.1005806431
  0
ARC
  5
42D
100
AcDbEntity
  8
0
100
AcDbCircle
 62
7
  6
CONTINUOUS
 10
15.4311643279
 20
12.681200105
 40
0.9610633688
100
AcDbArc
 50
43.4370939877
 51
44.1934354874
  0
ARC
  5
42E
100
AcDbEntity
  8
0
100
AcDbCircle
 62
7
  6
CONTINUOUS
 10
15.4488799742
 20
12.6979940764
 40
0.9366526868
100
AcDbArc
 50
42.4245643574
 51
43.4362332439
  0
ARC
  5
42F
100
AcDbEntity
  8
0
100
AcDbCircle
 62
7
  6
CONTINUOUS
 10
15.4705640301
 20
12.7178604757
 40
0.9072440019
100
AcDbArc
 50
41.3015795551
 51
42.4222763293
  0
ARC
  5
430
100
AcDbEntity
  8
0
100
AcDbCircle
 62
7
  6
CONTINUOUS
 10
15.7465777089
 20
12.8776873356
 40
0.5151597607
100
AcDbArc
 50
56.8470938447
 51
57.8329296099
  0
ARC
  5
431
100
AcDbEntity
  8
0
100
AcDbCircle
 62
7
  6
CONTINUOUS
 10
17.1333372807
 20
12.6346603328
 40
0.1187591917
100
AcDbArc
 50
254.3794529763
 51
256.8232680934
  0
ARC
  5
432
100
AcDbEntity
  8
0
100
AcDbCircle
 62
7
  6
CONTINUOUS
 10
23.0698263762
 20
21.7344769671
 40
11.3216904203
100
AcDbArc
 50
231.1302307736
 51
231.2810331122
  0
ARC
  5
433
100
AcDbEntity
  8
0
100
AcDbCircle
 62
7
  6
CONTINUOUS
 10
21.975714033
 20
20.1242668464
 40
9.7749997627
100
AcDbArc
 50
231.1183000962
 51
231.2929637896
  0
LINE
  5
434
100
AcDbEntity
  8
0
100
AcDbLine
 62
7
  6
CONTINUOUS
 10
5.8276271645
 20
6.4728850166
 11
5.8290702014
 21
6.4732915518
  0
LINE
  5
435
100
AcDbEntity
  8
0
100
AcDbLine
 62
7
  6
CONTINUOUS
 10
5.8290702014
 20
6.4732915518
 11
5.848860904
 21
6.4786410946
  0
LINE
  5
436
100
AcDbEntity
  8
0
100
AcDbLine
 62
7
  6
CONTINUOUS
 10
5.848860904
 20
6.4786410946
 11
5.8701065565
 21
6.4843441469
  0
LINE
  5
437
100
AcDbEntity
  8
0
100
AcDbLine
 62
7
  6
CONTINUOUS
 10
5.8701065565
 20
6.4843441469
 11
5.891361636
 21
6.4900291488
  0
LINE
  5
438
100
AcDbEntity
  8
0
100
AcDbLine
 62
7
  6
CONTINUOUS
 10
5.891361636
 20
6.4900291488
 11
5.9126286285
 21
6.495661125
  0
SPLINE
  5
439
100
AcDbEntity
  8
0
100
AcDbSpline
 62
7
  6
CONTINUOUS
 70
0
 71
3
 72
16
 73
12
 74
0
 42
0.0000001
 43
0.0000001
 44
0.0000000001
 40
0.0
 40
0.0
 40
0.0
 40
0.0
 40
0.0649386352
 40
0.0976457048
 40
0.1301547086
 40
0.2579970709
 40
0.3848630319
 40
0.510588885
 40
0.6351944289
 40
0.7585200361
 40
1.0
 40
1.0
 40
1.0
 40
1.0
 10
7.631336625
 20
4.7930502802
 30
0.0
 10
7.6313298745
 20
4.7946183743
 30
0.0
 10
7.6309234875
 20
4.7969767997
 30
0.0
 10
7.6299582427
 20
4.7999660042
 30
0.0
 10
7.6282712885
 20
4.8043155652
 30
0.0
 10
7.6250556624
 20
4.8104868411
 30
0.0
 10
7.6201125625
 20
4.8182342729
 30
0.0
 10
7.614790568
 20
4.8256311844
 30
0.0
 10
7.6091971244
 20
4.8327151848
 30
0.0
 10
7.6014979674
 20
4.8416811468
 30
0.0
 10
7.5953210227
 20
4.847997156
 30
0.0
 10
7.5909549447
 20
4.8518623405
 30
0.0
  0
SPLINE
  5
43A
100
AcDbEntity
  8
0
100
AcDbSpline
 62
7
  6
CONTINUOUS
 70
0
 71
3
 72
16
 73
12
 74
0
 42
0.0000001
 43
0.0000001
 44
0.0000000001
 40
0.0
 40
0.0
 40
0.0
 40
0.0
 40
0.2414782489
 40
0.3648030323
 40
0.4894076075
 40
0.6151326682
 40
0.741997232
 40
0.8698400843
 40
0.9023555759
 40
0.9350642337
 40
1.0
 40
1.0
 40
1.0
 40
1.0
 10
4.6697796076
 20
4.8518623405
 30
0.0
 10
4.6654135596
 20
4.8479971826
 30
0.0
 10
4.6592366622
 20
4.8416812069
 30
0.0
 10
4.651537557
 20
4.8327153167
 30
0.0
 10
4.6459440595
 20
4.8256314166
 30
0.0
 10
4.6406224358
 20
4.8182343773
 30
0.0
 10
4.6356783493
 20
4.8104875235
 30
0.0
 10
4.632464224
 20
4.8043153987
 30
0.0
 10
4.6307762225
 20
4.7999660371
 30
0.0
 10
4.6298107523
 20
4.7969767477
 30
0.0
 10
4.6294046775
 20
4.7946183054
 30
0.0
 10
4.6293979274
 20
4.7930502802
 30
0.0
  0
SPLINE
  5
43B
100
AcDbEntity
  8
0
100
AcDbSpline
 62
7
  6
CONTINUOUS
 70
0
 71
3
 72
11
 73
7
 74
0
 42
0.0000001
 43
0.0000001
 44
0.0000000001
 40
0.0
 40
0.0
 40
0.0
 40
0.0
 40
0.2264875614
 40
0.4659161968
 40
0.7239626899
 40
1.0
 40
1.0
 40
1.0
 40
1.0
 10
7.3080235262
 20
6.1738909855
 30
0.0
 10
7.3121227292
 20
6.1738909855
 30
0.0
 10
7.3205939502
 20
6.1725469074
 30
0.0
 10
7.3326186829
 20
6.167076518
 30
0.0
 10
7.3440848915
 20
6.1589481916
 30
0.0
 10
7.3512095672
 20
6.1523871918
 30
0.0
 10
7.3547422762
 20
6.1488544829
 30
0.0
  0
SPLINE
  5
43C
100
AcDbEntity
  8
0
100
AcDbSpline
 62
7
  6
CONTINUOUS
 70
0
 71
3
 72
11
 73
7
 74
0
 42
0.0000001
 43
0.0000001
 44
0.0000000001
 40
0.0
 40
0.0
 40
0.0
 40
0.0
 40
0.2499950596
 40
0.5000223975
 40
0.7500414307
 40
1.0
 40
1.0
 40
1.0
 40
1.0
 10
7.1678672762
 20
6.1738909855
 30
0.0
 10
7.1759981047
 20
6.1738909855
 30
0.0
 10
7.192284714
 20
6.1726417524
 30
0.0
 10
7.2161630905
 20
6.1673375941
 30
0.0
 10
7.2392270979
 20
6.1592602317
 30
0.0
 10
7.2540334036
 20
6.1524901692
 30
0.0
 10
7.2613047762
 20
6.1488544829
 30
0.0
  0
SPLINE
  5
43D
100
AcDbEntity
  8
0
100
AcDbSpline
 62
7
  6
CONTINUOUS
 70
0
 71
3
 72
11
 73
7
 74
0
 42
0.0000001
 43
0.0000001
 44
0.0000000001
 40
0.0
 40
0.0
 40
0.0
 40
0.0
 40
0.2760556206
 40
0.5340683666
 40
0.7734945523
 40
1.0
 40
1.0
 40
1.0
 40
1.0
 10
7.2613047762
 20
6.1488544829
 30
0.0
 10
7.2648376042
 20
6.1523873109
 30
0.0
 10
7.2719595613
 20
6.1589503226
 30
0.0
 10
7.2834286869
 20
6.1670747039
 30
0.0
 10
7.2954544652
 20
6.1725373487
 30
0.0
 10
7.3039241332
 20
6.1738909855
 30
0.0
 10
7.3080235262
 20
6.1738909855
 30
0.0
  0
SPLINE
  5
43E
100
AcDbEntity
  8
0
100
AcDbSpline
 62
7
  6
CONTINUOUS
 70
0
 71
3
 72
9
 73
5
 74
0
 42
0.0000001
 43
0.0000001
 44
0.0000000001
 40
0.0
 40
0.0
 40
0.0
 40
0.0
 40
0.2582843009
 40
1.0
 40
1.0
 40
1.0
 40
1.0
 10
4.9059922762
 20
6.1488544829
 30
0.0
 10
4.9072674803
 20
6.150129687
 30
0.0
 10
4.9122778478
 20
6.1549906559
 30
0.0
 10
4.9176303756
 20
6.1595187268
 30
0.0
 10
4.9218490989
 20
6.1625225516
 30
0.0
  0
SPLINE
  5
43F
100
AcDbEntity
  8
0
100
AcDbSpline
 62
7
  6
CONTINUOUS
 70
0
 71
3
 72
11
 73
7
 74
0
 42
0.0000001
 43
0.0000001
 44
0.0000000001
 40
0.0
 40
0.0
 40
0.0
 40
0.0
 40
0.2663449764
 40
0.5200253747
 40
0.7632251201
 40
1.0
 40
1.0
 40
1.0
 40
1.0
 10
4.9218490989
 20
6.1625225516
 30
0.0
 10
4.9242643882
 20
6.1642422912
 30
0.0
 10
4.9291480295
 20
6.1673758358
 30
0.0
 10
4.9368460105
 20
6.1710390918
 30
0.0
 10
4.9447202061
 20
6.1733460341
 30
0.0
 10
4.9500752206
 20
6.1738909855
 30
0.0
 10
4.9527110262
 20
6.1738909855
 30
0.0
  0
SPLINE
  5
440
100
AcDbEntity
  8
0
100
AcDbSpline
 62
7
  6
CONTINUOUS
 70
0
 71
3
 72
9
 73
5
 74
0
 42
0.0000001
 43
0.0000001
 44
0.0000000001
 40
0.0
 40
0.0
 40
0.0
 40
0.0
 40
0.5000981731
 40
1.0
 40
1.0
 40
1.0
 40
1.0
 10
7.0979686955
 20
6.1594430066
 30
0.0
 10
7.1090803528
 20
6.1638475623
 30
0.0
 10
7.1319574116
 20
6.1711586427
 30
0.0
 10
7.1559191852
 20
6.1738909855
 30
0.0
 10
7.1678672762
 20
6.1738909855
 30
0.0
  0
SPLINE
  5
441
100
AcDbEntity
  8
0
100
AcDbSpline
 62
7
  6
CONTINUOUS
 70
0
 71
3
 72
9
 73
5
 74
0
 42
0.0000001
 43
0.0000001
 44
0.0000000001
 40
0.0
 40
0.0
 40
0.0
 40
0.0
 40
0.4999174425
 40
1.0
 40
1.0
 40
1.0
 40
1.0
 10
5.0928672762
 20
6.1738909855
 30
0.0
 10
5.104782599
 20
6.1738909855
 30
0.0
 10
5.1286780581
 20
6.1711748262
 30
0.0
 10
5.1514954827
 20
6.163897278
 30
0.0
 10
5.1625796868
 20
6.1595144549
 30
0.0
  0
SPLINE
  5
442
100
AcDbEntity
  8
0
100
AcDbSpline
 62
7
  6
CONTINUOUS
 70
0
 71
3
 72
9
 73
5
 74
0
 42
0.0000001
 43
0.0000001
 44
0.0000000001
 40
0.0
 40
0.0
 40
0.0
 40
0.0
 40
0.5018896765
 40
1.0
 40
1.0
 40
1.0
 40
1.0
 10
5.9136346827
 20
6.4919064853
 30
0.0
 10
5.9098897704
 20
6.4921345551
 30
0.0
 10
5.9023902558
 20
6.4921886917
 30
0.0
 10
5.8949592918
 20
6.490989387
 30
0.0
 10
5.891361636
 20
6.4900291488
 30
0.0
  0
SPLINE
  5
443
100
AcDbEntity
  8
0
100
AcDbSpline
 62
7
  6
CONTINUOUS
 70
0
 71
3
 72
9
 73
5
 74
0
 42
0.0000001
 43
0.0000001
 44
0.0000000001
 40
0.0
 40
0.0
 40
0.0
 40
0.0
 40
0.498202024
 40
1.0
 40
1.0
 40
1.0
 40
1.0
 10
5.891361636
 20
6.4900291488
 30
0.0
 10
5.8877646943
 20
6.4890691011
 30
0.0
 10
5.8807323813
 20
6.4863943258
 30
0.0
 10
5.8742538704
 20
6.482623119
 30
0.0
 10
5.8711228664
 20
6.4805597984
 30
0.0
  0
LINE
  5
444
100
AcDbEntity
  8
0
100
AcDbLine
 62
7
  6
CONTINUOUS
 10
7.1845150477
 20
6.0033463115
 11
7.187295628
 21
5.9970159855
  0
SPLINE
  5
445
100
AcDbEntity
  8
0
100
AcDbSpline
 62
7
  6
CONTINUOUS
 70
0
 71
3
 72
13
 73
9
 74
0
 42
0.0000001
 43
0.0000001
 44
0.0000000001
 40
0.0
 40
0.0
 40
0.0
 40
0.0
 40
0.2499902007
 40
0.4999786676
 40
0.6249847111
 40
0.7499793335
 40
0.8750533187
 40
1.0
 40
1.0
 40
1.0
 40
1.0
 10
7.8002751726
 20
4.6930466182
 30
0.0
 10
7.7987795301
 20
4.6936971291
 30
0.0
 10
7.7957939111
 20
4.6950109309
 30
0.0
 10
7.7920485636
 20
4.6966237565
 30
0.0
 10
7.7890759663
 20
4.69796636
 30
0.0
 10
7.786837013
 20
4.6989565133
 30
0.0
 10
7.7845446214
 20
4.6998110856
 30
0.0
 10
7.783026554
 20
4.7004137218
 30
0.0
 10
7.7822914194
 20
4.7007659855
 30
0.0
  0
SPLINE
  5
446
100
AcDbEntity
  8
0
100
AcDbSpline
 62
7
  6
CONTINUOUS
 70
0
 71
3
 72
9
 73
5
 74
0
 42
0.0000001
 43
0.0000001
 44
0.0000000001
 40
0.0
 40
0.0
 40
0.0
 40
0.0
 40
0.5018156032
 40
1.0
 40
1.0
 40
1.0
 40
1.0
 10
5.8711228664
 20
6.4805597984
 30
0.0
 10
5.867379358
 20
6.4807812004
 30
0.0
 10
5.8598821899
 20
6.4808216232
 30
0.0
 10
5.8524560228
 20
6.4796081567
 30
0.0
 10
5.848860904
 20
6.4786410946
 30
0.0
  0
SPLINE
  5
447
100
AcDbEntity
  8
0
100
AcDbSpline
 62
7
  6
CONTINUOUS
 70
0
 71
3
 72
9
 73
5
 74
0
 42
0.0000001
 43
0.0000001
 44
0.0000000001
 40
0.0
 40
0.0
 40
0.0
 40
0.0
 40
0.4981285081
 40
1.0
 40
1.0
 40
1.0
 40
1.0
 10
5.848860904
 20
6.4786410946
 30
0.0
 10
5.8452651728
 20
6.4776738678
 30
0.0
 10
5.83823581
 20
6.4749844401
 30
0.0
 10
5.8317621016
 20
6.4712001712
 30
0.0
 10
5.8286332187
 20
6.469130377
 30
0.0
  0
LINE
  5
448
100
AcDbEntity
  8
0
100
AcDbLine
 62
7
  6
CONTINUOUS
 10
5.0734389244
 20
5.9970159855
 11
5.0762195047
 21
6.0033463115
  0
SPLINE
  5
449
100
AcDbEntity
  8
0
100
AcDbSpline
 62
7
  6
CONTINUOUS
 70
0
 71
3
 72
13
 73
9
 74
0
 42
0.0000001
 43
0.0000001
 44
0.0000000001
 40
0.0
 40
0.0
 40
0.0
 40
0.0
 40
0.124946705
 40
0.2500206674
 40
0.3750152934
 40
0.5000213204
 40
0.7500097963
 40
1.0
 40
1.0
 40
1.0
 40
1.0
 10
4.4784429362
 20
4.7007659855
 30
0.0
 10
4.4777078084
 20
4.700413725
 30
0.0
 10
4.4761897733
 20
4.6998110524
 30
0.0
 10
4.473897421
 20
4.69895644
 30
0.0
 10
4.471658482
 20
4.6979663135
 30
0.0
 10
4.4686859093
 20
4.696623729
 30
0.0
 10
4.4649405993
 20
4.6950109132
 30
0.0
 10
4.4619550083
 20
4.6936971231
 30
0.0
 10
4.4604593797
 20
4.6930466182
 30
0.0
  0
SPLINE
  5
44A
100
AcDbEntity
  8
0
100
AcDbSpline
 62
7
  6
CONTINUOUS
 70
0
 71
3
 72
11
 73
7
 74
0
 42
0.0000001
 43
0.0000001
 44
0.0000000001
 40
0.0
 40
0.0
 40
0.0
 40
0.0
 40
0.2499703778
 40
0.4999932566
 40
0.7500128525
 40
1.0
 40
1.0
 40
1.0
 40
1.0
 10
4.9994297762
 20
6.1488544829
 30
0.0
 10
5.0067015229
 20
6.1524903562
 30
0.0
 10
5.0215071222
 20
6.1592634013
 30
0.0
 10
5.044572247
 20
6.1673390769
 30
0.0
 10
5.0684504826
 20
6.1726422504
 30
0.0
 10
5.0847366708
 20
6.1738909855
 30
0.0
 10
5.0928672762
 20
6.1738909855
 30
0.0
  0
SPLINE
  5
44B
100
AcDbEntity
  8
0
100
AcDbSpline
 62
7
  6
CONTINUOUS
 70
0
 71
3
 72
11
 73
7
 74
0
 42
0.0000001
 43
0.0000001
 44
0.0000000001
 40
0.0
 40
0.0
 40
0.0
 40
0.0
 40
0.2264875614
 40
0.4659161968
 40
0.7239626899
 40
1.0
 40
1.0
 40
1.0
 40
1.0
 10
4.9527110262
 20
6.1738909855
 30
0.0
 10
4.9568102292
 20
6.1738909855
 30
0.0
 10
4.9652814502
 20
6.1725469074
 30
0.0
 10
4.9773061829
 20
6.167076518
 30
0.0
 10
4.9887723915
 20
6.1589481916
 30
0.0
 10
4.9958970672
 20
6.1523871918
 30
0.0
 10
4.9994297762
 20
6.1488544829
 30
0.0
  0
SPLINE
  5
44C
100
AcDbEntity
  8
0
100
AcDbSpline
 62
7
  6
CONTINUOUS
 70
0
 71
3
 72
15
 73
11
 74
0
 42
0.0000001
 43
0.0000001
 44
0.0000000001
 40
0.0
 40
0.0
 40
0.0
 40
0.0
 40
0.1251819671
 40
0.2502216954
 40
0.375144352
 40
0.4999765898
 40
0.6248156468
 40
0.7497547646
 40
0.8748115652
 40
1.0
 40
1.0
 40
1.0
 40
1.0
 10
5.7183506858
 20
12.6000477814
 30
0.0
 10
5.7183506858
 20
12.6045843297
 30
0.0
 10
5.7201377687
 20
12.6137500202
 30
0.0
 10
5.7278081708
 20
12.6253793335
 30
0.0
 10
5.7393447948
 20
12.6332085803
 30
0.0
 10
5.7530075407
 20
12.6359642214
 30
0.0
 10
5.7666713234
 20
12.6332104119
 30
0.0
 10
5.7782100915
 20
12.6253814416
 30
0.0
 10
5.7858818164
 20
12.6137511061
 30
0.0
 10
5.7876692024
 20
12.6045845641
 30
0.0
 10
5.7876692024
 20
12.6000477814
 30
0.0
  0
SPLINE
  5
44D
100
AcDbEntity
  8
0
100
AcDbSpline
 62
7
  6
CONTINUOUS
 70
0
 71
3
 72
15
 73
11
 74
0
 42
0.0000001
 43
0.0000001
 44
0.0000000001
 40
0.0
 40
0.0
 40
0.0
 40
0.0
 40
0.1251819671
 40
0.2502216954
 40
0.375144352
 40
0.4999765898
 40
0.6248156468
 40
0.7497547646
 40
0.8748115652
 40
1.0
 40
1.0
 40
1.0
 40
1.0
 10
5.7876692024
 20
12.6000477814
 30
0.0
 10
5.7876692024
 20
12.595511233
 30
0.0
 10
5.7858821194
 20
12.5863455426
 30
0.0
 10
5.7782117174
 20
12.5747162293
 30
0.0
 10
5.7666750933
 20
12.5668869824
 30
0.0
 10
5.7530123474
 20
12.5641313413
 30
0.0
 10
5.7393485648
 20
12.5668851509
 30
0.0
 10
5.7278097967
 20
12.5747141212
 30
0.0
 10
5.7201380718
 20
12.5863444567
 30
0.0
 10
5.7183506858
 20
12.5955109987
 30
0.0
 10
5.7183506858
 20
12.6000477814
 30
0.0
  0
SPLINE
  5
44E
100
AcDbEntity
  8
0
100
AcDbSpline
 62
7
  6
CONTINUOUS
 70
0
 71
3
 72
11
 73
7
 74
0
 42
0.0000001
 43
0.0000001
 44
0.0000000001
 40
0.0
 40
0.0
 40
0.0
 40
0.0
 40
0.2500108062
 40
0.5000090738
 40
0.7500017647
 40
1.0
 40
1.0
 40
1.0
 40
1.0
 10
5.0583750558
 20
12.0139838639
 30
0.0
 10
5.0609436121
 20
12.013984246
 30
0.0
 10
5.0661383421
 20
12.0129942233
 30
0.0
 10
5.0727374271
 20
12.0086408161
 30
0.0
 10
5.0771777837
 20
12.0021382102
 30
0.0
 10
5.078376579
 20
11.9969680151
 30
0.0
 10
5.0783720839
 20
11.9943995918
 30
0.0
  0
SPLINE
  5
44F
100
AcDbEntity
  8
0
100
AcDbSpline
 62
7
  6
CONTINUOUS
 70
0
 71
3
 72
11
 73
7
 74
0
 42
0.0000001
 43
0.0000001
 44
0.0000000001
 40
0.0
 40
0.0
 40
0.0
 40
0.0
 40
0.2499982311
 40
0.4999909165
 40
0.7499892023
 40
1.0
 40
1.0
 40
1.0
 40
1.0
 10
7.0633720839
 20
11.9943995918
 30
0.0
 10
7.0633675839
 20
11.996968015
 30
0.0
 10
7.0645663862
 20
12.0021382007
 30
0.0
 10
7.0690067403
 20
12.0086408491
 30
0.0
 10
7.0756058253
 20
12.0129941007
 30
0.0
 10
7.0808005558
 20
12.0139845132
 30
0.0
 10
7.0833691119
 20
12.0139838639
 30
0.0
  0
SPLINE
  5
450
100
AcDbEntity
  8
0
100
AcDbSpline
 62
7
  6
CONTINUOUS
 70
0
 71
3
 72
11
 73
7
 74
0
 42
0.0000001
 43
0.0000001
 44
0.0000000001
 40
0.0
 40
0.0
 40
0.0
 40
0.0
 40
0.2500110096
 40
0.5000095191
 40
0.7500020678
 40
1.0
 40
1.0
 40
1.0
 40
1.0
 10
7.0833708513
 20
13.1861115612
 30
0.0
 10
7.0808040649
 20
13.1861114031
 30
0.0
 10
7.0756130743
 20
13.1870993621
 30
0.0
 10
7.0690162737
 20
13.1914466752
 30
0.0
 10
7.0645758328
 20
13.1979410231
 30
0.0
 10
7.0633678468
 20
13.2031060768
 30
0.0
 10
7.0633720839
 20
13.2056727255
 30
0.0
  0
SPLINE
  5
451
100
AcDbEntity
  8
0
100
AcDbSpline
 62
7
  6
CONTINUOUS
 70
0
 71
3
 72
11
 73
7
 74
0
 42
0.0000001
 43
0.0000001
 44
0.0000000001
 40
0.0
 40
0.0
 40
0.0
 40
0.0
 40
0.2499979242
 40
0.499990475
 40
0.7499889935
 40
1.0
 40
1.0
 40
1.0
 40
1.0
 10
5.0783720839
 20
13.2056727255
 30
0.0
 10
5.0783763213
 20
13.2031060769
 30
0.0
 10
5.0771683346
 20
13.1979410233
 30
0.0
 10
5.0727278942
 20
13.1914466753
 30
0.0
 10
5.0661310934
 20
13.1870993621
 30
0.0
 10
5.0609401027
 20
13.1861114032
 30
0.0
 10
5.0583733164
 20
13.1861115612
 30
0.0
  0
SPLINE
  5
452
100
AcDbEntity
  8
0
100
AcDbSpline
 62
7
  6
CONTINUOUS
 70
0
 71
3
 72
9
 73
5
 74
0
 42
0.0000001
 43
0.0000001
 44
0.0000000001
 40
0.0
 40
0.0
 40
0.0
 40
0.0
 40
0.245944108
 40
1.0
 40
1.0
 40
1.0
 40
1.0
 10
5.7691383526
 20
11.9262453764
 30
0.0
 10
5.7689839489
 20
11.9283251045
 30
0.0
 10
5.7684129768
 20
11.9367850579
 30
0.0
 10
5.7681291823
 20
11.9452665736
 30
0.0
 10
5.7681319722
 20
11.9516604941
 30
0.0
  0
SPLINE
  5
453
100
AcDbEntity
  8
0
100
AcDbSpline
 62
7
  6
CONTINUOUS
 70
0
 71
3
 72
9
 73
5
 74
0
 42
0.0000001
 43
0.0000001
 44
0.0000000001
 40
0.0
 40
0.0
 40
0.0
 40
0.0
 40
0.2533478283
 40
1.0
 40
1.0
 40
1.0
 40
1.0
 10
5.7681319722
 20
11.9516604941
 30
0.0
 10
5.7681329087
 20
11.9538068604
 30
0.0
 10
5.7682325631
 20
11.9622788689
 30
0.0
 10
5.7686855929
 20
11.9707442844
 30
0.0
 10
5.7691598648
 20
11.9770521279
 30
0.0
  0
LINE
  5
454
100
AcDbEntity
  8
0
100
AcDbLine
 62
7
  6
CONTINUOUS
 10
5.811627674
 20
11.9008471174
 11
5.8103042474
 21
11.9015754575
  0
LINE
  5
455
100
AcDbEntity
  8
0
100
AcDbLine
 62
7
  6
CONTINUOUS
 10
5.8103042474
 20
11.9015754575
 11
5.8097379147
 21
11.9018879414
  0
SPLINE
  5
456
100
AcDbEntity
  8
0
100
AcDbSpline
 62
7
  6
CONTINUOUS
 70
0
 71
3
 72
9
 73
5
 74
0
 42
0.0000001
 43
0.0000001
 44
0.0000000001
 40
0.0
 40
0.0
 40
0.0
 40
0.0
 40
0.2515950933
 40
1.0
 40
1.0
 40
1.0
 40
1.0
 10
5.8097379147
 20
11.9018879414
 30
0.0
 10
5.8080143171
 20
11.9028397208
 30
0.0
 10
5.8011752794
 20
11.9066436097
 30
0.0
 10
5.7943926314
 20
11.9105499753
 30
0.0
 10
5.7893657117
 20
11.9135554305
 30
0.0
  0
SPLINE
  5
457
100
AcDbEntity
  8
0
100
AcDbSpline
 62
7
  6
CONTINUOUS
 70
0
 71
3
 72
9
 73
5
 74
0
 42
0.0000001
 43
0.0000001
 44
0.0000000001
 40
0.0
 40
0.0
 40
0.0
 40
0.0
 40
0.4999331052
 40
1.0
 40
1.0
 40
1.0
 40
1.0
 10
7.7548302908
 20
13.1822515202
 30
0.0
 10
7.7598079601
 20
13.180279983
 30
0.0
 10
7.7694624308
 20
13.1755807578
 30
0.0
 10
7.7787342373
 20
13.1702254433
 30
0.0
 10
7.7833720839
 20
13.1675477814
 30
0.0
  0
SPLINE
  5
458
100
AcDbEntity
  8
0
100
AcDbSpline
 62
7
  6
CONTINUOUS
 70
0
 71
3
 72
9
 73
5
 74
0
 42
0.0000001
 43
0.0000001
 44
0.0000000001
 40
0.0
 40
0.0
 40
0.0
 40
0.0
 40
0.5000145123
 40
1.0
 40
1.0
 40
1.0
 40
1.0
 10
7.7226652886
 20
13.1875477814
 30
0.0
 10
7.7264127774
 20
13.1875477814
 30
0.0
 10
7.7339118347
 20
13.1871517589
 30
0.0
 10
7.741330938
 20
13.1859647251
 30
0.0
 10
7.7449871717
 20
13.1851437518
 30
0.0
  0
SPLINE
  5
459
100
AcDbEntity
  8
0
100
AcDbSpline
 62
7
  6
CONTINUOUS
 70
0
 71
3
 72
8
 73
4
 74
0
 42
0.0000001
 43
0.0000001
 44
0.0000000001
 40
0.0
 40
0.0
 40
0.0
 40
0.0
 40
1.0
 40
1.0
 40
1.0
 40
1.0
 10
7.7449871717
 20
13.1851437518
 30
0.0
 10
7.7483238376
 20
13.1843945344
 30
0.0
 10
7.7516285191
 20
13.1834529046
 30
0.0
 10
7.7548302908
 20
13.1822515202
 30
0.0
  0
SPLINE
  5
45A
100
AcDbEntity
  8
0
100
AcDbSpline
 62
7
  6
CONTINUOUS
 70
0
 71
3
 72
11
 73
7
 74
0
 42
0.0000001
 43
0.0000001
 44
0.0000000001
 40
0.0
 40
0.0
 40
0.0
 40
0.0
 40
0.3115071852
 40
0.5728303769
 40
0.7952663779
 40
1.0
 40
1.0
 40
1.0
 40
1.0
 10
7.1250198553
 20
12.0348065299
 30
0.0
 10
7.1252120473
 20
12.0344682597
 30
0.0
 10
7.1255954594
 20
12.0338615789
 30
0.0
 10
7.1262665594
 20
12.0331190088
 30
0.0
 10
7.127005943
 20
12.0326517468
 30
0.0
 10
7.1275447342
 20
12.0325477814
 30
0.0
 10
7.1278004357
 20
12.0325477814
 30
0.0
  0
SPLINE
  5
45B
100
AcDbEntity
  8
0
100
AcDbSpline
 62
7
  6
CONTINUOUS
 70
0
 71
3
 72
9
 73
5
 74
0
 42
0.0000001
 43
0.0000001
 44
0.0000000001
 40
0.0
 40
0.0
 40
0.0
 40
0.0
 40
0.5477243202
 40
1.0
 40
1.0
 40
1.0
 40
1.0
 10
7.1233060188
 20
12.0425477814
 30
0.0
 10
7.1233060188
 20
12.0410893288
 30
0.0
 10
7.1235709593
 20
12.0384227233
 30
0.0
 10
7.1244246485
 20
12.0358534585
 30
0.0
 10
7.1250198553
 20
12.0348065299
 30
0.0
  0
LINE
  5
45C
100
AcDbEntity
  8
0
100
AcDbLine
 62
7
  6
CONTINUOUS
 10
7.1250198553
 20
13.1652890328
 11
7.1240841002
 21
13.1630687559
  0
SPLINE
  5
45D
100
AcDbEntity
  8
0
100
AcDbSpline
 62
7
  6
CONTINUOUS
 70
0
 71
3
 72
9
 73
5
 74
0
 42
0.0000001
 43
0.0000001
 44
0.0000000001
 40
0.0
 40
0.0
 40
0.0
 40
0.0
 40
0.2322775951
 40
1.0
 40
1.0
 40
1.0
 40
1.0
 10
7.1240841002
 20
13.1630687559
 30
0.0
 10
7.1239562087
 20
13.1626555033
 30
0.0
 10
7.12348704
 20
13.1608516444
 30
0.0
 10
7.1233060188
 20
13.1589775742
 30
0.0
 10
7.1233060188
 20
13.1575477814
 30
0.0
  0
SPLINE
  5
45E
100
AcDbEntity
  8
0
100
AcDbSpline
 62
7
  6
CONTINUOUS
 70
0
 71
3
 72
11
 73
7
 74
0
 42
0.0000001
 43
0.0000001
 44
0.0000000001
 40
0.0
 40
0.0
 40
0.0
 40
0.0
 40
0.2047110136
 40
0.4271684978
 40
0.6885080244
 40
1.0
 40
1.0
 40
1.0
 40
1.0
 10
7.1278004357
 20
13.1675477814
 30
0.0
 10
7.1275447619
 20
13.1675477814
 30
0.0
 10
7.1270059859
 20
13.1674437564
 30
0.0
 10
7.1262665586
 20
13.1669765627
 30
0.0
 10
7.1255953005
 20
13.1662340738
 30
0.0
 10
7.1252120081
 20
13.1656273045
 30
0.0
 10
7.1250198553
 20
13.1652890328
 30
0.0
  0
SPLINE
  5
45F
100
AcDbEntity
  8
0
100
AcDbSpline
 62
7
  6
CONTINUOUS
 70
0
 71
3
 72
9
 73
5
 74
0
 42
0.0000001
 43
0.0000001
 44
0.0000000001
 40
0.0
 40
0.0
 40
0.0
 40
0.0
 40
0.2472012973
 40
1.0
 40
1.0
 40
1.0
 40
1.0
 10
5.8318996967
 20
11.9897655578
 30
0.0
 10
5.8337126922
 20
11.9886816183
 30
0.0
 10
5.8410729852
 20
11.9843405755
 30
0.0
 10
5.8485238162
 20
11.9801545244
 30
0.0
 10
5.8541616591
 20
11.9770572446
 30
0.0
  0
SPLINE
  5
460
100
AcDbEntity
  8
0
100
AcDbSpline
 62
7
  6
CONTINUOUS
 70
0
 71
3
 72
9
 73
5
 74
0
 42
0.0000001
 43
0.0000001
 44
0.0000000001
 40
0.0
 40
0.0
 40
0.0
 40
0.0
 40
0.2458629307
 40
1.0
 40
1.0
 40
1.0
 40
1.0
 10
5.8541613281
 20
11.977052128
 30
0.0
 10
5.8540051597
 20
11.9749750793
 30
0.0
 10
5.853426926
 20
11.9665231671
 30
0.0
 10
5.8531362239
 20
11.9580494219
 30
0.0
 10
5.8531334362
 20
11.9516604942
 30
0.0
  0
SPLINE
  5
461
100
AcDbEntity
  8
0
100
AcDbSpline
 62
7
  6
CONTINUOUS
 70
0
 71
3
 72
9
 73
5
 74
0
 42
0.0000001
 43
0.0000001
 44
0.0000000001
 40
0.0
 40
0.0
 40
0.0
 40
0.0
 40
0.2532601576
 40
1.0
 40
1.0
 40
1.0
 40
1.0
 10
5.8531334362
 20
11.9516604942
 30
0.0
 10
5.8531324992
 20
11.9495129625
 30
0.0
 10
5.853224889
 20
11.9410333343
 30
0.0
 10
5.8536710028
 20
11.9325600145
 30
0.0
 10
5.8541398159
 20
11.9262453765
 30
0.0
  0
SPLINE
  5
462
100
AcDbEntity
  8
0
100
AcDbSpline
 62
7
  6
CONTINUOUS
 70
0
 71
3
 72
9
 73
5
 74
0
 42
0.0000001
 43
0.0000001
 44
0.0000000001
 40
0.0
 40
0.0
 40
0.0
 40
0.0
 40
0.2513518502
 40
1.0
 40
1.0
 40
1.0
 40
1.0
 10
5.8541394904
 20
11.9262504931
 30
0.0
 10
5.8522557986
 20
11.9252181503
 30
0.0
 10
5.8447746568
 20
11.9210873327
 30
0.0
 10
5.8373584779
 20
11.9168372524
 30
0.0
 10
5.8318664437
 20
11.9135554305
 30
0.0
  0
SPLINE
  5
463
100
AcDbEntity
  8
0
100
AcDbSpline
 62
7
  6
CONTINUOUS
 70
0
 71
3
 72
9
 73
5
 74
0
 42
0.0000001
 43
0.0000001
 44
0.0000000001
 40
0.0
 40
0.0
 40
0.0
 40
0.0
 40
0.7499512209
 40
1.0
 40
1.0
 40
1.0
 40
1.0
 10
4.3583720839
 20
13.1675477814
 30
0.0
 10
4.3653276562
 20
13.1715635829
 30
0.0
 10
4.3746159572
 20
13.1769394795
 30
0.0
 10
4.3844241572
 20
13.181265401
 30
0.0
 10
4.3869138769
 20
13.1822515202
 30
0.0
  0
SPLINE
  5
464
100
AcDbEntity
  8
0
100
AcDbSpline
 62
7
  6
CONTINUOUS
 70
0
 71
3
 72
9
 73
5
 74
0
 42
0.0000001
 43
0.0000001
 44
0.0000000001
 40
0.0
 40
0.0
 40
0.0
 40
0.0
 40
0.5011293951
 40
1.0
 40
1.0
 40
1.0
 40
1.0
 10
5.8318996967
 20
11.9897655578
 30
0.0
 10
5.82870932
 20
11.991672995
 30
0.0
 10
5.8218041228
 20
11.9946465059
 30
0.0
 10
5.8143522466
 20
11.9956602428
 30
0.0
 10
5.8106519027
 20
11.9956602428
 30
0.0
  0
SPLINE
  5
465
100
AcDbEntity
  8
0
100
AcDbSpline
 62
7
  6
CONTINUOUS
 70
0
 71
3
 72
9
 73
5
 74
0
 42
0.0000001
 43
0.0000001
 44
0.0000000001
 40
0.0
 40
0.0
 40
0.0
 40
0.0
 40
0.4988207745
 40
1.0
 40
1.0
 40
1.0
 40
1.0
 10
5.8106519027
 20
11.9956602428
 30
0.0
 10
5.8069511267
 20
11.9956602428
 30
0.0
 10
5.7994976922
 20
11.9946461737
 30
0.0
 10
5.7925907882
 20
11.9916728649
 30
0.0
 10
5.7893989647
 20
11.9897655577
 30
0.0
  0
SPLINE
  5
466
100
AcDbEntity
  8
0
100
AcDbSpline
 62
7
  6
CONTINUOUS
 70
0
 71
3
 72
11
 73
7
 74
0
 42
0.0000001
 43
0.0000001
 44
0.0000000001
 40
0.0
 40
0.0
 40
0.0
 40
0.0
 40
0.2471138366
 40
0.4964533085
 40
0.7476901959
 40
1.0
 40
1.0
 40
1.0
 40
1.0
 10
5.7893989647
 20
11.9897655577
 30
0.0
 10
5.7861816502
 20
11.9878430182
 30
0.0
 10
5.7802081053
 20
11.9830906768
 30
0.0
 10
5.7733933304
 20
11.9738733244
 30
0.0
 10
5.7691083055
 20
11.9631591775
 30
0.0
 10
5.7681336419
 20
11.9554872698
 30
0.0
 10
5.7681319722
 20
11.9516604941
 30
0.0
  0
SPLINE
  5
467
100
AcDbEntity
  8
0
100
AcDbSpline
 62
7
  6
CONTINUOUS
 70
0
 71
3
 72
11
 73
7
 74
0
 42
0.0000001
 43
0.0000001
 44
0.0000000001
 40
0.0
 40
0.0
 40
0.0
 40
0.0
 40
0.2523610459
 40
0.5036007741
 40
0.7529140216
 40
1.0
 40
1.0
 40
1.0
 40
1.0
 10
5.7681319722
 20
11.9516604941
 30
0.0
 10
5.7681303026
 20
11.9478341364
 30
0.0
 10
5.7690979727
 20
11.940162902
 30
0.0
 10
5.773373587
 20
11.929448245
 30
0.0
 10
5.7801806103
 20
11.9202303217
 30
0.0
 10
5.7861502058
 20
11.9154778918
 30
0.0
 10
5.7893657117
 20
11.9135554305
 30
0.0
  0
SPLINE
  5
468
100
AcDbEntity
  8
0
100
AcDbSpline
 62
7
  6
CONTINUOUS
 70
0
 71
3
 72
9
 73
5
 74
0
 42
0.0000001
 43
0.0000001
 44
0.0000000001
 40
0.0
 40
0.0
 40
0.0
 40
0.0
 40
0.5011293951
 40
1.0
 40
1.0
 40
1.0
 40
1.0
 10
5.7893657117
 20
11.9135554305
 30
0.0
 10
5.7925560884
 20
11.9116479932
 30
0.0
 10
5.7994612856
 20
11.9086744823
 30
0.0
 10
5.8069131617
 20
11.9076607455
 30
0.0
 10
5.8106135056
 20
11.9076607455
 30
0.0
  0
SPLINE
  5
469
100
AcDbEntity
  8
0
100
AcDbSpline
 62
7
  6
CONTINUOUS
 70
0
 71
3
 72
9
 73
5
 74
0
 42
0.0000001
 43
0.0000001
 44
0.0000000001
 40
0.0
 40
0.0
 40
0.0
 40
0.0
 40
0.4988207745
 40
1.0
 40
1.0
 40
1.0
 40
1.0
 10
5.8106135056
 20
11.9076607455
 30
0.0
 10
5.8143142817
 20
11.9076607455
 30
0.0
 10
5.8217677162
 20
11.9086748145
 30
0.0
 10
5.8286746202
 20
11.9116481234
 30
0.0
 10
5.8318664437
 20
11.9135554305
 30
0.0
  0
SPLINE
  5
46A
100
AcDbEntity
  8
0
100
AcDbSpline
 62
7
  6
CONTINUOUS
 70
0
 71
3
 72
11
 73
7
 74
0
 42
0.0000001
 43
0.0000001
 44
0.0000000001
 40
0.0
 40
0.0
 40
0.0
 40
0.0
 40
0.3115059418
 40
0.572831642
 40
0.7952660792
 40
1.0
 40
1.0
 40
1.0
 40
1.0
 10
5.0167243124
 20
13.1652890328
 30
0.0
 10
5.0165321514
 20
13.165627319
 30
0.0
 10
5.0161487159
 20
13.1662339923
 30
0.0
 10
5.0154776028
 20
13.1669765445
 30
0.0
 10
5.0147382255
 20
13.1674438196
 30
0.0
 10
5.014199434
 20
13.1675477814
 30
0.0
 10
5.0139437321
 20
13.1675477814
 30
0.0
  0
SPLINE
  5
46B
100
AcDbEntity
  8
0
100
AcDbSpline
 62
7
  6
CONTINUOUS
 70
0
 71
3
 72
9
 73
5
 74
0
 42
0.0000001
 43
0.0000001
 44
0.0000000001
 40
0.0
 40
0.0
 40
0.0
 40
0.0
 40
0.5477243202
 40
1.0
 40
1.0
 40
1.0
 40
1.0
 10
5.0184381489
 20
13.1575477814
 30
0.0
 10
5.0184381489
 20
13.1590062339
 30
0.0
 10
5.0181732084
 20
13.1616728395
 30
0.0
 10
5.0173195192
 20
13.1642421042
 30
0.0
 10
5.0167243124
 20
13.1652890328
 30
0.0
  0
SPLINE
  5
46C
100
AcDbEntity
  8
0
100
AcDbSpline
 62
7
  6
CONTINUOUS
 70
0
 71
3
 72
13
 73
9
 74
0
 42
0.0000001
 43
0.0000001
 44
0.0000000001
 40
0.0
 40
0.0
 40
0.0
 40
0.0
 40
0.0851272389
 40
0.2034688
 40
0.4999997228
 40
0.7965300748
 40
0.9148722019
 40
1.0
 40
1.0
 40
1.0
 40
1.0
 10
7.1250198553
 20
13.1652890328
 30
0.0
 10
7.0651957152
 20
13.1650773597
 30
0.0
 10
6.9222051374
 20
13.1647340609
 30
0.0
 10
6.57082273
 20
13.1642553305
 30
0.0
 10
6.0708730693
 20
13.1640500761
 30
0.0
 10
5.570923011
 20
13.1642553361
 30
0.0
 10
5.219540214
 20
13.1647340489
 30
0.0
 10
5.0765488455
 20
13.1650773583
 30
0.0
 10
5.0167243124
 20
13.1652890328
 30
0.0
  0
SPLINE
  5
46D
100
AcDbEntity
  8
0
100
AcDbSpline
 62
7
  6
CONTINUOUS
 70
0
 71
3
 72
11
 73
7
 74
0
 42
0.0000001
 43
0.0000001
 44
0.0000000001
 40
0.0
 40
0.0
 40
0.0
 40
0.0
 40
0.2505771788
 40
0.5
 40
0.7494228212
 40
1.0
 40
1.0
 40
1.0
 40
1.0
 10
5.7930205031
 20
12.5513338524
 30
0.0
 10
5.7889409719
 20
12.5488954473
 30
0.0
 10
5.780105913
 20
12.5450942077
 30
0.0
 10
5.7658538392
 20
12.5431514265
 30
0.0
 10
5.7516017654
 20
12.5450942077
 30
0.0
 10
5.7427667066
 20
12.5488954473
 30
0.0
 10
5.7386871753
 20
12.5513338524
 30
0.0
  0
SPLINE
  5
46E
100
AcDbEntity
  8
0
100
AcDbSpline
 62
7
  6
CONTINUOUS
 70
0
 71
3
 72
11
 73
7
 74
0
 42
0.0000001
 43
0.0000001
 44
0.0000000001
 40
0.0
 40
0.0
 40
0.0
 40
0.0
 40
0.2505771788
 40
0.5
 40
0.7494228212
 40
1.0
 40
1.0
 40
1.0
 40
1.0
 10
5.7386871753
 20
12.6487617103
 30
0.0
 10
5.7427667066
 20
12.6512001154
 30
0.0
 10
5.7516017654
 20
12.6550013551
 30
0.0
 10
5.7658538392
 20
12.6569441362
 30
0.0
 10
5.780105913
 20
12.6550013551
 30
0.0
 10
5.7889409719
 20
12.6512001154
 30
0.0
 10
5.7930205031
 20
12.6487617103
 30
0.0
  0
SPLINE
  5
46F
100
AcDbEntity
  8
0
100
AcDbSpline
 62
7
  6
CONTINUOUS
 70
0
 71
3
 72
9
 73
5
 74
0
 42
0.0000001
 43
0.0000001
 44
0.0000000001
 40
0.0
 40
0.0
 40
0.0
 40
0.0
 40
0.5022535574
 40
1.0
 40
1.0
 40
1.0
 40
1.0
 10
5.8130049199
 20
12.5720979969
 30
0.0
 10
5.8106494946
 20
12.5678389958
 30
0.0
 10
5.8048401649
 20
12.5599287886
 30
0.0
 10
5.7971605841
 20
12.5538084491
 30
0.0
 10
5.7930205031
 20
12.5513338524
 30
0.0
  0
SPLINE
  5
470
100
AcDbEntity
  8
0
100
AcDbSpline
 62
7
  6
CONTINUOUS
 70
0
 71
3
 72
11
 73
7
 74
0
 42
0.0000001
 43
0.0000001
 44
0.0000000001
 40
0.0
 40
0.0
 40
0.0
 40
0.0
 40
0.2470998106
 40
0.496426151
 40
0.7476645011
 40
1.0
 40
1.0
 40
1.0
 40
1.0
 10
5.7386871753
 20
12.5513338524
 30
0.0
 10
5.7345752863
 20
12.5537915983
 30
0.0
 10
5.7269411749
 20
12.5598671012
 30
0.0
 10
5.7182340593
 20
12.5716510299
 30
0.0
 10
5.7127620597
 20
12.5853484376
 30
0.0
 10
5.7115205115
 20
12.5951558568
 30
0.0
 10
5.7115205115
 20
12.6000477814
 30
0.0
  0
SPLINE
  5
471
100
AcDbEntity
  8
0
100
AcDbSpline
 62
7
  6
CONTINUOUS
 70
0
 71
3
 72
11
 73
7
 74
0
 42
0.0000001
 43
0.0000001
 44
0.0000000001
 40
0.0
 40
0.0
 40
0.0
 40
0.0
 40
0.2523354989
 40
0.503573849
 40
0.7529001894
 40
1.0
 40
1.0
 40
1.0
 40
1.0
 10
5.7115205115
 20
12.6000477814
 30
0.0
 10
5.7115205115
 20
12.6049397059
 30
0.0
 10
5.7127620597
 20
12.6147471251
 30
0.0
 10
5.7182340593
 20
12.6284445328
 30
0.0
 10
5.7269411749
 20
12.6402284615
 30
0.0
 10
5.7345752863
 20
12.6463039644
 30
0.0
 10
5.7386871753
 20
12.6487617103
 30
0.0
  0
SPLINE
  5
472
100
AcDbEntity
  8
0
100
AcDbSpline
 62
7
  6
CONTINUOUS
 70
0
 71
3
 72
9
 73
5
 74
0
 42
0.0000001
 43
0.0000001
 44
0.0000000001
 40
0.0
 40
0.0
 40
0.0
 40
0.0
 40
0.5000145123
 40
1.0
 40
1.0
 40
1.0
 40
1.0
 10
4.4190788791
 20
12.0125477814
 30
0.0
 10
4.4153313903
 20
12.0125477814
 30
0.0
 10
4.407832333
 20
12.0129438038
 30
0.0
 10
4.4004132297
 20
12.0141308376
 30
0.0
 10
4.396756996
 20
12.014951811
 30
0.0
  0
SPLINE
  5
473
100
AcDbEntity
  8
0
100
AcDbSpline
 62
7
  6
CONTINUOUS
 70
0
 71
3
 72
8
 73
4
 74
0
 42
0.0000001
 43
0.0000001
 44
0.0000000001
 40
0.0
 40
0.0
 40
0.0
 40
0.0
 40
1.0
 40
1.0
 40
1.0
 40
1.0
 10
4.396756996
 20
12.014951811
 30
0.0
 10
4.3934203301
 20
12.0157010284
 30
0.0
 10
4.3901156486
 20
12.0166426581
 30
0.0
 10
4.3869138769
 20
12.0178440425
 30
0.0
  0
LINE
  5
474
100
AcDbEntity
  8
0
100
AcDbLine
 62
7
  6
CONTINUOUS
 10
5.0167243124
 20
12.0348065299
 11
5.0176600675
 21
12.0370268069
  0
SPLINE
  5
475
100
AcDbEntity
  8
0
100
AcDbSpline
 62
7
  6
CONTINUOUS
 70
0
 71
3
 72
9
 73
5
 74
0
 42
0.0000001
 43
0.0000001
 44
0.0000000001
 40
0.0
 40
0.0
 40
0.0
 40
0.0
 40
0.2322775951
 40
1.0
 40
1.0
 40
1.0
 40
1.0
 10
5.0176600675
 20
12.0370268069
 30
0.0
 10
5.017787959
 20
12.0374400594
 30
0.0
 10
5.0182571277
 20
12.0392439184
 30
0.0
 10
5.0184381489
 20
12.0411179885
 30
0.0
 10
5.0184381489
 20
12.0425477814
 30
0.0
  0
SPLINE
  5
476
100
AcDbEntity
  8
0
100
AcDbSpline
 62
7
  6
CONTINUOUS
 70
0
 71
3
 72
9
 73
5
 74
0
 42
0.0000001
 43
0.0000001
 44
0.0000000001
 40
0.0
 40
0.0
 40
0.0
 40
0.0
 40
0.4999331052
 40
1.0
 40
1.0
 40
1.0
 40
1.0
 10
4.3869138769
 20
12.0178440425
 30
0.0
 10
4.3819362076
 20
12.0198155798
 30
0.0
 10
4.3722817369
 20
12.0245148049
 30
0.0
 10
4.3630099305
 20
12.0298701194
 30
0.0
 10
4.3583720839
 20
12.0325477814
 30
0.0
  0
SPLINE
  5
477
100
AcDbEntity
  8
0
100
AcDbSpline
 62
7
  6
CONTINUOUS
 70
0
 71
3
 72
8
 73
4
 74
0
 42
0.0000001
 43
0.0000001
 44
0.0000000001
 40
0.0
 40
0.0
 40
0.0
 40
0.0
 40
1.0
 40
1.0
 40
1.0
 40
1.0
 10
4.3869138769
 20
13.1822515202
 30
0.0
 10
4.39011625
 20
13.1834531303
 30
0.0
 10
4.3934215895
 20
13.1843948293
 30
0.0
 10
4.3967589003
 20
13.1851441071
 30
0.0
  0
SPLINE
  5
478
100
AcDbEntity
  8
0
100
AcDbSpline
 62
7
  6
CONTINUOUS
 70
0
 71
3
 72
9
 73
5
 74
0
 42
0.0000001
 43
0.0000001
 44
0.0000000001
 40
0.0
 40
0.0
 40
0.0
 40
0.0
 40
0.4999848645
 40
1.0
 40
1.0
 40
1.0
 40
1.0
 10
4.3967589003
 20
13.1851441071
 30
0.0
 10
4.4004148345
 20
13.1859649207
 30
0.0
 10
4.4078332884
 20
13.1871518893
 30
0.0
 10
4.4153317082
 20
13.1875477814
 30
0.0
 10
4.4190788791
 20
13.1875477814
 30
0.0
  0
SPLINE
  5
479
100
AcDbEntity
  8
0
100
AcDbSpline
 62
7
  6
CONTINUOUS
 70
0
 71
3
 72
11
 73
7
 74
0
 42
0.0000001
 43
0.0000001
 44
0.0000000001
 40
0.0
 40
0.0
 40
0.0
 40
0.0
 40
0.204710704
 40
0.4271697798
 40
0.6885067712
 40
1.0
 40
1.0
 40
1.0
 40
1.0
 10
5.0139437321
 20
12.0325477814
 30
0.0
 10
5.0141994054
 20
12.0325477814
 30
0.0
 10
5.0147381811
 20
12.0326518101
 30
0.0
 10
5.0154776147
 20
12.0331189905
 30
0.0
 10
5.0161488597
 20
12.0338614974
 30
0.0
 10
5.0165321282
 20
12.0344682744
 30
0.0
 10
5.0167243124
 20
12.0348065299
 30
0.0
  0
SPLINE
  5
47A
100
AcDbEntity
  8
0
100
AcDbSpline
 62
7
  6
CONTINUOUS
 70
0
 71
3
 72
9
 73
5
 74
0
 42
0.0000001
 43
0.0000001
 44
0.0000000001
 40
0.0
 40
0.0
 40
0.0
 40
0.0
 40
0.4977574411
 40
1.0
 40
1.0
 40
1.0
 40
1.0
 10
5.7930205031
 20
12.6487617103
 30
0.0
 10
5.7971323921
 20
12.6463039644
 30
0.0
 10
5.8047636888
 20
12.6402334807
 30
0.0
 10
5.8105534398
 20
12.6323941677
 30
0.0
 10
5.8129076794
 20
12.6281726607
 30
0.0
  0
SPLINE
  5
47B
100
AcDbEntity
  8
0
100
AcDbSpline
 62
7
  6
CONTINUOUS
 70
0
 71
3
 72
9
 73
5
 74
0
 42
0.0000001
 43
0.0000001
 44
0.0000000001
 40
0.0
 40
0.0
 40
0.0
 40
0.0
 40
0.7499512209
 40
1.0
 40
1.0
 40
1.0
 40
1.0
 10
7.7833720839
 20
12.0325477814
 30
0.0
 10
7.7764165115
 20
12.0285319798
 30
0.0
 10
7.7671282105
 20
12.0231560832
 30
0.0
 10
7.7573200105
 20
12.0188301617
 30
0.0
 10
7.7548302908
 20
12.0178440425
 30
0.0
  0
SPLINE
  5
47C
100
AcDbEntity
  8
0
100
AcDbSpline
 62
7
  6
CONTINUOUS
 70
0
 71
3
 72
8
 73
4
 74
0
 42
0.0000001
 43
0.0000001
 44
0.0000000001
 40
0.0
 40
0.0
 40
0.0
 40
0.0
 40
1.0
 40
1.0
 40
1.0
 40
1.0
 10
7.7548302908
 20
12.0178440425
 30
0.0
 10
7.7516279177
 20
12.0166424325
 30
0.0
 10
7.7483225782
 20
12.0157007335
 30
0.0
 10
7.7449852674
 20
12.0149514557
 30
0.0
  0
SPLINE
  5
47D
100
AcDbEntity
  8
0
100
AcDbSpline
 62
7
  6
CONTINUOUS
 70
0
 71
3
 72
9
 73
5
 74
0
 42
0.0000001
 43
0.0000001
 44
0.0000000001
 40
0.0
 40
0.0
 40
0.0
 40
0.0
 40
0.4999848645
 40
1.0
 40
1.0
 40
1.0
 40
1.0
 10
7.7449852674
 20
12.0149514557
 30
0.0
 10
7.7413293332
 20
12.014130642
 30
0.0
 10
7.7339108793
 20
12.0129436734
 30
0.0
 10
7.7264124595
 20
12.0125477814
 30
0.0
 10
7.7226652886
 20
12.0125477814
 30
0.0
  0
SPLINE
  5
47E
100
AcDbEntity
  8
0
100
AcDbSpline
 62
7
  6
CONTINUOUS
 70
0
 71
3
 72
15
 73
11
 74
0
 42
0.0000001
 43
0.0000001
 44
0.0000000001
 40
0.0
 40
0.0
 40
0.0
 40
0.0
 40
0.1267937031
 40
0.2537186295
 40
0.3804999657
 40
0.5066845719
 40
0.631076978
 40
0.752336147
 40
0.8736755573
 40
1.0
 40
1.0
 40
1.0
 40
1.0
 10
15.5936157012
 20
6.6307553981
 30
0.0
 10
15.5945228479
 20
6.6330956095
 30
0.0
 10
15.5956558394
 20
6.6380766025
 30
0.0
 10
15.5951071052
 20
6.6456941155
 30
0.0
 10
15.5923807924
 20
6.6528196792
 30
0.0
 10
15.5877602696
 20
6.6588200849
 30
0.0
 10
15.5817598294
 20
6.6632370864
 30
0.0
 10
15.5749642903
 20
6.6659739922
 30
0.0
 10
15.5677635404
 20
6.6673532325
 30
0.0
 10
15.5628558492
 20
6.6676366391
 30
0.0
 10
15.5603552569
 20
6.6676366391
 30
0.0
  0
SPLINE
  5
47F
100
AcDbEntity
  8
0
100
AcDbSpline
 62
7
  6
CONTINUOUS
 70
0
 71
3
 72
15
 73
11
 74
0
 42
0.0000001
 43
0.0000001
 44
0.0000000001
 40
0.0
 40
0.0
 40
0.0
 40
0.0
 40
0.1264265888
 40
0.2479482159
 40
0.3690322938
 40
0.4932120572
 40
0.619272939
 40
0.7459929898
 40
0.8729589638
 40
1.0
 40
1.0
 40
1.0
 40
1.0
 10
15.5603552569
 20
6.6676366391
 30
0.0
 10
15.557920364
 20
6.6676366391
 30
0.0
 10
15.5531402349
 20
6.6673675129
 30
0.0
 10
15.5461269965
 20
6.6660655741
 30
0.0
 10
15.5394854525
 20
6.6635043958
 30
0.0
 10
15.5335540625
 20
6.6593651957
 30
0.0
 10
15.5288685206
 20
6.6536968733
 30
0.0
 10
15.5259200818
 20
6.6468942431
 30
0.0
 10
15.5250065449
 20
6.6395214122
 30
0.0
 10
15.5258173965
 20
6.6346164337
 30
0.0
 10
15.5265568947
 20
6.6322841357
 30
0.0
  0
SPLINE
  5
480
100
AcDbEntity
  8
0
100
AcDbSpline
 62
7
  6
CONTINUOUS
 70
0
 71
3
 72
17
 73
13
 74
0
 42
0.0000001
 43
0.0000001
 44
0.0000000001
 40
0.0
 40
0.0
 40
0.0
 40
0.0
 40
0.0687815775
 40
0.1365052885
 40
0.202433671
 40
0.2665098393
 40
0.3903388245
 40
0.5113738874
 40
0.6318805595
 40
0.7531256824
 40
0.8757538278
 40
1.0
 40
1.0
 40
1.0
 40
1.0
 10
16.0278552569
 20
4.9346632357
 30
0.0
 10
16.0323906669
 20
4.9346632357
 30
0.0
 10
16.0414130802
 20
4.9355226108
 30
0.0
 10
16.054317101
 20
4.939192305
 30
0.0
 10
16.0661091298
 20
4.9448984726
 30
0.0
 10
16.0798970808
 20
4.9544858813
 30
0.0
 10
16.0940236814
 20
4.9694850017
 30
0.0
 10
16.1064664057
 20
4.990266124
 30
0.0
 10
16.1153188421
 20
5.0125754125
 30
0.0
 10
16.1213769491
 20
5.0358732826
 30
0.0
 10
16.1252352738
 20
5.0598658075
 30
0.0
 10
16.1266296766
 20
5.0760978417
 30
0.0
 10
16.1270966435
 20
5.08427723
 30
0.0
  0
SPLINE
  5
481
100
AcDbEntity
  8
0
100
AcDbSpline
 62
7
  6
CONTINUOUS
 70
0
 71
3
 72
17
 73
13
 74
0
 42
0.0000001
 43
0.0000001
 44
0.0000000001
 40
0.0
 40
0.0
 40
0.0
 40
0.0
 40
0.1242485439
 40
0.2468706978
 40
0.3681196147
 40
0.4886288509
 40
0.6096645393
 40
0.7335006308
 40
0.7975801453
 40
0.8635101451
 40
0.9312223168
 40
1.0
 40
1.0
 40
1.0
 40
1.0
 10
14.9936138704
 20
5.08427723
 30
0.0
 10
14.9940808482
 20
5.0760976495
 30
0.0
 10
14.9954741173
 20
5.0598656465
 30
0.0
 10
14.9993348956
 20
5.0358733786
 30
0.0
 10
15.0053913182
 20
5.01257514
 30
0.0
 10
15.0142431582
 20
4.9902645229
 30
0.0
 10
15.0266895592
 20
4.9694855133
 30
0.0
 10
15.0408121315
 20
4.9544805451
 30
0.0
 10
15.0546054402
 20
4.9448991697
 30
0.0
 10
15.0663952548
 20
4.9391904365
 30
0.0
 10
15.0792982632
 20
4.935518273
 30
0.0
 10
15.0883200838
 20
4.9346632357
 30
0.0
 10
15.0928552569
 20
4.9346632357
 30
0.0
  0
SPLINE
  5
482
100
AcDbEntity
  8
0
100
AcDbSpline
 62
7
  6
CONTINUOUS
 70
0
 71
3
 72
11
 73
7
 74
0
 42
0.0000001
 43
0.0000001
 44
0.0000000001
 40
0.0
 40
0.0
 40
0.0
 40
0.0
 40
0.2468885381
 40
0.4954357676
 40
0.746463269
 40
1.0
 40
1.0
 40
1.0
 40
1.0
 10
15.2211026749
 20
6.1143957932
 30
0.0
 10
15.2281506146
 20
6.1143957932
 30
0.0
 10
15.2423208301
 20
6.1131351025
 30
0.0
 10
15.2630309445
 20
6.1078101452
 30
0.0
 10
15.2830029156
 20
6.0997213349
 30
0.0
 10
15.2957538691
 20
6.0929781535
 30
0.0
 10
15.3020219236
 20
6.0893592906
 30
0.0
  0
SPLINE
  5
483
100
AcDbEntity
  8
0
100
AcDbSpline
 62
7
  6
CONTINUOUS
 70
0
 71
3
 72
11
 73
7
 74
0
 42
0.0000001
 43
0.0000001
 44
0.0000000001
 40
0.0
 40
0.0
 40
0.0
 40
0.0
 40
0.2535357499
 40
0.504552599
 40
0.7531087683
 40
1.0
 40
1.0
 40
1.0
 40
1.0
 10
15.3020219236
 20
6.0893592906
 30
0.0
 10
15.3082898728
 20
6.0929780927
 30
0.0
 10
15.321038546
 20
6.0997245254
 30
0.0
 10
15.3410130413
 20
6.1078076978
 30
0.0
 10
15.3617237677
 20
6.1131254718
 30
0.0
 10
15.3758932469
 20
6.1143957932
 30
0.0
 10
15.3829411723
 20
6.1143957932
 30
0.0
  0
SPLINE
  5
484
100
AcDbEntity
  8
0
100
AcDbSpline
 62
7
  6
CONTINUOUS
 70
0
 71
3
 72
11
 73
7
 74
0
 42
0.0000001
 43
0.0000001
 44
0.0000000001
 40
0.0
 40
0.0
 40
0.0
 40
0.0
 40
0.2535357499
 40
0.504552599
 40
0.7531087683
 40
1.0
 40
1.0
 40
1.0
 40
1.0
 10
15.1401834263
 20
6.0893592906
 30
0.0
 10
15.1464513755
 20
6.0929780927
 30
0.0
 10
15.1592000487
 20
6.0997245254
 30
0.0
 10
15.179174544
 20
6.1078076978
 30
0.0
 10
15.1998852703
 20
6.1131254718
 30
0.0
 10
15.2140547496
 20
6.1143957932
 30
0.0
 10
15.2211026749
 20
6.1143957932
 30
0.0
  0
SPLINE
  5
485
100
AcDbEntity
  8
0
100
AcDbSpline
 62
7
  6
CONTINUOUS
 70
0
 71
3
 72
11
 73
7
 74
0
 42
0.0000001
 43
0.0000001
 44
0.0000000001
 40
0.0
 40
0.0
 40
0.0
 40
0.0
 40
0.2468885381
 40
0.4954357676
 40
0.746463269
 40
1.0
 40
1.0
 40
1.0
 40
1.0
 10
15.3829411723
 20
6.1143957932
 30
0.0
 10
15.3899891119
 20
6.1143957932
 30
0.0
 10
15.4041593274
 20
6.1131351025
 30
0.0
 10
15.4248694419
 20
6.1078101452
 30
0.0
 10
15.4448414129
 20
6.0997213349
 30
0.0
 10
15.4575923664
 20
6.0929781535
 30
0.0
 10
15.4638604209
 20
6.0893592906
 30
0.0
  0
SPLINE
  5
486
100
AcDbEntity
  8
0
100
AcDbSpline
 62
7
  6
CONTINUOUS
 70
0
 71
3
 72
13
 73
9
 74
0
 42
0.0000001
 43
0.0000001
 44
0.0000000001
 40
0.0
 40
0.0
 40
0.0
 40
0.0
 40
0.2271805034
 40
0.4665225251
 40
0.5908315333
 40
0.719357686
 40
0.8540953863
 40
1.0
 40
1.0
 40
1.0
 40
1.0
 10
16.1276176654
 20
4.7923671482
 30
0.0
 10
16.1303041082
 20
4.7884476171
 30
0.0
 10
16.1350336564
 20
4.779861613
 30
0.0
 10
16.1397503015
 20
4.768421995
 30
0.0
 10
16.1429971696
 20
4.758649662
 30
0.0
 10
16.1451730017
 20
4.7508340502
 30
0.0
 10
16.1469501563
 20
4.7424643504
 30
0.0
 10
16.1476889828
 20
4.7366068904
 30
0.0
 10
16.1476941903
 20
4.7335550879
 30
0.0
  0
SPLINE
  5
487
100
AcDbEntity
  8
0
100
AcDbSpline
 62
7
  6
CONTINUOUS
 70
0
 71
3
 72
9
 73
5
 74
0
 42
0.0000001
 43
0.0000001
 44
0.0000000001
 40
0.0
 40
0.0
 40
0.0
 40
0.0
 40
0.2514030208
 40
1.0
 40
1.0
 40
1.0
 40
1.0
 10
16.1278552569
 20
5.1121730537
 30
0.0
 10
16.1278552569
 20
5.1098343208
 30
0.0
 10
16.1277975954
 20
5.1005318007
 30
0.0
 10
16.1274935772
 20
5.0912298995
 30
0.0
 10
16.1270966435
 20
5.08427723
 30
0.0
  0
SPLINE
  5
488
100
AcDbEntity
  8
0
100
AcDbSpline
 62
7
  6
CONTINUOUS
 70
0
 71
3
 72
19
 73
15
 74
0
 42
0.0000001
 43
0.0000001
 44
0.0000000001
 40
0.0
 40
0.0
 40
0.0
 40
0.0
 40
0.0789336555
 40
0.1569263938
 40
0.2333130603
 40
0.30773706
 40
0.4499663475
 40
0.5829291785
 40
0.7055783881
 40
0.7626503041
 40
0.8166338293
 40
0.8673832531
 40
0.9148210015
 40
1.0
 40
1.0
 40
1.0
 40
1.0
 10
15.8978552569
 20
4.9346632357
 30
0.0
 10
15.8876006356
 20
4.9346632357
 30
0.0
 10
15.8671786763
 20
4.9330403235
 30
0.0
 10
15.8375766849
 20
4.926078512
 30
0.0
 10
15.8097385291
 20
4.9154340075
 30
0.0
 10
15.775905233
 20
4.8978432705
 30
0.0
 10
15.7387664723
 20
4.8712913095
 30
0.0
 10
15.7013359277
 20
4.8354655646
 30
0.0
 10
15.6755954264
 20
4.8038875782
 30
0.0
 10
15.6588162277
 20
4.7785586208
 30
0.0
 10
15.6484679088
 20
4.7602414998
 30
0.0
 10
15.6401403321
 20
4.742274447
 30
0.0
 10
15.6321932981
 20
4.7198177628
 30
0.0
 10
15.6291052569
 20
4.7025673425
 30
0.0
 10
15.6291052569
 20
4.6915013609
 30
0.0
  0
SPLINE
  5
489
100
AcDbEntity
  8
0
100
AcDbSpline
 62
7
  6
CONTINUOUS
 70
0
 71
3
 72
15
 73
11
 74
0
 42
0.0000001
 43
0.0000001
 44
0.0000000001
 40
0.0
 40
0.0
 40
0.0
 40
0.0
 40
0.1062059428
 40
0.218620892
 40
0.3367845989
 40
0.4603258199
 40
0.5889556768
 40
0.7223625643
 40
0.8598939376
 40
1.0
 40
1.0
 40
1.0
 40
1.0
 10
16.1276176654
 20
4.7923671482
 30
0.0
 10
16.122003727
 20
4.8005467165
 30
0.0
 10
16.1097113297
 20
4.8168879349
 30
0.0
 10
16.0888438305
 20
4.8404714091
 30
0.0
 10
16.0649671466
 20
4.8634208887
 30
0.0
 10
16.0379675165
 20
4.8851294689
 30
0.0
 10
16.0076610586
 20
4.9047311399
 30
0.0
 10
15.9739058259
 20
4.9209487228
 30
0.0
 10
15.9369465278
 20
4.9320107844
 30
0.0
 10
15.910942658
 20
4.9346632357
 30
0.0
 10
15.8978552569
 20
4.9346632357
 30
0.0
  0
SPLINE
  5
48A
100
AcDbEntity
  8
0
100
AcDbSpline
 62
7
  6
CONTINUOUS
 70
0
 71
3
 72
11
 73
7
 74
0
 42
0.0000001
 43
0.0000001
 44
0.0000000001
 40
0.0
 40
0.0
 40
0.0
 40
0.0
 40
0.2535597954
 40
0.5045718454
 40
0.7531218277
 40
1.0
 40
1.0
 40
1.0
 40
1.0
 10
15.8186885903
 20
6.0893592906
 30
0.0
 10
15.8124201083
 20
6.0929784003
 30
0.0
 10
15.7996751367
 20
6.0997327905
 30
0.0
 10
15.7796958327
 20
6.1078071241
 30
0.0
 10
15.7589844243
 20
6.1131132788
 30
0.0
 10
15.7448168248
 20
6.1143957932
 30
0.0
 10
15.7377693416
 20
6.1143957932
 30
0.0
  0
SPLINE
  5
48B
100
AcDbEntity
  8
0
100
AcDbSpline
 62
7
  6
CONTINUOUS
 70
0
 71
3
 72
11
 73
7
 74
0
 42
0.0000001
 43
0.0000001
 44
0.0000000001
 40
0.0
 40
0.0
 40
0.0
 40
0.0
 40
0.2468802189
 40
0.4954213619
 40
0.7464534258
 40
1.0
 40
1.0
 40
1.0
 40
1.0
 10
15.7377693416
 20
6.1143957932
 30
0.0
 10
15.7307216125
 20
6.1143957932
 30
0.0
 10
15.7165517535
 20
6.1131353346
 30
0.0
 10
15.6958416875
 20
6.1078112789
 30
0.0
 10
15.6758687102
 20
6.0997237709
 30
0.0
 10
15.6631184148
 20
6.0929783079
 30
0.0
 10
15.6568500929
 20
6.0893592906
 30
0.0
  0
SPLINE
  5
48C
100
AcDbEntity
  8
0
100
AcDbSpline
 62
7
  6
CONTINUOUS
 70
0
 71
3
 72
11
 73
7
 74
0
 42
0.0000001
 43
0.0000001
 44
0.0000000001
 40
0.0
 40
0.0
 40
0.0
 40
0.0
 40
0.2535597954
 40
0.5045718454
 40
0.7531218277
 40
1.0
 40
1.0
 40
1.0
 40
1.0
 10
15.9805270876
 20
6.0893592906
 30
0.0
 10
15.9742586056
 20
6.0929784003
 30
0.0
 10
15.961513634
 20
6.0997327905
 30
0.0
 10
15.94153433
 20
6.1078071241
 30
0.0
 10
15.9208229216
 20
6.1131132788
 30
0.0
 10
15.9066553222
 20
6.1143957932
 30
0.0
 10
15.8996078389
 20
6.1143957932
 30
0.0
  0
SPLINE
  5
48D
100
AcDbEntity
  8
0
100
AcDbSpline
 62
7
  6
CONTINUOUS
 70
0
 71
3
 72
11
 73
7
 74
0
 42
0.0000001
 43
0.0000001
 44
0.0000000001
 40
0.0
 40
0.0
 40
0.0
 40
0.0
 40
0.2468802189
 40
0.4954213619
 40
0.7464534258
 40
1.0
 40
1.0
 40
1.0
 40
1.0
 10
15.8996078389
 20
6.1143957932
 30
0.0
 10
15.8925601098
 20
6.1143957932
 30
0.0
 10
15.8783902508
 20
6.1131353346
 30
0.0
 10
15.8576801849
 20
6.1078112789
 30
0.0
 10
15.8377072076
 20
6.0997237709
 30
0.0
 10
15.8249569122
 20
6.0929783079
 30
0.0
 10
15.8186885903
 20
6.0893592906
 30
0.0
  0
SPLINE
  5
48E
100
AcDbEntity
  8
0
100
AcDbSpline
 62
7
  6
CONTINUOUS
 70
0
 71
3
 72
15
 73
11
 74
0
 42
0.0000001
 43
0.0000001
 44
0.0000000001
 40
0.0
 40
0.0
 40
0.0
 40
0.0
 40
0.1402019325
 40
0.2778210365
 40
0.4112436344
 40
0.5398655269
 40
0.6633631486
 40
0.7814630606
 40
0.8938618453
 40
1.0
 40
1.0
 40
1.0
 40
1.0
 10
15.2228552569
 20
4.9346632357
 30
0.0
 10
15.2097588566
 20
4.9346632357
 30
0.0
 10
15.183737589
 20
4.9320061559
 30
0.0
 10
15.1467627729
 20
4.9209307912
 30
0.0
 10
15.1129999725
 20
4.9047086877
 30
0.0
 10
15.0826976973
 20
4.8851055368
 30
0.0
 10
15.0557158809
 20
4.8633921129
 30
0.0
 10
15.0318455949
 20
4.8404529488
 30
0.0
 10
15.0109882031
 20
4.8168784587
 30
0.0
 10
14.9987032226
 20
4.8005415232
 30
0.0
 10
14.9930928485
 20
4.7923671482
 30
0.0
  0
SPLINE
  5
48F
100
AcDbEntity
  8
0
100
AcDbSpline
 62
7
  6
CONTINUOUS
 70
0
 71
3
 72
19
 73
15
 74
0
 42
0.0000001
 43
0.0000001
 44
0.0000000001
 40
0.0
 40
0.0
 40
0.0
 40
0.0
 40
0.0851789984
 40
0.1326167464
 40
0.1833661692
 40
0.2373496946
 40
0.2944216112
 40
0.4170708183
 40
0.550033653
 40
0.6922629412
 40
0.766686942
 40
0.8430736092
 40
0.9210663434
 40
1.0
 40
1.0
 40
1.0
 40
1.0
 10
15.4916052569
 20
4.6915013609
 30
0.0
 10
15.4916052569
 20
4.7025673424
 30
0.0
 10
15.4885172157
 20
4.7198177627
 30
0.0
 10
15.4805701818
 20
4.7422744468
 30
0.0
 10
15.4722426052
 20
4.7602414994
 30
0.0
 10
15.4618942865
 20
4.7785586204
 30
0.0
 10
15.4451150879
 20
4.8038875776
 30
0.0
 10
15.4193745864
 20
4.8354655642
 30
0.0
 10
15.381944042
 20
4.8712913097
 30
0.0
 10
15.3448052804
 20
4.8978432707
 30
0.0
 10
15.3109719841
 20
4.9154340079
 30
0.0
 10
15.2831338285
 20
4.9260785121
 30
0.0
 10
15.2535318373
 20
4.9330403236
 30
0.0
 10
15.2331098784
 20
4.9346632357
 30
0.0
 10
15.2228552569
 20
4.9346632357
 30
0.0
  0
SPLINE
  5
490
100
AcDbEntity
  8
0
100
AcDbSpline
 62
7
  6
CONTINUOUS
 70
0
 71
3
 72
31
 73
27
 74
0
 42
0.0000001
 43
0.0000001
 44
0.0000000001
 40
0.0
 40
0.0
 40
0.0
 40
0.0
 40
0.0628042874
 40
0.1238522581
 40
0.183305617
 40
0.2418249811
 40
0.2711898253
 40
0.3009434074
 40
0.3313823937
 40
0.3628207477
 40
0.3954692506
 40
0.4293881926
 40
0.4643855646
 40
0.5000017052
 40
0.5356174851
 40
0.5706140175
 40
0.6045317573
 40
0.6371793865
 40
0.6686168276
 40
0.6990553626
 40
0.7288087032
 40
0.758174121
 40
0.8166931877
 40
0.8761475693
 40
0.9371966689
 40
1.0
 40
1.0
 40
1.0
 40
1.0
 10
15.5288969236
 20
5.9781752173
 30
0.0
 10
15.5288969236
 20
5.996319348
 30
0.0
 10
15.5278140034
 20
6.0321192335
 30
0.0
 10
15.5215761616
 20
6.0848016147
 30
0.0
 10
15.5092551832
 20
6.1351985008
 30
0.0
 10
15.4922838648
 20
6.1745574837
 30
0.0
 10
15.4738964248
 20
6.2032219119
 30
0.0
 10
15.457361225
 20
6.2232117094
 30
0.0
 10
15.4379246959
 20
6.2413001311
 30
0.0
 10
15.4155074251
 20
6.2570488535
 30
0.0
 10
15.3902240322
 20
6.2699952387
 30
0.0
 10
15.3624248123
 20
6.2796694241
 30
0.0
 10
15.3327328302
 20
6.285661343
 30
0.0
 10
15.3020204892
 20
6.2876940052
 30
0.0
 10
15.271308026
 20
6.2856636342
 30
0.0
 10
15.241617267
 20
6.279668668
 30
0.0
 10
15.2138193852
 20
6.2699936438
 30
0.0
 10
15.1885364374
 20
6.2570484538
 30
0.0
 10
15.166118802
 20
6.2413012761
 30
0.0
 10
15.1466831619
 20
6.2232124779
 30
0.0
 10
15.1301486334
 20
6.2032222156
 30
0.0
 10
15.1117610329
 20
6.1745579664
 30
0.0
 10
15.0947871578
 20
6.1351996398
 30
0.0
 10
15.0824672659
 20
6.0848017416
 30
0.0
 10
15.0762305132
 20
6.032118985
 30
0.0
 10
15.0751469236
 20
5.9963190718
 30
0.0
 10
15.0751469236
 20
5.9781752173
 30
0.0
  0
SPLINE
  5
491
100
AcDbEntity
  8
0
100
AcDbSpline
 62
7
  6
CONTINUOUS
 70
0
 71
3
 72
9
 73
5
 74
0
 42
0.0000001
 43
0.0000001
 44
0.0000000001
 40
0.0
 40
0.0
 40
0.0
 40
0.0
 40
0.5295980429
 40
1.0
 40
1.0
 40
1.0
 40
1.0
 10
15.5603552569
 20
6.6325950619
 30
0.0
 10
15.563723738
 20
6.6325950619
 30
0.0
 10
15.5700860957
 20
6.6323188898
 30
0.0
 10
15.5764037816
 20
6.63144309
 30
0.0
 10
15.579327531
 20
6.6308078276
 30
0.0
  0
SPLINE
  5
492
100
AcDbEntity
  8
0
100
AcDbSpline
 62
7
  6
CONTINUOUS
 70
0
 71
3
 72
13
 73
9
 74
0
 42
0.0000001
 43
0.0000001
 44
0.0000000001
 40
0.0
 40
0.0
 40
0.0
 40
0.0
 40
0.361341903
 40
0.6474365243
 40
0.7606575938
 40
0.8548598456
 40
0.9326919776
 40
1.0
 40
1.0
 40
1.0
 40
1.0
 10
15.579327531
 20
6.6308078276
 30
0.0
 10
15.5808052988
 20
6.6304867432
 30
0.0
 10
15.5834304616
 20
6.6298046509
 30
0.0
 10
15.5864104611
 20
6.6286325632
 30
0.0
 10
15.5881760502
 20
6.6275494443
 30
0.0
 10
15.5890870326
 20
6.6267670771
 30
0.0
 10
15.5896832487
 20
6.6259457457
 30
0.0
 10
15.5898518203
 20
6.6253429843
 30
0.0
 10
15.589866798
 20
6.6250616928
 30
0.0
  0
SPLINE
  5
493
100
AcDbEntity
  8
0
100
AcDbSpline
 62
7
  6
CONTINUOUS
 70
0
 71
3
 72
9
 73
5
 74
0
 42
0.0000001
 43
0.0000001
 44
0.0000000001
 40
0.0
 40
0.0
 40
0.0
 40
0.0
 40
0.2486453427
 40
1.0
 40
1.0
 40
1.0
 40
1.0
 10
14.9936138704
 20
5.08427723
 30
0.0
 10
14.9934820286
 20
5.0865865635
 30
0.0
 10
14.9930272247
 20
5.0958784878
 30
0.0
 10
14.9928552569
 20
5.1051833635
 30
0.0
 10
14.9928552569
 20
5.1121730537
 30
0.0
  0
SPLINE
  5
494
100
AcDbEntity
  8
0
100
AcDbSpline
 62
7
  6
CONTINUOUS
 70
0
 71
3
 72
13
 73
9
 74
0
 42
0.0000001
 43
0.0000001
 44
0.0000000001
 40
0.0
 40
0.0
 40
0.0
 40
0.0
 40
0.1459012789
 40
0.2806351966
 40
0.4091648458
 40
0.5334742371
 40
0.7728180523
 40
1.0
 40
1.0
 40
1.0
 40
1.0
 10
14.9730163236
 20
4.7335550879
 30
0.0
 10
14.9730215309
 20
4.7366068212
 30
0.0
 10
14.9737599798
 20
4.7424641842
 30
0.0
 10
14.9755377114
 20
4.7508336914
 30
0.0
 10
14.9777131432
 20
4.7586494077
 30
0.0
 10
14.9809602119
 20
4.7684218107
 30
0.0
 10
14.9856767767
 20
4.7798615359
 30
0.0
 10
14.9904063881
 20
4.7884475914
 30
0.0
 10
14.9930928485
 20
4.7923671482
 30
0.0
  0
SPLINE
  5
495
100
AcDbEntity
  8
0
100
AcDbSpline
 62
7
  6
CONTINUOUS
 70
0
 71
3
 72
13
 73
9
 74
0
 42
0.0000001
 43
0.0000001
 44
0.0000000001
 40
0.0
 40
0.0
 40
0.0
 40
0.0
 40
0.0673080224
 40
0.1451401544
 40
0.2393424062
 40
0.3525634757
 40
0.638658097
 40
1.0
 40
1.0
 40
1.0
 40
1.0
 10
15.5308437159
 20
6.6250616928
 30
0.0
 10
15.5308586935
 20
6.6253429843
 30
0.0
 10
15.5310272652
 20
6.6259457457
 30
0.0
 10
15.5316234813
 20
6.6267670771
 30
0.0
 10
15.5325344637
 20
6.6275494443
 30
0.0
 10
15.5343000528
 20
6.6286325632
 30
0.0
 10
15.5372800523
 20
6.6298046509
 30
0.0
 10
15.5399052151
 20
6.6304867432
 30
0.0
 10
15.5413829829
 20
6.6308078276
 30
0.0
  0
SPLINE
  5
496
100
AcDbEntity
  8
0
100
AcDbSpline
 62
7
  6
CONTINUOUS
 70
0
 71
3
 72
9
 73
5
 74
0
 42
0.0000001
 43
0.0000001
 44
0.0000000001
 40
0.0
 40
0.0
 40
0.0
 40
0.0
 40
0.4704019571
 40
1.0
 40
1.0
 40
1.0
 40
1.0
 10
15.5413829829
 20
6.6308078276
 30
0.0
 10
15.5443067323
 20
6.63144309
 30
0.0
 10
15.5506244181
 20
6.6323188898
 30
0.0
 10
15.5569867759
 20
6.6325950619
 30
0.0
 10
15.5603552569
 20
6.6325950619
 30
0.0
  0
SPLINE
  5
497
100
AcDbEntity
  8
0
100
AcDbSpline
 62
7
  6
CONTINUOUS
 70
0
 71
3
 72
31
 73
27
 74
0
 42
0.0000001
 43
0.0000001
 44
0.0000000001
 40
0.0
 40
0.0
 40
0.0
 40
0.0
 40
0.0628039168
 40
0.1238522867
 40
0.1833059602
 40
0.241825822
 40
0.2711910904
 40
0.3009443141
 40
0.3313826909
 40
0.3628207984
 40
0.3954696173
 40
0.429388987
 40
0.4643858903
 40
0.5000016234
 40
0.5356169857
 40
0.5706127674
 40
0.6045305191
 40
0.6371789171
 40
0.6686166771
 40
0.6990541927
 40
0.7288065531
 40
0.7581724136
 40
0.8166943089
 40
0.8761481193
 40
0.9371963474
 40
1.0
 40
1.0
 40
1.0
 40
1.0
 10
15.5918135903
 20
5.9781752173
 30
0.0
 10
15.5918135903
 20
5.9963192798
 30
0.0
 10
15.5928955174
 20
6.032119232
 30
0.0
 10
15.5991309704
 20
6.0848021392
 30
0.0
 10
15.6114527703
 20
6.1351995347
 30
0.0
 10
15.6284270307
 20
6.1745576781
 30
0.0
 10
15.6468147658
 20
6.2032221229
 30
0.0
 10
15.6633496176
 20
6.2232120589
 30
0.0
 10
15.682785603
 20
6.2413006559
 30
0.0
 10
15.7052029425
 20
6.2570491528
 30
0.0
 10
15.7304866816
 20
6.2699953175
 30
0.0
 10
15.7582861298
 20
6.2796692156
 30
0.0
 10
15.7879779723
 20
6.2856614578
 30
0.0
 10
15.8186900395
 20
6.2876939262
 30
0.0
 10
15.8494020866
 20
6.2856634244
 30
0.0
 10
15.8790926106
 20
6.2796686928
 30
0.0
 10
15.9068905966
 20
6.2699937429
 30
0.0
 10
15.9321740325
 20
6.2570487476
 30
0.0
 10
15.9545922045
 20
6.2413021275
 30
0.0
 10
15.974027009
 20
6.2232130006
 30
0.0
 10
15.9905606375
 20
6.2032225057
 30
0.0
 10
16.0089483127
 20
6.1745576183
 30
0.0
 10
16.0259288648
 20
6.1352013156
 30
0.0
 10
16.0382479038
 20
6.0848020309
 30
0.0
 10
16.0444777856
 20
6.0321188715
 30
0.0
 10
16.0455635903
 20
5.9963192035
 30
0.0
 10
16.0455635903
 20
5.9781752173
 30
0.0
  0
SPLINE
  5
498
100
AcDbEntity
  8
0
100
AcDbSpline
 62
7
  6
CONTINUOUS
 70
0
 71
3
 72
9
 73
5
 74
0
 42
0.0000001
 43
0.0000001
 44
0.0000000001
 40
0.0
 40
0.0
 40
0.0
 40
0.0
 40
0.4811406014
 40
1.0
 40
1.0
 40
1.0
 40
1.0
 10
14.7942980218
 20
11.327309004
 30
0.0
 10
14.7950840013
 20
11.3286304572
 30
0.0
 10
14.7971022758
 20
11.3311583057
 30
0.0
 10
14.7996434482
 20
11.3331395853
 30
0.0
 10
14.8010411712
 20
11.334031522
 30
0.0
  0
SPLINE
  5
499
100
AcDbEntity
  8
0
100
AcDbSpline
 62
7
  6
CONTINUOUS
 70
0
 71
3
 72
9
 73
5
 74
0
 42
0.0000001
 43
0.0000001
 44
0.0000000001
 40
0.0
 40
0.0
 40
0.0
 40
0.0
 40
0.2337677962
 40
1.0
 40
1.0
 40
1.0
 40
1.0
 10
14.8010411712
 20
11.334031522
 30
0.0
 10
14.8017836595
 20
11.3345053302
 30
0.0
 10
14.8050624051
 20
11.3363711993
 30
0.0
 10
14.8086689177
 20
11.3376211582
 30
0.0
 10
14.8114740163
 20
11.3383039134
 30
0.0
  0
SPLINE
  5
49A
100
AcDbEntity
  8
0
100
AcDbSpline
 62
7
  6
CONTINUOUS
 70
0
 71
3
 72
9
 73
5
 74
0
 42
0.0000001
 43
0.0000001
 44
0.0000000001
 40
0.0
 40
0.0
 40
0.0
 40
0.0
 40
0.2673409077
 40
1.0
 40
1.0
 40
1.0
 40
1.0
 10
14.8777328803
 20
11.3188404993
 30
0.0
 10
14.8784690212
 20
11.3180879106
 30
0.0
 10
14.8811266878
 20
11.3151843929
 30
0.0
 10
14.8834021476
 20
11.3119030441
 30
0.0
 10
14.884673166
 20
11.3093129809
 30
0.0
  0
SPLINE
  5
49B
100
AcDbEntity
  8
0
100
AcDbSpline
 62
7
  6
CONTINUOUS
 70
0
 71
3
 72
9
 73
5
 74
0
 42
0.0000001
 43
0.0000001
 44
0.0000000001
 40
0.0
 40
0.0
 40
0.0
 40
0.0
 40
0.491003519
 40
1.0
 40
1.0
 40
1.0
 40
1.0
 10
14.7903051338
 20
11.3159467614
 30
0.0
 10
14.7899334282
 20
11.3147440169
 30
0.0
 10
14.7894656759
 20
11.3121959243
 30
0.0
 10
14.7895932416
 20
11.3096124917
 30
0.0
 10
14.7897865716
 20
11.3083218875
 30
0.0
  0
SPLINE
  5
49C
100
AcDbEntity
  8
0
100
AcDbSpline
 62
7
  6
CONTINUOUS
 70
0
 71
3
 72
9
 73
5
 74
0
 42
0.0000001
 43
0.0000001
 44
0.0000000001
 40
0.0
 40
0.0
 40
0.0
 40
0.0
 40
0.2395559442
 40
1.0
 40
1.0
 40
1.0
 40
1.0
 10
14.7897865716
 20
11.3083218875
 30
0.0
 10
14.7898717942
 20
11.3077529706
 30
0.0
 10
14.7903309828
 20
11.3053938188
 30
0.0
 10
14.791184044
 20
11.3031190724
 30
0.0
 10
14.7919885253
 20
11.3014797118
 30
0.0
  0
SPLINE
  5
49D
100
AcDbEntity
  8
0
100
AcDbSpline
 62
7
  6
CONTINUOUS
 70
0
 71
3
 72
9
 73
5
 74
0
 42
0.0000001
 43
0.0000001
 44
0.0000000001
 40
0.0
 40
0.0
 40
0.0
 40
0.0
 40
0.2449358624
 40
1.0
 40
1.0
 40
1.0
 40
1.0
 10
15.9648729637
 20
12.919698979
 30
0.0
 10
15.9600216765
 20
12.923612344
 30
0.0
 10
15.9402376593
 20
12.939616727
 30
0.0
 10
15.9206071558
 20
12.955814052
 30
0.0
 10
15.9059712633
 20
12.9682630878
 30
0.0
  0
LINE
  5
49E
100
AcDbEntity
  8
0
100
AcDbLine
 62
7
  6
CONTINUOUS
 10
15.9059712633
 20
12.9682630878
 11
15.9035392268
 21
12.9703352231
  0
SPLINE
  5
49F
100
AcDbEntity
  8
0
100
AcDbSpline
 62
7
  6
CONTINUOUS
 70
0
 71
3
 72
12
 73
8
 74
0
 42
0.0000001
 43
0.0000001
 44
0.0000000001
 40
0.0
 40
0.0
 40
0.0
 40
0.0
 40
0.2425071032
 40
0.4927051162
 40
0.7472143038
 40
0.8743757771
 40
1.0
 40
1.0
 40
1.0
 40
1.0
 10
15.9035392268
 20
12.9703352231
 30
0.0
 10
15.8875948752
 20
12.9839432588
 30
0.0
 10
15.8556636541
 20
13.012149945
 30
0.0
 10
15.8097226783
 20
13.0576077815
 30
0.0
 10
15.7743635661
 20
13.0994132155
 30
0.0
 10
15.7496372759
 20
13.1356725323
 30
0.0
 10
15.7389262513
 20
13.154766826
 30
0.0
 10
15.7341431241
 20
13.1645153608
 30
0.0
  0
SPLINE
  5
4A0
100
AcDbEntity
  8
0
100
AcDbSpline
 62
7
  6
CONTINUOUS
 70
0
 71
3
 72
11
 73
7
 74
0
 42
0.0000001
 43
0.0000001
 44
0.0000000001
 40
0.0
 40
0.0
 40
0.0
 40
0.0
 40
0.2359177614
 40
0.4778441129
 40
0.7311818945
 40
1.0
 40
1.0
 40
1.0
 40
1.0
 10
14.4449577062
 20
12.1254964014
 30
0.0
 10
14.441411564
 20
12.1140170156
 30
0.0
 10
14.4365453923
 20
12.0899821066
 30
0.0
 10
14.4363681661
 20
12.052534404
 30
0.0
 10
14.4431962725
 20
12.0140360099
 30
0.0
 10
14.4520312425
 20
11.9888300697
 30
0.0
 10
14.4574308733
 20
11.9762497529
 30
0.0
  0
SPLINE
  5
4A1
100
AcDbEntity
  8
0
100
AcDbSpline
 62
7
  6
CONTINUOUS
 70
0
 71
3
 72
25
 73
21
 74
0
 42
0.0000001
 43
0.0000001
 44
0.0000000001
 40
0.0
 40
0.0
 40
0.0
 40
0.0
 40
0.0214606713
 40
0.0432171666
 40
0.0655460034
 40
0.0886901022
 40
0.1380818565
 40
0.1924668033
 40
0.2521129791
 40
0.3167218082
 40
0.3855749728
 40
0.4576554294
 40
0.5317464582
 40
0.6065165009
 40
0.6805970408
 40
0.7526555913
 40
0.8214786601
 40
0.8860490437
 40
0.9456589866
 40
1.0
 40
1.0
 40
1.0
 40
1.0
 10
14.5022838435
 20
12.1077812843
 30
0.0
 10
14.5045875705
 20
12.11523869
 30
0.0
 10
14.5103276214
 20
12.1299406012
 30
0.0
 10
14.5221214917
 20
12.150743159
 30
0.0
 10
14.5370206217
 20
12.1702244315
 30
0.0
 10
14.5613911663
 20
12.1947624042
 30
0.0
 10
14.5996388301
 20
12.2213292341
 30
0.0
 10
14.6543982238
 20
12.2451801692
 30
0.0
 10
14.7175788765
 20
12.261313475
 30
0.0
 10
14.7875314591
 20
12.2693681927
 30
0.0
 10
14.862438431
 20
12.2691741537
 30
0.0
 10
14.9403199492
 20
12.2607446738
 30
0.0
 10
15.0191016488
 20
12.2443078625
 30
0.0
 10
15.0966750901
 20
12.2203040661
 30
0.0
 10
15.1709602585
 20
12.189376339
 30
0.0
 10
15.239970478
 20
12.1523530073
 30
0.0
 10
15.3018616676
 20
12.110218055
 30
0.0
 10
15.3550047926
 20
12.0640684841
 30
0.0
 10
15.3979724101
 20
12.0151105484
 30
0.0
 10
15.4200882684
 20
11.9797457969
 30
0.0
 10
15.4287949489
 20
11.9620034476
 30
0.0
  0
SPLINE
  5
4A2
100
AcDbEntity
  8
0
100
AcDbSpline
 62
7
  6
CONTINUOUS
 70
0
 71
3
 72
11
 73
7
 74
0
 42
0.0000001
 43
0.0000001
 44
0.0000000001
 40
0.0
 40
0.0
 40
0.0
 40
0.0
 40
0.2668725782
 40
0.5214273932
 40
0.7650420022
 40
1.0
 40
1.0
 40
1.0
 40
1.0
 10
15.4895849745
 20
11.9620034476
 30
0.0
 10
15.4943201619
 20
11.9523541501
 30
0.0
 10
15.5026405969
 20
11.9330213213
 30
0.0
 10
15.5116011084
 20
11.9034670496
 30
0.0
 10
15.5166291925
 20
11.8742919304
 30
0.0
 10
15.5173360362
 20
11.854956644
 30
0.0
 10
15.5169972232
 20
11.8454995675
 30
0.0
  0
SPLINE
  5
4A3
100
AcDbEntity
  8
0
100
AcDbSpline
 62
7
  6
CONTINUOUS
 70
0
 71
3
 72
9
 73
5
 74
0
 42
0.0000001
 43
0.0000001
 44
0.0000000001
 40
0.0
 40
0.0
 40
0.0
 40
0.0
 40
0.2536917946
 40
1.0
 40
1.0
 40
1.0
 40
1.0
 10
14.8870836152
 20
11.2998186286
 30
0.0
 10
14.8870855678
 20
11.2994421088
 30
0.0
 10
14.8870455403
 20
11.2979581459
 30
0.0
 10
14.8868077933
 20
11.2964790218
 30
0.0
 10
14.8865194977
 20
11.2954095405
 30
0.0
  0
SPLINE
  5
4A4
100
AcDbEntity
  8
0
100
AcDbSpline
 62
7
  6
CONTINUOUS
 70
0
 71
3
 72
9
 73
5
 74
0
 42
0.0000001
 43
0.0000001
 44
0.0000000001
 40
0.0
 40
0.0
 40
0.0
 40
0.0
 40
0.2369841118
 40
1.0
 40
1.0
 40
1.0
 40
1.0
 10
15.9291684898
 20
12.0946612779
 30
0.0
 10
15.9293259506
 20
12.0951742412
 30
0.0
 10
15.9301302157
 20
12.0972957974
 30
0.0
 10
15.9313954954
 20
12.0992215829
 30
0.0
 10
15.9324934366
 20
12.100555479
 30
0.0
  0
SPLINE
  5
4A5
100
AcDbEntity
  8
0
100
AcDbSpline
 62
7
  6
CONTINUOUS
 70
0
 71
3
 72
9
 73
5
 74
0
 42
0.0000001
 43
0.0000001
 44
0.0000000001
 40
0.0
 40
0.0
 40
0.0
 40
0.0
 40
0.4918024113
 40
1.0
 40
1.0
 40
1.0
 40
1.0
 10
15.9324934366
 20
12.100555479
 30
0.0
 10
15.9340705366
 20
12.1024715083
 30
0.0
 10
15.9379097775
 20
12.1058703574
 30
0.0
 10
15.9425294445
 20
12.1080775833
 30
0.0
 10
15.9449767006
 20
12.1088436116
 30
0.0
  0
SPLINE
  5
4A6
100
AcDbEntity
  8
0
100
AcDbSpline
 62
7
  6
CONTINUOUS
 70
0
 71
3
 72
9
 73
5
 74
0
 42
0.0000001
 43
0.0000001
 44
0.0000000001
 40
0.0
 40
0.0
 40
0.0
 40
0.0
 40
0.2571342944
 40
1.0
 40
1.0
 40
1.0
 40
1.0
 10
15.9449767006
 20
12.1088436116
 30
0.0
 10
15.9455866967
 20
12.1090345496
 30
0.0
 10
15.9479849659
 20
12.109689407
 30
0.0
 10
15.950481059
 20
12.1100025623
 30
0.0
 10
15.952327665
 20
12.1100021652
 30
0.0
  0
SPLINE
  5
4A7
100
AcDbEntity
  8
0
100
AcDbSpline
 62
7
  6
CONTINUOUS
 70
0
 71
3
 72
10
 73
6
 74
0
 42
0.0000001
 43
0.0000001
 44
0.0000000001
 40
0.0
 40
0.0
 40
0.0
 40
0.0
 40
0.2436546722
 40
0.4901392401
 40
1.0
 40
1.0
 40
1.0
 40
1.0
 10
16.1908048272
 20
13.1731195104
 30
0.0
 10
16.1885768985
 20
13.1776615988
 30
0.0
 10
16.1833650939
 20
13.186462528
 30
0.0
 10
16.1701277124
 20
13.2025355553
 30
0.0
 10
16.1574412394
 20
13.2122623612
 30
0.0
 10
16.1482790929
 20
13.2175658254
 30
0.0
  0
SPLINE
  5
4A8
100
AcDbEntity
  8
0
100
AcDbSpline
 62
7
  6
CONTINUOUS
 70
0
 71
3
 72
9
 73
5
 74
0
 42
0.0000001
 43
0.0000001
 44
0.0000000001
 40
0.0
 40
0.0
 40
0.0
 40
0.0
 40
0.2485136049
 40
1.0
 40
1.0
 40
1.0
 40
1.0
 10
14.4749949343
 20
13.3122561576
 30
0.0
 10
14.4753223143
 20
13.3133155598
 30
0.0
 10
14.4768477978
 20
13.31751279
 30
0.0
 10
14.4791578602
 20
13.3214134918
 30
0.0
 10
14.481211664
 20
13.3240639036
 30
0.0
  0
SPLINE
  5
4A9
100
AcDbEntity
  8
0
100
AcDbSpline
 62
7
  6
CONTINUOUS
 70
0
 71
3
 72
15
 73
11
 74
0
 42
0.0000001
 43
0.0000001
 44
0.0000000001
 40
0.0
 40
0.0
 40
0.0
 40
0.0
 40
0.1255578433
 40
0.2502720788
 40
0.3748344869
 40
0.4995631746
 40
0.6245609166
 40
0.7497028678
 40
0.8748964631
 40
1.0
 40
1.0
 40
1.0
 40
1.0
 10
14.4950220082
 20
13.3355104968
 30
0.0
 10
14.4971161034
 20
13.3365763167
 30
0.0
 10
14.5014936801
 20
13.3383298659
 30
0.0
 10
14.5084348355
 20
13.3396316109
 30
0.0
 10
14.5154893329
 20
13.3394271328
 30
0.0
 10
14.5223252614
 20
13.3376269981
 30
0.0
 10
14.5285531498
 20
13.3342495031
 30
0.0
 10
14.5337817768
 20
13.3294507744
 30
0.0
 10
14.5376741102
 20
13.3235194823
 30
0.0
 10
14.5392403976
 20
13.3190481143
 30
0.0
 10
14.5397458354
 20
13.316762101
 30
0.0
  0
SPLINE
  5
4AA
100
AcDbEntity
  8
0
100
AcDbSpline
 62
7
  6
CONTINUOUS
 70
0
 71
3
 72
9
 73
5
 74
0
 42
0.0000001
 43
0.0000001
 44
0.0000000001
 40
0.0
 40
0.0
 40
0.0
 40
0.0
 40
0.2504405964
 40
1.0
 40
1.0
 40
1.0
 40
1.0
 10
14.5397458354
 20
13.316762101
 30
0.0
 10
14.5399579316
 20
13.3158028244
 30
0.0
 10
14.540611483
 20
13.3119313056
 30
0.0
 10
14.540495867
 20
13.3079375907
 30
0.0
 10
14.5400095515
 20
13.3050376666
 30
0.0
  0
SPLINE
  5
4AB
100
AcDbEntity
  8
0
100
AcDbSpline
 62
7
  6
CONTINUOUS
 70
0
 71
3
 72
9
 73
5
 74
0
 42
0.0000001
 43
0.0000001
 44
0.0000000001
 40
0.0
 40
0.0
 40
0.0
 40
0.0
 40
0.2507208401
 40
1.0
 40
1.0
 40
1.0
 40
1.0
 10
14.5045107089
 20
13.2735232739
 30
0.0
 10
14.5035782105
 20
13.2734790611
 30
0.0
 10
14.4998535792
 20
13.2734637905
 30
0.0
 10
14.4961220092
 20
13.2741149084
 30
0.0
 10
14.4934702334
 20
13.2749818778
 30
0.0
  0
SPLINE
  5
4AC
100
AcDbEntity
  8
0
100
AcDbSpline
 62
7
  6
CONTINUOUS
 70
0
 71
3
 72
11
 73
7
 74
0
 42
0.0000001
 43
0.0000001
 44
0.0000000001
 40
0.0
 40
0.0
 40
0.0
 40
0.0
 40
0.2500999973
 40
0.5003931156
 40
0.7503205671
 40
1.0
 40
1.0
 40
1.0
 40
1.0
 10
14.4915692058
 20
13.2756769753
 30
0.0
 10
14.4881729159
 20
13.2770533367
 30
0.0
 10
14.4818268368
 20
13.2811350977
 30
0.0
 10
14.475392908
 20
13.2903843335
 30
0.0
 10
14.4728762327
 20
13.3013428723
 30
0.0
 10
14.4739147957
 20
13.3087608279
 30
0.0
 10
14.4749949343
 20
13.3122561576
 30
0.0
  0
LINE
  5
4AD
100
AcDbEntity
  8
0
100
AcDbLine
 62
7
  6
CONTINUOUS
 10
14.4946423551
 20
13.2748214947
 11
14.4950449062
 21
13.273431577
  0
SPLINE
  5
4AE
100
AcDbEntity
  8
0
100
AcDbSpline
 62
7
  6
CONTINUOUS
 70
0
 71
3
 72
17
 73
13
 74
0
 42
0.0000001
 43
0.0000001
 44
0.0000000001
 40
0.0
 40
0.0
 40
0.0
 40
0.0
 40
0.183961393
 40
0.2972461977
 40
0.3398707779
 40
0.3663914614
 40
0.4030317549
 40
0.4538056627
 40
0.51766115
 40
0.5935922532
 40
0.777905288
 40
1.0
 40
1.0
 40
1.0
 40
1.0
 10
14.540692103
 20
13.3143064593
 30
0.0
 10
14.54088058
 20
13.314312905
 30
0.0
 10
14.5412294322
 20
13.3143086929
 30
0.0
 10
14.5414655325
 20
13.3143115859
 30
0.0
 10
14.5417944798
 20
13.3142722903
 30
0.0
 10
14.5416353
 20
13.3143113765
 30
0.0
 10
14.5415400255
 20
13.3143354134
 30
0.0
 10
14.5413829764
 20
13.3143784653
 30
0.0
 10
14.5411988282
 20
13.3144344251
 30
0.0
 10
14.5408825593
 20
13.3145405862
 30
0.0
 10
14.540423069
 20
13.3147222807
 30
0.0
 10
14.540048219
 20
13.3149058537
 30
0.0
 10
14.539847247
 20
13.3150128499
 30
0.0
  0
SPLINE
  5
4AF
100
AcDbEntity
  8
0
100
AcDbSpline
 62
7
  6
CONTINUOUS
 70
0
 71
3
 72
17
 73
13
 74
0
 42
0.0000001
 43
0.0000001
 44
0.0000000001
 40
0.0
 40
0.0
 40
0.0
 40
0.0
 40
0.0505051421
 40
0.1018430142
 40
0.1547435017
 40
0.2097723317
 40
0.3271380577
 40
0.4546715742
 40
0.5900477306
 40
0.7292253921
 40
0.8674050981
 40
1.0
 40
1.0
 40
1.0
 40
1.0
 10
16.9948611071
 20
11.8437048285
 30
0.0
 10
16.9962991444
 20
11.8407756417
 30
0.0
 10
16.9986432001
 20
11.8345781931
 30
0.0
 10
17.0004001229
 20
11.8246826683
 30
0.0
 10
17.0003878508
 20
11.8143407973
 30
0.0
 10
16.9979804776
 20
11.7999284055
 30
0.0
 10
16.9904054267
 20
11.7817920953
 30
0.0
 10
16.9754921815
 20
11.7620079339
 30
0.0
 10
16.9556555651
 20
11.744950036
 30
0.0
 10
16.9322742963
 20
11.7317784384
 30
0.0
 10
16.9069843321
 20
11.7233869178
 30
0.0
 10
16.8894489017
 20
11.7213181804
 30
0.0
 10
16.8808819361
 20
11.7213181804
 30
0.0
  0
SPLINE
  5
4B0
100
AcDbEntity
  8
0
100
AcDbSpline
 62
7
  6
CONTINUOUS
 70
0
 71
3
 72
17
 73
13
 74
0
 42
0.0000001
 43
0.0000001
 44
0.0000000001
 40
0.0
 40
0.0
 40
0.0
 40
0.0
 40
0.0505051421
 40
0.1018430142
 40
0.1547435017
 40
0.2097723317
 40
0.3271380577
 40
0.4546715742
 40
0.5900477306
 40
0.7292253921
 40
0.8674050981
 40
1.0
 40
1.0
 40
1.0
 40
1.0
 10
17.1582558754
 20
12.3724504925
 30
0.0
 10
17.1596939127
 20
12.3695213057
 30
0.0
 10
17.1620379684
 20
12.3633238571
 30
0.0
 10
17.1637948912
 20
12.3534283323
 30
0.0
 10
17.1637826191
 20
12.3430864613
 30
0.0
 10
17.1613752459
 20
12.3286740695
 30
0.0
 10
17.153800195
 20
12.3105377593
 30
0.0
 10
17.1388869498
 20
12.2907535979
 30
0.0
 10
17.1190503334
 20
12.2736957
 30
0.0
 10
17.0956690646
 20
12.2605241024
 30
0.0
 10
17.0703791004
 20
12.2521325818
 30
0.0
 10
17.05284367
 20
12.2500638444
 30
0.0
 10
17.0442767044
 20
12.2500638444
 30
0.0
  0
SPLINE
  5
4B1
100
AcDbEntity
  8
0
100
AcDbSpline
 62
7
  6
CONTINUOUS
 70
0
 71
3
 72
9
 73
5
 74
0
 42
0.0000001
 43
0.0000001
 44
0.0000000001
 40
0.0
 40
0.0
 40
0.0
 40
0.0
 40
0.4955375247
 40
1.0
 40
1.0
 40
1.0
 40
1.0
 10
13.9438465645
 20
11.8437048285
 30
0.0
 10
13.9453520634
 20
11.8406382269
 30
0.0
 10
13.9477803423
 20
11.8341320698
 30
0.0
 10
13.9489034763
 20
11.8272837165
 30
0.0
 10
13.9491549331
 20
11.8238150688
 30
0.0
  0
SPLINE
  5
4B2
100
AcDbEntity
  8
0
100
AcDbSpline
 62
7
  6
CONTINUOUS
 70
0
 71
3
 72
10
 73
6
 74
0
 42
0.0000001
 43
0.0000001
 44
0.0000000001
 40
0.0
 40
0.0
 40
0.0
 40
0.0
 40
0.2548578217
 40
0.5098548549
 40
1.0
 40
1.0
 40
1.0
 40
1.0
 10
13.9038462029
 20
11.7454669761
 30
0.0
 10
13.8983537789
 20
11.7416398212
 30
0.0
 10
13.8867694898
 20
11.7347933535
 30
0.0
 10
13.8624366437
 20
11.7247903005
 30
0.0
 10
13.8427419655
 20
11.7213181804
 30
0.0
 10
13.8298673935
 20
11.7213181804
 30
0.0
  0
SPLINE
  5
4B3
100
AcDbEntity
  8
0
100
AcDbSpline
 62
7
  6
CONTINUOUS
 70
0
 71
3
 72
11
 73
7
 74
0
 42
0.0000001
 43
0.0000001
 44
0.0000000001
 40
0.0
 40
0.0
 40
0.0
 40
0.0
 40
0.2592487804
 40
0.511097812
 40
0.7573126408
 40
1.0
 40
1.0
 40
1.0
 40
1.0
 10
15.7215065496
 20
12.6675145917
 30
0.0
 10
15.7207246833
 20
12.6625907904
 30
0.0
 10
15.7197559664
 20
12.6527801264
 30
0.0
 10
15.7201982533
 20
12.6381820962
 30
0.0
 10
15.7225481565
 20
12.624088152
 30
0.0
 10
15.7253918025
 20
12.6150875032
 30
0.0
 10
15.7271122038
 20
12.6107491651
 30
0.0
  0
SPLINE
  5
4B4
100
AcDbEntity
  8
0
100
AcDbSpline
 62
7
  6
CONTINUOUS
 70
0
 71
3
 72
11
 73
7
 74
0
 42
0.0000001
 43
0.0000001
 44
0.0000000001
 40
0.0
 40
0.0
 40
0.0
 40
0.0
 40
0.2597969
 40
0.5113942207
 40
0.7571941479
 40
1.0
 40
1.0
 40
1.0
 40
1.0
 10
13.8103049871
 20
12.6675145917
 30
0.0
 10
13.8094177492
 20
12.661927213
 30
0.0
 10
13.8084085688
 20
12.6507928426
 30
0.0
 10
13.8093527377
 20
12.6342691443
 30
0.0
 10
13.8127698852
 20
12.6184499065
 30
0.0
 10
13.81668115
 20
12.6084954039
 30
0.0
 10
13.8190096223
 20
12.603748337
 30
0.0
  0
SPLINE
  5
4B5
100
AcDbEntity
  8
0
100
AcDbSpline
 62
7
  6
CONTINUOUS
 70
0
 71
3
 72
9
 73
5
 74
0
 42
0.0000001
 43
0.0000001
 44
0.0000000001
 40
0.0
 40
0.0
 40
0.0
 40
0.0
 40
0.4815062377
 40
1.0
 40
1.0
 40
1.0
 40
1.0
 10
14.7942980172
 20
11.3273090058
 30
0.0
 10
14.7950719161
 20
11.3286101696
 30
0.0
 10
14.7970516019
 20
11.3311007622
 30
0.0
 10
14.7995414105
 20
11.3330625581
 30
0.0
 10
14.8009104462
 20
11.3339476173
 30
0.0
  0
SPLINE
  5
4B6
100
AcDbEntity
  8
0
100
AcDbSpline
 62
7
  6
CONTINUOUS
 70
0
 71
3
 72
13
 73
9
 74
0
 42
0.0000001
 43
0.0000001
 44
0.0000000001
 40
0.0
 40
0.0
 40
0.0
 40
0.0
 40
0.1127579908
 40
0.2349101046
 40
0.4965194276
 40
0.7600315216
 40
0.8843830765
 40
1.0
 40
1.0
 40
1.0
 40
1.0
 10
14.8112502467
 20
11.3382488579
 30
0.0
 10
14.8138702085
 20
11.338900882
 30
0.0
 10
14.8194566489
 20
11.3397670951
 30
0.0
 10
14.8313736698
 20
11.3398979988
 30
0.0
 10
14.84677491
 20
11.3371418182
 30
0.0
 10
14.8612775849
 20
11.3311479369
 30
0.0
 10
14.8714235594
 20
11.3245867623
 30
0.0
 10
14.875797098
 20
11.3208194988
 30
0.0
 10
14.8777328683
 20
11.3188404963
 30
0.0
  0
SPLINE
  5
4B7
100
AcDbEntity
  8
0
100
AcDbSpline
 62
7
  6
CONTINUOUS
 70
0
 71
3
 72
9
 73
5
 74
0
 42
0.0000001
 43
0.0000001
 44
0.0000000001
 40
0.0
 40
0.0
 40
0.0
 40
0.0
 40
0.2673482701
 40
1.0
 40
1.0
 40
1.0
 40
1.0
 10
14.8777328683
 20
11.3188404963
 30
0.0
 10
14.8784690335
 20
11.3180878901
 30
0.0
 10
14.8811267164
 20
11.3151843831
 30
0.0
 10
14.8834021596
 20
11.3119030196
 30
0.0
 10
14.884673166
 20
11.3093129809
 30
0.0
  0
LINE
  5
4B8
100
AcDbEntity
  8
0
100
AcDbLine
 62
7
  6
CONTINUOUS
 10
14.4284218489
 20
11.2499551776
 11
14.4298148915
 21
11.2485737223
  0
SPLINE
  5
4B9
100
AcDbEntity
  8
0
100
AcDbSpline
 62
7
  6
CONTINUOUS
 70
0
 71
3
 72
11
 73
7
 74
0
 42
0.0000001
 43
0.0000001
 44
0.0000000001
 40
0.0
 40
0.0
 40
0.0
 40
0.0
 40
0.2362246164
 40
0.4908914999
 40
0.7506915269
 40
1.0
 40
1.0
 40
1.0
 40
1.0
 10
14.4298148915
 20
11.2485737223
 30
0.0
 10
14.4311324431
 20
11.2473857887
 30
0.0
 10
14.4341690088
 20
11.2452419731
 30
0.0
 10
14.4393051048
 20
11.2428576634
 30
0.0
 10
14.4448582432
 20
11.2413256304
 30
0.0
 10
14.4486867788
 20
11.2409358844
 30
0.0
 10
14.4505590516
 20
11.2409358844
 30
0.0
  0
SPLINE
  5
4BA
100
AcDbEntity
  8
0
100
AcDbSpline
 62
7
  6
CONTINUOUS
 70
0
 71
3
 72
11
 73
7
 74
0
 42
0.0000001
 43
0.0000001
 44
0.0000000001
 40
0.0
 40
0.0
 40
0.0
 40
0.0
 40
0.2899006405
 40
0.549004655
 40
0.782199974
 40
1.0
 40
1.0
 40
1.0
 40
1.0
 10
16.2265536506
 20
11.2453015925
 30
0.0
 10
16.2284801839
 20
11.2457538743
 30
0.0
 10
16.232072832
 20
11.2469038666
 30
0.0
 10
16.2367570561
 20
11.2495627944
 30
0.0
 10
16.2402624354
 20
11.2530045762
 30
0.0
 10
16.2416986916
 20
11.25580424
 30
0.0
 10
16.2421376313
 20
11.2572247075
 30
0.0
  0
SPLINE
  5
4BB
100
AcDbEntity
  8
0
100
AcDbSpline
 62
7
  6
CONTINUOUS
 70
0
 71
3
 72
11
 73
7
 74
0
 42
0.0000001
 43
0.0000001
 44
0.0000000001
 40
0.0
 40
0.0
 40
0.0
 40
0.0
 40
0.2327991649
 40
0.474944929
 40
0.7298929144
 40
1.0
 40
1.0
 40
1.0
 40
1.0
 10
13.9942430245
 20
11.9118201985
 30
0.0
 10
13.9962027123
 20
11.9272309887
 30
0.0
 10
13.9976284234
 20
11.9590477981
 30
0.0
 10
13.9923467619
 20
12.0076351776
 30
0.0
 10
13.9796907758
 20
12.0573975671
 30
0.0
 10
13.9667783931
 20
12.0900746174
 30
0.0
 10
13.9592383902
 20
12.1064462473
 30
0.0
  0
SPLINE
  5
4BC
100
AcDbEntity
  8
0
100
AcDbSpline
 62
7
  6
CONTINUOUS
 70
0
 71
3
 72
9
 73
5
 74
0
 42
0.0000001
 43
0.0000001
 44
0.0000000001
 40
0.0
 40
0.0
 40
0.0
 40
0.0
 40
0.2568767247
 40
1.0
 40
1.0
 40
1.0
 40
1.0
 10
16.9795108598
 20
12.1210645664
 30
0.0
 10
16.98151317
 20
12.1205432644
 30
0.0
 10
16.9893652274
 20
12.1187474696
 30
0.0
 10
16.9974423966
 20
12.1178774284
 30
0.0
 10
17.0034280123
 20
12.1178774284
 30
0.0
  0
SPLINE
  5
4BD
100
AcDbEntity
  8
0
100
AcDbSpline
 62
7
  6
CONTINUOUS
 70
0
 71
3
 72
12
 73
8
 74
0
 42
0.0000001
 43
0.0000001
 44
0.0000000001
 40
0.0
 40
0.0
 40
0.0
 40
0.0
 40
0.277713018
 40
0.5345457478
 40
0.7725317912
 40
0.8870203684
 40
1.0
 40
1.0
 40
1.0
 40
1.0
 10
16.7772625743
 20
11.7213181804
 30
0.0
 10
16.7700609535
 20
11.7213181804
 30
0.0
 10
16.7561361951
 20
11.722701091
 30
0.0
 10
16.7370247658
 20
11.7293676018
 30
0.0
 10
16.7239233352
 20
11.7386770817
 30
0.0
 10
16.7160432519
 20
11.7478819155
 30
0.0
 10
16.7129887415
 20
11.7529674407
 30
0.0
 10
16.7116974877
 20
11.7555973154
 30
0.0
  0
SPLINE
  5
4BE
100
AcDbEntity
  8
0
100
AcDbSpline
 62
7
  6
CONTINUOUS
 70
0
 71
3
 72
12
 73
8
 74
0
 42
0.0000001
 43
0.0000001
 44
0.0000000001
 40
0.0
 40
0.0
 40
0.0
 40
0.0
 40
0.277713018
 40
0.5345457478
 40
0.7725317912
 40
0.8870203684
 40
1.0
 40
1.0
 40
1.0
 40
1.0
 10
16.9406573426
 20
12.2500638444
 30
0.0
 10
16.9334557218
 20
12.2500638444
 30
0.0
 10
16.9195309634
 20
12.251446755
 30
0.0
 10
16.9004195341
 20
12.2581132658
 30
0.0
 10
16.8873181035
 20
12.2674227457
 30
0.0
 10
16.8794380202
 20
12.2766275795
 30
0.0
 10
16.8763835098
 20
12.2817131047
 30
0.0
 10
16.875092256
 20
12.2843429794
 30
0.0
  0
SPLINE
  5
4BF
100
AcDbEntity
  8
0
100
AcDbSpline
 62
7
  6
CONTINUOUS
 70
0
 71
3
 72
16
 73
12
 74
0
 42
0.0000001
 43
0.0000001
 44
0.0000000001
 40
0.0
 40
0.0
 40
0.0
 40
0.0
 40
0.0507730815
 40
0.1085974636
 40
0.1684966311
 40
0.2297927426
 40
0.3552014098
 40
0.4825061053
 40
0.6110233036
 40
0.7403379021
 40
1.0
 40
1.0
 40
1.0
 40
1.0
 10
16.621627771
 20
11.6613101493
 30
0.0
 10
16.621082045
 20
11.6624117855
 30
0.0
 10
16.6195812046
 20
11.6645931515
 30
0.0
 10
16.6169846911
 20
11.667735762
 30
0.0
 10
16.6140973048
 20
11.6709716369
 30
0.0
 10
16.6100046461
 20
11.6753195053
 30
0.0
 10
16.6046741992
 20
11.6807424587
 30
0.0
 10
16.5981282369
 20
11.6872508642
 30
0.0
 10
16.5914848379
 20
11.6937954567
 30
0.0
 10
16.5825504183
 20
11.7025810209
 30
0.0
 10
16.5758391632
 20
11.7091891744
 30
0.0
 10
16.5713534904
 20
11.7135947944
 30
0.0
  0
SPLINE
  5
4C0
100
AcDbEntity
  8
0
100
AcDbSpline
 62
7
  6
CONTINUOUS
 70
0
 71
3
 72
9
 73
5
 74
0
 42
0.0000001
 43
0.0000001
 44
0.0000000001
 40
0.0
 40
0.0
 40
0.0
 40
0.0
 40
0.5102941461
 40
1.0
 40
1.0
 40
1.0
 40
1.0
 10
17.0730852564
 20
12.5242282627
 30
0.0
 10
17.0772040221
 20
12.5242282627
 30
0.0
 10
17.0852793972
 20
12.5237967106
 30
0.0
 10
17.0932657511
 20
12.5224206297
 30
0.0
 10
17.0970871981
 20
12.5214109206
 30
0.0
  0
SPLINE
  5
4C1
100
AcDbEntity
  8
0
100
AcDbSpline
 62
7
  6
CONTINUOUS
 70
0
 71
3
 72
11
 73
7
 74
0
 42
0.0000001
 43
0.0000001
 44
0.0000000001
 40
0.0
 40
0.0
 40
0.0
 40
0.0
 40
0.2299249332
 40
0.4838450246
 40
0.7467746116
 40
1.0
 40
1.0
 40
1.0
 40
1.0
 10
17.2487766621
 20
11.3942783576
 30
0.0
 10
17.247433707
 20
11.3899325536
 30
0.0
 10
17.2425575269
 20
11.3813913717
 30
0.0
 10
17.2313839222
 20
11.3714293803
 30
0.0
 10
17.2175114774
 20
11.364701115
 30
0.0
 10
17.207261095
 20
11.3629452812
 30
0.0
 10
17.2022515694
 20
11.3629452812
 30
0.0
  0
SPLINE
  5
4C2
100
AcDbEntity
  8
0
100
AcDbSpline
 62
7
  6
CONTINUOUS
 70
0
 71
3
 72
9
 73
5
 74
0
 42
0.0000001
 43
0.0000001
 44
0.0000000001
 40
0.0
 40
0.0
 40
0.0
 40
0.0
 40
0.4989909083
 40
1.0
 40
1.0
 40
1.0
 40
1.0
 10
13.4303364488
 20
11.6050983126
 30
0.0
 10
13.4285767824
 20
11.6086841357
 30
0.0
 10
13.4264758087
 20
11.6166562888
 30
0.0
 10
13.4275319974
 20
11.6247932815
 30
0.0
 10
13.4287160782
 20
11.6286249684
 30
0.0
  0
SPLINE
  5
4C3
100
AcDbEntity
  8
0
100
AcDbSpline
 62
7
  6
CONTINUOUS
 70
0
 71
3
 72
11
 73
7
 74
0
 42
0.0000001
 43
0.0000001
 44
0.0000000001
 40
0.0
 40
0.0
 40
0.0
 40
0.0
 40
0.2778446591
 40
0.5350155313
 40
0.7731433055
 40
1.0
 40
1.0
 40
1.0
 40
1.0
 10
13.568665948
 20
11.3629452812
 30
0.0
 10
13.5657862594
 20
11.3629452812
 30
0.0
 10
13.5602171122
 20
11.3634991677
 30
0.0
 10
13.5525685502
 20
11.366168114
 30
0.0
 10
13.5463733498
 20
11.3705624543
 30
0.0
 10
13.5434755064
 20
11.3745460475
 30
0.0
 10
13.542439493
 20
11.3766567247
 30
0.0
  0
SPLINE
  5
4C4
100
AcDbEntity
  8
0
100
AcDbSpline
 62
7
  6
CONTINUOUS
 70
0
 71
3
 72
10
 73
6
 74
0
 42
0.0000001
 43
0.0000001
 44
0.0000000001
 40
0.0
 40
0.0
 40
0.0
 40
0.0
 40
0.2394923745
 40
0.4839210283
 40
1.0
 40
1.0
 40
1.0
 40
1.0
 10
17.5129059543
 20
12.2696429566
 30
0.0
 10
17.5135397244
 20
12.2683517725
 30
0.0
 10
17.5145497523
 20
12.2655994422
 30
0.0
 10
17.5154392404
 20
12.2596284161
 30
0.0
 10
17.5147543934
 20
12.2549826116
 30
0.0
 10
17.5138392862
 20
12.2520213236
 30
0.0
  0
SPLINE
  5
4C5
100
AcDbEntity
  8
0
100
AcDbSpline
 62
7
  6
CONTINUOUS
 70
0
 71
3
 72
9
 73
5
 74
0
 42
0.0000001
 43
0.0000001
 44
0.0000000001
 40
0.0
 40
0.0
 40
0.0
 40
0.0
 40
0.2595415323
 40
1.0
 40
1.0
 40
1.0
 40
1.0
 10
17.1062654726
 20
12.5190278858
 30
0.0
 10
17.1083038013
 20
12.5185508644
 30
0.0
 10
17.1162038188
 20
12.5169244904
 30
0.0
 10
17.1242870607
 20
12.5161295252
 30
0.0
 10
17.1302594285
 20
12.5161295252
 30
0.0
  0
SPLINE
  5
4C6
100
AcDbEntity
  8
0
100
AcDbSpline
 62
7
  6
CONTINUOUS
 70
0
 71
3
 72
11
 73
7
 74
0
 42
0.0000001
 43
0.0000001
 44
0.0000000001
 40
0.0
 40
0.0
 40
0.0
 40
0.0
 40
0.2532903265
 40
0.5033540199
 40
0.7518871775
 40
1.0
 40
1.0
 40
1.0
 40
1.0
 10
17.3697352869
 20
12.5161295252
 30
0.0
 10
17.37292388
 20
12.5161295252
 30
0.0
 10
17.3792915525
 20
12.5153972783
 30
0.0
 10
17.388215171
 20
12.5119150566
 30
0.0
 10
17.3957724013
 20
12.5061055824
 30
0.0
 10
17.3994272288
 20
12.500888684
 30
0.0
 10
17.4008032266
 20
12.4980846953
 30
0.0
  0
SPLINE
  5
4C7
100
AcDbEntity
  8
0
100
AcDbSpline
 62
7
  6
CONTINUOUS
 70
0
 71
3
 72
9
 73
5
 74
0
 42
0.0000001
 43
0.0000001
 44
0.0000000001
 40
0.0
 40
0.0
 40
0.0
 40
0.0
 40
0.4981693569
 40
1.0
 40
1.0
 40
1.0
 40
1.0
 10
16.4885841135
 20
11.8271976017
 30
0.0
 10
16.498905288
 20
11.8061720432
 30
0.0
 10
16.523607101
 20
11.7658500649
 30
0.0
 10
16.5545170819
 20
11.7301244525
 30
0.0
 10
16.5713534904
 20
11.7135947944
 30
0.0
  0
SPLINE
  5
4C8
100
AcDbEntity
  8
0
100
AcDbSpline
 62
7
  6
CONTINUOUS
 70
0
 71
3
 72
13
 73
9
 74
0
 42
0.0000001
 43
0.0000001
 44
0.0000000001
 40
0.0
 40
0.0
 40
0.0
 40
0.0
 40
0.1238371378
 40
0.2484083051
 40
0.4983803041
 40
0.7489648452
 40
0.8744897494
 40
1.0
 40
1.0
 40
1.0
 40
1.0
 10
16.6519800853
 20
12.3559434739
 30
0.0
 10
16.6577778959
 20
12.3441281619
 30
0.0
 10
16.6706790871
 20
12.3210311352
 30
0.0
 10
16.7008738801
 20
12.2774400943
 30
0.0
 10
16.7460963355
 20
12.2282367386
 30
0.0
 10
16.7997770175
 20
12.1881513154
 30
0.0
 10
16.84695528
 20
12.1631476443
 30
0.0
 10
16.8718204627
 20
12.1532853641
 30
0.0
 10
16.8844862244
 20
12.1491012499
 30
0.0
  0
SPLINE
  5
4C9
100
AcDbEntity
  8
0
100
AcDbSpline
 62
7
  6
CONTINUOUS
 70
0
 71
3
 72
12
 73
8
 74
0
 42
0.0000001
 43
0.0000001
 44
0.0000000001
 40
0.0
 40
0.0
 40
0.0
 40
0.0
 40
0.2640466394
 40
0.5216519032
 40
0.6476571115
 40
0.7715890741
 40
1.0
 40
1.0
 40
1.0
 40
1.0
 10
16.890283025
 20
12.5919349747
 30
0.0
 10
16.8918339661
 20
12.5912823439
 30
0.0
 10
16.8948660089
 20
12.5899146082
 30
0.0
 10
16.8985150015
 20
12.5879779974
 30
0.0
 10
16.9012411839
 20
12.5862263432
 30
0.0
 10
16.9036851318
 20
12.5844270175
 30
0.0
 10
16.9053279777
 20
12.5827694339
 30
0.0
 10
16.9059777234
 20
12.5814669324
 30
0.0
  0
SPLINE
  5
4CA
100
AcDbEntity
  8
0
100
AcDbSpline
 62
7
  6
CONTINUOUS
 70
0
 71
3
 72
9
 73
5
 74
0
 42
0.0000001
 43
0.0000001
 44
0.0000000001
 40
0.0
 40
0.0
 40
0.0
 40
0.0
 40
0.5113627415
 40
1.0
 40
1.0
 40
1.0
 40
1.0
 10
16.8492719769
 20
12.6099540762
 30
0.0
 10
16.8059612131
 20
12.6297958475
 30
0.0
 10
16.7230684958
 20
12.672689361
 30
0.0
 10
16.6450565817
 20
12.724010809
 30
0.0
 10
16.6085861281
 20
12.7512539194
 30
0.0
  0
SPLINE
  5
4CB
100
AcDbEntity
  8
0
100
AcDbSpline
 62
7
  6
CONTINUOUS
 70
0
 71
3
 72
12
 73
8
 74
0
 42
0.0000001
 43
0.0000001
 44
0.0000000001
 40
0.0
 40
0.0
 40
0.0
 40
0.0
 40
0.277713018
 40
0.5345457478
 40
0.7725317912
 40
0.8870203684
 40
1.0
 40
1.0
 40
1.0
 40
1.0
 10
13.7262480316
 20
11.7213181804
 30
0.0
 10
13.7190464108
 20
11.7213181804
 30
0.0
 10
13.7051216525
 20
11.722701091
 30
0.0
 10
13.6860102231
 20
11.7293676018
 30
0.0
 10
13.6729087926
 20
11.7386770817
 30
0.0
 10
13.6650287093
 20
11.7478819155
 30
0.0
 10
13.6619741989
 20
11.7529674407
 30
0.0
 10
13.6606829451
 20
11.7555973154
 30
0.0
  0
SPLINE
  5
4CC
100
AcDbEntity
  8
0
100
AcDbSpline
 62
7
  6
CONTINUOUS
 70
0
 71
3
 72
9
 73
5
 74
0
 42
0.0000001
 43
0.0000001
 44
0.0000000001
 40
0.0
 40
0.0
 40
0.0
 40
0.0
 40
0.4848905065
 40
1.0
 40
1.0
 40
1.0
 40
1.0
 10
13.8807728308
 20
11.7135947944
 30
0.0
 10
13.897255441
 20
11.7347558611
 30
0.0
 10
13.9277657051
 20
11.7811401362
 30
0.0
 10
13.9526997711
 20
11.8306189735
 30
0.0
 10
13.964433547
 20
11.8565854183
 30
0.0
  0
SPLINE
  5
4CD
100
AcDbEntity
  8
0
100
AcDbSpline
 62
7
  6
CONTINUOUS
 70
0
 71
3
 72
14
 73
10
 74
0
 42
0.0000001
 43
0.0000001
 44
0.0000000001
 40
0.0
 40
0.0
 40
0.0
 40
0.0
 40
0.274865377
 40
0.4061369745
 40
0.5336803258
 40
0.6574278666
 40
0.7770747501
 40
0.8913977632
 40
1.0
 40
1.0
 40
1.0
 40
1.0
 10
13.8807728308
 20
11.7135947944
 30
0.0
 10
13.877462817
 20
11.7093401757
 30
0.0
 10
13.872895404
 20
11.7027963317
 30
0.0
 10
13.8674296326
 20
11.6938703513
 30
0.0
 10
13.8637670132
 20
11.6873169051
 30
0.0
 10
13.8605243422
 20
11.6808104222
 30
0.0
 10
13.857804531
 20
11.6743033503
 30
0.0
 10
13.8559338742
 20
11.6679355019
 30
0.0
 10
13.8557333474
 20
11.6632282829
 30
0.0
 10
13.8566591303
 20
11.6613101493
 30
0.0
  0
SPLINE
  5
4CE
100
AcDbEntity
  8
0
100
AcDbSpline
 62
7
  6
CONTINUOUS
 70
0
 71
3
 72
10
 73
6
 74
0
 42
0.0000001
 43
0.0000001
 44
0.0000000001
 40
0.0
 40
0.0
 40
0.0
 40
0.0
 40
0.2436546722
 40
0.4901392401
 40
1.0
 40
1.0
 40
1.0
 40
1.0
 10
16.0657372268
 20
12.7684006071
 30
0.0
 10
16.0635092981
 20
12.7729426955
 30
0.0
 10
16.0582974935
 20
12.7817436247
 30
0.0
 10
16.0450601119
 20
12.797816652
 30
0.0
 10
16.032373639
 20
12.8075434579
 30
0.0
 10
16.0232114925
 20
12.8128469221
 30
0.0
  0
SPLINE
  5
4CF
100
AcDbEntity
  8
0
100
AcDbSpline
 62
7
  6
CONTINUOUS
 70
0
 71
3
 72
14
 73
10
 74
0
 42
0.0000001
 43
0.0000001
 44
0.0000000001
 40
0.0
 40
0.0
 40
0.0
 40
0.0
 40
0.0595544391
 40
0.1366003635
 40
0.2333059077
 40
0.3505116226
 40
0.4878430822
 40
0.6437890765
 40
1.0
 40
1.0
 40
1.0
 40
1.0
 10
14.2302885515
 20
13.3644127333
 30
0.0
 10
14.231336948
 20
13.362275057
 30
0.0
 10
14.2329402772
 20
13.3569863553
 30
0.0
 10
14.2338983007
 20
13.3476791648
 30
0.0
 10
14.2335327489
 20
13.3360240626
 30
0.0
 10
14.2316685386
 20
13.3220886055
 30
0.0
 10
14.2282147456
 20
13.3060308337
 30
0.0
 10
14.2211183998
 20
13.281039921
 30
0.0
 10
14.2139370285
 20
13.2618256431
 30
0.0
 10
14.2085239838
 20
13.2486535837
 30
0.0
  0
SPLINE
  5
4D0
100
AcDbEntity
  8
0
100
AcDbSpline
 62
7
  6
CONTINUOUS
 70
0
 71
3
 72
14
 73
10
 74
0
 42
0.0000001
 43
0.0000001
 44
0.0000000001
 40
0.0
 40
0.0
 40
0.0
 40
0.0
 40
0.1492460267
 40
0.2985921213
 40
0.4410484916
 40
0.5733432465
 40
0.69462964
 40
0.8053709493
 40
1.0
 40
1.0
 40
1.0
 40
1.0
 10
14.2041161167
 20
13.2381851378
 30
0.0
 10
14.1975301429
 20
13.2229006991
 30
0.0
 10
14.1833061577
 20
13.192772414
 30
0.0
 10
14.1605725632
 20
13.1491549144
 30
0.0
 10
14.1379734661
 20
13.1076101387
 30
0.0
 10
14.1169176303
 20
13.0687900764
 30
0.0
 10
14.0981910069
 20
13.0327272561
 30
0.0
 10
14.077676196
 20
12.9898031276
 30
0.0
 10
14.0650818766
 20
12.9580473558
 30
0.0
 10
14.058673361
 20
12.9373112312
 30
0.0
  0
SPLINE
  5
4D1
100
AcDbEntity
  8
0
100
AcDbSpline
 62
7
  6
CONTINUOUS
 70
0
 71
3
 72
12
 73
8
 74
0
 42
0.0000001
 43
0.0000001
 44
0.0000000001
 40
0.0
 40
0.0
 40
0.0
 40
0.0
 40
0.1256219685
 40
0.2527811959
 40
0.5072953126
 40
0.7574968469
 40
1.0
 40
1.0
 40
1.0
 40
1.0
 10
15.6090768483
 20
12.7597972877
 30
0.0
 10
15.6138598389
 20
12.7500486147
 30
0.0
 10
15.6245701556
 20
12.7309538009
 30
0.0
 10
15.649295608
 20
12.6946925478
 30
0.0
 10
15.6846577918
 20
12.6528870292
 30
0.0
 10
15.7306031082
 20
12.6074310179
 30
0.0
 10
15.7625335326
 20
12.5792220259
 30
0.0
 10
15.7784775649
 20
12.5656133723
 30
0.0
  0
LINE
  5
4D2
100
AcDbEntity
  8
0
100
AcDbLine
 62
7
  6
CONTINUOUS
 10
15.7784775649
 20
12.5656133723
 11
15.7812322106
 21
12.5632667461
  0
SPLINE
  5
4D3
100
AcDbEntity
  8
0
100
AcDbSpline
 62
7
  6
CONTINUOUS
 70
0
 71
3
 72
9
 73
5
 74
0
 42
0.0000001
 43
0.0000001
 44
0.0000000001
 40
0.0
 40
0.0
 40
0.0
 40
0.0
 40
0.2549778469
 40
1.0
 40
1.0
 40
1.0
 40
1.0
 10
15.7812322106
 20
12.5632667461
 30
0.0
 10
15.786147587
 20
12.5590874068
 30
0.0
 10
15.8055063823
 20
12.5427916729
 30
0.0
 10
15.8251322174
 20
12.5268163931
 30
0.0
 10
15.8398053633
 20
12.5149800757
 30
0.0
  0
SPLINE
  5
4D4
100
AcDbEntity
  8
0
100
AcDbSpline
 62
7
  6
CONTINUOUS
 70
0
 71
3
 72
11
 73
7
 74
0
 42
0.0000001
 43
0.0000001
 44
0.0000000001
 40
0.0
 40
0.0
 40
0.0
 40
0.0
 40
0.2595124782
 40
0.5111586361
 40
0.7570125661
 40
1.0
 40
1.0
 40
1.0
 40
1.0
 10
13.6743864278
 20
12.5065327682
 30
0.0
 10
13.673156196
 20
12.5025517367
 30
0.0
 10
13.6713520428
 20
12.4944983559
 30
0.0
 10
13.6708296292
 20
12.482286718
 30
0.0
 10
13.6726103758
 20
12.4704556354
 30
0.0
 10
13.6753442033
 20
12.4630284821
 30
0.0
 10
13.6770629603
 20
12.4595260236
 30
0.0
  0
SPLINE
  5
4D5
100
AcDbEntity
  8
0
100
AcDbSpline
 62
7
  6
CONTINUOUS
 70
0
 71
3
 72
14
 73
10
 74
0
 42
0.0000001
 43
0.0000001
 44
0.0000000001
 40
0.0
 40
0.0
 40
0.0
 40
0.0
 40
0.1245173517
 40
0.2524540181
 40
0.3821674765
 40
0.5119986725
 40
0.640138645
 40
0.7649809339
 40
1.0
 40
1.0
 40
1.0
 40
1.0
 10
14.0116029534
 20
13.3164381675
 30
0.0
 10
14.0058914889
 20
13.3162611217
 30
0.0
 10
13.9943247449
 20
13.3150049493
 30
0.0
 10
13.9772786959
 20
13.3106650956
 30
0.0
 10
13.9607417608
 20
13.3039838476
 30
0.0
 10
13.9452224708
 20
13.2951832323
 30
0.0
 10
13.9311915984
 20
13.2845058145
 30
0.0
 10
13.9154002684
 20
13.2685793411
 30
0.0
 10
13.9064222324
 20
13.2542408399
 30
0.0
 10
13.9025379841
 20
13.244179343
 30
0.0
  0
SPLINE
  5
4D6
100
AcDbEntity
  8
0
100
AcDbSpline
 62
7
  6
CONTINUOUS
 70
0
 71
3
 72
12
 73
8
 74
0
 42
0.0000001
 43
0.0000001
 44
0.0000000001
 40
0.0
 40
0.0
 40
0.0
 40
0.0
 40
0.1168880292
 40
0.2346598329
 40
0.4758364965
 40
0.7300850638
 40
1.0
 40
1.0
 40
1.0
 40
1.0
 10
16.3510540011
 20
13.2800452258
 30
0.0
 10
16.3496613505
 20
13.2828831494
 30
0.0
 10
16.3463779297
 20
13.2883555593
 30
0.0
 10
16.3380106437
 20
13.2981962416
 30
0.0
 10
16.3243198111
 20
13.3080489328
 30
0.0
 10
16.3046076466
 20
13.3150440978
 30
0.0
 10
16.2903666062
 20
13.3164903768
 30
0.0
 10
16.2830668049
 20
13.3164903768
 30
0.0
  0
SPLINE
  5
4D7
100
AcDbEntity
  8
0
100
AcDbSpline
 62
7
  6
CONTINUOUS
 70
0
 71
3
 72
26
 73
22
 74
0
 42
0.0000001
 43
0.0000001
 44
0.0000000001
 40
0.0
 40
0.0
 40
0.0
 40
0.0
 40
0.0658030783
 40
0.1347108114
 40
0.2059903777
 40
0.2788001545
 40
0.3522329808
 40
0.4253557108
 40
0.4972480741
 40
0.5670419269
 40
0.6339626285
 40
0.6973744952
 40
0.7568320693
 40
0.8121387238
 40
0.8382787848
 40
0.8634555258
 40
0.911179168
 40
0.9340049226
 40
0.9563050108
 40
0.978244216
 40
1.0
 40
1.0
 40
1.0
 40
1.0
 10
16.1242978426
 20
13.3217266
 30
0.0
 10
16.0879199545
 20
13.3528317743
 30
0.0
 10
16.0099834462
 20
13.4125368347
 30
0.0
 10
15.8828679783
 20
13.4922060011
 30
0.0
 10
15.7448085474
 20
13.5629151515
 30
0.0
 10
15.598401865
 20
13.6233471405
 30
0.0
 10
15.4463880445
 20
13.6723806425
 30
0.0
 10
15.2916224205
 20
13.7090948702
 30
0.0
 10
15.1370059132
 20
13.7327971002
 30
0.0
 10
14.9854225475
 20
13.7430322505
 30
0.0
 10
14.8396783799
 20
13.7395865074
 30
0.0
 10
14.702429431
 20
13.7224718888
 30
0.0
 10
14.5761718681
 20
13.691915569
 30
0.0
 10
14.4801988402
 20
13.6548720242
 30
0.0
 10
14.411544443
 20
13.6186137347
 30
0.0
 10
14.3508249789
 20
13.579748047
 30
0.0
 10
14.2973025588
 20
13.5343821742
 30
0.0
 10
14.253318723
 20
13.4829830136
 30
0.0
 10
14.225843653
 20
13.4425413394
 30
0.0
 10
14.2036291287
 20
13.3998684539
 30
0.0
 10
14.1923935988
 20
13.3700406915
 30
0.0
 10
14.1877240676
 20
13.3549208298
 30
0.0
  0
SPLINE
  5
4D8
100
AcDbEntity
  8
0
100
AcDbSpline
 62
7
  6
CONTINUOUS
 70
0
 71
3
 72
11
 73
7
 74
0
 42
0.0000001
 43
0.0000001
 44
0.0000000001
 40
0.0
 40
0.0
 40
0.0
 40
0.0
 40
0.267599456
 40
0.5215455215
 40
0.7644962552
 40
1.0
 40
1.0
 40
1.0
 40
1.0
 10
13.9543283791
 20
12.1168895237
 30
0.0
 10
13.94220945
 20
12.141669358
 30
0.0
 10
13.9214752076
 20
12.1914676419
 30
0.0
 10
13.9015702683
 20
12.2680111461
 30
0.0
 10
13.8941484805
 20
12.3434662572
 30
0.0
 10
13.8977632853
 20
12.3929557996
 30
0.0
 10
13.9017201947
 20
12.4169072444
 30
0.0
  0
SPLINE
  5
4D9
100
AcDbEntity
  8
0
100
AcDbSpline
 62
7
  6
CONTINUOUS
 70
0
 71
3
 72
9
 73
5
 74
0
 42
0.0000001
 43
0.0000001
 44
0.0000000001
 40
0.0
 40
0.0
 40
0.0
 40
0.0
 40
0.241095688
 40
1.0
 40
1.0
 40
1.0
 40
1.0
 10
14.6556337142
 20
13.708538867
 30
0.0
 10
14.6655331975
 20
13.7127063693
 30
0.0
 10
14.7069960785
 20
13.729030441
 30
0.0
 10
14.749888997
 20
13.7416324714
 30
0.0
 10
14.7828008146
 20
13.7493720445
 30
0.0
  0
SPLINE
  5
4DA
100
AcDbEntity
  8
0
100
AcDbSpline
 62
7
  6
CONTINUOUS
 70
0
 71
3
 72
22
 73
18
 74
0
 42
0.0000001
 43
0.0000001
 44
0.0000000001
 40
0.0
 40
0.0
 40
0.0
 40
0.0
 40
0.055578064
 40
0.1137523895
 40
0.174278677
 40
0.2368520654
 40
0.3011176247
 40
0.3666846511
 40
0.4331340611
 40
0.5000290238
 40
0.6333184649
 40
0.6988859613
 40
0.7631521423
 40
0.8257244964
 40
0.8862502295
 40
0.9444246885
 40
1.0
 40
1.0
 40
1.0
 40
1.0
 10
14.7989586266
 20
13.7531720391
 30
0.0
 10
14.8250692948
 20
13.7593123256
 30
0.0
 10
14.8790898459
 20
13.7695062043
 30
0.0
 10
14.9627852046
 20
13.778562668
 30
0.0
 10
15.0502880554
 20
13.7816735348
 30
0.0
 10
15.1407317071
 20
13.7788032612
 30
0.0
 10
15.2332304582
 20
13.769988074
 30
0.0
 10
15.3268711043
 20
13.7553120346
 30
0.0
 10
15.4207365516
 20
13.7349175839
 30
0.0
 10
15.5447618113
 20
13.7004247382
 30
0.0
 10
15.6652870153
 20
13.6555825114
 30
0.0
 10
15.7800184266
 20
13.6010186592
 30
0.0
 10
15.8613661469
 20
13.5561090806
 30
0.0
 10
15.9376587876
 20
13.5074523776
 30
0.0
 10
16.008152689
 20
13.4555200651
 30
0.0
 10
16.0721429608
 20
13.4008217587
 30
0.0
 10
16.1109952641
 20
13.361930989
 30
0.0
 10
16.1290882976
 20
13.342130964
 30
0.0
  0
SPLINE
  5
4DB
100
AcDbEntity
  8
0
100
AcDbSpline
 62
7
  6
CONTINUOUS
 70
0
 71
3
 72
13
 73
9
 74
0
 42
0.0000001
 43
0.0000001
 44
0.0000000001
 40
0.0
 40
0.0
 40
0.0
 40
0.0
 40
0.1164898231
 40
0.2338859494
 40
0.3530520354
 40
0.4747978498
 40
0.7286153631
 40
1.0
 40
1.0
 40
1.0
 40
1.0
 10
14.0306074594
 20
12.2707029285
 30
0.0
 10
14.0271442458
 20
12.2594976169
 30
0.0
 10
14.0214089965
 20
12.2366028214
 30
0.0
 10
14.0165139836
 20
12.2013319222
 30
0.0
 10
14.0153223013
 20
12.1652105278
 30
0.0
 10
14.0187261504
 20
12.1154429731
 30
0.0
 10
14.0327026757
 20
12.0514263965
 30
0.0
 10
14.0526723221
 20
12.0021989166
 30
0.0
 10
14.064709373
 20
11.9776699858
 30
0.0
  0
SPLINE
  5
4DC
100
AcDbEntity
  8
0
100
AcDbSpline
 62
7
  6
CONTINUOUS
 70
0
 71
3
 72
24
 73
20
 74
0
 42
0.0000001
 43
0.0000001
 44
0.0000000001
 40
0.0
 40
0.0
 40
0.0
 40
0.0
 40
0.0217381961
 40
0.0441742734
 40
0.0917372744
 40
0.1437142253
 40
0.2004694407
 40
0.2618875648
 40
0.3274851204
 40
0.3965064242
 40
0.4680023146
 40
0.5408969051
 40
0.6140467168
 40
0.6862963456
 40
0.7565320882
 40
0.8237422649
 40
0.8870774793
 40
0.9459229215
 40
1.0
 40
1.0
 40
1.0
 40
1.0
 10
14.4600049718
 20
12.172179925
 30
0.0
 10
14.4645522134
 20
12.1793717115
 30
0.0
 10
14.4747552483
 20
12.1933988248
 30
0.0
 10
14.4992917042
 20
12.2197140033
 30
0.0
 10
14.5376835325
 20
12.2487497173
 30
0.0
 10
14.5928397716
 20
12.275874531
 30
0.0
 10
14.6567083247
 20
12.2955704613
 30
0.0
 10
14.7278356731
 20
12.3074554028
 30
0.0
 10
14.8046229153
 20
12.3113054593
 30
0.0
 10
14.8853175237
 20
12.3070443168
 30
0.0
 10
14.9680635304
 20
12.2947755114
 30
0.0
 10
15.0509466791
 20
12.2747837528
 30
0.0
 10
15.1320447621
 20
12.247533076
 30
0.0
 10
15.2094752454
 20
12.2136556259
 30
0.0
 10
15.2814449868
 20
12.1739362777
 30
0.0
 10
15.3462901527
 20
12.129290014
 30
0.0
 10
15.4025258147
 20
12.0807250405
 30
0.0
 10
15.44885411
 20
12.0293472844
 30
0.0
 10
15.4734632852
 20
11.9923545714
 30
0.0
 10
15.4835330565
 20
11.9737364082
 30
0.0
  0
SPLINE
  5
4DD
100
AcDbEntity
  8
0
100
AcDbSpline
 62
7
  6
CONTINUOUS
 70
0
 71
3
 72
14
 73
10
 74
0
 42
0.0000001
 43
0.0000001
 44
0.0000000001
 40
0.0
 40
0.0
 40
0.0
 40
0.0
 40
0.1946301814
 40
0.305374732
 40
0.4266578841
 40
0.5589622053
 40
0.7014380473
 40
0.8507869079
 40
1.0
 40
1.0
 40
1.0
 40
1.0
 10
13.9336053329
 20
12.5325920523
 30
0.0
 10
13.9400177153
 20
12.5533428599
 30
0.0
 10
13.9526226631
 20
12.5851205873
 30
0.0
 10
13.9731544378
 20
12.628073263
 30
0.0
 10
13.9918971732
 20
12.6641606687
 30
0.0
 10
14.0129713301
 20
12.7030088751
 30
0.0
 10
14.0355846474
 20
12.7445872949
 30
0.0
 10
14.0583289699
 20
12.7882362697
 30
0.0
 10
14.0725568422
 20
12.8183846923
 30
0.0
 10
14.0791408943
 20
12.8336785176
 30
0.0
  0
SPLINE
  5
4DE
100
AcDbEntity
  8
0
100
AcDbSpline
 62
7
  6
CONTINUOUS
 70
0
 71
3
 72
14
 73
10
 74
0
 42
0.0000001
 43
0.0000001
 44
0.0000000001
 40
0.0
 40
0.0
 40
0.0
 40
0.0
 40
0.3562201726
 40
0.5121772022
 40
0.6495046744
 40
0.7667008014
 40
0.8633943334
 40
0.9404406848
 40
1.0
 40
1.0
 40
1.0
 40
1.0
 10
14.0834546184
 20
12.8439287579
 30
0.0
 10
14.0888676753
 20
12.8571020127
 30
0.0
 10
14.0960483115
 20
12.876318527
 30
0.0
 10
14.10314602
 20
12.9013110936
 30
0.0
 10
14.1066014357
 20
12.9173692666
 30
0.0
 10
14.1084664602
 20
12.9313043808
 30
0.0
 10
14.1088306024
 20
12.9429593382
 30
0.0
 10
14.1078712838
 20
12.9522665944
 30
0.0
 10
14.1062676887
 20
12.9575556631
 30
0.0
 10
14.1052192869
 20
12.9596936919
 30
0.0
  0
SPLINE
  5
4DF
100
AcDbEntity
  8
0
100
AcDbSpline
 62
7
  6
CONTINUOUS
 70
0
 71
3
 72
9
 73
5
 74
0
 42
0.0000001
 43
0.0000001
 44
0.0000000001
 40
0.0
 40
0.0
 40
0.0
 40
0.0
 40
0.2662334732
 40
1.0
 40
1.0
 40
1.0
 40
1.0
 10
14.884673166
 20
11.3093129809
 30
0.0
 10
14.8850588362
 20
11.3085270676
 30
0.0
 10
14.8863686368
 20
11.3055130074
 30
0.0
 10
14.8870745435
 20
11.3022067043
 30
0.0
 10
14.8870837042
 20
11.2997939105
 30
0.0
  0
SPLINE
  5
4E0
100
AcDbEntity
  8
0
100
AcDbSpline
 62
7
  6
CONTINUOUS
 70
0
 71
3
 72
9
 73
5
 74
0
 42
0.0000001
 43
0.0000001
 44
0.0000000001
 40
0.0
 40
0.0
 40
0.0
 40
0.0
 40
0.2539090107
 40
1.0
 40
1.0
 40
1.0
 40
1.0
 10
14.8870837042
 20
11.2997939105
 30
0.0
 10
14.8870853148
 20
11.2993697206
 30
0.0
 10
14.8870311883
 20
11.2976994778
 30
0.0
 10
14.8867245932
 20
11.2960368167
 30
0.0
 10
14.8863565343
 20
11.2948459404
 30
0.0
  0
SPLINE
  5
4E1
100
AcDbEntity
  8
0
100
AcDbSpline
 62
7
  6
CONTINUOUS
 70
0
 71
3
 72
9
 73
5
 74
0
 42
0.0000001
 43
0.0000001
 44
0.0000000001
 40
0.0
 40
0.0
 40
0.0
 40
0.0
 40
0.5956034795
 40
1.0
 40
1.0
 40
1.0
 40
1.0
 10
15.8295585021
 20
13.1187061145
 30
0.0
 10
15.8260889274
 20
13.1280873073
 30
0.0
 10
15.8204407822
 20
13.1439059606
 30
0.0
 10
15.815508425
 20
13.1599690679
 30
0.0
 10
15.8137526903
 20
13.1665293999
 30
0.0
  0
SPLINE
  5
4E2
100
AcDbEntity
  8
0
100
AcDbSpline
 62
7
  6
CONTINUOUS
 70
0
 71
3
 72
9
 73
5
 74
0
 42
0.0000001
 43
0.0000001
 44
0.0000000001
 40
0.0
 40
0.0
 40
0.0
 40
0.0
 40
0.5324569542
 40
1.0
 40
1.0
 40
1.0
 40
1.0
 10
15.8606386769
 20
13.0397569499
 30
0.0
 10
15.8549517619
 20
13.0537014111
 30
0.0
 10
15.8443657818
 20
13.0799287406
 30
0.0
 10
15.8341454861
 20
13.1063036197
 30
0.0
 10
15.8295585021
 20
13.1187061145
 30
0.0
  0
SPLINE
  5
4E3
100
AcDbEntity
  8
0
100
AcDbSpline
 62
7
  6
CONTINUOUS
 70
0
 71
3
 72
11
 73
7
 74
0
 42
0.0000001
 43
0.0000001
 44
0.0000000001
 40
0.0
 40
0.0
 40
0.0
 40
0.0
 40
0.2668946695
 40
0.5221100864
 40
0.7659069971
 40
1.0
 40
1.0
 40
1.0
 40
1.0
 10
15.8687341521
 20
13.2454785645
 30
0.0
 10
15.8740778217
 20
13.250887737
 30
0.0
 10
15.8850848858
 20
13.2609413333
 30
0.0
 10
15.9026863519
 20
13.2738990178
 30
0.0
 10
15.9206531276
 20
13.284603162
 30
0.0
 10
15.932901043
 20
13.2905813181
 30
0.0
 10
15.938989977
 20
13.2933018498
 30
0.0
  0
SPLINE
  5
4E4
100
AcDbEntity
  8
0
100
AcDbSpline
 62
7
  6
CONTINUOUS
 70
0
 71
3
 72
9
 73
5
 74
0
 42
0.0000001
 43
0.0000001
 44
0.0000000001
 40
0.0
 40
0.0
 40
0.0
 40
0.0
 40
0.2530032498
 40
1.0
 40
1.0
 40
1.0
 40
1.0
 10
15.8137526903
 20
13.1665293999
 30
0.0
 10
15.8175212974
 20
13.1737309611
 30
0.0
 10
15.8329981573
 20
13.2018481867
 30
0.0
 10
15.8518685745
 20
13.228406248
 30
0.0
 10
15.8687341521
 20
13.2454785645
 30
0.0
  0
SPLINE
  5
4E5
100
AcDbEntity
  8
0
100
AcDbSpline
 62
7
  6
CONTINUOUS
 70
0
 71
3
 72
10
 73
6
 74
0
 42
0.0000001
 43
0.0000001
 44
0.0000000001
 40
0.0
 40
0.0
 40
0.0
 40
0.0
 40
0.4903916363
 40
0.7443023401
 40
1.0
 40
1.0
 40
1.0
 40
1.0
 10
16.0174144321
 20
13.3088647895
 30
0.0
 10
16.0329813084
 20
13.3088647895
 30
0.0
 10
16.0566303704
 20
13.3063377886
 30
0.0
 10
16.0876820303
 20
13.2997506291
 30
0.0
 10
16.103316597
 20
13.2955590029
 30
0.0
 10
16.1111132502
 20
13.2933018498
 30
0.0
  0
SPLINE
  5
4E6
100
AcDbEntity
  8
0
100
AcDbSpline
 62
7
  6
CONTINUOUS
 70
0
 71
3
 72
11
 73
7
 74
0
 42
0.0000001
 43
0.0000001
 44
0.0000000001
 40
0.0
 40
0.0
 40
0.0
 40
0.0
 40
0.2298135954
 40
0.4716309154
 40
0.7280235793
 40
1.0
 40
1.0
 40
1.0
 40
1.0
 10
15.938989977
 20
13.2933018498
 30
0.0
 10
15.9447024586
 20
13.2956120323
 30
0.0
 10
15.9566083658
 20
13.2999200326
 30
0.0
 10
15.9755085177
 20
13.3049172345
 30
0.0
 10
15.995941482
 20
13.3081546021
 30
0.0
 10
16.0101220008
 20
13.3088647895
 30
0.0
 10
16.0174144321
 20
13.3088647895
 30
0.0
  0
SPLINE
  5
4E7
100
AcDbEntity
  8
0
100
AcDbSpline
 62
7
  6
CONTINUOUS
 70
0
 71
3
 72
11
 73
7
 74
0
 42
0.0000001
 43
0.0000001
 44
0.0000000001
 40
0.0
 40
0.0
 40
0.0
 40
0.0
 40
0.2592457676
 40
0.5110951204
 40
0.7573117014
 40
1.0
 40
1.0
 40
1.0
 40
1.0
 10
15.8465734668
 20
13.0722291918
 30
0.0
 10
15.8457921523
 20
13.0673077719
 30
0.0
 10
15.8448239763
 20
13.0575018658
 30
0.0
 10
15.8452652177
 20
13.0429108418
 30
0.0
 10
15.8476121971
 20
13.028823315
 30
0.0
 10
15.850452677
 20
13.0198263787
 30
0.0
 10
15.8521712341
 20
13.0154896873
 30
0.0
  0
SPLINE
  5
4E8
100
AcDbEntity
  8
0
100
AcDbSpline
 62
7
  6
CONTINUOUS
 70
0
 71
3
 72
10
 73
6
 74
0
 42
0.0000001
 43
0.0000001
 44
0.0000000001
 40
0.0
 40
0.0
 40
0.0
 40
0.0
 40
0.2556827701
 40
0.5095843657
 40
1.0
 40
1.0
 40
1.0
 40
1.0
 10
15.9860456498
 20
12.8885829465
 30
0.0
 10
15.9782494478
 20
12.8908399689
 30
0.0
 10
15.9626153725
 20
12.8950304003
 30
0.0
 10
15.9315642785
 20
12.9016203079
 30
0.0
 10
15.9079144754
 20
12.9041458862
 30
0.0
 10
15.8923468317
 20
12.9041458862
 30
0.0
  0
SPLINE
  5
4E9
100
AcDbEntity
  8
0
100
AcDbSpline
 62
7
  6
CONTINUOUS
 70
0
 71
3
 72
11
 73
7
 74
0
 42
0.0000001
 43
0.0000001
 44
0.0000000001
 40
0.0
 40
0.0
 40
0.0
 40
0.0
 40
0.2340784753
 40
0.4778776222
 40
0.7331171131
 40
1.0
 40
1.0
 40
1.0
 40
1.0
 10
15.8139223766
 20
12.8885829465
 30
0.0
 10
15.8078338681
 20
12.8858626049
 30
0.0
 10
15.7955858035
 20
12.8798857435
 30
0.0
 10
15.7776206053
 20
12.8691782193
 30
0.0
 10
15.7600215565
 20
12.8562174979
 30
0.0
 10
15.7490099436
 20
12.8461685526
 30
0.0
 10
15.7436665517
 20
12.8407596612
 30
0.0
  0
SPLINE
  5
4EA
100
AcDbEntity
  8
0
100
AcDbSpline
 62
7
  6
CONTINUOUS
 70
0
 71
3
 72
11
 73
7
 74
0
 42
0.0000001
 43
0.0000001
 44
0.0000000001
 40
0.0
 40
0.0
 40
0.0
 40
0.0
 40
0.2719820394
 40
0.5283785233
 40
0.770189066
 40
1.0
 40
1.0
 40
1.0
 40
1.0
 10
15.8923468317
 20
12.9041458862
 30
0.0
 10
15.8850542516
 20
12.9041458862
 30
0.0
 10
15.870873504
 20
12.9034355741
 30
0.0
 10
15.8504403944
 20
12.9001985054
 30
0.0
 10
15.8315406403
 20
12.8952004634
 30
0.0
 10
15.8196347906
 20
12.8908931016
 30
0.0
 10
15.8139223766
 20
12.8885829465
 30
0.0
  0
SPLINE
  5
4EB
100
AcDbEntity
  8
0
100
AcDbSpline
 62
7
  6
CONTINUOUS
 70
0
 71
3
 72
9
 73
5
 74
0
 42
0.0000001
 43
0.0000001
 44
0.0000000001
 40
0.0
 40
0.0
 40
0.0
 40
0.0
 40
0.4044286662
 40
1.0
 40
1.0
 40
1.0
 40
1.0
 10
15.6886850899
 20
12.7618104966
 30
0.0
 10
15.6904409635
 20
12.7552496452
 30
0.0
 10
15.6953740763
 20
12.7391867757
 30
0.0
 10
15.7010215154
 20
12.7233678946
 30
0.0
 10
15.7044909017
 20
12.7139872112
 30
0.0
  0
SPLINE
  5
4EC
100
AcDbEntity
  8
0
100
AcDbSpline
 62
7
  6
CONTINUOUS
 70
0
 71
3
 72
10
 73
6
 74
0
 42
0.0000001
 43
0.0000001
 44
0.0000000001
 40
0.0
 40
0.0
 40
0.0
 40
0.0
 40
0.2449122382
 40
0.6211133583
 40
1.0
 40
1.0
 40
1.0
 40
1.0
 10
15.7436665517
 20
12.8407596612
 30
0.0
 10
15.7381286075
 20
12.8351538326
 30
0.0
 10
15.7248326536
 20
12.8201842614
 30
0.0
 10
15.7063024529
 20
12.7937865035
 30
0.0
 10
15.6943373174
 20
12.7726115332
 30
0.0
 10
15.6886850899
 20
12.7618104966
 30
0.0
  0
SPLINE
  5
4ED
100
AcDbEntity
  8
0
100
AcDbSpline
 62
7
  6
CONTINUOUS
 70
0
 71
3
 72
9
 73
5
 74
0
 42
0.0000001
 43
0.0000001
 44
0.0000000001
 40
0.0
 40
0.0
 40
0.0
 40
0.0
 40
0.4675155292
 40
1.0
 40
1.0
 40
1.0
 40
1.0
 10
15.7044909017
 20
12.7139872112
 30
0.0
 10
15.7090776159
 20
12.7015854458
 30
0.0
 10
15.7192974683
 20
12.6752103937
 30
0.0
 10
15.7298838674
 20
12.648983229
 30
0.0
 10
15.7355710765
 20
12.6350380466
 30
0.0
  0
SPLINE
  5
4EE
100
AcDbEntity
  8
0
100
AcDbSpline
 62
7
  6
CONTINUOUS
 70
0
 71
3
 72
9
 73
5
 74
0
 42
0.0000001
 43
0.0000001
 44
0.0000000001
 40
0.0
 40
0.0
 40
0.0
 40
0.0
 40
0.5956034795
 40
1.0
 40
1.0
 40
1.0
 40
1.0
 10
13.9183569396
 20
13.1187061145
 30
0.0
 10
13.9148873649
 20
13.1280873073
 30
0.0
 10
13.9092392196
 20
13.1439059606
 30
0.0
 10
13.9043068624
 20
13.1599690679
 30
0.0
 10
13.9025511278
 20
13.1665293999
 30
0.0
  0
SPLINE
  5
4EF
100
AcDbEntity
  8
0
100
AcDbSpline
 62
7
  6
CONTINUOUS
 70
0
 71
3
 72
9
 73
5
 74
0
 42
0.0000001
 43
0.0000001
 44
0.0000000001
 40
0.0
 40
0.0
 40
0.0
 40
0.0
 40
0.5324569542
 40
1.0
 40
1.0
 40
1.0
 40
1.0
 10
13.9494371144
 20
13.0397569499
 30
0.0
 10
13.9437501994
 20
13.0537014111
 30
0.0
 10
13.9331642193
 20
13.0799287406
 30
0.0
 10
13.9229439236
 20
13.1063036197
 30
0.0
 10
13.9183569396
 20
13.1187061145
 30
0.0
  0
SPLINE
  5
4F0
100
AcDbEntity
  8
0
100
AcDbSpline
 62
7
  6
CONTINUOUS
 70
0
 71
3
 72
11
 73
7
 74
0
 42
0.0000001
 43
0.0000001
 44
0.0000000001
 40
0.0
 40
0.0
 40
0.0
 40
0.0
 40
0.2668946695
 40
0.5221100864
 40
0.7659069971
 40
1.0
 40
1.0
 40
1.0
 40
1.0
 10
13.9575325896
 20
13.2454785645
 30
0.0
 10
13.9628762592
 20
13.250887737
 30
0.0
 10
13.9738833233
 20
13.2609413333
 30
0.0
 10
13.9914847894
 20
13.2738990178
 30
0.0
 10
14.009451565
 20
13.284603162
 30
0.0
 10
14.0216994805
 20
13.2905813181
 30
0.0
 10
14.0277884144
 20
13.2933018498
 30
0.0
  0
SPLINE
  5
4F1
100
AcDbEntity
  8
0
100
AcDbSpline
 62
7
  6
CONTINUOUS
 70
0
 71
3
 72
9
 73
5
 74
0
 42
0.0000001
 43
0.0000001
 44
0.0000000001
 40
0.0
 40
0.0
 40
0.0
 40
0.0
 40
0.2530032498
 40
1.0
 40
1.0
 40
1.0
 40
1.0
 10
13.9025511278
 20
13.1665293999
 30
0.0
 10
13.9063197348
 20
13.1737309611
 30
0.0
 10
13.9217965948
 20
13.2018481867
 30
0.0
 10
13.940667012
 20
13.228406248
 30
0.0
 10
13.9575325896
 20
13.2454785645
 30
0.0
  0
SPLINE
  5
4F2
100
AcDbEntity
  8
0
100
AcDbSpline
 62
7
  6
CONTINUOUS
 70
0
 71
3
 72
9
 73
5
 74
0
 42
0.0000001
 43
0.0000001
 44
0.0000000001
 40
0.0
 40
0.0
 40
0.0
 40
0.0
 40
0.2424688206
 40
1.0
 40
1.0
 40
1.0
 40
1.0
 10
14.1062128696
 20
13.3088647895
 30
0.0
 10
14.1110538457
 20
13.3088647895
 30
0.0
 10
14.1310202151
 20
13.3081989932
 30
0.0
 10
14.1508520549
 20
13.3051309747
 30
0.0
 10
14.1656456835
 20
13.3019852797
 30
0.0
  0
SPLINE
  5
4F3
100
AcDbEntity
  8
0
100
AcDbSpline
 62
7
  6
CONTINUOUS
 70
0
 71
3
 72
9
 73
5
 74
0
 42
0.0000001
 43
0.0000001
 44
0.0000000001
 40
0.0
 40
0.0
 40
0.0
 40
0.0
 40
0.2494418852
 40
1.0
 40
1.0
 40
1.0
 40
1.0
 10
14.1705121114
 20
13.3009194803
 30
0.0
 10
14.1729758118
 20
13.3003644473
 30
0.0
 10
14.1828327732
 20
13.2980511576
 30
0.0
 10
14.1926124718
 20
13.2954149933
 30
0.0
 10
14.1999116877
 20
13.2933018498
 30
0.0
  0
SPLINE
  5
4F4
100
AcDbEntity
  8
0
100
AcDbSpline
 62
7
  6
CONTINUOUS
 70
0
 71
3
 72
11
 73
7
 74
0
 42
0.0000001
 43
0.0000001
 44
0.0000000001
 40
0.0
 40
0.0
 40
0.0
 40
0.0
 40
0.2298135954
 40
0.4716309154
 40
0.7280235793
 40
1.0
 40
1.0
 40
1.0
 40
1.0
 10
14.0277884144
 20
13.2933018498
 30
0.0
 10
14.0335008961
 20
13.2956120323
 30
0.0
 10
14.0454068032
 20
13.2999200326
 30
0.0
 10
14.0643069552
 20
13.3049172345
 30
0.0
 10
14.0847399195
 20
13.3081546021
 30
0.0
 10
14.0989204383
 20
13.3088647895
 30
0.0
 10
14.1062128696
 20
13.3088647895
 30
0.0
  0
SPLINE
  5
4F5
100
AcDbEntity
  8
0
100
AcDbSpline
 62
7
  6
CONTINUOUS
 70
0
 71
3
 72
11
 73
7
 74
0
 42
0.0000001
 43
0.0000001
 44
0.0000000001
 40
0.0
 40
0.0
 40
0.0
 40
0.0
 40
0.2597958324
 40
0.5113929356
 40
0.7571933256
 40
1.0
 40
1.0
 40
1.0
 40
1.0
 10
13.9353719042
 20
13.0722291918
 30
0.0
 10
13.9344849213
 20
13.0666421772
 30
0.0
 10
13.933476165
 20
13.0555085474
 30
0.0
 10
13.9344206684
 20
13.0389859959
 30
0.0
 10
13.9378378336
 20
13.0231678474
 30
0.0
 10
13.9417488975
 20
13.0132140075
 30
0.0
 10
13.9440772227
 20
13.0084672404
 30
0.0
  0
SPLINE
  5
4F6
100
AcDbEntity
  8
0
100
AcDbSpline
 62
7
  6
CONTINUOUS
 70
0
 71
3
 72
9
 73
5
 74
0
 42
0.0000001
 43
0.0000001
 44
0.0000000001
 40
0.0
 40
0.0
 40
0.0
 40
0.0
 40
0.4727335018
 40
1.0
 40
1.0
 40
1.0
 40
1.0
 10
14.4958697628
 20
12.6981198903
 30
0.0
 10
14.4979968067
 20
12.6971973596
 30
0.0
 10
14.5024204746
 20
12.6950712223
 30
0.0
 10
14.5067366848
 20
12.6927403083
 30
0.0
 10
14.5089933385
 20
12.6914775351
 30
0.0
  0
SPLINE
  5
4F7
100
AcDbEntity
  8
0
100
AcDbSpline
 62
7
  6
CONTINUOUS
 70
0
 71
3
 72
9
 73
5
 74
0
 42
0.0000001
 43
0.0000001
 44
0.0000000001
 40
0.0
 40
0.0
 40
0.0
 40
0.0
 40
0.2120230088
 40
1.0
 40
1.0
 40
1.0
 40
1.0
 10
14.4832130451
 20
12.7021523176
 30
0.0
 10
14.484137672
 20
12.7019831124
 30
0.0
 10
14.4884737922
 20
12.7010465367
 30
0.0
 10
14.4926648087
 20
12.6995099268
 30
0.0
 10
14.4958697628
 20
12.6981198903
 30
0.0
  0
SPLINE
  5
4F8
100
AcDbEntity
  8
0
100
AcDbSpline
 62
7
  6
CONTINUOUS
 70
0
 71
3
 72
9
 73
5
 74
0
 42
0.0000001
 43
0.0000001
 44
0.0000000001
 40
0.0
 40
0.0
 40
0.0
 40
0.0
 40
0.2482782758
 40
1.0
 40
1.0
 40
1.0
 40
1.0
 10
14.4601978296
 20
12.6910409623
 30
0.0
 10
14.4613527843
 20
12.6917848852
 30
0.0
 10
14.466074248
 20
12.6946730193
 30
0.0
 10
14.4710429437
 20
12.6971464589
 30
0.0
 10
14.4748534615
 20
12.6988142696
 30
0.0
  0
SPLINE
  5
4F9
100
AcDbEntity
  8
0
100
AcDbSpline
 62
7
  6
CONTINUOUS
 70
0
 71
3
 72
9
 73
5
 74
0
 42
0.0000001
 43
0.0000001
 44
0.0000000001
 40
0.0
 40
0.0
 40
0.0
 40
0.0
 40
0.4938356115
 40
1.0
 40
1.0
 40
1.0
 40
1.0
 10
14.441368982
 20
12.6751999561
 30
0.0
 10
14.4441657025
 20
12.6781401454
 30
0.0
 10
14.4500962667
 20
12.6838512015
 30
0.0
 10
14.4567012159
 20
12.6887887432
 30
0.0
 10
14.4601978296
 20
12.6910409623
 30
0.0
  0
SPLINE
  5
4FA
100
AcDbEntity
  8
0
100
AcDbSpline
 62
7
  6
CONTINUOUS
 70
0
 71
3
 72
11
 73
7
 74
0
 42
0.0000001
 43
0.0000001
 44
0.0000000001
 40
0.0
 40
0.0
 40
0.0
 40
0.0
 40
0.283829401
 40
0.543056255
 40
0.7800204748
 40
1.0
 40
1.0
 40
1.0
 40
1.0
 10
14.8653221622
 20
11.2725214901
 30
0.0
 10
14.8672378791
 20
11.2729934776
 30
0.0
 10
14.8708507652
 20
11.2741421589
 30
0.0
 10
14.8757090354
 20
11.2766143314
 30
0.0
 10
14.8796446124
 20
11.2797217592
 30
0.0
 10
14.8816369872
 20
11.2822465105
 30
0.0
 10
14.8824115172
 20
11.2835650066
 30
0.0
  0
SPLINE
  5
4FB
100
AcDbEntity
  8
0
100
AcDbSpline
 62
7
  6
CONTINUOUS
 70
0
 71
3
 72
9
 73
5
 74
0
 42
0.0000001
 43
0.0000001
 44
0.0000000001
 40
0.0
 40
0.0
 40
0.0
 40
0.0
 40
0.5203371066
 40
1.0
 40
1.0
 40
1.0
 40
1.0
 10
14.4331036683
 20
12.657691348
 30
0.0
 10
14.434101949
 20
12.6609056787
 30
0.0
 10
14.4364656712
 20
12.6669565526
 30
0.0
 10
14.4396727511
 20
12.6725974948
 30
0.0
 10
14.4413670634
 20
12.6751967141
 30
0.0
  0
SPLINE
  5
4FC
100
AcDbEntity
  8
0
100
AcDbSpline
 62
7
  6
CONTINUOUS
 70
0
 71
3
 72
9
 73
5
 74
0
 42
0.0000001
 43
0.0000001
 44
0.0000000001
 40
0.0
 40
0.0
 40
0.0
 40
0.0
 40
0.2604604118
 40
1.0
 40
1.0
 40
1.0
 40
1.0
 10
14.4290241556
 20
12.6354483242
 30
0.0
 10
14.4292067286
 20
12.6374049131
 30
0.0
 10
14.4300263779
 20
12.6449013665
 30
0.0
 10
14.4314487803
 20
12.65236283
 30
0.0
 10
14.4331036683
 20
12.657691348
 30
0.0
  0
SPLINE
  5
4FD
100
AcDbEntity
  8
0
100
AcDbSpline
 62
7
  6
CONTINUOUS
 70
0
 71
3
 72
9
 73
5
 74
0
 42
0.0000001
 43
0.0000001
 44
0.0000000001
 40
0.0
 40
0.0
 40
0.0
 40
0.0
 40
0.2504062356
 40
1.0
 40
1.0
 40
1.0
 40
1.0
 10
14.0748440873
 20
12.8885829465
 30
0.0
 10
14.0724124435
 20
12.8892869142
 30
0.0
 10
14.0626844794
 20
12.892037913
 30
0.0
 10
14.0528801185
 20
12.8945240677
 30
0.0
 10
14.0454875486
 20
12.896190448
 30
0.0
  0
SPLINE
  5
4FE
100
AcDbEntity
  8
0
100
AcDbSpline
 62
7
  6
CONTINUOUS
 70
0
 71
3
 72
9
 73
5
 74
0
 42
0.0000001
 43
0.0000001
 44
0.0000000001
 40
0.0
 40
0.0
 40
0.0
 40
0.0
 40
0.2562478143
 40
1.0
 40
1.0
 40
1.0
 40
1.0
 10
14.0416654997
 20
12.8970332723
 30
0.0
 10
14.0365724766
 20
12.8981311254
 30
0.0
 10
14.0166248418
 20
12.9020366425
 30
0.0
 10
13.9962671681
 20
12.9041458862
 30
0.0
 10
13.9811452691
 20
12.9041458862
 30
0.0
  0
SPLINE
  5
4FF
100
AcDbEntity
  8
0
100
AcDbSpline
 62
7
  6
CONTINUOUS
 70
0
 71
3
 72
11
 73
7
 74
0
 42
0.0000001
 43
0.0000001
 44
0.0000000001
 40
0.0
 40
0.0
 40
0.0
 40
0.0
 40
0.2340784753
 40
0.4778776222
 40
0.7331171131
 40
1.0
 40
1.0
 40
1.0
 40
1.0
 10
13.902720814
 20
12.8885829465
 30
0.0
 10
13.8966323055
 20
12.8858626049
 30
0.0
 10
13.8843842409
 20
12.8798857435
 30
0.0
 10
13.8664190427
 20
12.8691782193
 30
0.0
 10
13.8488199939
 20
12.8562174979
 30
0.0
 10
13.8378083811
 20
12.8461685526
 30
0.0
 10
13.8324649892
 20
12.8407596612
 30
0.0
  0
SPLINE
  5
500
100
AcDbEntity
  8
0
100
AcDbSpline
 62
7
  6
CONTINUOUS
 70
0
 71
3
 72
11
 73
7
 74
0
 42
0.0000001
 43
0.0000001
 44
0.0000000001
 40
0.0
 40
0.0
 40
0.0
 40
0.0
 40
0.2719820394
 40
0.5283785233
 40
0.770189066
 40
1.0
 40
1.0
 40
1.0
 40
1.0
 10
13.9811452691
 20
12.9041458862
 30
0.0
 10
13.9738526891
 20
12.9041458862
 30
0.0
 10
13.9596719415
 20
12.9034355741
 30
0.0
 10
13.9392388318
 20
12.9001985054
 30
0.0
 10
13.9203390778
 20
12.8952004634
 30
0.0
 10
13.908433228
 20
12.8908931016
 30
0.0
 10
13.902720814
 20
12.8885829465
 30
0.0
  0
SPLINE
  5
501
100
AcDbEntity
  8
0
100
AcDbSpline
 62
7
  6
CONTINUOUS
 70
0
 71
3
 72
9
 73
5
 74
0
 42
0.0000001
 43
0.0000001
 44
0.0000000001
 40
0.0
 40
0.0
 40
0.0
 40
0.0
 40
0.4044286662
 40
1.0
 40
1.0
 40
1.0
 40
1.0
 10
13.7774835273
 20
12.7618104966
 30
0.0
 10
13.779239401
 20
12.7552496452
 30
0.0
 10
13.7841725138
 20
12.7391867757
 30
0.0
 10
13.7898199529
 20
12.7233678946
 30
0.0
 10
13.7932893391
 20
12.7139872112
 30
0.0
  0
SPLINE
  5
502
100
AcDbEntity
  8
0
100
AcDbSpline
 62
7
  6
CONTINUOUS
 70
0
 71
3
 72
10
 73
6
 74
0
 42
0.0000001
 43
0.0000001
 44
0.0000000001
 40
0.0
 40
0.0
 40
0.0
 40
0.0
 40
0.2449122382
 40
0.6211133583
 40
1.0
 40
1.0
 40
1.0
 40
1.0
 10
13.8324649892
 20
12.8407596612
 30
0.0
 10
13.8269270449
 20
12.8351538326
 30
0.0
 10
13.8136310911
 20
12.8201842614
 30
0.0
 10
13.7951008903
 20
12.7937865035
 30
0.0
 10
13.7831357548
 20
12.7726115332
 30
0.0
 10
13.7774835273
 20
12.7618104966
 30
0.0
  0
SPLINE
  5
503
100
AcDbEntity
  8
0
100
AcDbSpline
 62
7
  6
CONTINUOUS
 70
0
 71
3
 72
9
 73
5
 74
0
 42
0.0000001
 43
0.0000001
 44
0.0000000001
 40
0.0
 40
0.0
 40
0.0
 40
0.0
 40
0.4675155292
 40
1.0
 40
1.0
 40
1.0
 40
1.0
 10
13.7932893391
 20
12.7139872112
 30
0.0
 10
13.7978760534
 20
12.7015854458
 30
0.0
 10
13.8080959057
 20
12.6752103937
 30
0.0
 10
13.8186823048
 20
12.648983229
 30
0.0
 10
13.8243695139
 20
12.6350380466
 30
0.0
  0
SPLINE
  5
504
100
AcDbEntity
  8
0
100
AcDbSpline
 62
7
  6
CONTINUOUS
 70
0
 71
3
 72
26
 73
22
 74
0
 42
0.0000001
 43
0.0000001
 44
0.0000000001
 40
0.0
 40
0.0
 40
0.0
 40
0.0
 40
0.0543380045
 40
0.1139401344
 40
0.1785067401
 40
0.2473245119
 40
0.3193791631
 40
0.393455483
 40
0.4682214085
 40
0.5423078734
 40
0.6143832863
 40
0.6832311481
 40
0.7478347305
 40
0.8074758964
 40
0.8618562892
 40
0.8871650584
 40
0.9113167908
 40
0.9344587787
 40
0.9567863484
 40
0.9785410223
 40
1.0
 40
1.0
 40
1.0
 40
1.0
 10
14.4639835577
 20
11.9620034476
 30
0.0
 10
14.4737484384
 20
11.9421047128
 30
0.0
 10
14.4985504255
 20
11.902442758
 30
0.0
 10
14.5467400728
 20
11.8475369481
 30
0.0
 10
14.6063387103
 20
11.795778376
 30
0.0
 10
14.6757521013
 20
11.7485234381
 30
0.0
 10
14.7531488423
 20
11.7070000372
 30
0.0
 10
14.8364627895
 20
11.6723138882
 30
0.0
 10
14.9234643399
 20
11.6453931485
 30
0.0
 10
15.0118204969
 20
11.6269592995
 30
0.0
 10
15.0991669687
 20
11.6175064448
 30
0.0
 10
15.1831746651
 20
11.6172880311
 30
0.0
 10
15.2616328148
 20
11.6263258465
 30
0.0
 10
15.3324718522
 20
11.6444053204
 30
0.0
 10
15.3848871916
 20
11.6672516514
 30
0.0
 10
15.4208002154
 20
11.6898450196
 30
0.0
 10
15.4440628724
 20
11.7082786106
 30
0.0
 10
15.464124937
 20
11.7284817349
 30
0.0
 10
15.480836797
 20
11.7503271876
 30
0.0
 10
15.4940604899
 20
11.7736598657
 30
0.0
 10
15.5005008325
 20
11.7901469105
 30
0.0
 10
15.50308446
 20
11.7985104938
 30
0.0
  0
SPLINE
  5
505
100
AcDbEntity
  8
0
100
AcDbSpline
 62
7
  6
CONTINUOUS
 70
0
 71
3
 72
11
 73
7
 74
0
 42
0.0000001
 43
0.0000001
 44
0.0000000001
 40
0.0
 40
0.0
 40
0.0
 40
0.0
 40
0.2715167169
 40
0.5255505952
 40
0.7663058174
 40
1.0
 40
1.0
 40
1.0
 40
1.0
 10
15.4287949489
 20
11.9620034476
 30
0.0
 10
15.4347822072
 20
11.9498026979
 30
0.0
 10
15.4447138555
 20
11.9253062995
 30
0.0
 10
15.4529500727
 20
11.8876312186
 30
0.0
 10
15.4537492432
 20
11.8509341439
 30
0.0
 10
15.44921089
 20
11.8274019334
 30
0.0
 10
15.4457583227
 20
11.8162256109
 30
0.0
  0
SPLINE
  5
506
100
AcDbEntity
  8
0
100
AcDbSpline
 62
7
  6
CONTINUOUS
 70
0
 71
3
 72
9
 73
5
 74
0
 42
0.0000001
 43
0.0000001
 44
0.0000000001
 40
0.0
 40
0.0
 40
0.0
 40
0.0
 40
0.5057053735
 40
1.0
 40
1.0
 40
1.0
 40
1.0
 10
17.1014291389
 20
12.5200795589
 30
0.0
 10
17.1054531226
 20
12.5185665994
 30
0.0
 10
17.1131658517
 20
12.5149259108
 30
0.0
 10
17.1205219022
 20
12.5106668043
 30
0.0
 10
17.1241585911
 20
12.5085617245
 30
0.0
  0
LINE
  5
507
100
AcDbEntity
  8
0
100
AcDbLine
 62
7
  6
CONTINUOUS
 10
13.9031903639
 20
12.4252476035
 11
13.9036079834
 21
12.4274697393
  0
SPLINE
  5
508
100
AcDbEntity
  8
0
100
AcDbSpline
 62
7
  6
CONTINUOUS
 70
0
 71
3
 72
11
 73
7
 74
0
 42
0.0000001
 43
0.0000001
 44
0.0000000001
 40
0.0
 40
0.0
 40
0.0
 40
0.0
 40
0.2776138489
 40
0.5350197053
 40
0.7732052644
 40
1.0
 40
1.0
 40
1.0
 40
1.0
 10
13.967446219
 20
12.1100209434
 30
0.0
 10
13.9660103078
 20
12.1100211091
 30
0.0
 10
13.9632312826
 20
12.1102986182
 30
0.0
 10
13.9594130522
 20
12.111626397
 30
0.0
 10
13.9563160727
 20
12.1138143618
 30
0.0
 10
13.9548674326
 20
12.1158001105
 30
0.0
 10
13.9543474149
 20
12.1168516076
 30
0.0
  0
SPLINE
  5
509
100
AcDbEntity
  8
0
100
AcDbSpline
 62
7
  6
CONTINUOUS
 70
0
 71
3
 72
11
 73
7
 74
0
 42
0.0000001
 43
0.0000001
 44
0.0000000001
 40
0.0
 40
0.0
 40
0.0
 40
0.0
 40
0.2339752648
 40
0.4748740972
 40
0.7288019209
 40
1.0
 40
1.0
 40
1.0
 40
1.0
 10
15.50308446
 20
11.7985104938
 30
0.0
 10
15.5069161951
 20
11.8109143858
 30
0.0
 10
15.5119784134
 20
11.8370130056
 30
0.0
 10
15.5112264509
 20
11.8777070819
 30
0.0
 10
15.5023052138
 20
11.9194958845
 30
0.0
 10
15.4914630817
 20
11.9466903813
 30
0.0
 10
15.4849174084
 20
11.9602396868
 30
0.0
  0
SPLINE
  5
50A
100
AcDbEntity
  8
0
100
AcDbSpline
 62
7
  6
CONTINUOUS
 70
0
 71
3
 72
11
 73
7
 74
0
 42
0.0000001
 43
0.0000001
 44
0.0000000001
 40
0.0
 40
0.0
 40
0.0
 40
0.0
 40
0.228328729
 40
0.4712563513
 40
0.7287157203
 40
1.0
 40
1.0
 40
1.0
 40
1.0
 10
16.0949389619
 20
12.1245437815
 30
0.0
 10
16.0818522535
 20
12.1512017387
 30
0.0
 10
16.0511862021
 20
12.2044756695
 30
0.0
 10
15.994887374
 20
12.2809256748
 30
0.0
 10
15.9275194015
 20
12.3555193015
 30
0.0
 10
15.8769956059
 20
12.4023141438
 30
0.0
 10
15.8501813205
 20
12.4252476035
 30
0.0
  0
SPLINE
  5
50B
100
AcDbEntity
  8
0
100
AcDbSpline
 62
7
  6
CONTINUOUS
 70
0
 71
3
 72
11
 73
7
 74
0
 42
0.0000001
 43
0.0000001
 44
0.0000000001
 40
0.0
 40
0.0
 40
0.0
 40
0.0
 40
0.2330312972
 40
0.4874260731
 40
0.7487579922
 40
1.0
 40
1.0
 40
1.0
 40
1.0
 10
16.0949349667
 20
12.1245437813
 30
0.0
 10
16.0941221946
 20
12.1224860193
 30
0.0
 10
16.0915495506
 20
12.1185114597
 30
0.0
 10
16.0860287464
 20
12.1139001603
 30
0.0
 10
16.0793429807
 20
12.1108174234
 30
0.0
 10
16.0744590457
 20
12.1100195254
 30
0.0
 10
16.0720736874
 20
12.1100194928
 30
0.0
  0
SPLINE
  5
50C
100
AcDbEntity
  8
0
100
AcDbSpline
 62
7
  6
CONTINUOUS
 70
0
 71
3
 72
9
 73
5
 74
0
 42
0.0000001
 43
0.0000001
 44
0.0000000001
 40
0.0
 40
0.0
 40
0.0
 40
0.0
 40
0.2631821394
 40
1.0
 40
1.0
 40
1.0
 40
1.0
 10
15.846235989
 20
12.4309519357
 30
0.0
 10
15.8464745503
 20
12.4303891521
 30
0.0
 10
15.8474634336
 20
12.4282913317
 30
0.0
 10
15.8488807947
 20
12.4263599044
 30
0.0
 10
15.8501813205
 20
12.4252476035
 30
0.0
  0
SPLINE
  5
50D
100
AcDbEntity
  8
0
100
AcDbSpline
 62
7
  6
CONTINUOUS
 70
0
 71
3
 72
9
 73
5
 74
0
 42
0.0000001
 43
0.0000001
 44
0.0000000001
 40
0.0
 40
0.0
 40
0.0
 40
0.0
 40
0.4748632922
 40
1.0
 40
1.0
 40
1.0
 40
1.0
 10
15.8454119331
 20
12.4392969723
 30
0.0
 10
15.8450143907
 20
12.4380105249
 30
0.0
 10
15.8448817813
 20
12.4350876058
 30
0.0
 10
15.8456546015
 20
12.4323227658
 30
0.0
 10
15.846235989
 20
12.4309519357
 30
0.0
  0
SPLINE
  5
50E
100
AcDbEntity
  8
0
100
AcDbSpline
 62
7
  6
CONTINUOUS
 70
0
 71
3
 72
10
 73
6
 74
0
 42
0.0000001
 43
0.0000001
 44
0.0000000001
 40
0.0
 40
0.0
 40
0.0
 40
0.0
 40
0.237716154
 40
0.475200996
 40
1.0
 40
1.0
 40
1.0
 40
1.0
 10
16.1198877321
 20
13.3164893011
 30
0.0
 10
16.1193877577
 20
13.316479128
 30
0.0
 10
16.1183818935
 20
13.3163085609
 30
0.0
 10
16.1165109317
 20
13.3152634615
 30
0.0
 10
16.1156418389
 20
13.3137612682
 30
0.0
 10
16.1153158837
 20
13.3127064765
 30
0.0
  0
SPLINE
  5
50F
100
AcDbEntity
  8
0
100
AcDbSpline
 62
7
  6
CONTINUOUS
 70
0
 71
3
 72
12
 73
8
 74
0
 42
0.0000001
 43
0.0000001
 44
0.0000000001
 40
0.0
 40
0.0
 40
0.0
 40
0.0
 40
0.22837665
 40
0.490365178
 40
0.7574643977
 40
0.8836250852
 40
1.0
 40
1.0
 40
1.0
 40
1.0
 10
14.5045107295
 20
13.2735233191
 30
0.0
 10
14.5080875505
 20
13.2736935761
 30
0.0
 10
14.5156746675
 20
13.2758559145
 30
0.0
 10
14.5257983672
 20
13.2822546096
 30
0.0
 10
14.5329955785
 20
13.2897725014
 30
0.0
 10
14.5372189165
 20
13.296582166
 30
0.0
 10
14.5387067359
 20
13.3001073429
 30
0.0
 10
14.5392454798
 20
13.3018507188
 30
0.0
  0
SPLINE
  5
510
100
AcDbEntity
  8
0
100
AcDbSpline
 62
7
  6
CONTINUOUS
 70
0
 71
3
 72
11
 73
7
 74
0
 42
0.0000001
 43
0.0000001
 44
0.0000000001
 40
0.0
 40
0.0
 40
0.0
 40
0.0
 40
0.2288478303
 40
0.4755815031
 40
0.7345614701
 40
1.0
 40
1.0
 40
1.0
 40
1.0
 10
16.6593004765
 20
12.6126047005
 30
0.0
 10
16.6606858752
 20
12.6170878521
 30
0.0
 10
16.6620507776
 20
12.6268969391
 30
0.0
 10
16.6604853887
 20
12.6419727314
 30
0.0
 10
16.656115145
 20
12.6572312483
 30
0.0
 10
16.6518327793
 20
12.6671211963
 30
0.0
 10
16.6494359366
 20
12.6720076027
 30
0.0
  0
SPLINE
  5
511
100
AcDbEntity
  8
0
100
AcDbSpline
 62
7
  6
CONTINUOUS
 70
0
 71
3
 72
19
 73
15
 74
0
 42
0.0000001
 43
0.0000001
 44
0.0000000001
 40
0.0
 40
0.0
 40
0.0
 40
0.0
 40
0.1330863569
 40
0.2648827216
 40
0.3946966787
 40
0.5216623492
 40
0.6447085223
 40
0.7045533249
 40
0.7632501262
 40
0.8210328147
 40
0.8787205918
 40
0.9080010295
 40
0.9378886335
 40
1.0
 40
1.0
 40
1.0
 40
1.0
 10
16.2825245374
 20
11.8954571416
 30
0.0
 10
16.2886237188
 20
11.8907236479
 30
0.0
 10
16.3010947319
 20
11.8817172429
 30
0.0
 10
16.3207236705
 20
11.8698720685
 30
0.0
 10
16.3411300982
 20
11.8601823082
 30
0.0
 10
16.3621239803
 20
11.8532791733
 30
0.0
 10
16.3800354909
 20
11.8505677262
 30
0.0
 10
16.3940833878
 20
11.8510063227
 30
0.0
 10
16.4041908394
 20
11.8528638079
 30
0.0
 10
16.4136859096
 20
11.8565153377
 30
0.0
 10
16.4207101111
 20
11.8612877479
 30
0.0
 10
16.4254720318
 20
11.8661408661
 30
0.0
 10
16.4296601213
 20
11.8718161688
 30
0.0
 10
16.4319046433
 20
11.8767515145
 30
0.0
 10
16.4329684641
 20
11.88019404
 30
0.0
  0
SPLINE
  5
512
100
AcDbEntity
  8
0
100
AcDbSpline
 62
7
  6
CONTINUOUS
 70
0
 71
3
 72
13
 73
9
 74
0
 42
0.0000001
 43
0.0000001
 44
0.0000000001
 40
0.0
 40
0.0
 40
0.0
 40
0.0
 40
0.2295912645
 40
0.3545071927
 40
0.4839009318
 40
0.6155874141
 40
0.7471418964
 40
1.0
 40
1.0
 40
1.0
 40
1.0
 10
13.6583485646
 20
11.7996508713
 30
0.0
 10
13.6617057839
 20
11.8105148369
 30
0.0
 10
13.6706723572
 20
11.8262206665
 30
0.0
 10
13.6871602167
 20
11.8436615368
 30
0.0
 10
13.7022785205
 20
11.855491336
 30
0.0
 10
13.7192119835
 20
11.8651924722
 30
0.0
 10
13.7429874209
 20
11.8746982763
 30
0.0
 10
13.7621381001
 20
11.8779835623
 30
0.0
 10
13.7746612963
 20
11.8779835623
 30
0.0
  0
SPLINE
  5
513
100
AcDbEntity
  8
0
100
AcDbSpline
 62
7
  6
CONTINUOUS
 70
0
 71
3
 72
9
 73
5
 74
0
 42
0.0000001
 43
0.0000001
 44
0.0000000001
 40
0.0
 40
0.0
 40
0.0
 40
0.0
 40
0.4760733827
 40
1.0
 40
1.0
 40
1.0
 40
1.0
 10
13.8362991006
 20
12.0133571164
 30
0.0
 10
13.8331376883
 20
12.0122515427
 30
0.0
 10
13.8262422809
 20
12.0106391948
 30
0.0
 10
13.8191957857
 20
12.0101699783
 30
0.0
 10
13.8155099884
 20
12.0101699783
 30
0.0
  0
SPLINE
  5
514
100
AcDbEntity
  8
0
100
AcDbSpline
 62
7
  6
CONTINUOUS
 70
0
 71
3
 72
9
 73
5
 74
0
 42
0.0000001
 43
0.0000001
 44
0.0000000001
 40
0.0
 40
0.0
 40
0.0
 40
0.0
 40
0.2456307606
 40
1.0
 40
1.0
 40
1.0
 40
1.0
 10
13.8863124541
 20
12.0332052885
 30
0.0
 10
13.8822911384
 20
12.0314038641
 30
0.0
 10
13.8658381694
 20
12.0242529723
 30
0.0
 10
13.8490731493
 20
12.0178243138
 30
0.0
 10
13.8362991006
 20
12.0133571164
 30
0.0
  0
SPLINE
  5
515
100
AcDbEntity
  8
0
100
AcDbSpline
 62
7
  6
CONTINUOUS
 70
0
 71
3
 72
25
 73
21
 74
0
 42
0.0000001
 43
0.0000001
 44
0.0000000001
 40
0.0
 40
0.0
 40
0.0
 40
0.0
 40
0.0214606713
 40
0.0432171666
 40
0.0655460034
 40
0.0886901022
 40
0.1380818565
 40
0.1924668033
 40
0.2521129791
 40
0.3167218082
 40
0.3855749728
 40
0.4576554294
 40
0.5317464582
 40
0.6065165009
 40
0.6805970408
 40
0.7526555913
 40
0.8214786601
 40
0.8860490437
 40
0.9456589866
 40
1.0
 40
1.0
 40
1.0
 40
1.0
 10
15.4457583227
 20
11.8162256109
 30
0.0
 10
15.4434545957
 20
11.8087682051
 30
0.0
 10
15.4377145447
 20
11.7940662939
 30
0.0
 10
15.4259206745
 20
11.7732637362
 30
0.0
 10
15.4110215445
 20
11.7537824637
 30
0.0
 10
15.3866509998
 20
11.729244491
 30
0.0
 10
15.348403336
 20
11.7026776611
 30
0.0
 10
15.2936439424
 20
11.6788267259
 30
0.0
 10
15.2304632897
 20
11.6626934202
 30
0.0
 10
15.1605107071
 20
11.6546387024
 30
0.0
 10
15.0856037351
 20
11.6548327415
 30
0.0
 10
15.007722217
 20
11.6632622213
 30
0.0
 10
14.9289405174
 20
11.6796990327
 30
0.0
 10
14.8513670761
 20
11.7037028291
 30
0.0
 10
14.7770819077
 20
11.7346305562
 30
0.0
 10
14.7080716882
 20
11.7716538878
 30
0.0
 10
14.6461804986
 20
11.8137888402
 30
0.0
 10
14.5930373736
 20
11.8599384111
 30
0.0
 10
14.5500697561
 20
11.9088963468
 30
0.0
 10
14.5279538978
 20
11.9442610982
 30
0.0
 10
14.5192472173
 20
11.9620034476
 30
0.0
  0
SPLINE
  5
516
100
AcDbEntity
  8
0
100
AcDbSpline
 62
7
  6
CONTINUOUS
 70
0
 71
3
 72
10
 73
6
 74
0
 42
0.0000001
 43
0.0000001
 44
0.0000000001
 40
0.0
 40
0.0
 40
0.0
 40
0.0
 40
0.2436546722
 40
0.4901392401
 40
1.0
 40
1.0
 40
1.0
 40
1.0
 10
13.8190096223
 20
12.603748337
 30
0.0
 10
13.821237551
 20
12.5992062487
 30
0.0
 10
13.8264493556
 20
12.5904053195
 30
0.0
 10
13.8396867371
 20
12.5743322922
 30
0.0
 10
13.8523732101
 20
12.5646054863
 30
0.0
 10
13.8615353566
 20
12.5593020221
 30
0.0
  0
SPLINE
  5
517
100
AcDbEntity
  8
0
100
AcDbSpline
 62
7
  6
CONTINUOUS
 70
0
 71
3
 72
10
 73
6
 74
0
 42
0.0000001
 43
0.0000001
 44
0.0000000001
 40
0.0
 40
0.0
 40
0.0
 40
0.0
 40
0.2395190056
 40
0.4838412488
 40
1.0
 40
1.0
 40
1.0
 40
1.0
 10
16.7116974877
 20
11.7555973154
 30
0.0
 10
16.7101124903
 20
11.7588254528
 30
0.0
 10
16.7075875131
 20
11.7657050217
 30
0.0
 10
16.7053608499
 20
11.7806322409
 30
0.0
 10
16.7070749784
 20
11.7922464837
 30
0.0
 10
16.7093631072
 20
11.7996508713
 30
0.0
  0
SPLINE
  5
518
100
AcDbEntity
  8
0
100
AcDbSpline
 62
7
  6
CONTINUOUS
 70
0
 71
3
 72
18
 73
14
 74
0
 42
0.0000001
 43
0.0000001
 44
0.0000000001
 40
0.0
 40
0.0
 40
0.0
 40
0.0
 40
0.050492417
 40
0.1018156177
 40
0.1547013899
 40
0.2097150373
 40
0.2672094686
 40
0.3273270122
 40
0.4548250372
 40
0.5901635307
 40
0.7293027025
 40
0.8674373044
 40
1.0
 40
1.0
 40
1.0
 40
1.0
 10
16.0718376891
 20
12.7559682258
 30
0.0
 10
16.0745236612
 20
12.7504934465
 30
0.0
 10
16.0789081565
 20
12.7389135147
 30
0.0
 10
16.0821874278
 20
12.7204197788
 30
0.0
 10
16.0821677871
 20
12.7010949546
 30
0.0
 10
16.0788603086
 20
12.6813120572
 30
0.0
 10
16.0723512188
 20
12.6614282992
 30
0.0
 10
16.0593376367
 20
12.6347526396
 30
0.0
 10
16.0356344525
 20
12.6032791489
 30
0.0
 10
15.9985737976
 20
12.5714255223
 30
0.0
 10
15.9548776525
 20
12.5468057462
 30
0.0
 10
15.9076184772
 20
12.531124105
 30
0.0
 10
15.8748490182
 20
12.5272580565
 30
0.0
 10
15.858838899
 20
12.5272580565
 30
0.0
  0
SPLINE
  5
519
100
AcDbEntity
  8
0
100
AcDbSpline
 62
7
  6
CONTINUOUS
 70
0
 71
3
 72
17
 73
13
 74
0
 42
0.0000001
 43
0.0000001
 44
0.0000000001
 40
0.0
 40
0.0
 40
0.0
 40
0.0
 40
0.109833128
 40
0.1568326327
 40
0.2013306098
 40
0.2455680945
 40
0.2914845064
 40
0.3936444087
 40
0.5148912773
 40
0.656714623
 40
0.8188375542
 40
1.0
 40
1.0
 40
1.0
 40
1.0
 10
14.1052192869
 20
12.9596936919
 30
0.0
 10
14.1044105388
 20
12.9613429896
 30
0.0
 10
14.1029206709
 20
12.9636005406
 30
0.0
 10
14.1002159053
 20
12.9656517355
 30
0.0
 10
14.098112166
 20
12.9665638054
 30
0.0
 10
14.09587145
 20
12.966942111
 30
0.0
 10
14.0926372514
 20
12.9667665178
 30
0.0
 10
14.0883189721
 20
12.9652180224
 30
0.0
 10
14.0832141177
 20
12.9618052958
 30
0.0
 10
14.0780084975
 20
12.9569251341
 30
0.0
 10
14.0727838583
 20
12.9507007689
 30
0.0
 10
14.0695019757
 20
12.945980919
 30
0.0
 10
14.0678604541
 20
12.9434342517
 30
0.0
  0
LINE
  5
51A
100
AcDbEntity
  8
0
100
AcDbLine
 62
7
  6
CONTINUOUS
 10
14.0678604541
 20
12.9434342517
 11
14.0632914703
 21
12.9358228116
  0
SPLINE
  5
51B
100
AcDbEntity
  8
0
100
AcDbSpline
 62
7
  6
CONTINUOUS
 70
0
 71
3
 72
9
 73
5
 74
0
 42
0.0000001
 43
0.0000001
 44
0.0000000001
 40
0.0
 40
0.0
 40
0.0
 40
0.0
 40
0.4732592151
 40
1.0
 40
1.0
 40
1.0
 40
1.0
 10
14.0632914703
 20
12.9358228116
 30
0.0
 10
14.0599572533
 20
12.929878816
 30
0.0
 10
14.0536745834
 20
12.916888355
 30
0.0
 10
14.0485568843
 20
12.9034114571
 30
0.0
 10
14.0461146689
 20
12.8962299008
 30
0.0
  0
SPLINE
  5
51C
100
AcDbEntity
  8
0
100
AcDbSpline
 62
7
  6
CONTINUOUS
 70
0
 71
3
 72
10
 73
6
 74
0
 42
0.0000001
 43
0.0000001
 44
0.0000000001
 40
0.0
 40
0.0
 40
0.0
 40
0.0
 40
0.2395190056
 40
0.4838412488
 40
1.0
 40
1.0
 40
1.0
 40
1.0
 10
16.875092256
 20
12.2843429794
 30
0.0
 10
16.8735072586
 20
12.2875711168
 30
0.0
 10
16.8709822814
 20
12.2944506857
 30
0.0
 10
16.8687556182
 20
12.3093779049
 30
0.0
 10
16.8704697467
 20
12.3209921477
 30
0.0
 10
16.8727578755
 20
12.3283965353
 30
0.0
  0
SPLINE
  5
51D
100
AcDbEntity
  8
0
100
AcDbSpline
 62
7
  6
CONTINUOUS
 70
0
 71
3
 72
23
 73
19
 74
0
 42
0.0000001
 43
0.0000001
 44
0.0000000001
 40
0.0
 40
0.0
 40
0.0
 40
0.0
 40
0.0634120533
 40
0.1295862926
 40
0.1979435983
 40
0.2678684181
 40
0.3386765317
 40
0.4096645266
 40
0.4801207995
 40
0.5493502295
 40
0.616695647
 40
0.6815600925
 40
0.7434319533
 40
0.8019138206
 40
0.8567559445
 40
0.9078943457
 40
0.9554957345
 40
1.0
 40
1.0
 40
1.0
 40
1.0
 10
16.1198877321
 20
13.3164893011
 30
0.0
 10
16.087641584
 20
13.3437543457
 30
0.0
 10
16.0190967884
 20
13.3963964562
 30
0.0
 10
15.9081395994
 20
13.4678004414
 30
0.0
 10
15.7881882955
 20
13.5324910501
 30
0.0
 10
15.6610311395
 20
13.5895137891
 30
0.0
 10
15.5285275758
 20
13.6380292425
 30
0.0
 10
15.3926353159
 20
13.6773218861
 30
0.0
 10
15.2553570168
 20
13.7068126025
 30
0.0
 10
15.1187162805
 20
13.7260673263
 30
0.0
 10
14.9847233359
 20
13.7348024742
 30
0.0
 10
14.855344028
 20
13.732887174
 30
0.0
 10
14.7324695186
 20
13.720342385
 30
0.0
 10
14.617885229
 20
13.697336006
 30
0.0
 10
14.5132503351
 20
13.6641748938
 30
0.0
 10
14.4200676371
 20
13.621269666
 30
0.0
 10
14.3397356769
 20
13.5691768683
 30
0.0
 10
14.2942350578
 20
13.5274705709
 30
0.0
 10
14.2744278508
 20
13.5054250056
 30
0.0
  0
SPLINE
  5
51E
100
AcDbEntity
  8
0
100
AcDbSpline
 62
7
  6
CONTINUOUS
 70
0
 71
3
 72
9
 73
5
 74
0
 42
0.0000001
 43
0.0000001
 44
0.0000000001
 40
0.0
 40
0.0
 40
0.0
 40
0.0
 40
0.253058797
 40
1.0
 40
1.0
 40
1.0
 40
1.0
 10
14.2539859341
 20
13.4809817293
 30
0.0
 10
14.2505867485
 20
13.4766049184
 30
0.0
 10
14.2374873679
 20
13.4590538978
 30
0.0
 10
14.2257582897
 20
13.4404747542
 30
0.0
 10
14.217903598
 20
13.4261267598
 30
0.0
  0
SPLINE
  5
51F
100
AcDbEntity
  8
0
100
AcDbSpline
 62
7
  6
CONTINUOUS
 70
0
 71
3
 72
17
 73
13
 74
0
 42
0.0000001
 43
0.0000001
 44
0.0000000001
 40
0.0
 40
0.0
 40
0.0
 40
0.0
 40
0.0294367746
 40
0.0528488179
 40
0.1030836844
 40
0.1381636956
 40
0.1810564808
 40
0.2905151088
 40
0.4299162415
 40
0.5962510376
 40
0.7870834573
 40
1.0
 40
1.0
 40
1.0
 40
1.0
 10
13.9754446823
 20
11.8514871709
 30
0.0
 10
13.9755174553
 20
11.8513382909
 30
0.0
 10
13.975676817
 20
11.8510795847
 30
0.0
 10
13.976197981
 20
11.8507564803
 30
0.0
 10
13.9768588285
 20
11.850988343
 30
0.0
 10
13.9774127682
 20
11.8514331491
 30
0.0
 10
13.9781480945
 20
11.8522006114
 30
0.0
 10
13.9790880928
 20
11.8535520482
 30
0.0
 10
13.9802371411
 20
11.8555900589
 30
0.0
 10
13.9814411871
 20
11.8581146525
 30
0.0
 10
13.9826797328
 20
11.8610763098
 30
0.0
 10
13.9834736525
 20
11.8632066672
 30
0.0
 10
13.9838744749
 20
11.8643362746
 30
0.0
  0
SPLINE
  5
520
100
AcDbEntity
  8
0
100
AcDbSpline
 62
7
  6
CONTINUOUS
 70
0
 71
3
 72
24
 73
20
 74
0
 42
0.0000001
 43
0.0000001
 44
0.0000000001
 40
0.0
 40
0.0
 40
0.0
 40
0.0
 40
0.1290024776
 40
0.193051078
 40
0.2565648069
 40
0.3810694322
 40
0.4419052632
 40
0.5015218487
 40
0.5599886542
 40
0.6176971603
 40
0.6465693802
 40
0.6756131232
 40
0.7049834897
 40
0.7348515952
 40
0.7653554941
 40
0.7966032159
 40
0.8614492192
 40
0.9294488547
 40
1.0
 40
1.0
 40
1.0
 40
1.0
 10
15.89577591
 20
12.9090519653
 30
0.0
 10
15.8783119936
 20
12.9200336907
 30
0.0
 10
15.8511196211
 20
12.9349183653
 30
0.0
 10
15.8130520668
 20
12.9503487848
 30
0.0
 10
15.774488419
 20
12.9621706759
 30
0.0
 10
15.7346878181
 20
12.9681150935
 30
0.0
 10
15.6954479889
 20
12.9658479565
 30
0.0
 10
15.667379434
 20
12.9595564981
 30
0.0
 10
15.6414488378
 20
12.9481953694
 30
0.0
 10
15.6226399108
 20
12.9341995163
 30
0.0
 10
15.6101330385
 20
12.9205196068
 30
0.0
 10
15.6021111581
 20
12.9090456809
 30
0.0
 10
15.5955968837
 20
12.8964741113
 30
0.0
 10
15.5907144106
 20
12.8829364928
 30
0.0
 10
15.5875017237
 20
12.8686025584
 30
0.0
 10
15.5854847692
 20
12.8484160521
 30
0.0
 10
15.5873008223
 20
12.8220325983
 30
0.0
 10
15.5954668539
 20
12.7904083029
 30
0.0
 10
15.6041072926
 20
12.7699262168
 30
0.0
 10
15.6090768483
 20
12.7597972877
 30
0.0
  0
SPLINE
  5
521
100
AcDbEntity
  8
0
100
AcDbSpline
 62
7
  6
CONTINUOUS
 70
0
 71
3
 72
10
 73
6
 74
0
 42
0.0000001
 43
0.0000001
 44
0.0000000001
 40
0.0
 40
0.0
 40
0.0
 40
0.0
 40
0.2395190056
 40
0.4838412488
 40
1.0
 40
1.0
 40
1.0
 40
1.0
 10
13.6606829451
 20
11.7555973154
 30
0.0
 10
13.6590979476
 20
11.7588254528
 30
0.0
 10
13.6565729705
 20
11.7657050217
 30
0.0
 10
13.6543463073
 20
11.7806322409
 30
0.0
 10
13.6560604357
 20
11.7922464837
 30
0.0
 10
13.6583485646
 20
11.7996508713
 30
0.0
  0
SPLINE
  5
522
100
AcDbEntity
  8
0
100
AcDbSpline
 62
7
  6
CONTINUOUS
 70
0
 71
3
 72
10
 73
6
 74
0
 42
0.0000001
 43
0.0000001
 44
0.0000000001
 40
0.0
 40
0.0
 40
0.0
 40
0.0
 40
0.5130937909
 40
0.7605302959
 40
1.0
 40
1.0
 40
1.0
 40
1.0
 10
13.7458527443
 20
11.6038191439
 30
0.0
 10
13.7409345922
 20
11.6038191439
 30
0.0
 10
13.7336271855
 20
11.6042752974
 30
0.0
 10
13.7241828279
 20
11.6059519189
 30
0.0
 10
13.7196726511
 20
11.6072018098
 30
0.0
 10
13.7175088619
 20
11.6079678478
 30
0.0
  0
LINE
  5
523
100
AcDbEntity
  8
0
100
AcDbLine
 62
7
  6
CONTINUOUS
 10
13.7457319608
 20
11.6038191439
 11
13.7315227386
 21
11.5990207082
  0
SPLINE
  5
524
100
AcDbEntity
  8
0
100
AcDbSpline
 62
7
  6
CONTINUOUS
 70
0
 71
3
 72
9
 73
5
 74
0
 42
0.0000001
 43
0.0000001
 44
0.0000000001
 40
0.0
 40
0.0
 40
0.0
 40
0.0
 40
0.5057053735
 40
1.0
 40
1.0
 40
1.0
 40
1.0
 10
13.7175088619
 20
11.6079678478
 30
0.0
 10
13.7134848781
 20
11.6094808072
 30
0.0
 10
13.705772149
 20
11.6131214959
 30
0.0
 10
13.6984160985
 20
11.6173806023
 30
0.0
 10
13.6947794096
 20
11.6194856821
 30
0.0
  0
SPLINE
  5
525
100
AcDbEntity
  8
0
100
AcDbSpline
 62
7
  6
CONTINUOUS
 70
0
 71
3
 72
9
 73
5
 74
0
 42
0.0000001
 43
0.0000001
 44
0.0000000001
 40
0.0
 40
0.0
 40
0.0
 40
0.0
 40
0.2420504462
 40
1.0
 40
1.0
 40
1.0
 40
1.0
 10
15.8527380616
 20
12.5396902559
 30
0.0
 10
15.8603665251
 20
12.5396902559
 30
0.0
 10
15.8918708145
 20
12.5414687884
 30
0.0
 10
15.9228862483
 20
12.5499339649
 30
0.0
 10
15.9448601924
 20
12.5593020221
 30
0.0
  0
SPLINE
  5
526
100
AcDbEntity
  8
0
100
AcDbSpline
 62
7
  6
CONTINUOUS
 70
0
 71
3
 72
9
 73
5
 74
0
 42
0.0000001
 43
0.0000001
 44
0.0000000001
 40
0.0
 40
0.0
 40
0.0
 40
0.0
 40
0.2408240953
 40
1.0
 40
1.0
 40
1.0
 40
1.0
 10
15.8000145061
 20
12.5473944178
 30
0.0
 10
15.8041027925
 20
12.5461047445
 30
0.0
 10
15.821306033
 20
12.541477255
 30
0.0
 10
15.8392240641
 20
12.5396902559
 30
0.0
 10
15.8527380616
 20
12.5396902559
 30
0.0
  0
SPLINE
  5
527
100
AcDbEntity
  8
0
100
AcDbSpline
 62
7
  6
CONTINUOUS
 70
0
 71
3
 72
24
 73
20
 74
0
 42
0.0000001
 43
0.0000001
 44
0.0000000001
 40
0.0
 40
0.0
 40
0.0
 40
0.0
 40
0.0705532382
 40
0.1385545246
 40
0.2033995872
 40
0.2346471786
 40
0.2651516836
 40
0.2950206049
 40
0.3243908695
 40
0.3534339199
 40
0.3823051396
 40
0.4400094279
 40
0.4984741794
 40
0.5580899859
 40
0.6189260309
 40
0.7434312839
 40
0.8069447552
 40
0.8709936962
 40
1.0
 40
1.0
 40
1.0
 40
1.0
 10
15.7341431241
 20
13.1645153608
 30
0.0
 10
15.7291732257
 20
13.1746445559
 30
0.0
 10
15.7205323919
 20
13.1951273607
 30
0.0
 10
15.7123692788
 20
13.226753101
 30
0.0
 10
15.7105541576
 20
13.2531366394
 30
0.0
 10
15.7125701645
 20
13.2733232138
 30
0.0
 10
15.7157814904
 20
13.2876577447
 30
0.0
 10
15.7206635074
 20
13.3011958567
 30
0.0
 10
15.72717802
 20
13.3137674881
 30
0.0
 10
15.7352018932
 20
13.3252397826
 30
0.0
 10
15.7477093039
 20
13.338917939
 30
0.0
 10
15.7665170452
 20
13.3529130875
 30
0.0
 10
15.7924452553
 20
13.3642772972
 30
0.0
 10
15.8205140049
 20
13.3705679522
 30
0.0
 10
15.8597541515
 20
13.3728315916
 30
0.0
 10
15.8995546936
 20
13.3668894333
 30
0.0
 10
15.938120487
 20
13.355073209
 30
0.0
 10
15.976189194
 20
13.3396427859
 30
0.0
 10
16.0033794077
 20
13.3247524272
 30
0.0
 10
16.0208435394
 20
13.3137697054
 30
0.0
  0
SPLINE
  5
528
100
AcDbEntity
  8
0
100
AcDbSpline
 62
7
  6
CONTINUOUS
 70
0
 71
3
 72
12
 73
8
 74
0
 42
0.0000001
 43
0.0000001
 44
0.0000000001
 40
0.0
 40
0.0
 40
0.0
 40
0.0
 40
0.2777106571
 40
0.5345441447
 40
0.7725348272
 40
0.8870214482
 40
1.0
 40
1.0
 40
1.0
 40
1.0
 10
13.8782806582
 20
11.8779835623
 30
0.0
 10
13.8854822566
 20
11.8779835623
 30
0.0
 10
13.8994070066
 20
11.8766007288
 30
0.0
 10
13.9185188658
 20
11.8699345896
 30
0.0
 10
13.931620067
 20
11.8606245654
 30
0.0
 10
13.9395007415
 20
11.8514201608
 30
0.0
 10
13.9425554441
 20
11.8463347552
 30
0.0
 10
13.9438465645
 20
11.8437048285
 30
0.0
  0
SPLINE
  5
529
100
AcDbEntity
  8
0
100
AcDbSpline
 62
7
  6
CONTINUOUS
 70
0
 71
3
 72
12
 73
8
 74
0
 42
0.0000001
 43
0.0000001
 44
0.0000000001
 40
0.0
 40
0.0
 40
0.0
 40
0.0
 40
0.2777106571
 40
0.5345441447
 40
0.7725348272
 40
0.8870214482
 40
1.0
 40
1.0
 40
1.0
 40
1.0
 10
17.0926899691
 20
12.4067292263
 30
0.0
 10
17.0998915676
 20
12.4067292263
 30
0.0
 10
17.1138163175
 20
12.4053463928
 30
0.0
 10
17.1329281767
 20
12.3986802536
 30
0.0
 10
17.1460293779
 20
12.3893702294
 30
0.0
 10
17.1539100524
 20
12.3801658248
 30
0.0
 10
17.156964755
 20
12.3750804192
 30
0.0
 10
17.1582558754
 20
12.3724504925
 30
0.0
  0
SPLINE
  5
52A
100
AcDbEntity
  8
0
100
AcDbSpline
 62
7
  6
CONTINUOUS
 70
0
 71
3
 72
9
 73
5
 74
0
 42
0.0000001
 43
0.0000001
 44
0.0000000001
 40
0.0
 40
0.0
 40
0.0
 40
0.0
 40
0.2474632416
 40
1.0
 40
1.0
 40
1.0
 40
1.0
 10
14.4438418427
 20
12.6266443201
 30
0.0
 10
14.4440527337
 20
12.6264448986
 30
0.0
 10
14.4449283039
 20
12.6256639912
 30
0.0
 10
14.445895468
 20
12.6249866853
 30
0.0
 10
14.4466576036
 20
12.6245414739
 30
0.0
  0
SPLINE
  5
52B
100
AcDbEntity
  8
0
100
AcDbSpline
 62
7
  6
CONTINUOUS
 70
0
 71
3
 72
9
 73
5
 74
0
 42
0.0000001
 43
0.0000001
 44
0.0000000001
 40
0.0
 40
0.0
 40
0.0
 40
0.0
 40
0.2371545361
 40
1.0
 40
1.0
 40
1.0
 40
1.0
 10
14.4466576036
 20
12.6245414739
 30
0.0
 10
14.4472216085
 20
12.624212003
 30
0.0
 10
14.4496834494
 20
12.6229658158
 30
0.0
 10
14.4524150051
 20
12.6222998313
 30
0.0
 10
14.4545018961
 20
12.6220560729
 30
0.0
  0
SPLINE
  5
52C
100
AcDbEntity
  8
0
100
AcDbSpline
 62
7
  6
CONTINUOUS
 70
0
 71
3
 72
9
 73
5
 74
0
 42
0.0000001
 43
0.0000001
 44
0.0000000001
 40
0.0
 40
0.0
 40
0.0
 40
0.0
 40
0.2439254653
 40
1.0
 40
1.0
 40
1.0
 40
1.0
 10
14.4698335129
 20
12.6238717107
 30
0.0
 10
14.4703963896
 20
12.624047021
 30
0.0
 10
14.4726917481
 20
12.624804618
 30
0.0
 10
14.4749370474
 20
12.6257120081
 30
0.0
 10
14.4765998731
 20
12.6264698116
 30
0.0
  0
SPLINE
  5
52D
100
AcDbEntity
  8
0
100
AcDbSpline
 62
7
  6
CONTINUOUS
 70
0
 71
3
 72
9
 73
5
 74
0
 42
0.0000001
 43
0.0000001
 44
0.0000000001
 40
0.0
 40
0.0
 40
0.0
 40
0.0
 40
0.2440845696
 40
1.0
 40
1.0
 40
1.0
 40
1.0
 10
14.4765998731
 20
12.6264698116
 30
0.0
 10
14.4775942137
 20
12.6269229649
 30
0.0
 10
14.4816187899
 20
12.628886143
 30
0.0
 10
14.4854460093
 20
12.6312493645
 30
0.0
 10
14.488197128
 20
12.6332200586
 30
0.0
  0
SPLINE
  5
52E
100
AcDbEntity
  8
0
100
AcDbSpline
 62
7
  6
CONTINUOUS
 70
0
 71
3
 72
9
 73
5
 74
0
 42
0.0000001
 43
0.0000001
 44
0.0000000001
 40
0.0
 40
0.0
 40
0.0
 40
0.0
 40
0.2616312823
 40
1.0
 40
1.0
 40
1.0
 40
1.0
 10
14.5067336479
 20
12.652715099
 30
0.0
 10
14.5072827453
 20
12.6536048761
 30
0.0
 10
14.5092846834
 20
12.6570630979
 30
0.0
 10
14.5108994427
 20
12.6607565064
 30
0.0
 10
14.5117706504
 20
12.6635757356
 30
0.0
  0
SPLINE
  5
52F
100
AcDbEntity
  8
0
100
AcDbSpline
 62
7
  6
CONTINUOUS
 70
0
 71
3
 72
12
 73
8
 74
0
 42
0.0000001
 43
0.0000001
 44
0.0000000001
 40
0.0
 40
0.0
 40
0.0
 40
0.0
 40
0.2777106571
 40
0.5345441447
 40
0.7725348272
 40
0.8870214482
 40
1.0
 40
1.0
 40
1.0
 40
1.0
 10
16.9292952008
 20
11.8779835623
 30
0.0
 10
16.9364967993
 20
11.8779835623
 30
0.0
 10
16.9504215492
 20
11.8766007288
 30
0.0
 10
16.9695334084
 20
11.8699345896
 30
0.0
 10
16.9826346096
 20
11.8606245654
 30
0.0
 10
16.9905152841
 20
11.8514201608
 30
0.0
 10
16.9935699867
 20
11.8463347552
 30
0.0
 10
16.9948611071
 20
11.8437048285
 30
0.0
  0
SPLINE
  5
530
100
AcDbEntity
  8
0
100
AcDbSpline
 62
7
  6
CONTINUOUS
 70
0
 71
3
 72
9
 73
5
 74
0
 42
0.0000001
 43
0.0000001
 44
0.0000000001
 40
0.0
 40
0.0
 40
0.0
 40
0.0
 40
0.5084673641
 40
1.0
 40
1.0
 40
1.0
 40
1.0
 10
16.8195653018
 20
11.6079678478
 30
0.0
 10
16.8144778243
 20
11.6064900884
 30
0.0
 10
16.804201203
 20
11.6045052747
 30
0.0
 10
16.7937786366
 20
11.6038191439
 30
0.0
 10
16.7886573264
 20
11.6038191439
 30
0.0
  0
LINE
  5
531
100
AcDbEntity
  8
0
100
AcDbLine
 62
7
  6
CONTINUOUS
 10
16.8076967926
 20
11.5990207082
 11
16.7887779288
 21
11.6038191439
  0
SPLINE
  5
532
100
AcDbEntity
  8
0
100
AcDbSpline
 62
7
  6
CONTINUOUS
 70
0
 71
3
 72
9
 73
5
 74
0
 42
0.0000001
 43
0.0000001
 44
0.0000000001
 40
0.0
 40
0.0
 40
0.0
 40
0.0
 40
0.2418679226
 40
1.0
 40
1.0
 40
1.0
 40
1.0
 10
16.9701438929
 20
12.0101699783
 30
0.0
 10
16.9681956078
 20
12.0101699783
 30
0.0
 10
16.9601417774
 20
12.0104577107
 30
0.0
 10
16.9521366077
 20
12.0118184808
 30
0.0
 10
16.9462267403
 20
12.0133571164
 30
0.0
  0
SPLINE
  5
533
100
AcDbEntity
  8
0
100
AcDbSpline
 62
7
  6
CONTINUOUS
 70
0
 71
3
 72
19
 73
15
 74
0
 42
0.0000001
 43
0.0000001
 44
0.0000000001
 40
0.0
 40
0.0
 40
0.0
 40
0.0
 40
0.0558186077
 40
0.1140983246
 40
0.1746026872
 40
0.2370439949
 40
0.3663216307
 40
0.4989970163
 40
0.6318112402
 40
0.7614953409
 40
0.8242303256
 40
0.8850818858
 40
0.9437541524
 40
1.0
 40
1.0
 40
1.0
 40
1.0
 10
14.7984476873
 20
13.7529092745
 30
0.0
 10
14.824488315
 20
13.7585627256
 30
0.0
 10
14.8782216071
 20
13.7678878262
 30
0.0
 10
14.9612500903
 20
13.7759593148
 30
0.0
 10
15.0477988112
 20
13.7783754992
 30
0.0
 10
15.168194943
 20
13.7739595908
 30
0.0
 10
15.3221630103
 20
13.7540448121
 30
0.0
 10
15.5055515555
 20
13.709051671
 30
0.0
 10
15.6831355974
 20
13.6443009276
 30
0.0
 10
15.8225251434
 20
13.5750437607
 30
0.0
 10
15.9255135059
 20
13.5115728888
 30
0.0
 10
15.9965745463
 20
13.4612504793
 30
0.0
 10
16.0616383469
 20
13.4081598918
 30
0.0
 10
16.1015203301
 20
13.3703932932
 30
0.0
 10
16.1202376128
 20
13.3511410031
 30
0.0
  0
SPLINE
  5
534
100
AcDbEntity
  8
0
100
AcDbSpline
 62
7
  6
CONTINUOUS
 70
0
 71
3
 72
11
 73
7
 74
0
 42
0.0000001
 43
0.0000001
 44
0.0000000001
 40
0.0
 40
0.0
 40
0.0
 40
0.0
 40
0.2643574115
 40
0.5171102998
 40
0.7609117429
 40
1.0
 40
1.0
 40
1.0
 40
1.0
 10
16.0700974791
 20
12.6860744721
 30
0.0
 10
16.0722918678
 20
12.6931755167
 30
0.0
 10
16.0755043854
 20
12.7074362809
 30
0.0
 10
16.0764758826
 20
12.7289264716
 30
0.0
 10
16.0734183072
 20
12.749514856
 30
0.0
 10
16.0686974504
 20
12.7623655859
 30
0.0
 10
16.0657372268
 20
12.7684006071
 30
0.0
  0
SPLINE
  5
535
100
AcDbEntity
  8
0
100
AcDbSpline
 62
7
  6
CONTINUOUS
 70
0
 71
3
 72
12
 73
8
 74
0
 42
0.0000001
 43
0.0000001
 44
0.0000000001
 40
0.0
 40
0.0
 40
0.0
 40
0.0
 40
0.265925839
 40
0.3972305087
 40
0.5259957149
 40
0.7721551482
 40
1.0
 40
1.0
 40
1.0
 40
1.0
 10
15.9448601924
 20
12.5593020221
 30
0.0
 10
15.9598078223
 20
12.5656745809
 30
0.0
 10
15.9813150163
 20
12.5773335611
 30
0.0
 10
16.0071201213
 20
12.5965579298
 30
0.0
 10
16.0300127627
 20
12.6174277622
 30
0.0
 10
16.0533595977
 20
12.6462837498
 30
0.0
 10
16.0659869235
 20
12.6727727093
 30
0.0
 10
16.0700974791
 20
12.6860744721
 30
0.0
  0
SPLINE
  5
536
100
AcDbEntity
  8
0
100
AcDbSpline
 62
7
  6
CONTINUOUS
 70
0
 71
3
 72
9
 73
5
 74
0
 42
0.0000001
 43
0.0000001
 44
0.0000000001
 40
0.0
 40
0.0
 40
0.0
 40
0.0
 40
0.5060679013
 40
1.0
 40
1.0
 40
1.0
 40
1.0
 10
15.477905507
 20
11.7469301103
 30
0.0
 10
15.4840953965
 20
11.7544441739
 30
0.0
 10
15.49532411
 20
11.7701550745
 30
0.0
 10
15.5041080155
 20
11.7873635744
 30
0.0
 10
15.5077619563
 20
11.7961347512
 30
0.0
  0
SPLINE
  5
537
100
AcDbEntity
  8
0
100
AcDbSpline
 62
7
  6
CONTINUOUS
 70
0
 71
3
 72
9
 73
5
 74
0
 42
0.0000001
 43
0.0000001
 44
0.0000000001
 40
0.0
 40
0.0
 40
0.0
 40
0.0
 40
0.496025273
 40
1.0
 40
1.0
 40
1.0
 40
1.0
 10
14.4398314119
 20
12.1265290451
 30
0.0
 10
14.4383436968
 20
12.1194344455
 30
0.0
 10
14.4361835417
 20
12.1049433819
 30
0.0
 10
14.4356972837
 20
12.0903031071
 30
0.0
 10
14.435853239
 20
12.0829396791
 30
0.0
  0
SPLINE
  5
538
100
AcDbEntity
  8
0
100
AcDbSpline
 62
7
  6
CONTINUOUS
 70
0
 71
3
 72
11
 73
7
 74
0
 42
0.0000001
 43
0.0000001
 44
0.0000000001
 40
0.0
 40
0.0
 40
0.0
 40
0.0
 40
0.2508100416
 40
0.4943697539
 40
0.7407300611
 40
1.0
 40
1.0
 40
1.0
 40
1.0
 10
14.5680332929
 20
13.319371331
 30
0.0
 10
14.5696935298
 20
13.3186503701
 30
0.0
 10
14.5728194732
 20
13.3168434985
 30
0.0
 10
14.5766453859
 20
13.3130216353
 30
0.0
 10
14.57935071
 20
13.308271117
 30
0.0
 10
14.5803310162
 20
13.3047167816
 30
0.0
 10
14.5806389511
 20
13.3028712228
 30
0.0
  0
SPLINE
  5
539
100
AcDbEntity
  8
0
100
AcDbSpline
 62
7
  6
CONTINUOUS
 70
0
 71
3
 72
9
 73
5
 74
0
 42
0.0000001
 43
0.0000001
 44
0.0000000001
 40
0.0
 40
0.0
 40
0.0
 40
0.0
 40
0.2307276276
 40
1.0
 40
1.0
 40
1.0
 40
1.0
 10
14.5807053352
 20
13.302453397
 30
0.0
 10
14.5808991549
 20
13.3011695799
 30
0.0
 10
14.5813450021
 20
13.2955450071
 30
0.0
 10
14.5803210548
 20
13.2898731964
 30
0.0
 10
14.5790429588
 20
13.2857372761
 30
0.0
  0
SPLINE
  5
53A
100
AcDbEntity
  8
0
100
AcDbSpline
 62
7
  6
CONTINUOUS
 70
0
 71
3
 72
9
 73
5
 74
0
 42
0.0000001
 43
0.0000001
 44
0.0000000001
 40
0.0
 40
0.0
 40
0.0
 40
0.0
 40
0.2419445879
 40
1.0
 40
1.0
 40
1.0
 40
1.0
 10
14.4878362886
 20
13.2676377701
 30
0.0
 10
14.4880524134
 20
13.26833715
 30
0.0
 10
14.4890074118
 20
13.2712085875
 30
0.0
 10
14.490195563
 20
13.2740007367
 30
0.0
 10
14.4912002685
 20
13.2760624895
 30
0.0
  0
SPLINE
  5
53B
100
AcDbEntity
  8
0
100
AcDbSpline
 62
7
  6
CONTINUOUS
 70
0
 71
3
 72
9
 73
5
 74
0
 42
0.0000001
 43
0.0000001
 44
0.0000000001
 40
0.0
 40
0.0
 40
0.0
 40
0.0
 40
0.503989068
 40
1.0
 40
1.0
 40
1.0
 40
1.0
 10
14.4749490236
 20
12.1926146063
 30
0.0
 10
14.4694715401
 20
12.1847036239
 30
0.0
 10
14.4597275558
 20
12.168191251
 30
0.0
 10
14.4526421997
 20
12.1503676801
 30
0.0
 10
14.4498471305
 20
12.1413196984
 30
0.0
  0
SPLINE
  5
53C
100
AcDbEntity
  8
0
100
AcDbSpline
 62
7
  6
CONTINUOUS
 70
0
 71
3
 72
9
 73
5
 74
0
 42
0.0000001
 43
0.0000001
 44
0.0000000001
 40
0.0
 40
0.0
 40
0.0
 40
0.0
 40
0.2563019782
 40
1.0
 40
1.0
 40
1.0
 40
1.0
 10
14.4988459545
 20
13.2340037151
 30
0.0
 10
14.4982412822
 20
13.2342662952
 30
0.0
 10
14.4959257861
 20
13.2353874691
 30
0.0
 10
14.4938031899
 20
13.2369159348
 30
0.0
 10
14.4924276608
 20
13.2382451694
 30
0.0
  0
SPLINE
  5
53D
100
AcDbEntity
  8
0
100
AcDbSpline
 62
7
  6
CONTINUOUS
 70
0
 71
3
 72
11
 73
7
 74
0
 42
0.0000001
 43
0.0000001
 44
0.0000000001
 40
0.0
 40
0.0
 40
0.0
 40
0.0
 40
0.2206403122
 40
0.4548764467
 40
0.7132711487
 40
1.0
 40
1.0
 40
1.0
 40
1.0
 10
14.4915657254
 20
13.2391312251
 30
0.0
 10
14.4900764365
 20
13.2407604214
 30
0.0
 10
14.4875646534
 20
13.2446704821
 30
0.0
 10
14.4857430568
 20
13.2516687677
 30
0.0
 10
14.4858018875
 20
13.2595360795
 30
0.0
 10
14.4869893774
 20
13.2648971643
 30
0.0
 10
14.4878362886
 20
13.2676377701
 30
0.0
  0
SPLINE
  5
53E
100
AcDbEntity
  8
0
100
AcDbSpline
 62
7
  6
CONTINUOUS
 70
0
 71
3
 72
10
 73
6
 74
0
 42
0.0000001
 43
0.0000001
 44
0.0000000001
 40
0.0
 40
0.0
 40
0.0
 40
0.0
 40
0.5360202632
 40
0.7781582353
 40
1.0
 40
1.0
 40
1.0
 40
1.0
 10
14.1711633854
 20
13.3008944207
 30
0.0
 10
14.1741733445
 20
13.3097511202
 30
0.0
 10
14.1790985083
 20
13.3224428421
 30
0.0
 10
14.1868514318
 20
13.3380869213
 30
0.0
 10
14.1909449324
 20
13.3450846434
 30
0.0
 10
14.1930479141
 20
13.3483350651
 30
0.0
  0
SPLINE
  5
53F
100
AcDbEntity
  8
0
100
AcDbSpline
 62
7
  6
CONTINUOUS
 70
0
 71
3
 72
17
 73
13
 74
0
 42
0.0000001
 43
0.0000001
 44
0.0000000001
 40
0.0
 40
0.0
 40
0.0
 40
0.0
 40
0.1799400801
 40
0.3407920015
 40
0.4814990882
 40
0.6019511908
 40
0.7039659098
 40
0.7501827665
 40
0.7949846767
 40
0.8402744802
 40
0.8882152127
 40
1.0
 40
1.0
 40
1.0
 40
1.0
 10
14.1940611454
 20
13.3498760371
 30
0.0
 10
14.1956648887
 20
13.352275507
 30
0.0
 10
14.1988658446
 20
13.3567151528
 30
0.0
 10
14.2039505893
 20
13.3625454488
 30
0.0
 10
14.2090061056
 20
13.3670820897
 30
0.0
 10
14.2139574848
 20
13.3702124012
 30
0.0
 10
14.218134538
 20
13.3715652067
 30
0.0
 10
14.2212513697
 20
13.3716352121
 30
0.0
 10
14.223414368
 20
13.3712049705
 30
0.0
 10
14.2254437178
 20
13.3702687577
 30
0.0
 10
14.228053024
 20
13.3682272411
 30
0.0
 10
14.229499068
 20
13.3660224872
 30
0.0
 10
14.2302885515
 20
13.3644127333
 30
0.0
  0
SPLINE
  5
540
100
AcDbEntity
  8
0
100
AcDbSpline
 62
7
  6
CONTINUOUS
 70
0
 71
3
 72
11
 73
7
 74
0
 42
0.0000001
 43
0.0000001
 44
0.0000000001
 40
0.0
 40
0.0
 40
0.0
 40
0.0
 40
0.2283073477
 40
0.4776778066
 40
0.7386515231
 40
1.0
 40
1.0
 40
1.0
 40
1.0
 10
14.5790429588
 20
13.2857372761
 30
0.0
 10
14.5777865894
 20
13.2816716635
 30
0.0
 10
14.5741254401
 20
13.2734727919
 30
0.0
 10
14.5662841074
 20
13.2620840712
 30
0.0
 10
14.5563043708
 20
13.2516479612
 30
0.0
 10
14.5485426491
 20
13.2456940165
 30
0.0
 10
14.5444492895
 20
13.2430534682
 30
0.0
  0
SPLINE
  5
541
100
AcDbEntity
  8
0
100
AcDbSpline
 62
7
  6
CONTINUOUS
 70
0
 71
3
 72
9
 73
5
 74
0
 42
0.0000001
 43
0.0000001
 44
0.0000000001
 40
0.0
 40
0.0
 40
0.0
 40
0.0
 40
0.4799582633
 40
1.0
 40
1.0
 40
1.0
 40
1.0
 10
13.8615353566
 20
12.5593020221
 30
0.0
 10
13.8722954123
 20
12.553073616
 30
0.0
 10
13.8967406795
 20
12.5434608716
 30
0.0
 10
13.9226694179
 20
12.5401284512
 30
0.0
 10
13.9361354686
 20
12.5397632305
 30
0.0
  0
SPLINE
  5
542
100
AcDbEntity
  8
0
100
AcDbSpline
 62
7
  6
CONTINUOUS
 70
0
 71
3
 72
10
 73
6
 74
0
 42
0.0000001
 43
0.0000001
 44
0.0000000001
 40
0.0
 40
0.0
 40
0.0
 40
0.0
 40
0.2836927337
 40
0.6666111846
 40
1.0
 40
1.0
 40
1.0
 40
1.0
 10
14.539150109
 20
13.3185852092
 30
0.0
 10
14.541782407
 20
13.3194968968
 30
0.0
 10
14.5481092041
 20
13.3212520527
 30
0.0
 10
14.5579834491
 20
13.3221436997
 30
0.0
 10
14.5650305019
 20
13.3206752987
 30
0.0
 10
14.5680332929
 20
13.319371331
 30
0.0
  0
SPLINE
  5
543
100
AcDbEntity
  8
0
100
AcDbSpline
 62
7
  6
CONTINUOUS
 70
0
 71
3
 72
11
 73
7
 74
0
 42
0.0000001
 43
0.0000001
 44
0.0000000001
 40
0.0
 40
0.0
 40
0.0
 40
0.0
 40
0.2714861639
 40
0.5255243654
 40
0.7663200724
 40
1.0
 40
1.0
 40
1.0
 40
1.0
 10
14.4584571917
 20
11.9620034476
 30
0.0
 10
14.4517002322
 20
11.9757726833
 30
0.0
 10
14.4404815648
 20
12.0034146098
 30
0.0
 10
14.4311348049
 20
12.0459250148
 30
0.0
 10
14.4301353414
 20
12.0873403149
 30
0.0
 10
14.4351593787
 20
12.1139184141
 30
0.0
 10
14.4390041343
 20
12.1265480804
 30
0.0
  0
SPLINE
  5
544
100
AcDbEntity
  8
0
100
AcDbSpline
 62
7
  6
CONTINUOUS
 70
0
 71
3
 72
11
 73
7
 74
0
 42
0.0000001
 43
0.0000001
 44
0.0000000001
 40
0.0
 40
0.0
 40
0.0
 40
0.0
 40
0.2910154084
 40
0.5581640958
 40
0.7944565461
 40
1.0
 40
1.0
 40
1.0
 40
1.0
 10
14.5444492895
 20
13.2430534682
 30
0.0
 10
14.5405268006
 20
13.2405231452
 30
0.0
 10
14.5326058491
 20
13.2362454055
 30
0.0
 10
14.5204061067
 20
13.2322858323
 30
0.0
 10
14.5089746206
 20
13.231220517
 30
0.0
 10
14.5018699951
 20
13.2326905198
 30
0.0
 10
14.4988459545
 20
13.2340037151
 30
0.0
  0
SPLINE
  5
545
100
AcDbEntity
  8
0
100
AcDbSpline
 62
7
  6
CONTINUOUS
 70
0
 71
3
 72
26
 73
22
 74
0
 42
0.0000001
 43
0.0000001
 44
0.0000000001
 40
0.0
 40
0.0
 40
0.0
 40
0.0
 40
0.0214423299
 40
0.0432688896
 40
0.0657392402
 40
0.0890732969
 40
0.1134474991
 40
0.1389896793
 40
0.1938177121
 40
0.253806794
 40
0.3186146899
 40
0.3875114435
 40
0.4594912103
 40
0.533364032
 40
0.6078350867
 40
0.6815776224
 40
0.7533028706
 40
0.8218356439
 40
0.886193406
 40
0.9456808157
 40
1.0
 40
1.0
 40
1.0
 40
1.0
 10
15.5058835034
 20
11.7880232318
 30
0.0
 10
15.5028828523
 20
11.7797970765
 30
0.0
 10
15.4956237037
 20
11.7636109419
 30
0.0
 10
15.4812952036
 20
11.7408149362
 30
0.0
 10
15.4635714505
 20
11.7195327661
 30
0.0
 10
15.4425998994
 20
11.6999019424
 30
0.0
 10
15.4185226002
 20
11.6820498701
 30
0.0
 10
15.381645325
 20
11.6602493889
 30
0.0
 10
15.328317512
 20
11.6383789084
 30
0.0
 10
15.2567340066
 20
11.6213376242
 30
0.0
 10
15.1778516862
 20
11.6132245252
 30
0.0
 10
15.093700609
 20
11.6142271979
 30
0.0
 10
15.0064399821
 20
11.6243062738
 30
0.0
 10
14.9183365975
 20
11.6431986713
 30
0.0
 10
14.8316860791
 20
11.6704113342
 30
0.0
 10
14.7487504897
 20
11.7052342956
 30
0.0
 10
14.6716904128
 20
11.7467603872
 30
0.0
 10
14.6025088815
 20
11.7939132361
 30
0.0
 10
14.5429840466
 20
11.8454989881
 30
0.0
 10
14.4946650559
 20
11.9002004535
 30
0.0
 10
14.4696277327
 20
11.9396954686
 30
0.0
 10
14.4596864599
 20
11.9595252375
 30
0.0
  0
SPLINE
  5
546
100
AcDbEntity
  8
0
100
AcDbSpline
 62
7
  6
CONTINUOUS
 70
0
 71
3
 72
9
 73
5
 74
0
 42
0.0000001
 43
0.0000001
 44
0.0000000001
 40
0.0
 40
0.0
 40
0.0
 40
0.0
 40
0.4918852232
 40
1.0
 40
1.0
 40
1.0
 40
1.0
 10
14.8839358943
 20
11.2870126622
 30
0.0
 10
14.8842874356
 20
11.2881501604
 30
0.0
 10
14.8847441836
 20
11.2905501363
 30
0.0
 10
14.8846691053
 20
11.2929889459
 30
0.0
 10
14.8845138365
 20
11.2942089693
 30
0.0
  0
SPLINE
  5
547
100
AcDbEntity
  8
0
100
AcDbSpline
 62
7
  6
CONTINUOUS
 70
0
 71
3
 72
9
 73
5
 74
0
 42
0.0000001
 43
0.0000001
 44
0.0000000001
 40
0.0
 40
0.0
 40
0.0
 40
0.0
 40
0.2396304808
 40
1.0
 40
1.0
 40
1.0
 40
1.0
 10
14.8844455545
 20
11.2946963597
 30
0.0
 10
14.8843593107
 20
11.295260523
 30
0.0
 10
14.8838979742
 20
11.2975990881
 30
0.0
 10
14.8830502984
 20
11.2998539752
 30
0.0
 10
14.8822525027
 20
11.3014797118
 30
0.0
  0
SPLINE
  5
548
100
AcDbEntity
  8
0
100
AcDbSpline
 62
7
  6
CONTINUOUS
 70
0
 71
3
 72
10
 73
6
 74
0
 42
0.0000001
 43
0.0000001
 44
0.0000000001
 40
0.0
 40
0.0
 40
0.0
 40
0.0
 40
0.2791216717
 40
0.5407302332
 40
1.0
 40
1.0
 40
1.0
 40
1.0
 10
14.8221734626
 20
11.3319386002
 30
0.0
 10
14.81987934
 20
11.3319386002
 30
0.0
 10
14.8154265439
 20
11.331706725
 30
0.0
 10
14.8073241454
 20
11.3303261784
 30
0.0
 10
14.801655031
 20
11.3281624961
 30
0.0
 10
14.7984858825
 20
11.3261117853
 30
0.0
  0
SPLINE
  5
549
100
AcDbEntity
  8
0
100
AcDbSpline
 62
7
  6
CONTINUOUS
 70
0
 71
3
 72
9
 73
5
 74
0
 42
0.0000001
 43
0.0000001
 44
0.0000000001
 40
0.0
 40
0.0
 40
0.0
 40
0.0
 40
0.5219298717
 40
1.0
 40
1.0
 40
1.0
 40
1.0
 10
14.7984858825
 20
11.3261117853
 30
0.0
 10
14.796550079
 20
11.3248591545
 30
0.0
 10
14.79311938
 20
11.3219447407
 30
0.0
 10
14.7909287343
 20
11.3179645739
 30
0.0
 10
14.7903051338
 20
11.3159467614
 30
0.0
  0
SPLINE
  5
54A
100
AcDbEntity
  8
0
100
AcDbSpline
 62
7
  6
CONTINUOUS
 70
0
 71
3
 72
37
 73
33
 74
0
 42
0.0000001
 43
0.0000001
 44
0.0000000001
 40
0.0
 40
0.0
 40
0.0
 40
0.0
 40
0.0277577829
 40
0.0571348356
 40
0.0881152469
 40
0.1206560819
 40
0.1546582098
 40
0.1899812238
 40
0.2264544988
 40
0.2638814045
 40
0.3020443181
 40
0.3407110217
 40
0.4185554559
 40
0.4954797752
 40
0.5330142846
 40
0.5696230954
 40
0.6051057575
 40
0.639288003
 40
0.6720256678
 40
0.7032137151
 40
0.7327941252
 40
0.7607633401
 40
0.7871851194
 40
0.8121975027
 40
0.8360205338
 40
0.8589568185
 40
0.8813790657
 40
0.9037070522
 40
0.9263674126
 40
0.9497562212
 40
0.9742173909
 40
1.0
 40
1.0
 40
1.0
 40
1.0
 10
15.8697528998
 20
11.9620034476
 30
0.0
 10
15.8598659383
 20
11.9821509568
 30
0.0
 10
15.8370255263
 20
12.0224312998
 30
0.0
 10
15.7956307412
 20
12.0805428235
 30
0.0
 10
15.7465219395
 20
12.1375048938
 30
0.0
 10
15.6901793179
 20
12.1927833723
 30
0.0
 10
15.6271281848
 20
12.2458854666
 30
0.0
 10
15.5579507161
 20
12.2963105227
 30
0.0
 10
15.4832968766
 20
12.3435939709
 30
0.0
 10
15.4038660912
 20
12.38729588
 30
0.0
 10
15.3203972981
 20
12.4270031314
 30
0.0
 10
15.2045369238
 20
12.4742222452
 30
0.0
 10
15.0549537563
 20
12.5210282491
 30
0.0
 10
14.9019930176
 20
12.5508495979
 30
0.0
 10
14.7804523749
 20
12.5635700014
 30
0.0
 10
14.6918395426
 20
12.5673851898
 30
0.0
 10
14.6058720272
 20
12.5655144862
 30
0.0
 10
14.5233491787
 20
12.5579798794
 30
0.0
 10
14.4450399635
 20
12.5448418448
 30
0.0
 10
14.3716711262
 20
12.5262184087
 30
0.0
 10
14.3039210814
 20
12.5022745407
 30
0.0
 10
14.2424214459
 20
12.4732058721
 30
0.0
 10
14.1877461776
 20
12.439262323
 30
0.0
 10
14.1404241554
 20
12.4007198352
 30
0.0
 10
14.1009425738
 20
12.3578994094
 30
0.0
 10
14.0697303161
 20
12.3111901979
 30
0.0
 10
14.0471684129
 20
12.2610439682
 30
0.0
 10
14.0335272561
 20
12.208001773
 30
0.0
 10
14.028940384
 20
12.1526547007
 30
0.0
 10
14.033420054
 20
12.0955909551
 30
0.0
 10
14.0468573023
 20
12.0373972232
 30
0.0
 10
14.0612600193
 20
11.9992770048
 30
0.0
 10
14.0697496287
 20
11.9802383441
 30
0.0
  0
SPLINE
  5
54B
100
AcDbEntity
  8
0
100
AcDbSpline
 62
7
  6
CONTINUOUS
 70
0
 71
3
 72
12
 73
8
 74
0
 42
0.0000001
 43
0.0000001
 44
0.0000000001
 40
0.0
 40
0.0
 40
0.0
 40
0.0
 40
0.2885539403
 40
0.5294876656
 40
0.641409788
 40
0.754201602
 40
1.0
 40
1.0
 40
1.0
 40
1.0
 10
16.2103948288
 20
11.2415027029
 30
0.0
 10
16.2119171975
 20
11.2418593915
 30
0.0
 10
16.2146650306
 20
11.2428548203
 30
0.0
 10
16.2173233937
 20
11.2453095727
 30
0.0
 10
16.2183349417
 20
11.2476586489
 30
0.0
 10
16.2186524632
 20
11.2502180985
 30
0.0
 10
16.2180873934
 20
11.252172381
 30
0.0
 10
16.2175006277
 20
11.2533680838
 30
0.0
  0
SPLINE
  5
54C
100
AcDbEntity
  8
0
100
AcDbSpline
 62
7
  6
CONTINUOUS
 70
0
 71
3
 72
10
 73
6
 74
0
 42
0.0000001
 43
0.0000001
 44
0.0000000001
 40
0.0
 40
0.0
 40
0.0
 40
0.0
 40
0.2341321168
 40
0.475620054
 40
1.0
 40
1.0
 40
1.0
 40
1.0
 10
16.2421376313
 20
11.2572247075
 30
0.0
 10
16.2424173968
 20
11.2581300661
 30
0.0
 10
16.2427857083
 20
11.2600380996
 30
0.0
 10
16.2426940799
 20
11.2641075228
 30
0.0
 10
16.2416981436
 20
11.2671293544
 30
0.0
 10
16.2407631741
 20
11.2690346219
 30
0.0
  0
SPLINE
  5
54D
100
AcDbEntity
  8
0
100
AcDbSpline
 62
7
  6
CONTINUOUS
 70
0
 71
3
 72
30
 73
26
 74
0
 42
0.0000001
 43
0.0000001
 44
0.0000000001
 40
0.0
 40
0.0
 40
0.0
 40
0.0
 40
0.0265307742
 40
0.0543842659
 40
0.0835519182
 40
0.1140141693
 40
0.1457247039
 40
0.1786023242
 40
0.2474078404
 40
0.3194491706
 40
0.3935108987
 40
0.4682623755
 40
0.5423349162
 40
0.6143972186
 40
0.683232859
 40
0.7478251036
 40
0.8074557926
 40
0.8353224368
 40
0.8618810353
 40
0.8871850242
 40
0.9113324944
 40
0.9344701426
 40
0.9567940444
 40
0.9785449977
 40
1.0
 40
1.0
 40
1.0
 40
1.0
 10
15.8930154461
 20
11.9776699858
 30
0.0
 10
15.8844685216
 20
11.9950867868
 30
0.0
 10
15.8651314502
 20
12.029918284
 30
0.0
 10
15.8307957261
 20
12.0805389853
 30
0.0
 10
15.7906542032
 20
12.1304354602
 30
0.0
 10
15.7450023093
 20
12.1792690098
 30
0.0
 10
15.6941409823
 20
12.226718316
 30
0.0
 10
15.6187070778
 20
12.2886486249
 30
0.0
 10
15.5134481976
 20
12.3603004688
 30
0.0
 10
15.3747404153
 20
12.4347183828
 30
0.0
 10
15.2254125752
 20
12.4968883346
 30
0.0
 10
15.0694801299
 20
12.5451387624
 30
0.0
 10
14.911116918
 20
12.5781783642
 30
0.0
 10
14.7545660432
 20
12.5951222822
 30
0.0
 10
14.6039873967
 20
12.5955112666
 30
0.0
 10
14.4633932232
 20
12.5793227502
 30
0.0
 10
14.355185043
 20
12.5516993226
 30
0.0
 10
14.2774539654
 20
12.5212090724
 30
0.0
 10
14.2252174789
 20
12.4951189687
 30
0.0
 10
14.178088425
 20
12.465466374
 30
0.0
 10
14.1363947007
 20
12.4324294647
 30
0.0
 10
14.100436495
 20
12.3962180874
 30
0.0
 10
14.0704838402
 20
12.3570632922
 30
0.0
 10
14.0467814672
 20
12.3152433841
 30
0.0
 10
14.0352402745
 20
12.285692514
 30
0.0
 10
14.0306074594
 20
12.2707029285
 30
0.0
  0
SPLINE
  5
54E
100
AcDbEntity
  8
0
100
AcDbSpline
 62
7
  6
CONTINUOUS
 70
0
 71
3
 72
9
 73
5
 74
0
 42
0.0000001
 43
0.0000001
 44
0.0000000001
 40
0.0
 40
0.0
 40
0.0
 40
0.0
 40
0.4674968082
 40
1.0
 40
1.0
 40
1.0
 40
1.0
 10
16.126919062
 20
13.2454785645
 30
0.0
 10
16.1315055927
 20
13.2330772956
 30
0.0
 10
16.1417253218
 20
13.2067021955
 30
0.0
 10
16.1523118277
 20
13.1804750727
 30
0.0
 10
16.1579992368
 20
13.1665293999
 30
0.0
  0
SPLINE
  5
54F
100
AcDbEntity
  8
0
100
AcDbSpline
 62
7
  6
CONTINUOUS
 70
0
 71
3
 72
9
 73
5
 74
0
 42
0.0000001
 43
0.0000001
 44
0.0000000001
 40
0.0
 40
0.0
 40
0.0
 40
0.0
 40
0.4044617798
 40
1.0
 40
1.0
 40
1.0
 40
1.0
 10
16.1111132502
 20
13.2933018498
 30
0.0
 10
16.1128692674
 20
13.2867404622
 30
0.0
 10
16.1178026912
 20
13.2706776893
 30
0.0
 10
16.1234498691
 20
13.2548587251
 30
0.0
 10
16.126919062
 20
13.2454785645
 30
0.0
  0
SPLINE
  5
550
100
AcDbEntity
  8
0
100
AcDbSpline
 62
7
  6
CONTINUOUS
 70
0
 71
3
 72
10
 73
6
 74
0
 42
0.0000001
 43
0.0000001
 44
0.0000000001
 40
0.0
 40
0.0
 40
0.0
 40
0.0
 40
0.2449040866
 40
0.6211027579
 40
1.0
 40
1.0
 40
1.0
 40
1.0
 10
16.087743412
 20
13.1187061145
 30
0.0
 10
16.0822056445
 20
13.1131004648
 30
0.0
 10
16.0689099754
 20
13.0981311294
 30
0.0
 10
16.0503778353
 20
13.0717345986
 30
0.0
 10
16.0384143436
 20
13.0505583035
 30
0.0
 10
16.0327619502
 20
13.0397569499
 30
0.0
  0
SPLINE
  5
551
100
AcDbEntity
  8
0
100
AcDbSpline
 62
7
  6
CONTINUOUS
 70
0
 71
3
 72
11
 73
7
 74
0
 42
0.0000001
 43
0.0000001
 44
0.0000000001
 40
0.0
 40
0.0
 40
0.0
 40
0.0
 40
0.2340717036
 40
0.4778982483
 40
0.7331575246
 40
1.0
 40
1.0
 40
1.0
 40
1.0
 10
16.1579992368
 20
13.1665293999
 30
0.0
 10
16.151910926
 20
13.1638091466
 30
0.0
 10
16.1396593239
 20
13.1578381919
 30
0.0
 10
16.1216969623
 20
13.1471228123
 30
0.0
 10
16.1041025875
 20
13.134156633
 30
0.0
 10
16.0930859759
 20
13.1241141678
 30
0.0
 10
16.087743412
 20
13.1187061145
 30
0.0
  0
SPLINE
  5
552
100
AcDbEntity
  8
0
100
AcDbSpline
 62
7
  6
CONTINUOUS
 70
0
 71
3
 72
11
 73
7
 74
0
 42
0.0000001
 43
0.0000001
 44
0.0000000001
 40
0.0
 40
0.0
 40
0.0
 40
0.0
 40
0.2719763855
 40
0.5283690337
 40
0.7701863903
 40
1.0
 40
1.0
 40
1.0
 40
1.0
 10
15.939063132
 20
13.0553198895
 30
0.0
 10
15.9317707017
 20
13.0553198895
 30
0.0
 10
15.9175901843
 20
13.0546097012
 30
0.0
 10
15.8971572209
 20
13.0513723324
 30
0.0
 10
15.8782570665
 20
13.0463751357
 30
0.0
 10
15.8663511589
 20
13.0420671325
 30
0.0
 10
15.8606386769
 20
13.0397569499
 30
0.0
  0
SPLINE
  5
553
100
AcDbEntity
  8
0
100
AcDbSpline
 62
7
  6
CONTINUOUS
 70
0
 71
3
 72
10
 73
6
 74
0
 42
0.0000001
 43
0.0000001
 44
0.0000000001
 40
0.0
 40
0.0
 40
0.0
 40
0.0
 40
0.2556977911
 40
0.5096085765
 40
1.0
 40
1.0
 40
1.0
 40
1.0
 10
16.0327619502
 20
13.0397569499
 30
0.0
 10
16.0249652929
 20
13.0420141041
 30
0.0
 10
16.0093307221
 20
13.0462057418
 30
0.0
 10
15.978279058
 20
13.0527928821
 30
0.0
 10
15.9546300016
 20
13.0553198895
 30
0.0
 10
15.939063132
 20
13.0553198895
 30
0.0
  0
SPLINE
  5
554
100
AcDbEntity
  8
0
100
AcDbSpline
 62
7
  6
CONTINUOUS
 70
0
 71
3
 72
9
 73
5
 74
0
 42
0.0000001
 43
0.0000001
 44
0.0000000001
 40
0.0
 40
0.0
 40
0.0
 40
0.0
 40
0.4947268558
 40
1.0
 40
1.0
 40
1.0
 40
1.0
 10
16.126919062
 20
13.2454785645
 30
0.0
 10
16.1242889521
 20
13.2525899747
 30
0.0
 10
16.1169816458
 20
13.266306261
 30
0.0
 10
16.1062829397
 20
13.2775500818
 30
0.0
 10
16.1003031963
 20
13.2824703953
 30
0.0
  0
SPLINE
  5
555
100
AcDbEntity
  8
0
100
AcDbSpline
 62
7
  6
CONTINUOUS
 70
0
 71
3
 72
11
 73
7
 74
0
 42
0.0000001
 43
0.0000001
 44
0.0000000001
 40
0.0
 40
0.0
 40
0.0
 40
0.0
 40
0.2307439998
 40
0.473651612
 40
0.7301995559
 40
1.0
 40
1.0
 40
1.0
 40
1.0
 10
16.1003031963
 20
13.2824703953
 30
0.0
 10
16.0950407955
 20
13.2868004576
 30
0.0
 10
16.0832573108
 20
13.2945444412
 30
0.0
 10
16.0632185061
 20
13.3028083903
 30
0.0
 10
16.0409557816
 20
13.3078040489
 30
0.0
 10
16.0253827951
 20
13.3088647895
 30
0.0
 10
16.0174144321
 20
13.3088647895
 30
0.0
  0
SPLINE
  5
556
100
AcDbEntity
  8
0
100
AcDbSpline
 62
7
  6
CONTINUOUS
 70
0
 71
3
 72
14
 73
10
 74
0
 42
0.0000001
 43
0.0000001
 44
0.0000000001
 40
0.0
 40
0.0
 40
0.0
 40
0.0
 40
0.2795698382
 40
0.411940599
 40
0.5388167114
 40
0.6603263134
 40
0.7769873623
 40
0.8898187075
 40
1.0
 40
1.0
 40
1.0
 40
1.0
 10
16.087743412
 20
13.1187061145
 30
0.0
 10
16.0968989185
 20
13.1279738496
 30
0.0
 10
16.1090975796
 20
13.1430664375
 30
0.0
 10
16.1211568742
 20
13.1651459408
 30
0.0
 10
16.1276136385
 20
13.1817317256
 30
0.0
 10
16.1315260382
 20
13.1983476901
 30
0.0
 10
16.1328075302
 20
13.2147244677
 30
0.0
 10
16.1314168916
 20
13.2305646733
 30
0.0
 10
16.1287000287
 20
13.2406631063
 30
0.0
 10
16.126919062
 20
13.2454785645
 30
0.0
  0
SPLINE
  5
557
100
AcDbEntity
  8
0
100
AcDbSpline
 62
7
  6
CONTINUOUS
 70
0
 71
3
 72
11
 73
7
 74
0
 42
0.0000001
 43
0.0000001
 44
0.0000000001
 40
0.0
 40
0.0
 40
0.0
 40
0.0
 40
0.2427017075
 40
0.4955310213
 40
0.7506985425
 40
1.0
 40
1.0
 40
1.0
 40
1.0
 10
15.939063132
 20
13.0553198895
 30
0.0
 10
15.9524466396
 20
13.0553198895
 30
0.0
 10
15.9798319969
 20
13.0584388745
 30
0.0
 10
16.0194767395
 20
13.071151635
 30
0.0
 10
16.0563978053
 20
13.0911582699
 30
0.0
 10
16.0780818976
 20
13.1089261689
 30
0.0
 10
16.087743412
 20
13.1187061145
 30
0.0
  0
SPLINE
  5
558
100
AcDbEntity
  8
0
100
AcDbSpline
 62
7
  6
CONTINUOUS
 70
0
 71
3
 72
14
 73
10
 74
0
 42
0.0000001
 43
0.0000001
 44
0.0000000001
 40
0.0
 40
0.0
 40
0.0
 40
0.0
 40
0.1134128283
 40
0.2276954973
 40
0.3443789688
 40
0.464955152
 40
0.5904499875
 40
0.7214741991
 40
1.0
 40
1.0
 40
1.0
 40
1.0
 10
15.8295585021
 20
13.1187061145
 30
0.0
 10
15.8313239405
 20
13.1139326424
 30
0.0
 10
15.8357502116
 20
13.1046493464
 30
0.0
 10
15.8448582152
 20
13.0920659409
 30
0.0
 10
15.8562704583
 20
13.0810590925
 30
0.0
 10
15.8697602409
 20
13.0718241749
 30
0.0
 10
15.8850853773
 20
13.0644964987
 30
0.0
 10
15.9080515156
 20
13.057290582
 30
0.0
 10
15.9265640915
 20
13.0553198895
 30
0.0
 10
15.939063132
 20
13.0553198895
 30
0.0
  0
SPLINE
  5
559
100
AcDbEntity
  8
0
100
AcDbSpline
 62
7
  6
CONTINUOUS
 70
0
 71
3
 72
14
 73
10
 74
0
 42
0.0000001
 43
0.0000001
 44
0.0000000001
 40
0.0
 40
0.0
 40
0.0
 40
0.0
 40
0.2795698382
 40
0.411940599
 40
0.5388167114
 40
0.6603263134
 40
0.7769873623
 40
0.8898187075
 40
1.0
 40
1.0
 40
1.0
 40
1.0
 10
15.8687341521
 20
13.2454785645
 30
0.0
 10
15.8595786456
 20
13.2362108294
 30
0.0
 10
15.8473799846
 20
13.2211182414
 30
0.0
 10
15.83532069
 20
13.1990387382
 30
0.0
 10
15.8288639256
 20
13.1824529534
 30
0.0
 10
15.824951526
 20
13.1658369889
 30
0.0
 10
15.823670034
 20
13.1494602113
 30
0.0
 10
15.8250606725
 20
13.1336200057
 30
0.0
 10
15.8277775354
 20
13.1235215727
 30
0.0
 10
15.8295585021
 20
13.1187061145
 30
0.0
  0
SPLINE
  5
55A
100
AcDbEntity
  8
0
100
AcDbSpline
 62
7
  6
CONTINUOUS
 70
0
 71
3
 72
11
 73
7
 74
0
 42
0.0000001
 43
0.0000001
 44
0.0000000001
 40
0.0
 40
0.0
 40
0.0
 40
0.0
 40
0.2427017075
 40
0.4955310213
 40
0.7506985425
 40
1.0
 40
1.0
 40
1.0
 40
1.0
 10
16.0174144321
 20
13.3088647895
 30
0.0
 10
16.0040309245
 20
13.3088647895
 30
0.0
 10
15.9766455673
 20
13.3057458045
 30
0.0
 10
15.9370008247
 20
13.293033044
 30
0.0
 10
15.9000797588
 20
13.2730264091
 30
0.0
 10
15.8783956665
 20
13.2552585101
 30
0.0
 10
15.8687341521
 20
13.2454785645
 30
0.0
  0
SPLINE
  5
55B
100
AcDbEntity
  8
0
100
AcDbSpline
 62
7
  6
CONTINUOUS
 70
0
 71
3
 72
9
 73
5
 74
0
 42
0.0000001
 43
0.0000001
 44
0.0000000001
 40
0.0
 40
0.0
 40
0.0
 40
0.0
 40
0.2618151028
 40
1.0
 40
1.0
 40
1.0
 40
1.0
 10
14.5123246525
 20
12.6655598338
 30
0.0
 10
14.5125019017
 20
12.666271056
 30
0.0
 10
14.5130954804
 20
12.6690066083
 30
0.0
 10
14.5133435369
 20
12.6718252357
 30
0.0
 10
14.5132681963
 20
12.6738904808
 30
0.0
  0
SPLINE
  5
55C
100
AcDbEntity
  8
0
100
AcDbSpline
 62
7
  6
CONTINUOUS
 70
0
 71
3
 72
11
 73
7
 74
0
 42
0.0000001
 43
0.0000001
 44
0.0000000001
 40
0.0
 40
0.0
 40
0.0
 40
0.0
 40
0.2556705688
 40
0.507390105
 40
0.7557786307
 40
1.0
 40
1.0
 40
1.0
 40
1.0
 10
16.8459837416
 20
12.6022986131
 30
0.0
 10
16.8498707908
 20
12.602080729
 30
0.0
 10
16.8575640559
 20
12.601220819
 30
0.0
 10
16.8688593467
 20
12.5989619955
 30
0.0
 10
16.879789283
 20
12.5959294406
 30
0.0
 10
16.8868553229
 20
12.5933773402
 30
0.0
 10
16.890283025
 20
12.5919349747
 30
0.0
  0
SPLINE
  5
55D
100
AcDbEntity
  8
0
100
AcDbSpline
 62
7
  6
CONTINUOUS
 70
0
 71
3
 72
11
 73
7
 74
0
 42
0.0000001
 43
0.0000001
 44
0.0000000001
 40
0.0
 40
0.0
 40
0.0
 40
0.0
 40
0.2643574115
 40
0.5171102998
 40
0.7609117429
 40
1.0
 40
1.0
 40
1.0
 40
1.0
 10
16.1951650795
 20
13.0907933754
 30
0.0
 10
16.1973594682
 20
13.09789442
 30
0.0
 10
16.2005719859
 20
13.1121551842
 30
0.0
 10
16.201543483
 20
13.1336453749
 30
0.0
 10
16.1984859076
 20
13.1542337593
 30
0.0
 10
16.1937650508
 20
13.1670844893
 30
0.0
 10
16.1908048272
 20
13.1731195104
 30
0.0
  0
SPLINE
  5
55E
100
AcDbEntity
  8
0
100
AcDbSpline
 62
7
  6
CONTINUOUS
 70
0
 71
3
 72
12
 73
8
 74
0
 42
0.0000001
 43
0.0000001
 44
0.0000000001
 40
0.0
 40
0.0
 40
0.0
 40
0.0
 40
0.265925839
 40
0.3972305087
 40
0.5259957149
 40
0.7721551482
 40
1.0
 40
1.0
 40
1.0
 40
1.0
 10
16.0699277928
 20
12.9640209254
 30
0.0
 10
16.0848754227
 20
12.9703934842
 30
0.0
 10
16.1063826167
 20
12.9820524644
 30
0.0
 10
16.1321877217
 20
13.0012768331
 30
0.0
 10
16.1550803632
 20
13.0221466655
 30
0.0
 10
16.1784271981
 20
13.0510026531
 30
0.0
 10
16.1910545239
 20
13.0774916127
 30
0.0
 10
16.1951650795
 20
13.0907933754
 30
0.0
  0
SPLINE
  5
55F
100
AcDbEntity
  8
0
100
AcDbSpline
 62
7
  6
CONTINUOUS
 70
0
 71
3
 72
9
 73
5
 74
0
 42
0.0000001
 43
0.0000001
 44
0.0000000001
 40
0.0
 40
0.0
 40
0.0
 40
0.0
 40
0.2420504462
 40
1.0
 40
1.0
 40
1.0
 40
1.0
 10
15.977805662
 20
12.9444091592
 30
0.0
 10
15.9854341255
 20
12.9444091592
 30
0.0
 10
16.0169384149
 20
12.9461876917
 30
0.0
 10
16.0479538487
 20
12.9546528682
 30
0.0
 10
16.0699277928
 20
12.9640209254
 30
0.0
  0
SPLINE
  5
560
100
AcDbEntity
  8
0
100
AcDbSpline
 62
7
  6
CONTINUOUS
 70
0
 71
3
 72
9
 73
5
 74
0
 42
0.0000001
 43
0.0000001
 44
0.0000000001
 40
0.0
 40
0.0
 40
0.0
 40
0.0
 40
0.2408255428
 40
1.0
 40
1.0
 40
1.0
 40
1.0
 10
15.9250894665
 20
12.9521109995
 30
0.0
 10
15.9291772563
 20
12.9508217144
 30
0.0
 10
15.9463782193
 20
12.9461956388
 30
0.0
 10
15.9642936327
 20
12.9444091592
 30
0.0
 10
15.977805662
 20
12.9444091592
 30
0.0
  0
SPLINE
  5
561
100
AcDbEntity
  8
0
100
AcDbSpline
 62
7
  6
CONTINUOUS
 70
0
 71
3
 72
9
 73
5
 74
0
 42
0.0000001
 43
0.0000001
 44
0.0000000001
 40
0.0
 40
0.0
 40
0.0
 40
0.0
 40
0.5955990208
 40
1.0
 40
1.0
 40
1.0
 40
1.0
 10
16.0018514616
 20
12.8407596612
 30
0.0
 10
15.9983819132
 20
12.8501407829
 30
0.0
 10
15.9927339677
 20
12.8659595009
 30
0.0
 10
15.9878014037
 20
12.8820225428
 30
0.0
 10
15.9860456498
 20
12.8885829465
 30
0.0
  0
SPLINE
  5
562
100
AcDbEntity
  8
0
100
AcDbSpline
 62
7
  6
CONTINUOUS
 70
0
 71
3
 72
13
 73
9
 74
0
 42
0.0000001
 43
0.0000001
 44
0.0000000001
 40
0.0
 40
0.0
 40
0.0
 40
0.0
 40
0.1131781465
 40
0.2309963649
 40
0.3529921324
 40
0.4784056579
 40
0.7362583028
 40
1.0
 40
1.0
 40
1.0
 40
1.0
 10
16.6278318545
 20
12.5107722022
 30
0.0
 10
16.6260478703
 20
12.5049992275
 30
0.0
 10
16.6233137259
 20
12.4929213755
 30
0.0
 10
16.6216754023
 20
12.4741000863
 30
0.0
 10
16.6222813288
 20
12.4545705241
 30
0.0
 10
16.6258544984
 20
12.4277960194
 30
0.0
 10
16.6349169906
 20
12.394306972
 30
0.0
 10
16.6457772403
 20
12.3685842022
 30
0.0
 10
16.6519800853
 20
12.3559434739
 30
0.0
  0
SPLINE
  5
563
100
AcDbEntity
  8
0
100
AcDbSpline
 62
7
  6
CONTINUOUS
 70
0
 71
3
 72
17
 73
13
 74
0
 42
0.0000001
 43
0.0000001
 44
0.0000000001
 40
0.0
 40
0.0
 40
0.0
 40
0.0
 40
0.1390553055
 40
0.2730718364
 40
0.4018468187
 40
0.5254436133
 40
0.6444482368
 40
0.7605219591
 40
0.8185984028
 40
0.877436473
 40
0.9377085827
 40
1.0
 40
1.0
 40
1.0
 40
1.0
 10
16.8459837416
 20
12.6022986131
 30
0.0
 10
16.8341917131
 20
12.6029531559
 30
0.0
 10
16.810987026
 20
12.6035328635
 30
0.0
 10
16.7768609891
 20
12.6019611305
 30
0.0
 10
16.7442797219
 20
12.5976451297
 30
0.0
 10
16.7135676147
 20
12.5901078055
 30
0.0
 10
16.6852078009
 20
12.5786306864
 30
0.0
 10
16.6641939872
 20
12.5648372154
 30
0.0
 10
16.6499816786
 20
12.5509895826
 30
0.0
 10
16.6407326291
 20
12.5390513298
 30
0.0
 10
16.6331465539
 20
12.5255806623
 30
0.0
 10
16.6293938623
 20
12.5158268616
 30
0.0
 10
16.6278318545
 20
12.5107722022
 30
0.0
  0
SPLINE
  5
564
100
AcDbEntity
  8
0
100
AcDbSpline
 62
7
  6
CONTINUOUS
 70
0
 71
3
 72
10
 73
6
 74
0
 42
0.0000001
 43
0.0000001
 44
0.0000000001
 40
0.0
 40
0.0
 40
0.0
 40
0.0
 40
0.2436546722
 40
0.4901392401
 40
1.0
 40
1.0
 40
1.0
 40
1.0
 10
13.9440772227
 20
13.0084672404
 30
0.0
 10
13.9463051514
 20
13.003925152
 30
0.0
 10
13.951516956
 20
12.9951242228
 30
0.0
 10
13.9647543376
 20
12.9790511955
 30
0.0
 10
13.9774408105
 20
12.9693243896
 30
0.0
 10
13.986602957
 20
12.9640209254
 30
0.0
  0
SPLINE
  5
565
100
AcDbEntity
  8
0
100
AcDbSpline
 62
7
  6
CONTINUOUS
 70
0
 71
3
 72
9
 73
5
 74
0
 42
0.0000001
 43
0.0000001
 44
0.0000000001
 40
0.0
 40
0.0
 40
0.0
 40
0.0
 40
0.5109192591
 40
1.0
 40
1.0
 40
1.0
 40
1.0
 10
16.7173288328
 20
12.3283965353
 30
0.0
 10
16.714279098
 20
12.3185275898
 30
0.0
 10
16.7097604724
 20
12.2987223102
 30
0.0
 10
16.7086558851
 20
12.2784126848
 30
0.0
 10
16.7090487325
 20
12.2685325859
 30
0.0
  0
SPLINE
  5
566
100
AcDbEntity
  8
0
100
AcDbSpline
 62
7
  6
CONTINUOUS
 70
0
 71
3
 72
14
 73
10
 74
0
 42
0.0000001
 43
0.0000001
 44
0.0000000001
 40
0.0
 40
0.0
 40
0.0
 40
0.0
 40
0.131579937
 40
0.2638997246
 40
0.395439328
 40
0.5249035123
 40
0.6510294394
 40
0.7727684405
 40
1.0
 40
1.0
 40
1.0
 40
1.0
 10
16.9345424474
 20
12.5242282627
 30
0.0
 10
16.9218189197
 20
12.5203605022
 30
0.0
 10
16.8967106083
 20
12.5111803515
 30
0.0
 10
16.8607976414
 20
12.4934788734
 30
0.0
 10
16.82717065
 20
12.4721284714
 30
0.0
 10
16.7965757454
 20
12.4476157049
 30
0.0
 10
16.7696731221
 20
12.4204397743
 30
0.0
 10
16.7402420486
 20
12.382431438
 30
0.0
 10
16.7241093803
 20
12.350338395
 30
0.0
 10
16.7173288328
 20
12.3283965353
 30
0.0
  0
SPLINE
  5
567
100
AcDbEntity
  8
0
100
AcDbSpline
 62
7
  6
CONTINUOUS
 70
0
 71
3
 72
11
 73
7
 74
0
 42
0.0000001
 43
0.0000001
 44
0.0000000001
 40
0.0
 40
0.0
 40
0.0
 40
0.0
 40
0.2298109693
 40
0.4716215647
 40
0.7280179938
 40
1.0
 40
1.0
 40
1.0
 40
1.0
 10
15.7355710765
 20
12.6350380466
 30
0.0
 10
15.7412834914
 20
12.6373482021
 30
0.0
 10
15.7531893429
 20
12.6416555665
 30
0.0
 10
15.772089099
 20
12.6466536036
 30
0.0
 10
15.7925222068
 20
12.6498906788
 30
0.0
 10
15.8067029524
 20
12.6506009862
 30
0.0
 10
15.8139955316
 20
12.6506009862
 30
0.0
  0
SPLINE
  5
568
100
AcDbEntity
  8
0
100
AcDbSpline
 62
7
  6
CONTINUOUS
 70
0
 71
3
 72
11
 73
7
 74
0
 42
0.0000001
 43
0.0000001
 44
0.0000000001
 40
0.0
 40
0.0
 40
0.0
 40
0.0
 40
0.2427017075
 40
0.4955310213
 40
0.7506985425
 40
1.0
 40
1.0
 40
1.0
 40
1.0
 10
15.8139955316
 20
12.6506009862
 30
0.0
 10
15.8273790392
 20
12.6506009862
 30
0.0
 10
15.8547643965
 20
12.6537199712
 30
0.0
 10
15.894409139
 20
12.6664327317
 30
0.0
 10
15.9313302049
 20
12.6864393666
 30
0.0
 10
15.9530142972
 20
12.7042072656
 30
0.0
 10
15.9626758116
 20
12.7139872112
 30
0.0
  0
SPLINE
  5
569
100
AcDbEntity
  8
0
100
AcDbSpline
 62
7
  6
CONTINUOUS
 70
0
 71
3
 72
14
 73
10
 74
0
 42
0.0000001
 43
0.0000001
 44
0.0000000001
 40
0.0
 40
0.0
 40
0.0
 40
0.0
 40
0.1134128283
 40
0.2276954973
 40
0.3443789688
 40
0.464955152
 40
0.5904499875
 40
0.7214741991
 40
1.0
 40
1.0
 40
1.0
 40
1.0
 10
15.7044909017
 20
12.7139872112
 30
0.0
 10
15.7062563401
 20
12.7092137391
 30
0.0
 10
15.7106826112
 20
12.6999304431
 30
0.0
 10
15.7197906148
 20
12.6873470376
 30
0.0
 10
15.7312028579
 20
12.6763401892
 30
0.0
 10
15.7446926405
 20
12.6671052716
 30
0.0
 10
15.7600177769
 20
12.6597775954
 30
0.0
 10
15.7829839152
 20
12.6525716787
 30
0.0
 10
15.8014964911
 20
12.6506009862
 30
0.0
 10
15.8139955316
 20
12.6506009862
 30
0.0
  0
SPLINE
  5
56A
100
AcDbEntity
  8
0
100
AcDbSpline
 62
7
  6
CONTINUOUS
 70
0
 71
3
 72
14
 73
10
 74
0
 42
0.0000001
 43
0.0000001
 44
0.0000000001
 40
0.0
 40
0.0
 40
0.0
 40
0.0
 40
0.2795698382
 40
0.411940599
 40
0.5388167114
 40
0.6603263134
 40
0.7769873623
 40
0.8898187075
 40
1.0
 40
1.0
 40
1.0
 40
1.0
 10
15.7436665517
 20
12.8407596612
 30
0.0
 10
15.7345110452
 20
12.8314919261
 30
0.0
 10
15.7223123841
 20
12.8163993381
 30
0.0
 10
15.7102530896
 20
12.7943198349
 30
0.0
 10
15.7037963252
 20
12.7777340501
 30
0.0
 10
15.6998839255
 20
12.7611180855
 30
0.0
 10
15.6986024336
 20
12.744741308
 30
0.0
 10
15.6999930721
 20
12.7289011024
 30
0.0
 10
15.702709935
 20
12.7188026694
 30
0.0
 10
15.7044909017
 20
12.7139872112
 30
0.0
  0
SPLINE
  5
56B
100
AcDbEntity
  8
0
100
AcDbSpline
 62
7
  6
CONTINUOUS
 70
0
 71
3
 72
11
 73
7
 74
0
 42
0.0000001
 43
0.0000001
 44
0.0000000001
 40
0.0
 40
0.0
 40
0.0
 40
0.0
 40
0.2427017075
 40
0.4955310213
 40
0.7506985425
 40
1.0
 40
1.0
 40
1.0
 40
1.0
 10
15.8923468317
 20
12.9041458862
 30
0.0
 10
15.8789633241
 20
12.9041458862
 30
0.0
 10
15.8515779668
 20
12.9010269012
 30
0.0
 10
15.8119332243
 20
12.8883141407
 30
0.0
 10
15.7750121584
 20
12.8683075058
 30
0.0
 10
15.7533280661
 20
12.8505396068
 30
0.0
 10
15.7436665517
 20
12.8407596612
 30
0.0
  0
SPLINE
  5
56C
100
AcDbEntity
  8
0
100
AcDbSpline
 62
7
  6
CONTINUOUS
 70
0
 71
3
 72
9
 73
5
 74
0
 42
0.0000001
 43
0.0000001
 44
0.0000000001
 40
0.0
 40
0.0
 40
0.0
 40
0.0
 40
0.4947268558
 40
1.0
 40
1.0
 40
1.0
 40
1.0
 10
16.0018514616
 20
12.8407596612
 30
0.0
 10
15.9992213516
 20
12.8478710714
 30
0.0
 10
15.9919140454
 20
12.8615873577
 30
0.0
 10
15.9812153393
 20
12.8728311784
 30
0.0
 10
15.9752355958
 20
12.877751492
 30
0.0
  0
SPLINE
  5
56D
100
AcDbEntity
  8
0
100
AcDbSpline
 62
7
  6
CONTINUOUS
 70
0
 71
3
 72
11
 73
7
 74
0
 42
0.0000001
 43
0.0000001
 44
0.0000000001
 40
0.0
 40
0.0
 40
0.0
 40
0.0
 40
0.2307439998
 40
0.473651612
 40
0.7301995559
 40
1.0
 40
1.0
 40
1.0
 40
1.0
 10
15.9752355958
 20
12.877751492
 30
0.0
 10
15.969973195
 20
12.8820815543
 30
0.0
 10
15.9581897103
 20
12.8898255379
 30
0.0
 10
15.9381509057
 20
12.898089487
 30
0.0
 10
15.9158881812
 20
12.9030851456
 30
0.0
 10
15.9003151947
 20
12.9041458862
 30
0.0
 10
15.8923468317
 20
12.9041458862
 30
0.0
  0
SPLINE
  5
56E
100
AcDbEntity
  8
0
100
AcDbSpline
 62
7
  6
CONTINUOUS
 70
0
 71
3
 72
14
 73
10
 74
0
 42
0.0000001
 43
0.0000001
 44
0.0000000001
 40
0.0
 40
0.0
 40
0.0
 40
0.0
 40
0.2795698382
 40
0.411940599
 40
0.5388167114
 40
0.6603263134
 40
0.7769873623
 40
0.8898187075
 40
1.0
 40
1.0
 40
1.0
 40
1.0
 10
15.9626758116
 20
12.7139872112
 30
0.0
 10
15.9718313181
 20
12.7232549463
 30
0.0
 10
15.9840299792
 20
12.7383475342
 30
0.0
 10
15.9960892737
 20
12.7604270375
 30
0.0
 10
16.0025460381
 20
12.7770128223
 30
0.0
 10
16.0064584377
 20
12.7936287868
 30
0.0
 10
16.0077399297
 20
12.8100055644
 30
0.0
 10
16.0063492912
 20
12.82584577
 30
0.0
 10
16.0036324283
 20
12.835944203
 30
0.0
 10
16.0018514616
 20
12.8407596612
 30
0.0
  0
SPLINE
  5
56F
100
AcDbEntity
  8
0
100
AcDbSpline
 62
7
  6
CONTINUOUS
 70
0
 71
3
 72
9
 73
5
 74
0
 42
0.0000001
 43
0.0000001
 44
0.0000000001
 40
0.0
 40
0.0
 40
0.0
 40
0.0
 40
0.252990016
 40
1.0
 40
1.0
 40
1.0
 40
1.0
 10
15.9076943497
 20
12.6350380466
 30
0.0
 10
15.9114627425
 20
12.6422391983
 30
0.0
 10
15.9269467693
 20
12.6703522005
 30
0.0
 10
15.9458100121
 20
12.6969146701
 30
0.0
 10
15.9626758116
 20
12.7139872112
 30
0.0
  0
SPLINE
  5
570
100
AcDbEntity
  8
0
100
AcDbSpline
 62
7
  6
CONTINUOUS
 70
0
 71
3
 72
10
 73
6
 74
0
 42
0.0000001
 43
0.0000001
 44
0.0000000001
 40
0.0
 40
0.0
 40
0.0
 40
0.0
 40
0.4904157469
 40
0.7443172939
 40
1.0
 40
1.0
 40
1.0
 40
1.0
 10
15.8139955316
 20
12.6506009862
 30
0.0
 10
15.8295631789
 20
12.6506009862
 30
0.0
 10
15.8532129846
 20
12.6480754105
 30
0.0
 10
15.8842640769
 20
12.6414854952
 30
0.0
 10
15.8998981497
 20
12.6372950684
 30
0.0
 10
15.9076943497
 20
12.6350380466
 30
0.0
  0
SPLINE
  5
571
100
AcDbEntity
  8
0
100
AcDbSpline
 62
7
  6
CONTINUOUS
 70
0
 71
3
 72
9
 73
5
 74
0
 42
0.0000001
 43
0.0000001
 44
0.0000000001
 40
0.0
 40
0.0
 40
0.0
 40
0.0
 40
0.5324536714
 40
1.0
 40
1.0
 40
1.0
 40
1.0
 10
16.0329316364
 20
12.7618104966
 30
0.0
 10
16.0272447564
 20
12.775754872
 30
0.0
 10
16.0166586314
 20
12.8019821444
 30
0.0
 10
16.0064384779
 20
12.8283570792
 30
0.0
 10
16.0018514616
 20
12.8407596612
 30
0.0
  0
SPLINE
  5
572
100
AcDbEntity
  8
0
100
AcDbSpline
 62
7
  6
CONTINUOUS
 70
0
 71
3
 72
11
 73
7
 74
0
 42
0.0000001
 43
0.0000001
 44
0.0000000001
 40
0.0
 40
0.0
 40
0.0
 40
0.0
 40
0.2669022217
 40
0.522119445
 40
0.7659081549
 40
1.0
 40
1.0
 40
1.0
 40
1.0
 10
15.9626758116
 20
12.7139872112
 30
0.0
 10
15.968019621
 20
12.7193965252
 30
0.0
 10
15.9790269456
 20
12.7294501876
 30
0.0
 10
15.9966287572
 20
12.7424074647
 30
0.0
 10
16.0145959074
 20
12.7531103176
 30
0.0
 10
16.0268427455
 20
12.7590899841
 30
0.0
 10
16.0329316364
 20
12.7618104966
 30
0.0
  0
SPLINE
  5
573
100
AcDbEntity
  8
0
100
AcDbSpline
 62
7
  6
CONTINUOUS
 70
0
 71
3
 72
9
 73
5
 74
0
 42
0.0000001
 43
0.0000001
 44
0.0000000001
 40
0.0
 40
0.0
 40
0.0
 40
0.0
 40
0.4200168706
 40
1.0
 40
1.0
 40
1.0
 40
1.0
 10
14.1999116877
 20
13.2933018498
 30
0.0
 10
14.2012742183
 20
13.2882107312
 30
0.0
 10
14.2048641923
 20
13.2761821294
 30
0.0
 10
14.2089322467
 20
13.264309498
 30
0.0
 10
14.2113705573
 20
13.2574526099
 30
0.0
  0
SPLINE
  5
574
100
AcDbEntity
  8
0
100
AcDbSpline
 62
7
  6
CONTINUOUS
 70
0
 71
3
 72
11
 73
7
 74
0
 42
0.0000001
 43
0.0000001
 44
0.0000000001
 40
0.0
 40
0.0
 40
0.0
 40
0.0
 40
0.2719763855
 40
0.5283690337
 40
0.7701863903
 40
1.0
 40
1.0
 40
1.0
 40
1.0
 10
14.0278615695
 20
13.0553198895
 30
0.0
 10
14.0205691392
 20
13.0553198895
 30
0.0
 10
14.0063886217
 20
13.0546097012
 30
0.0
 10
13.9859556583
 20
13.0513723324
 30
0.0
 10
13.967055504
 20
13.0463751357
 30
0.0
 10
13.9551495964
 20
13.0420671325
 30
0.0
 10
13.9494371144
 20
13.0397569499
 30
0.0
  0
SPLINE
  5
575
100
AcDbEntity
  8
0
100
AcDbSpline
 62
7
  6
CONTINUOUS
 70
0
 71
3
 72
9
 73
5
 74
0
 42
0.0000001
 43
0.0000001
 44
0.0000000001
 40
0.0
 40
0.0
 40
0.0
 40
0.0
 40
0.2562844802
 40
1.0
 40
1.0
 40
1.0
 40
1.0
 10
14.1045176769
 20
13.0444047043
 30
0.0
 10
14.0980996088
 20
13.0460399245
 30
0.0
 10
14.072948154
 20
13.0519121604
 30
0.0
 10
14.0470812555
 20
13.0553198895
 30
0.0
 10
14.0278615695
 20
13.0553198895
 30
0.0
  0
SPLINE
  5
576
100
AcDbEntity
  8
0
100
AcDbSpline
 62
7
  6
CONTINUOUS
 70
0
 71
3
 72
9
 73
5
 74
0
 42
0.0000001
 43
0.0000001
 44
0.0000000001
 40
0.0
 40
0.0
 40
0.0
 40
0.0
 40
0.5106373263
 40
1.0
 40
1.0
 40
1.0
 40
1.0
 10
16.5539340645
 20
11.7996508713
 30
0.0
 10
16.5509657921
 20
11.7900455383
 30
0.0
 10
16.5465287882
 20
11.7707725189
 30
0.0
 10
16.5453125845
 20
11.7510098697
 30
0.0
 10
16.5455987442
 20
11.741379469
 30
0.0
  0
SPLINE
  5
577
100
AcDbEntity
  8
0
100
AcDbSpline
 62
7
  6
CONTINUOUS
 70
0
 71
3
 72
14
 73
10
 74
0
 42
0.0000001
 43
0.0000001
 44
0.0000000001
 40
0.0
 40
0.0
 40
0.0
 40
0.0
 40
0.2525858141
 40
0.3840361093
 40
0.5155879649
 40
0.6448506744
 40
0.7696662925
 40
0.8883600612
 40
1.0
 40
1.0
 40
1.0
 40
1.0
 10
16.866524531
 20
12.0101699783
 30
0.0
 10
16.8328712489
 20
12.0101699783
 30
0.0
 10
16.7814032671
 20
12.0013389584
 30
0.0
 10
16.717505658
 20
11.9758008149
 30
0.0
 10
16.6719920638
 20
11.9497134335
 30
0.0
 10
16.6313760615
 20
11.917958567
 30
0.0
 10
16.597140936
 20
11.8816881147
 30
0.0
 10
16.5705963316
 20
11.8422513673
 30
0.0
 10
16.5583256779
 20
11.8138621374
 30
0.0
 10
16.5539340645
 20
11.7996508713
 30
0.0
  0
LINE
  5
578
100
AcDbEntity
  8
0
100
AcDbLine
 62
7
  6
CONTINUOUS
 10
14.8822525027
 20
11.3014797118
 11
14.8798782233
 21
11.3055058327
  0
SPLINE
  5
579
100
AcDbEntity
  8
0
100
AcDbSpline
 62
7
  6
CONTINUOUS
 70
0
 71
3
 72
9
 73
5
 74
0
 42
0.0000001
 43
0.0000001
 44
0.0000000001
 40
0.0
 40
0.0
 40
0.0
 40
0.0
 40
0.2408286891
 40
1.0
 40
1.0
 40
1.0
 40
1.0
 10
14.8798782233
 20
11.3055058327
 30
0.0
 10
14.8795578484
 20
11.3059709614
 30
0.0
 10
14.8781822728
 20
11.3078709925
 30
0.0
 10
14.8766370833
 20
11.309646195
 30
0.0
 10
14.8753952937
 20
11.310922035
 30
0.0
  0
SPLINE
  5
57A
100
AcDbEntity
  8
0
100
AcDbSpline
 62
7
  6
CONTINUOUS
 70
0
 71
3
 72
11
 73
7
 74
0
 42
0.0000001
 43
0.0000001
 44
0.0000000001
 40
0.0
 40
0.0
 40
0.0
 40
0.0
 40
0.2317317313
 40
0.4862602703
 40
0.7480306563
 40
1.0
 40
1.0
 40
1.0
 40
1.0
 10
14.8753952937
 20
11.310922035
 30
0.0
 10
14.872243268
 20
11.3141604909
 30
0.0
 10
14.8646821669
 20
11.3200482885
 30
0.0
 10
14.8515640273
 20
11.3265974175
 30
0.0
 10
14.8371217088
 20
11.3308525736
 30
0.0
 10
14.8270872968
 20
11.3319386002
 30
0.0
 10
14.8221734626
 20
11.3319386002
 30
0.0
  0
SPLINE
  5
57B
100
AcDbEntity
  8
0
100
AcDbSpline
 62
7
  6
CONTINUOUS
 70
0
 71
3
 72
13
 73
9
 74
0
 42
0.0000001
 43
0.0000001
 44
0.0000000001
 40
0.0
 40
0.0
 40
0.0
 40
0.0
 40
0.2295912645
 40
0.3545071927
 40
0.4839009318
 40
0.6155874141
 40
0.7471418964
 40
1.0
 40
1.0
 40
1.0
 40
1.0
 10
16.7093631072
 20
11.7996508713
 30
0.0
 10
16.7127203265
 20
11.8105148369
 30
0.0
 10
16.7216868998
 20
11.8262206665
 30
0.0
 10
16.7381747593
 20
11.8436615368
 30
0.0
 10
16.7532930631
 20
11.855491336
 30
0.0
 10
16.7702265262
 20
11.8651924722
 30
0.0
 10
16.7940019636
 20
11.8746982763
 30
0.0
 10
16.8131526428
 20
11.8779835623
 30
0.0
 10
16.825675839
 20
11.8779835623
 30
0.0
  0
SPLINE
  5
57C
100
AcDbEntity
  8
0
100
AcDbSpline
 62
7
  6
CONTINUOUS
 70
0
 71
3
 72
9
 73
5
 74
0
 42
0.0000001
 43
0.0000001
 44
0.0000000001
 40
0.0
 40
0.0
 40
0.0
 40
0.0
 40
0.494672953
 40
1.0
 40
1.0
 40
1.0
 40
1.0
 10
14.2114394567
 20
13.2551373997
 30
0.0
 10
14.2087400135
 20
13.260327941
 30
0.0
 10
14.202168195
 20
13.2702764909
 30
0.0
 10
14.1937166869
 20
13.2786729901
 30
0.0
 10
14.1891016337
 20
13.2824703953
 30
0.0
  0
SPLINE
  5
57D
100
AcDbEntity
  8
0
100
AcDbSpline
 62
7
  6
CONTINUOUS
 70
0
 71
3
 72
11
 73
7
 74
0
 42
0.0000001
 43
0.0000001
 44
0.0000000001
 40
0.0
 40
0.0
 40
0.0
 40
0.0
 40
0.2307439998
 40
0.473651612
 40
0.7301995559
 40
1.0
 40
1.0
 40
1.0
 40
1.0
 10
14.1891016337
 20
13.2824703953
 30
0.0
 10
14.1838392329
 20
13.2868004576
 30
0.0
 10
14.1720557482
 20
13.2945444412
 30
0.0
 10
14.1520169436
 20
13.3028083903
 30
0.0
 10
14.1297542191
 20
13.3078040489
 30
0.0
 10
14.1141812326
 20
13.3088647895
 30
0.0
 10
14.1062128696
 20
13.3088647895
 30
0.0
  0
SPLINE
  5
57E
100
AcDbEntity
  8
0
100
AcDbSpline
 62
7
  6
CONTINUOUS
 70
0
 71
3
 72
9
 73
5
 74
0
 42
0.0000001
 43
0.0000001
 44
0.0000000001
 40
0.0
 40
0.0
 40
0.0
 40
0.0
 40
0.4895888134
 40
1.0
 40
1.0
 40
1.0
 40
1.0
 10
14.0278615695
 20
13.0553198895
 30
0.0
 10
14.0439707615
 20
13.0553198895
 30
0.0
 10
14.0769543348
 20
13.0598270375
 30
0.0
 10
14.1079492348
 20
13.0717537746
 30
0.0
 10
14.1228608844
 20
13.0794798301
 30
0.0
  0
SPLINE
  5
57F
100
AcDbEntity
  8
0
100
AcDbSpline
 62
7
  6
CONTINUOUS
 70
0
 71
3
 72
14
 73
10
 74
0
 42
0.0000001
 43
0.0000001
 44
0.0000000001
 40
0.0
 40
0.0
 40
0.0
 40
0.0
 40
0.1134128283
 40
0.2276954973
 40
0.3443789688
 40
0.464955152
 40
0.5904499875
 40
0.7214741991
 40
1.0
 40
1.0
 40
1.0
 40
1.0
 10
13.9183569396
 20
13.1187061145
 30
0.0
 10
13.9201223779
 20
13.1139326424
 30
0.0
 10
13.924548649
 20
13.1046493464
 30
0.0
 10
13.9336566526
 20
13.0920659409
 30
0.0
 10
13.9450688958
 20
13.0810590925
 30
0.0
 10
13.9585586783
 20
13.0718241749
 30
0.0
 10
13.9738838148
 20
13.0644964987
 30
0.0
 10
13.996849953
 20
13.057290582
 30
0.0
 10
14.0153625289
 20
13.0553198895
 30
0.0
 10
14.0278615695
 20
13.0553198895
 30
0.0
  0
SPLINE
  5
580
100
AcDbEntity
  8
0
100
AcDbSpline
 62
7
  6
CONTINUOUS
 70
0
 71
3
 72
14
 73
10
 74
0
 42
0.0000001
 43
0.0000001
 44
0.0000000001
 40
0.0
 40
0.0
 40
0.0
 40
0.0
 40
0.2795698382
 40
0.411940599
 40
0.5388167114
 40
0.6603263134
 40
0.7769873623
 40
0.8898187075
 40
1.0
 40
1.0
 40
1.0
 40
1.0
 10
13.9575325896
 20
13.2454785645
 30
0.0
 10
13.9483770831
 20
13.2362108294
 30
0.0
 10
13.936178422
 20
13.2211182414
 30
0.0
 10
13.9241191274
 20
13.1990387382
 30
0.0
 10
13.917662363
 20
13.1824529534
 30
0.0
 10
13.9137499634
 20
13.1658369889
 30
0.0
 10
13.9124684714
 20
13.1494602113
 30
0.0
 10
13.91385911
 20
13.1336200057
 30
0.0
 10
13.9165759729
 20
13.1235215727
 30
0.0
 10
13.9183569396
 20
13.1187061145
 30
0.0
  0
SPLINE
  5
581
100
AcDbEntity
  8
0
100
AcDbSpline
 62
7
  6
CONTINUOUS
 70
0
 71
3
 72
11
 73
7
 74
0
 42
0.0000001
 43
0.0000001
 44
0.0000000001
 40
0.0
 40
0.0
 40
0.0
 40
0.0
 40
0.2427017075
 40
0.4955310213
 40
0.7506985425
 40
1.0
 40
1.0
 40
1.0
 40
1.0
 10
14.1062128696
 20
13.3088647895
 30
0.0
 10
14.0928293619
 20
13.3088647895
 30
0.0
 10
14.0654440047
 20
13.3057458045
 30
0.0
 10
14.0257992621
 20
13.293033044
 30
0.0
 10
13.9888781963
 20
13.2730264091
 30
0.0
 10
13.967194104
 20
13.2552585101
 30
0.0
 10
13.9575325896
 20
13.2454785645
 30
0.0
  0
SPLINE
  5
582
100
AcDbEntity
  8
0
100
AcDbSpline
 62
7
  6
CONTINUOUS
 70
0
 71
3
 72
9
 73
5
 74
0
 42
0.0000001
 43
0.0000001
 44
0.0000000001
 40
0.0
 40
0.0
 40
0.0
 40
0.0
 40
0.4799634658
 40
1.0
 40
1.0
 40
1.0
 40
1.0
 10
13.986602957
 20
12.9640209254
 30
0.0
 10
13.9973597897
 20
12.9577943849
 30
0.0
 10
14.02179686
 20
12.948183605
 30
0.0
 10
14.0477171063
 20
12.9448495556
 30
0.0
 10
14.0611787978
 20
12.9444827936
 30
0.0
  0
SPLINE
  5
583
100
AcDbEntity
  8
0
100
AcDbSpline
 62
7
  6
CONTINUOUS
 70
0
 71
3
 72
13
 73
9
 74
0
 42
0.0000001
 43
0.0000001
 44
0.0000000001
 40
0.0
 40
0.0
 40
0.0
 40
0.0
 40
0.2295912645
 40
0.3545071927
 40
0.4839009318
 40
0.6155874141
 40
0.7471418964
 40
1.0
 40
1.0
 40
1.0
 40
1.0
 10
16.8727578755
 20
12.3283965353
 30
0.0
 10
16.8761150948
 20
12.3392605009
 30
0.0
 10
16.8850816681
 20
12.3549663305
 30
0.0
 10
16.9015695276
 20
12.3724072008
 30
0.0
 10
16.9166878314
 20
12.384237
 30
0.0
 10
16.9336212945
 20
12.3939381362
 30
0.0
 10
16.9573967319
 20
12.4034439403
 30
0.0
 10
16.9765474111
 20
12.4067292263
 30
0.0
 10
16.9890706073
 20
12.4067292263
 30
0.0
  0
SPLINE
  5
584
100
AcDbEntity
  8
0
100
AcDbSpline
 62
7
  6
CONTINUOUS
 70
0
 71
3
 72
18
 73
14
 74
0
 42
0.0000001
 43
0.0000001
 44
0.0000000001
 40
0.0
 40
0.0
 40
0.0
 40
0.0
 40
0.050492417
 40
0.1018156177
 40
0.1547013899
 40
0.2097150373
 40
0.2672094686
 40
0.3273270122
 40
0.4548250372
 40
0.5901635307
 40
0.7293027025
 40
0.8674373044
 40
1.0
 40
1.0
 40
1.0
 40
1.0
 10
16.1969052895
 20
13.1606871291
 30
0.0
 10
16.1995912617
 20
13.1552123498
 30
0.0
 10
16.2039757569
 20
13.143632418
 30
0.0
 10
16.2072550282
 20
13.1251386821
 30
0.0
 10
16.2072353875
 20
13.1058138579
 30
0.0
 10
16.2039279091
 20
13.0860309605
 30
0.0
 10
16.1974188193
 20
13.0661472025
 30
0.0
 10
16.1844052371
 20
13.0394715429
 30
0.0
 10
16.160702053
 20
13.0079980522
 30
0.0
 10
16.123641398
 20
12.9761444256
 30
0.0
 10
16.079945253
 20
12.9515246496
 30
0.0
 10
16.0326860776
 20
12.9358430083
 30
0.0
 10
15.9999166186
 20
12.9319769598
 30
0.0
 10
15.9839064994
 20
12.9319769598
 30
0.0
  0
LINE
  5
585
100
AcDbEntity
  8
0
100
AcDbLine
 62
7
  6
CONTINUOUS
 10
14.4416814401
 20
12.6314206618
 11
14.4371631647
 21
12.6332163832
  0
SPLINE
  5
586
100
AcDbEntity
  8
0
100
AcDbSpline
 62
7
  6
CONTINUOUS
 70
0
 71
3
 72
9
 73
5
 74
0
 42
0.0000001
 43
0.0000001
 44
0.0000000001
 40
0.0
 40
0.0
 40
0.0
 40
0.0
 40
0.277826871
 40
1.0
 40
1.0
 40
1.0
 40
1.0
 10
14.4371631647
 20
12.6332163832
 30
0.0
 10
14.4364269356
 20
12.6334803819
 30
0.0
 10
14.4337603937
 20
12.6343827968
 30
0.0
 10
14.431024555
 20
12.6350871229
 30
0.0
 10
14.4290247223
 20
12.635453089
 30
0.0
  0
SPLINE
  5
587
100
AcDbEntity
  8
0
100
AcDbSpline
 62
7
  6
CONTINUOUS
 70
0
 71
3
 72
9
 73
5
 74
0
 42
0.0000001
 43
0.0000001
 44
0.0000000001
 40
0.0
 40
0.0
 40
0.0
 40
0.0
 40
0.5311680298
 40
1.0
 40
1.0
 40
1.0
 40
1.0
 10
14.4585245256
 20
12.6226585835
 30
0.0
 10
14.4556148169
 20
12.6243446069
 30
0.0
 10
14.4500909889
 20
12.627440472
 30
0.0
 10
14.4444045855
 20
12.6302395929
 30
0.0
 10
14.4416814401
 20
12.6314206618
 30
0.0
  0
SPLINE
  5
588
100
AcDbEntity
  8
0
100
AcDbSpline
 62
7
  6
CONTINUOUS
 70
0
 71
3
 72
9
 73
5
 74
0
 42
0.0000001
 43
0.0000001
 44
0.0000000001
 40
0.0
 40
0.0
 40
0.0
 40
0.0
 40
0.249076001
 40
1.0
 40
1.0
 40
1.0
 40
1.0
 10
14.4773533732
 20
12.6384995898
 30
0.0
 10
14.4789467245
 20
12.6395258902
 30
0.0
 10
14.4851711979
 20
12.6439074472
 30
0.0
 10
14.4907200926
 20
12.6492551292
 30
0.0
 10
14.4943230709
 20
12.6536899568
 30
0.0
  0
SPLINE
  5
589
100
AcDbEntity
  8
0
100
AcDbSpline
 62
7
  6
CONTINUOUS
 70
0
 71
3
 72
9
 73
5
 74
0
 42
0.0000001
 43
0.0000001
 44
0.0000000001
 40
0.0
 40
0.0
 40
0.0
 40
0.0
 40
0.5221294545
 40
1.0
 40
1.0
 40
1.0
 40
1.0
 10
14.4943230709
 20
12.6536899568
 30
0.0
 10
14.4966148456
 20
12.6565108525
 30
0.0
 10
14.5005903653
 20
12.662267448
 30
0.0
 10
14.5034609257
 20
12.6686724551
 30
0.0
 10
14.5044475346
 20
12.671849204
 30
0.0
  0
SPLINE
  5
58A
100
AcDbEntity
  8
0
100
AcDbSpline
 62
7
  6
CONTINUOUS
 70
0
 71
3
 72
9
 73
5
 74
0
 42
0.0000001
 43
0.0000001
 44
0.0000000001
 40
0.0
 40
0.0
 40
0.0
 40
0.0
 40
0.237959049
 40
1.0
 40
1.0
 40
1.0
 40
1.0
 10
14.4416814401
 20
12.6314206618
 30
0.0
 10
14.4422456338
 20
12.6311759625
 30
0.0
 10
14.4446675459
 20
12.6302656207
 30
0.0
 10
14.4472509435
 20
12.629818185
 30
0.0
 10
14.4492161178
 20
12.6296893481
 30
0.0
  0
SPLINE
  5
58B
100
AcDbEntity
  8
0
100
AcDbSpline
 62
7
  6
CONTINUOUS
 70
0
 71
3
 72
9
 73
5
 74
0
 42
0.0000001
 43
0.0000001
 44
0.0000000001
 40
0.0
 40
0.0
 40
0.0
 40
0.0
 40
0.2375943282
 40
1.0
 40
1.0
 40
1.0
 40
1.0
 10
14.4492161178
 20
12.6296893481
 30
0.0
 10
14.4499201178
 20
12.6296431938
 30
0.0
 10
14.4528904159
 20
12.6295626806
 30
0.0
 10
14.4558646231
 20
12.6299079632
 30
0.0
 10
14.4580852048
 20
12.6303486272
 30
0.0
  0
SPLINE
  5
58C
100
AcDbEntity
  8
0
100
AcDbSpline
 62
7
  6
CONTINUOUS
 70
0
 71
3
 72
9
 73
5
 74
0
 42
0.0000001
 43
0.0000001
 44
0.0000000001
 40
0.0
 40
0.0
 40
0.0
 40
0.0
 40
0.4786092336
 40
1.0
 40
1.0
 40
1.0
 40
1.0
 10
14.4580852048
 20
12.6303486272
 30
0.0
 10
14.4613731832
 20
12.6310011111
 30
0.0
 10
14.4680885559
 20
12.6331807348
 30
0.0
 10
14.4742833745
 20
12.6365221595
 30
0.0
 10
14.4773533732
 20
12.6384995898
 30
0.0
  0
SPLINE
  5
58D
100
AcDbEntity
  8
0
100
AcDbSpline
 62
7
  6
CONTINUOUS
 70
0
 71
3
 72
11
 73
7
 74
0
 42
0.0000001
 43
0.0000001
 44
0.0000000001
 40
0.0
 40
0.0
 40
0.0
 40
0.0
 40
0.2868436803
 40
0.5452489733
 40
0.7794255727
 40
1.0
 40
1.0
 40
1.0
 40
1.0
 10
14.4331036683
 20
12.6576913481
 30
0.0
 10
14.4324388502
 20
12.6555507226
 30
0.0
 10
14.4315051018
 20
12.6513634907
 30
0.0
 10
14.4314513047
 20
12.6452177056
 30
0.0
 10
14.4328691649
 20
12.6397506508
 30
0.0
 10
14.4348299881
 20
12.6366965942
 30
0.0
 10
14.4359929655
 20
12.6354244268
 30
0.0
  0
SPLINE
  5
58E
100
AcDbEntity
  8
0
100
AcDbSpline
 62
7
  6
CONTINUOUS
 70
0
 71
3
 72
9
 73
5
 74
0
 42
0.0000001
 43
0.0000001
 44
0.0000000001
 40
0.0
 40
0.0
 40
0.0
 40
0.0
 40
0.245902556
 40
1.0
 40
1.0
 40
1.0
 40
1.0
 10
14.4359929655
 20
12.6354244268
 30
0.0
 10
14.4363793237
 20
12.6350017941
 30
0.0
 10
14.4380447106
 20
12.6333700499
 30
0.0
 10
14.4400704192
 20
12.6321193856
 30
0.0
 10
14.4416814401
 20
12.6314206618
 30
0.0
  0
SPLINE
  5
58F
100
AcDbEntity
  8
0
100
AcDbSpline
 62
7
  6
CONTINUOUS
 70
0
 71
3
 72
11
 73
7
 74
0
 42
0.0000001
 43
0.0000001
 44
0.0000000001
 40
0.0
 40
0.0
 40
0.0
 40
0.0
 40
0.2614262416
 40
0.5224382981
 40
0.771787329
 40
1.0
 40
1.0
 40
1.0
 40
1.0
 10
14.4601978296
 20
12.6910409623
 30
0.0
 10
14.45699431
 20
12.6889775293
 30
0.0
 10
14.4509192185
 20
12.6843254542
 30
0.0
 10
14.4431049379
 20
12.6761716298
 30
0.0
 10
14.4369619189
 20
12.667274211
 30
0.0
 10
14.4340902772
 20
12.660868097
 30
0.0
 10
14.4331036683
 20
12.6576913481
 30
0.0
  0
SPLINE
  5
590
100
AcDbEntity
  8
0
100
AcDbSpline
 62
7
  6
CONTINUOUS
 70
0
 71
3
 72
11
 73
7
 74
0
 42
0.0000001
 43
0.0000001
 44
0.0000000001
 40
0.0
 40
0.0
 40
0.0
 40
0.0
 40
0.4387970988
 40
0.5695956962
 40
0.7075749917
 40
1.0
 40
1.0
 40
1.0
 40
1.0
 10
14.4958697628
 20
12.6981198903
 30
0.0
 10
14.4908426381
 20
12.7003002294
 30
0.0
 10
14.4831235493
 20
12.7002517025
 30
0.0
 10
14.4746155249
 20
12.6980280148
 30
0.0
 10
14.4680247856
 20
12.6955865182
 30
0.0
 10
14.4632678284
 20
12.6930183926
 30
0.0
 10
14.4601978296
 20
12.6910409623
 30
0.0
  0
SPLINE
  5
591
100
AcDbEntity
  8
0
100
AcDbSpline
 62
7
  6
CONTINUOUS
 70
0
 71
3
 72
9
 73
5
 74
0
 42
0.0000001
 43
0.0000001
 44
0.0000000001
 40
0.0
 40
0.0
 40
0.0
 40
0.0
 40
0.5348396015
 40
1.0
 40
1.0
 40
1.0
 40
1.0
 10
14.5044475346
 20
12.671849204
 30
0.0
 10
14.5053180948
 20
12.6746522916
 30
0.0
 10
14.5064058433
 20
12.6800962207
 30
0.0
 10
14.5058058167
 20
12.6856849199
 30
0.0
 10
14.5050134675
 20
12.6881116056
 30
0.0
  0
SPLINE
  5
592
100
AcDbEntity
  8
0
100
AcDbSpline
 62
7
  6
CONTINUOUS
 70
0
 71
3
 72
9
 73
5
 74
0
 42
0.0000001
 43
0.0000001
 44
0.0000000001
 40
0.0
 40
0.0
 40
0.0
 40
0.0
 40
0.4989281865
 40
1.0
 40
1.0
 40
1.0
 40
1.0
 10
14.5050134675
 20
12.6881116056
 30
0.0
 10
14.5042967737
 20
12.6903065857
 30
0.0
 10
14.5019568309
 20
12.6944942064
 30
0.0
 10
14.4979972264
 20
12.6971971776
 30
0.0
 10
14.4958697628
 20
12.6981198903
 30
0.0
  0
SPLINE
  5
593
100
AcDbEntity
  8
0
100
AcDbSpline
 62
7
  6
CONTINUOUS
 70
0
 71
3
 72
9
 73
5
 74
0
 42
0.0000001
 43
0.0000001
 44
0.0000000001
 40
0.0
 40
0.0
 40
0.0
 40
0.0
 40
0.2530699296
 40
1.0
 40
1.0
 40
1.0
 40
1.0
 10
14.4773533732
 20
12.6384995898
 30
0.0
 10
14.4762064704
 20
12.6377608532
 30
0.0
 10
14.4717419566
 20
12.6347374305
 30
0.0
 10
14.4675500897
 20
12.6313185223
 30
0.0
 10
14.4645767615
 20
12.6286033944
 30
0.0
  0
LINE
  5
594
100
AcDbEntity
  8
0
100
AcDbLine
 62
7
  6
CONTINUOUS
 10
14.4645767615
 20
12.6286033944
 11
14.4585245256
 21
12.6226585835
  0
SPLINE
  5
595
100
AcDbEntity
  8
0
100
AcDbSpline
 62
7
  6
CONTINUOUS
 70
0
 71
3
 72
9
 73
5
 74
0
 42
0.0000001
 43
0.0000001
 44
0.0000000001
 40
0.0
 40
0.0
 40
0.0
 40
0.0
 40
0.502471362
 40
1.0
 40
1.0
 40
1.0
 40
1.0
 10
14.5003685887
 20
12.649610945
 30
0.0
 10
14.4963412486
 20
12.6481407796
 30
0.0
 10
14.4884290291
 20
12.6449132058
 30
0.0
 10
14.4809222316
 20
12.6407983426
 30
0.0
 10
14.4773533732
 20
12.6384995898
 30
0.0
  0
SPLINE
  5
596
100
AcDbEntity
  8
0
100
AcDbSpline
 62
7
  6
CONTINUOUS
 70
0
 71
3
 72
9
 73
5
 74
0
 42
0.0000001
 43
0.0000001
 44
0.0000000001
 40
0.0
 40
0.0
 40
0.0
 40
0.0
 40
0.4852612447
 40
1.0
 40
1.0
 40
1.0
 40
1.0
 10
14.5044475346
 20
12.671849204
 30
0.0
 10
14.5033611746
 20
12.6683512699
 30
0.0
 10
14.5016686246
 20
12.6609712803
 30
0.0
 10
14.5007289916
 20
12.6534746209
 30
0.0
 10
14.5003680204
 20
12.649606182
 30
0.0
  0
SPLINE
  5
597
100
AcDbEntity
  8
0
100
AcDbSpline
 62
7
  6
CONTINUOUS
 70
0
 71
3
 72
9
 73
5
 74
0
 42
0.0000001
 43
0.0000001
 44
0.0000000001
 40
0.0
 40
0.0
 40
0.0
 40
0.0
 40
0.4795130232
 40
1.0
 40
1.0
 40
1.0
 40
1.0
 10
14.5127109281
 20
12.6893545719
 30
0.0
 10
14.5110170813
 20
12.6867560666
 30
0.0
 10
14.507800564
 20
12.6811198106
 30
0.0
 10
14.5054461406
 20
12.6750645819
 30
0.0
 10
14.5044475346
 20
12.671849204
 30
0.0
  0
SPLINE
  5
598
100
AcDbEntity
  8
0
100
AcDbSpline
 62
7
  6
CONTINUOUS
 70
0
 71
3
 72
12
 73
8
 74
0
 42
0.0000001
 43
0.0000001
 44
0.0000000001
 40
0.0
 40
0.0
 40
0.0
 40
0.0
 40
0.2306860254
 40
0.3527872328
 40
0.4782986199
 40
0.736253943
 40
1.0
 40
1.0
 40
1.0
 40
1.0
 10
16.4644370862
 20
11.9820265382
 30
0.0
 10
16.4608028034
 20
11.970265995
 30
0.0
 10
16.4580822
 20
11.9513354349
 30
0.0
 10
16.4588933387
 20
11.9258094284
 30
0.0
 10
16.4624602565
 20
11.899023067
 30
0.0
 10
16.4715307754
 20
11.8655482567
 30
0.0
 10
16.4823825916
 20
11.8398308985
 30
0.0
 10
16.4885841135
 20
11.8271976017
 30
0.0
  0
SPLINE
  5
599
100
AcDbEntity
  8
0
100
AcDbSpline
 62
7
  6
CONTINUOUS
 70
0
 71
3
 72
21
 73
17
 74
0
 42
0.0000001
 43
0.0000001
 44
0.0000000001
 40
0.0
 40
0.0
 40
0.0
 40
0.0
 40
0.1436134393
 40
0.2837164127
 40
0.418241522
 40
0.4829971982
 40
0.5459172677
 40
0.6069350494
 40
0.6660343018
 40
0.7232799375
 40
0.7512774015
 40
0.7789096446
 40
0.8333225045
 40
0.8874041198
 40
0.9424691919
 40
1.0
 40
1.0
 40
1.0
 40
1.0
 10
16.8512021049
 20
12.0413937999
 30
0.0
 10
16.8317990531
 20
12.0478035671
 30
0.0
 10
16.7928207854
 20
12.058579028
 30
0.0
 10
16.7342253977
 20
12.0693393474
 30
0.0
 10
16.6860739539
 20
12.0739032133
 30
0.0
 10
16.6487583712
 20
12.0746377369
 30
0.0
 10
16.6219110184
 20
12.0736775096
 30
0.0
 10
16.595975134
 20
12.0710870989
 30
0.0
 10
16.5710992339
 20
12.0666768604
 30
0.0
 10
16.5512561055
 20
12.0612201
 30
0.0
 10
16.536194795
 20
12.0556129504
 30
0.0
 10
16.5219029943
 20
12.0491960481
 30
0.0
 10
16.5051309176
 20
12.0393261632
 30
0.0
 10
16.487452539
 20
12.0239473631
 30
0.0
 10
16.4732286253
 20
12.0047215311
 30
0.0
 10
16.466853953
 20
11.989847522
 30
0.0
 10
16.4644370862
 20
11.9820265382
 30
0.0
  0
SPLINE
  5
59A
100
AcDbEntity
  8
0
100
AcDbSpline
 62
7
  6
CONTINUOUS
 70
0
 71
3
 72
11
 73
7
 74
0
 42
0.0000001
 43
0.0000001
 44
0.0000000001
 40
0.0
 40
0.0
 40
0.0
 40
0.0
 40
0.2700196559
 40
0.5269510682
 40
0.7702767171
 40
1.0
 40
1.0
 40
1.0
 40
1.0
 10
16.2625078062
 20
11.9122032213
 30
0.0
 10
16.2442986437
 20
11.9285695814
 30
0.0
 10
16.2099490466
 20
11.9618676678
 30
0.0
 10
16.1640264986
 20
12.0146109774
 30
0.0
 10
16.1253818041
 20
12.0684720151
 30
0.0
 10
16.104117744
 20
12.1058456785
 30
0.0
 10
16.0949389619
 20
12.1245437815
 30
0.0
  0
SPLINE
  5
59B
100
AcDbEntity
  8
0
100
AcDbSpline
 62
7
  6
CONTINUOUS
 70
0
 71
3
 72
9
 73
5
 74
0
 42
0.0000001
 43
0.0000001
 44
0.0000000001
 40
0.0
 40
0.0
 40
0.0
 40
0.0
 40
0.24179588
 40
1.0
 40
1.0
 40
1.0
 40
1.0
 10
13.9027939691
 20
12.6506009862
 30
0.0
 10
13.9090448647
 20
12.6506009862
 30
0.0
 10
13.9349009773
 20
12.6494882335
 30
0.0
 10
13.9604568753
 20
12.6445241897
 30
0.0
 10
13.9794512227
 20
12.6396851612
 30
0.0
  0
SPLINE
  5
59C
100
AcDbEntity
  8
0
100
AcDbSpline
 62
7
  6
CONTINUOUS
 70
0
 71
3
 72
10
 73
6
 74
0
 42
0.0000001
 43
0.0000001
 44
0.0000000001
 40
0.0
 40
0.0
 40
0.0
 40
0.0
 40
0.5243814732
 40
0.7658721953
 40
1.0
 40
1.0
 40
1.0
 40
1.0
 10
16.2813092832
 20
11.4002418793
 30
0.0
 10
16.282244247
 20
11.3983366234
 30
0.0
 10
16.2832400246
 20
11.3953147518
 30
0.0
 10
16.283331641
 20
11.3912453694
 30
0.0
 10
16.2829632689
 20
11.3893373672
 30
0.0
 10
16.2826834802
 20
11.388432043
 30
0.0
  0
SPLINE
  5
59D
100
AcDbEntity
  8
0
100
AcDbSpline
 62
7
  6
CONTINUOUS
 70
0
 71
3
 72
9
 73
5
 74
0
 42
0.0000001
 43
0.0000001
 44
0.0000000001
 40
0.0
 40
0.0
 40
0.0
 40
0.0
 40
0.5797445108
 40
1.0
 40
1.0
 40
1.0
 40
1.0
 10
14.0862883622
 20
12.8527723784
 30
0.0
 10
14.0838533917
 20
12.8596188002
 30
0.0
 10
14.079793125
 20
12.8714795203
 30
0.0
 10
14.0762058953
 20
12.883494528
 30
0.0
 10
14.0748440873
 20
12.8885829465
 30
0.0
  0
SPLINE
  5
59E
100
AcDbEntity
  8
0
100
AcDbSpline
 62
7
  6
CONTINUOUS
 70
0
 71
3
 72
9
 73
5
 74
0
 42
0.0000001
 43
0.0000001
 44
0.0000000001
 40
0.0
 40
0.0
 40
0.0
 40
0.0
 40
0.5011190914
 40
1.0
 40
1.0
 40
1.0
 40
1.0
 10
16.8494133141
 20
11.6194856821
 30
0.0
 10
16.8444955895
 20
11.6173891297
 30
0.0
 10
16.8346836654
 20
11.6132046629
 30
0.0
 10
16.8246557694
 20
11.6095208973
 30
0.0
 10
16.8195653018
 20
11.6079678478
 30
0.0
  0
SPLINE
  5
59F
100
AcDbEntity
  8
0
100
AcDbSpline
 62
7
  6
CONTINUOUS
 70
0
 71
3
 72
11
 73
7
 74
0
 42
0.0000001
 43
0.0000001
 44
0.0000000001
 40
0.0
 40
0.0
 40
0.0
 40
0.0
 40
0.2298109693
 40
0.4716215647
 40
0.7280179938
 40
1.0
 40
1.0
 40
1.0
 40
1.0
 10
13.8243695139
 20
12.6350380466
 30
0.0
 10
13.8300819289
 20
12.6373482021
 30
0.0
 10
13.8419877803
 20
12.6416555665
 30
0.0
 10
13.8608875365
 20
12.6466536036
 30
0.0
 10
13.8813206442
 20
12.6498906788
 30
0.0
 10
13.8955013899
 20
12.6506009862
 30
0.0
 10
13.9027939691
 20
12.6506009862
 30
0.0
  0
SPLINE
  5
5A0
100
AcDbEntity
  8
0
100
AcDbSpline
 62
7
  6
CONTINUOUS
 70
0
 71
3
 72
9
 73
5
 74
0
 42
0.0000001
 43
0.0000001
 44
0.0000000001
 40
0.0
 40
0.0
 40
0.0
 40
0.0
 40
0.4895888355
 40
1.0
 40
1.0
 40
1.0
 40
1.0
 10
13.9027939691
 20
12.6506009862
 30
0.0
 10
13.9189036135
 20
12.6506009862
 30
0.0
 10
13.9518881142
 20
12.6551083858
 30
0.0
 10
13.9828837873
 20
12.6670357509
 30
0.0
 10
13.997795758
 20
12.6747622086
 30
0.0
  0
SPLINE
  5
5A1
100
AcDbEntity
  8
0
100
AcDbSpline
 62
7
  6
CONTINUOUS
 70
0
 71
3
 72
14
 73
10
 74
0
 42
0.0000001
 43
0.0000001
 44
0.0000000001
 40
0.0
 40
0.0
 40
0.0
 40
0.0
 40
0.1134128283
 40
0.2276954973
 40
0.3443789688
 40
0.464955152
 40
0.5904499875
 40
0.7214741991
 40
1.0
 40
1.0
 40
1.0
 40
1.0
 10
13.7932893391
 20
12.7139872112
 30
0.0
 10
13.7950547775
 20
12.7092137391
 30
0.0
 10
13.7994810486
 20
12.6999304431
 30
0.0
 10
13.8085890522
 20
12.6873470376
 30
0.0
 10
13.8200012953
 20
12.6763401892
 30
0.0
 10
13.8334910779
 20
12.6671052716
 30
0.0
 10
13.8488162143
 20
12.6597775954
 30
0.0
 10
13.8717823526
 20
12.6525716787
 30
0.0
 10
13.8902949285
 20
12.6506009862
 30
0.0
 10
13.9027939691
 20
12.6506009862
 30
0.0
  0
SPLINE
  5
5A2
100
AcDbEntity
  8
0
100
AcDbSpline
 62
7
  6
CONTINUOUS
 70
0
 71
3
 72
14
 73
10
 74
0
 42
0.0000001
 43
0.0000001
 44
0.0000000001
 40
0.0
 40
0.0
 40
0.0
 40
0.0
 40
0.2795698382
 40
0.411940599
 40
0.5388167114
 40
0.6603263134
 40
0.7769873623
 40
0.8898187075
 40
1.0
 40
1.0
 40
1.0
 40
1.0
 10
13.8324649892
 20
12.8407596612
 30
0.0
 10
13.8233094826
 20
12.8314919261
 30
0.0
 10
13.8111108216
 20
12.8163993381
 30
0.0
 10
13.799051527
 20
12.7943198349
 30
0.0
 10
13.7925947626
 20
12.7777340501
 30
0.0
 10
13.788682363
 20
12.7611180855
 30
0.0
 10
13.787400871
 20
12.744741308
 30
0.0
 10
13.7887915096
 20
12.7289011024
 30
0.0
 10
13.7915083725
 20
12.7188026694
 30
0.0
 10
13.7932893391
 20
12.7139872112
 30
0.0
  0
SPLINE
  5
5A3
100
AcDbEntity
  8
0
100
AcDbSpline
 62
7
  6
CONTINUOUS
 70
0
 71
3
 72
11
 73
7
 74
0
 42
0.0000001
 43
0.0000001
 44
0.0000000001
 40
0.0
 40
0.0
 40
0.0
 40
0.0
 40
0.2427017075
 40
0.4955310213
 40
0.7506985425
 40
1.0
 40
1.0
 40
1.0
 40
1.0
 10
13.9811452691
 20
12.9041458862
 30
0.0
 10
13.9677617615
 20
12.9041458862
 30
0.0
 10
13.9403764043
 20
12.9010269012
 30
0.0
 10
13.9007316617
 20
12.8883141407
 30
0.0
 10
13.8638105958
 20
12.8683075058
 30
0.0
 10
13.8421265036
 20
12.8505396068
 30
0.0
 10
13.8324649892
 20
12.8407596612
 30
0.0
  0
SPLINE
  5
5A4
100
AcDbEntity
  8
0
100
AcDbSpline
 62
7
  6
CONTINUOUS
 70
0
 71
3
 72
9
 73
5
 74
0
 42
0.0000001
 43
0.0000001
 44
0.0000000001
 40
0.0
 40
0.0
 40
0.0
 40
0.0
 40
0.4946730786
 40
1.0
 40
1.0
 40
1.0
 40
1.0
 10
14.086369892
 20
12.850422273
 30
0.0
 10
14.0836705091
 20
12.8556120603
 30
0.0
 10
14.0770991128
 20
12.8655591545
 30
0.0
 10
14.0686485345
 20
12.873954541
 30
0.0
 10
14.0640340333
 20
12.877751492
 30
0.0
  0
SPLINE
  5
5A5
100
AcDbEntity
  8
0
100
AcDbSpline
 62
7
  6
CONTINUOUS
 70
0
 71
3
 72
11
 73
7
 74
0
 42
0.0000001
 43
0.0000001
 44
0.0000000001
 40
0.0
 40
0.0
 40
0.0
 40
0.0
 40
0.2307439998
 40
0.473651612
 40
0.7301995559
 40
1.0
 40
1.0
 40
1.0
 40
1.0
 10
14.0640340333
 20
12.877751492
 30
0.0
 10
14.0587716325
 20
12.8820815543
 30
0.0
 10
14.0469881478
 20
12.8898255379
 30
0.0
 10
14.0269493431
 20
12.898089487
 30
0.0
 10
14.0046866187
 20
12.9030851456
 30
0.0
 10
13.9891136321
 20
12.9041458862
 30
0.0
 10
13.9811452691
 20
12.9041458862
 30
0.0
  0
SPLINE
  5
5A6
100
AcDbEntity
  8
0
100
AcDbSpline
 62
7
  6
CONTINUOUS
 70
0
 71
3
 72
26
 73
22
 74
0
 42
0.0000001
 43
0.0000001
 44
0.0000000001
 40
0.0
 40
0.0
 40
0.0
 40
0.0
 40
0.0543380045
 40
0.1139401344
 40
0.1785067401
 40
0.2473245119
 40
0.3193791631
 40
0.393455483
 40
0.4682214085
 40
0.5423078734
 40
0.6143832863
 40
0.6832311481
 40
0.7478347305
 40
0.8074758964
 40
0.8618562892
 40
0.8871650584
 40
0.9113167908
 40
0.9344587787
 40
0.9567863484
 40
0.9785410223
 40
1.0
 40
1.0
 40
1.0
 40
1.0
 10
15.4840586085
 20
11.9620034476
 30
0.0
 10
15.4742937278
 20
11.9819021824
 30
0.0
 10
15.4494917407
 20
12.0215641372
 30
0.0
 10
15.4013020933
 20
12.0764699471
 30
0.0
 10
15.3417034558
 20
12.1282285192
 30
0.0
 10
15.2722900648
 20
12.1754834571
 30
0.0
 10
15.1948933239
 20
12.217006858
 30
0.0
 10
15.1115793767
 20
12.251693007
 30
0.0
 10
15.0245778263
 20
12.2786137467
 30
0.0
 10
14.9362216692
 20
12.2970475957
 30
0.0
 10
14.8488751975
 20
12.3065004504
 30
0.0
 10
14.7648675011
 20
12.3067188641
 30
0.0
 10
14.6864093513
 20
12.2976810487
 30
0.0
 10
14.615570314
 20
12.2796015748
 30
0.0
 10
14.5631549745
 20
12.2567552437
 30
0.0
 10
14.5272419508
 20
12.2341618755
 30
0.0
 10
14.5039792937
 20
12.2157282846
 30
0.0
 10
14.4839172292
 20
12.1955251603
 30
0.0
 10
14.4672053692
 20
12.1736797075
 30
0.0
 10
14.4539816763
 20
12.1503470295
 30
0.0
 10
14.4475413336
 20
12.1338599847
 30
0.0
 10
14.4449577062
 20
12.1254964014
 30
0.0
  0
SPLINE
  5
5A7
100
AcDbEntity
  8
0
100
AcDbSpline
 62
7
  6
CONTINUOUS
 70
0
 71
3
 72
11
 73
7
 74
0
 42
0.0000001
 43
0.0000001
 44
0.0000000001
 40
0.0
 40
0.0
 40
0.0
 40
0.0
 40
0.2715167169
 40
0.5255505952
 40
0.7663058174
 40
1.0
 40
1.0
 40
1.0
 40
1.0
 10
14.5192472173
 20
11.9620034476
 30
0.0
 10
14.513259959
 20
11.9742041973
 30
0.0
 10
14.5033283106
 20
11.9987005957
 30
0.0
 10
14.4950920935
 20
12.0363756766
 30
0.0
 10
14.494292923
 20
12.0730727513
 30
0.0
 10
14.4988312762
 20
12.0966049618
 30
0.0
 10
14.5022838435
 20
12.1077812843
 30
0.0
  0
SPLINE
  5
5A8
100
AcDbEntity
  8
0
100
AcDbSpline
 62
7
  6
CONTINUOUS
 70
0
 71
3
 72
10
 73
6
 74
0
 42
0.0000001
 43
0.0000001
 44
0.0000000001
 40
0.0
 40
0.0
 40
0.0
 40
0.0
 40
0.5205753094
 40
0.7651718693
 40
1.0
 40
1.0
 40
1.0
 40
1.0
 10
13.9320518663
 20
12.5278762425
 30
0.0
 10
13.9182714931
 20
12.5289831244
 30
0.0
 10
13.8980327318
 20
12.5328691743
 30
0.0
 10
13.8734788206
 20
12.5431617809
 30
0.0
 10
13.8625374424
 20
12.5497937237
 30
0.0
 10
13.8574841003
 20
12.5534481234
 30
0.0
  0
SPLINE
  5
5A9
100
AcDbEntity
  8
0
100
AcDbSpline
 62
7
  6
CONTINUOUS
 70
0
 71
3
 72
9
 73
5
 74
0
 42
0.0000001
 43
0.0000001
 44
0.0000000001
 40
0.0
 40
0.0
 40
0.0
 40
0.0
 40
0.5049723323
 40
1.0
 40
1.0
 40
1.0
 40
1.0
 10
13.8501893334
 20
12.5591944839
 30
0.0
 10
13.8449562746
 20
12.5636844563
 30
0.0
 10
13.8354128394
 20
12.5735914936
 30
0.0
 10
13.8280880846
 20
12.5852478327
 30
0.0
 10
13.8251108346
 20
12.5913163196
 30
0.0
  0
SPLINE
  5
5AA
100
AcDbEntity
  8
0
100
AcDbSpline
 62
7
  6
CONTINUOUS
 70
0
 71
3
 72
10
 73
6
 74
0
 42
0.0000001
 43
0.0000001
 44
0.0000000001
 40
0.0
 40
0.0
 40
0.0
 40
0.0
 40
0.5205753094
 40
0.7651718693
 40
1.0
 40
1.0
 40
1.0
 40
1.0
 10
14.0571194667
 20
12.9325951458
 30
0.0
 10
14.0433390935
 20
12.9337020277
 30
0.0
 10
14.0231003322
 20
12.9375880776
 30
0.0
 10
13.998546421
 20
12.9478806842
 30
0.0
 10
13.9876050429
 20
12.954512627
 30
0.0
 10
13.9825517007
 20
12.9581670267
 30
0.0
  0
SPLINE
  5
5AB
100
AcDbEntity
  8
0
100
AcDbSpline
 62
7
  6
CONTINUOUS
 70
0
 71
3
 72
9
 73
5
 74
0
 42
0.0000001
 43
0.0000001
 44
0.0000000001
 40
0.0
 40
0.0
 40
0.0
 40
0.0
 40
0.5049723323
 40
1.0
 40
1.0
 40
1.0
 40
1.0
 10
13.9752569338
 20
12.9639133872
 30
0.0
 10
13.970023875
 20
12.9684033596
 30
0.0
 10
13.9604804398
 20
12.9783103969
 30
0.0
 10
13.953155685
 20
12.989966736
 30
0.0
 10
13.9501784351
 20
12.9960352229
 30
0.0
  0
SPLINE
  5
5AC
100
AcDbEntity
  8
0
100
AcDbSpline
 62
7
  6
CONTINUOUS
 70
0
 71
3
 72
9
 73
5
 74
0
 42
0.0000001
 43
0.0000001
 44
0.0000000001
 40
0.0
 40
0.0
 40
0.0
 40
0.0
 40
0.5129298931
 40
1.0
 40
1.0
 40
1.0
 40
1.0
 10
15.8325427431
 20
13.1085466985
 30
0.0
 10
15.8279931469
 20
13.099653409
 30
0.0
 10
15.8203677708
 20
13.0816376083
 30
0.0
 10
15.8158294129
 20
13.0625799597
 30
0.0
 10
15.814506491
 20
13.0531868234
 30
0.0
  0
SPLINE
  5
5AD
100
AcDbEntity
  8
0
100
AcDbSpline
 62
7
  6
CONTINUOUS
 70
0
 71
3
 72
9
 73
5
 74
0
 42
0.0000001
 43
0.0000001
 44
0.0000000001
 40
0.0
 40
0.0
 40
0.0
 40
0.0
 40
0.5129291388
 40
1.0
 40
1.0
 40
1.0
 40
1.0
 10
15.7074761866
 20
12.7038298357
 30
0.0
 10
15.7029267413
 20
12.6949370864
 30
0.0
 10
15.6953014919
 20
12.6769223834
 30
0.0
 10
15.6907628392
 20
12.657865902
 30
0.0
 10
15.6894396486
 20
12.6484733018
 30
0.0
  0
SPLINE
  5
5AE
100
AcDbEntity
  8
0
100
AcDbSpline
 62
7
  6
CONTINUOUS
 70
0
 71
3
 72
9
 73
5
 74
0
 42
0.0000001
 43
0.0000001
 44
0.0000000001
 40
0.0
 40
0.0
 40
0.0
 40
0.0
 40
0.2564334416
 40
1.0
 40
1.0
 40
1.0
 40
1.0
 10
15.858838899
 20
12.5272580565
 30
0.0
 10
15.8554574931
 20
12.5272580565
 30
0.0
 10
15.8422749305
 20
12.5275910519
 30
0.0
 10
15.8291138008
 20
12.529274082
 30
0.0
 10
15.8195384713
 20
12.5313833061
 30
0.0
  0
SPLINE
  5
5AF
100
AcDbEntity
  8
0
100
AcDbSpline
 62
7
  6
CONTINUOUS
 70
0
 71
3
 72
9
 73
5
 74
0
 42
0.0000001
 43
0.0000001
 44
0.0000000001
 40
0.0
 40
0.0
 40
0.0
 40
0.0
 40
0.256432452
 40
1.0
 40
1.0
 40
1.0
 40
1.0
 10
15.9839064994
 20
12.9319769598
 30
0.0
 10
15.9805255255
 20
12.9319769598
 30
0.0
 10
15.9673445948
 20
12.9323098716
 30
0.0
 10
15.9541850911
 20
12.9339924752
 30
0.0
 10
15.9446108716
 20
12.9361011522
 30
0.0
  0
ENDSEC
  0
SECTION
  2
OBJECTS
  0
DICTIONARY
  5
C
100
AcDbDictionary
280
0
281
1
  3
ACAD_GROUP
350
D
  3
ACAD_MLINESTYLE
350
17
  3
ACAD_LAYOUT
350
1A
  3
ACAD_PLOTSETTINGS
350
19
  3
ACAD_PLOTSTYLENAME
350
E
  0
DICTIONARY
  5
D
102
{ACAD_REACTORS
330
C
102
}
100
AcDbDictionary
280
0
281
1
  0
ACDBDICTIONARYWDFLT
  5
E
102
{ACAD_REACTORS
330
C
102
}
100
AcDbDictionary
281
1
  3
Normal
350
F
100
AcDbDictionaryWithDefault
340
F
  0
DICTIONARY
  5
17
102
{ACAD_REACTORS
330
C
102
}
100
AcDbDictionary
280
0
281
1
  3
Standard
350
18
  0
DICTIONARY
  5
19
102
{ACAD_REACTORS
330
C
102
}
100
AcDbDictionary
281
1
  0
DICTIONARY
  5
1A
102
{ACAD_REACTORS
330
C
102
}
100
AcDbDictionary
281
1
  3
Model
350
5B0
  3
Layout1
350
5B1
  0
ACDBPLACEHOLDER
  5
F
102
{ACAD_REACTORS
330
E
102
}
  0
MLINESTYLE
  5
18
102
{ACAD_REACTORS
330
17
102
}
100
AcDbMlineStyle
  2
STANDARD
 70
0
  3

 62
256
 51
90.0
 52
90.0
 71
2
 49
0.5
 62
256
  6
BYLAYER
 49
-0.5
 62
256
  6
BYLAYER
  0
LAYOUT
  5
5B0
102
{ACAD_REACTORS
330
1A
102
}
100
AcDbPlotSettings
  1

  2
none_device
  4
ANSI_C_(22.00_x_17.00_Inches)
  6

 40
0.0
 41
0.0
 42
0.0
 43
0.0
 44
558.8
 45
431.8
 46
0.0
 47
0.0
 48
0.0
 49
0.0
140
0.0
141
0.0
142
1.0
143
1.0
 70
1024
 72
0
 73
0
 74
0
  7

 75
0
147
1.0
148
0.0
149
0.0
100
AcDbLayout
  1
Model
 70
0
 71
0
 10
0.0
 20
0.0
 11
22.0
 21
17.0
 12
0.0
 22
0.0
 32
0.0
 14
0.0
 24
0.0
 34
0.0
 15
0.0
 25
0.0
 35
0.0
146
0.0
 13
0.0
 23
0.0
 33
0.0
 16
1.0
 26
0.0
 36
0.0
 17
0.0
 27
1.0
 37
0.0
 76
0
330
228
345
0
346
0
  0
LAYOUT
  5
5B1
102
{ACAD_REACTORS
330
1A
102
}
100
AcDbPlotSettings
  1

  2
none_device
  4
ANSI_C_(22.00_x_17.00_Inches)
  6

 40
0.0
 41
0.0
 42
0.0
 43
0.0
 44
558.8
 45
431.8
 46
0.0
 47
0.0
 48
0.0
 49
0.0
140
0.0
141
0.0
142
1.0
143
1.0
 70
0
 72
0
 73
0
 74
0
  7

 75
0
147
1.0
148
0.0
149
0.0
100
AcDbLayout
  1
Layout1
 70
0
 71
1
 10
0.0
 20
0.0
 11
22.0
 21
17.0
 12
0.0
 22
0.0
 32
0.0
 14
0.0
 24
0.0
 34
0.0
 15
0.0
 25
0.0
 35
0.0
146
0.0
 13
0.0
 23
0.0
 33
0.0
 16
1.0
 26
0.0
 36
0.0
 17
0.0
 27
1.0
 37
0.0
 76
0
330
229
345
0
346
0
  0
ENDSEC
  0
EOF