999
DXF file: _cgs_temp_output.dxf
999
Pro/ENGINEER 2016360 by Parametric Technology Corporation
  0
SECTION
  2
HEADER
  9
$ACADVER
  1
AC1021
  9
$DWGCODEPAGE
  3
ANSI_1252
  9
$EXTMAX
 10
22.0
 20
17.0
 30
0.0
  9
$EXTMIN
 10
0.0
 20
0.0
 30
0.0
  9
$LIMMIN
 10
0.0
 20
0.0
  9
$LIMMAX
 10
22.0
 20
17.0
  9
$VIEWCTR
 10
11.0
 20
8.5
  9
$VIEWSIZE
 40
17.0
  9
$CLAYER
  8
0
  9
$LTSCALE
 40
1.21
  9
$CELTYPE
  6
BYLAYER
  9
$DIMSCALE
 40
1.0
  9
$DIMASZ
 40
0.1875
  9
$DIMEXO
 40
0.0625
  9
$DIMDLI
 40
0.836
  9
$DIMEXE
 40
0.125
  9
$DIMCEN
 40
0.198
  9
$DIMLFAC
 40
1.0
  9
$DIMBLK
  1
_CLOSED
  9
$DIMALT
 70
0
  9
$DIMALTF
 40
25.4
  9
$DIMTXT
 40
0.15625
  9
$DIMTOL
 70
0
  9
$DIMLIM
 70
0
  9
$DIMTFAC
 40
1.0
  9
$DIMGAP
 40
0.09
  9
$DIMDSEP
 70
46
  9
$AUNITS
 70
0
  9
$PDMODE
 70
3
  9
$PDSIZE
 40
0.3125
  9
$HANDSEED
  5
56C
  9
$TILEMODE
 70
1
  9
$MEASUREMENT
 70
0
  9
$INSUNITS
 70
1
  0
ENDSEC
  0
SECTION
  2
CLASSES
  0
CLASS
  1
ACDBDICTIONARYWDFLT
  2
AcDbDictionaryWithDefault
  3
AutoCAD 2000
 90
0
 91
1
280
0
281
0
  0
CLASS
  1
ACDBPLACEHOLDER
  2
AcDbPlaceHolder
  3
AutoCAD 2000
 90
0
 91
1
280
0
281
0
  0
CLASS
  1
LAYOUT
  2
AcDbLayout
  3
AutoCAD 2000
 90
0
 91
0
280
0
281
0
  0
ENDSEC
  0
SECTION
  2
TABLES
  0
TABLE
  2
VPORT
  5
8
100
AcDbSymbolTable
 70
2
  0
VPORT
  5
1F4
100
AcDbSymbolTableRecord
100
AcDbViewportTableRecord
  2
*ACTIVE
 70
0
 10
0.0
 20
0.0
 11
1.0
 21
1.0
 12
11.0
 22
8.5
 13
0.0
 23
0.0
 14
1.0
 24
1.0
 15
0.0
 25
0.0
 16
0.0
 26
0.0
 36
1.0
 17
0.0
 27
0.0
 37
0.0
 40
17.0
 41
1.2941176471
 42
50.0
 43
0.0
 44
0.0
 50
0.0
 51
0.0
 71
0
 72
100
 73
1
 74
1
 75
0
 76
0
 77
0
 78
0
  0
ENDTAB
  0
TABLE
  2
LTYPE
  5
5
100
AcDbSymbolTable
 70
6
  0
LTYPE
  5
14
100
AcDbSymbolTableRecord
100
AcDbLinetypeTableRecord
  2
BYBLOCK
 70
0
  3

 72
65
 73
0
 40
0.0
  0
LTYPE
  5
15
100
AcDbSymbolTableRecord
100
AcDbLinetypeTableRecord
  2
BYLAYER
 70
0
  3

 72
65
 73
0
 40
0.0
  0
LTYPE
  5
16
100
AcDbSymbolTableRecord
100
AcDbLinetypeTableRecord
  2
CONTINUOUS
 70
64
  3
Solid line
 72
65
 73
0
 40
0.0
  0
LTYPE
  5
1F5
100
AcDbSymbolTableRecord
100
AcDbLinetypeTableRecord
  2
CENTER
 70
64
  3
____ _ ____ _ ____ _ ____ _ ____ _ ____ _ ____
 72
65
 73
4
 40
0.6
 49
0.375
 74
0
 49
-0.075
 74
0
 49
0.075
 74
0
 49
-0.075
 74
0
  0
LTYPE
  5
1F6
100
AcDbSymbolTableRecord
100
AcDbLinetypeTableRecord
  2
HIDDEN
 70
64
  3
- - - - - - - - - - - - - - - - - - - -
 72
65
 73
2
 40
0.2
 49
0.1
 74
0
 49
-0.1
 74
0
  0
LTYPE
  5
1F7
100
AcDbSymbolTableRecord
100
AcDbLinetypeTableRecord
  2
PHANTOM
 70
64
  3
_____ _ _ _____ _ _ _____ _ _ _____
 72
65
 73
6
 40
0.8
 49
0.45
 74
0
 49
-0.05
 74
0
 49
0.1
 74
0
 49
-0.05
 74
0
 49
0.1
 74
0
 49
-0.05
 74
0
  0
LTYPE
  5
1F8
100
AcDbSymbolTableRecord
100
AcDbLinetypeTableRecord
  2
DOT
 70
64
  3
. . . . . . . . . . . . . . . . . . . .
 72
65
 73
2
 40
0.2
 49
0.1
 74
0
 49
-0.1
 74
0
  0
LTYPE
  5
1F9
100
AcDbSymbolTableRecord
100
AcDbLinetypeTableRecord
  2
DASHED
 70
64
  3
- - - - - - - - - - - - - - - - - - - -
 72
65
 73
2
 40
0.2
 49
0.1
 74
0
 49
-0.1
 74
0
  0
ENDTAB
  0
TABLE
  2
LAYER
  5
2
100
AcDbSymbolTable
 70
36
  0
LAYER
  5
10
100
AcDbSymbolTableRecord
100
AcDbLayerTableRecord
  2
0
 70
0
 62
7
  6
CONTINUOUS
370
-3
390
F
  0
LAYER
  5
1FA
100
AcDbSymbolTableRecord
100
AcDbLayerTableRecord
  2
DEFAULT_1
 70
0
 62
7
  6
CENTER
370
-3
390
F
  0
LAYER
  5
1FB
100
AcDbSymbolTableRecord
100
AcDbLayerTableRecord
  2
DEFAULT_2
 70
0
 62
8
  6
HIDDEN
370
-3
390
F
  0
LAYER
  5
1FC
100
AcDbSymbolTableRecord
100
AcDbLayerTableRecord
  2
DEFAULT_3
 70
0
 62
7
  6
PHANTOM
370
-3
390
F
  0
LAYER
  5
1FD
100
AcDbSymbolTableRecord
100
AcDbLayerTableRecord
  2
01_ALL_DTM_PLN
 70
0
 62
7
  6
CONTINUOUS
370
-3
390
F
  0
LAYER
  5
1FE
100
AcDbSymbolTableRecord
100
AcDbLayerTableRecord
  2
01__ASM_ALL_DTM_PLN
 70
0
 62
7
  6
CONTINUOUS
370
-3
390
F
  0
LAYER
  5
1FF
100
AcDbSymbolTableRecord
100
AcDbLayerTableRecord
  2
01__ASM_DEF_DTM_PLN
 70
0
 62
7
  6
CONTINUOUS
370
-3
390
F
  0
LAYER
  5
200
100
AcDbSymbolTableRecord
100
AcDbLayerTableRecord
  2
01___PRT_ALL_DTM_PLN
 70
0
 62
7
  6
CONTINUOUS
370
-3
390
F
  0
LAYER
  5
201
100
AcDbSymbolTableRecord
100
AcDbLayerTableRecord
  2
01___PRT_DEF_DTM_PLN
 70
0
 62
7
  6
CONTINUOUS
370
-3
390
F
  0
LAYER
  5
202
100
AcDbSymbolTableRecord
100
AcDbLayerTableRecord
  2
02_ALL_AXES
 70
0
 62
7
  6
CONTINUOUS
370
-3
390
F
  0
LAYER
  5
203
100
AcDbSymbolTableRecord
100
AcDbLayerTableRecord
  2
02__ASM_ALL_AXES
 70
0
 62
7
  6
CONTINUOUS
370
-3
390
F
  0
LAYER
  5
204
100
AcDbSymbolTableRecord
100
AcDbLayerTableRecord
  2
02___PRT_ALL_AXES
 70
0
 62
7
  6
CONTINUOUS
370
-3
390
F
  0
LAYER
  5
205
100
AcDbSymbolTableRecord
100
AcDbLayerTableRecord
  2
03_ALL_CURVES
 70
0
 62
7
  6
CONTINUOUS
370
-3
390
F
  0
LAYER
  5
206
100
AcDbSymbolTableRecord
100
AcDbLayerTableRecord
  2
03__ASM_ALL_CURVES
 70
0
 62
7
  6
CONTINUOUS
370
-3
390
F
  0
LAYER
  5
207
100
AcDbSymbolTableRecord
100
AcDbLayerTableRecord
  2
03___PRT_ALL_CURVES
 70
0
 62
7
  6
CONTINUOUS
370
-3
390
F
  0
LAYER
  5
208
100
AcDbSymbolTableRecord
100
AcDbLayerTableRecord
  2
04_ALL_DTM_PNT
 70
0
 62
7
  6
CONTINUOUS
370
-3
390
F
  0
LAYER
  5
209
100
AcDbSymbolTableRecord
100
AcDbLayerTableRecord
  2
04__ASM_ALL_DTM_PNT
 70
0
 62
7
  6
CONTINUOUS
370
-3
390
F
  0
LAYER
  5
20A
100
AcDbSymbolTableRecord
100
AcDbLayerTableRecord
  2
04___PRT_ALL_DTM_PNT
 70
0
 62
7
  6
CONTINUOUS
370
-3
390
F
  0
LAYER
  5
20B
100
AcDbSymbolTableRecord
100
AcDbLayerTableRecord
  2
05_ALL_DTM_CSYS
 70
0
 62
7
  6
CONTINUOUS
370
-3
390
F
  0
LAYER
  5
20C
100
AcDbSymbolTableRecord
100
AcDbLayerTableRecord
  2
05__ASM_ALL_DTM_CSYS
 70
0
 62
7
  6
CONTINUOUS
370
-3
390
F
  0
LAYER
  5
20D
100
AcDbSymbolTableRecord
100
AcDbLayerTableRecord
  2
05__ASM_DEF_DTM_CSYS
 70
0
 62
7
  6
CONTINUOUS
370
-3
390
F
  0
LAYER
  5
20E
100
AcDbSymbolTableRecord
100
AcDbLayerTableRecord
  2
05___PRT_ALL_DTM_CSYS
 70
0
 62
7
  6
CONTINUOUS
370
-3
390
F
  0
LAYER
  5
20F
100
AcDbSymbolTableRecord
100
AcDbLayerTableRecord
  2
05___PRT_DEF_DTM_CSYS
 70
0
 62
7
  6
CONTINUOUS
370
-3
390
F
  0
LAYER
  5
210
100
AcDbSymbolTableRecord
100
AcDbLayerTableRecord
  2
06_ALL_SURFS
 70
0
 62
7
  6
CONTINUOUS
370
-3
390
F
  0
LAYER
  5
211
100
AcDbSymbolTableRecord
100
AcDbLayerTableRecord
  2
06__ASM_ALL_SURFS
 70
0
 62
7
  6
CONTINUOUS
370
-3
390
F
  0
LAYER
  5
212
100
AcDbSymbolTableRecord
100
AcDbLayerTableRecord
  2
06___PRT_ALL_SURFS
 70
0
 62
7
  6
CONTINUOUS
370
-3
390
F
  0
LAYER
  5
213
100
AcDbSymbolTableRecord
100
AcDbLayerTableRecord
  2
07__ASM_ALL_SKELETONS
 70
0
 62
7
  6
CONTINUOUS
370
-3
390
F
  0
LAYER
  5
214
100
AcDbSymbolTableRecord
100
AcDbLayerTableRecord
  2
NONE
 70
0
 62
7
  6
CONTINUOUS
370
-3
390
F
  0
LAYER
  5
215
100
AcDbSymbolTableRecord
100
AcDbLayerTableRecord
  2
_10816
 70
0
 62
7
  6
CONTINUOUS
370
-3
390
F
  0
LAYER
  5
216
100
AcDbSymbolTableRecord
100
AcDbLayerTableRecord
  2
_10949
 70
0
 62
7
  6
CONTINUOUS
370
-3
390
F
  0
LAYER
  5
217
100
AcDbSymbolTableRecord
100
AcDbLayerTableRecord
  2
_11681
 70
0
 62
7
  6
CONTINUOUS
370
-3
390
F
  0
LAYER
  5
218
100
AcDbSymbolTableRecord
100
AcDbLayerTableRecord
  2
_12683
 70
0
 62
7
  6
CONTINUOUS
370
-3
390
F
  0
LAYER
  5
219
100
AcDbSymbolTableRecord
100
AcDbLayerTableRecord
  2
_12936
 70
0
 62
7
  6
CONTINUOUS
370
-3
390
F
  0
LAYER
  5
21A
100
AcDbSymbolTableRecord
100
AcDbLayerTableRecord
  2
_13095
 70
0
 62
7
  6
CONTINUOUS
370
-3
390
F
  0
LAYER
  5
21B
100
AcDbSymbolTableRecord
100
AcDbLayerTableRecord
  2
_13648
 70
0
 62
7
  6
CONTINUOUS
370
-3
390
F
  0
LAYER
  5
21C
100
AcDbSymbolTableRecord
100
AcDbLayerTableRecord
  2
_1426
 70
0
 62
7
  6
CONTINUOUS
370
-3
390
F
  0
LAYER
  5
21D
100
AcDbSymbolTableRecord
100
AcDbLayerTableRecord
  2
_18643
 70
0
 62
7
  6
CONTINUOUS
370
-3
390
F
  0
LAYER
  5
21E
100
AcDbSymbolTableRecord
100
AcDbLayerTableRecord
  2
_2578
 70
0
 62
7
  6
CONTINUOUS
370
-3
390
F
  0
LAYER
  5
21F
100
AcDbSymbolTableRecord
100
AcDbLayerTableRecord
  2
_2627
 70
0
 62
7
  6
CONTINUOUS
370
-3
390
F
  0
LAYER
  5
220
100
AcDbSymbolTableRecord
100
AcDbLayerTableRecord
  2
_3555
 70
0
 62
7
  6
CONTINUOUS
370
-3
390
F
  0
LAYER
  5
221
100
AcDbSymbolTableRecord
100
AcDbLayerTableRecord
  2
_356
 70
0
 62
7
  6
CONTINUOUS
370
-3
390
F
  0
LAYER
  5
222
100
AcDbSymbolTableRecord
100
AcDbLayerTableRecord
  2
_398
 70
0
 62
7
  6
CONTINUOUS
370
-3
390
F
  0
LAYER
  5
223
100
AcDbSymbolTableRecord
100
AcDbLayerTableRecord
  2
_5828
 70
0
 62
7
  6
CONTINUOUS
370
-3
390
F
  0
LAYER
  5
224
100
AcDbSymbolTableRecord
100
AcDbLayerTableRecord
  2
_594
 70
0
 62
7
  6
CONTINUOUS
370
-3
390
F
  0
LAYER
  5
225
100
AcDbSymbolTableRecord
100
AcDbLayerTableRecord
  2
_6681
 70
0
 62
7
  6
CONTINUOUS
370
-3
390
F
  0
ENDTAB
  0
TABLE
  2
STYLE
  5
3
100
AcDbSymbolTable
 70
1
  0
STYLE
  5
11
100
AcDbSymbolTableRecord
100
AcDbTextStyleTableRecord
  2
STANDARD
 70
0
 40
0.0
 41
0.8
 50
0.0
 71
0
 42
0.2
  3
txt
  4

  0
STYLE
  5
226
100
AcDbSymbolTableRecord
100
AcDbTextStyleTableRecord
  2
TEXTSTYLE_1
 70
0
 40
0.0
 41
0.8
 50
0.0
 71
0
 42
0.2
  3
gdt
  4

  0
ENDTAB
  0
TABLE
  2
VIEW
  5
6
100
AcDbSymbolTable
 70
0
  0
ENDTAB
  0
TABLE
  2
UCS
  5
7
100
AcDbSymbolTable
 70
0
  0
ENDTAB
  0
TABLE
  2
APPID
  5
9
100
AcDbSymbolTable
 70
1
  0
APPID
  5
227
100
AcDbSymbolTableRecord
100
AcDbRegAppTableRecord
  2
ACAD
 70
0
  0
ENDTAB
  0
TABLE
  2
BLOCK_RECORD
  5
1
100
AcDbSymbolTable
 70
0
  0
BLOCK_RECORD
  5
228
100
AcDbSymbolTableRecord
100
AcDbBlockTableRecord
  2
*Model_Space
  0
BLOCK_RECORD
  5
229
100
AcDbSymbolTableRecord
100
AcDbBlockTableRecord
  2
*Paper_Space
  0
BLOCK_RECORD
  5
22A
100
AcDbSymbolTableRecord
100
AcDbBlockTableRecord
  2
_NONE
  0
ENDTAB
  0
TABLE
  2
DIMSTYLE
  5
A
100
AcDbSymbolTable
 70
1
100
AcDbDimStyleTable
 71
0
  0
DIMSTYLE
105
22B
100
AcDbSymbolTableRecord
100
AcDbDimStyleTableRecord
  2
STANDARD
 70
0
  3

  4

 40
1.0
 41
0.1875
 42
0.0625
 43
0.38
 44
0.125
 45
0.0
 46
0.0
 47
0.0001
 48
0.0001
140
0.15625
141
0.09
142
0.0
143
25.4
144
1.0
145
0.0
146
1.0
147
0.09
 71
0.0
 72
0.0
 73
1
 74
1
 75
0
 76
0
 77
0
 78
4
 79
1
170
0
171
3
172
0
173
0
174
0
175
0
176
0
177
0
178
0
270
2
179
4
271
4
272
4
273
2
274
2
275
0
280
0
281
0
282
0
283
1
284
4
285
0
286
0
287
3
288
0
340
11
278
46
  0
ENDTAB
  0
ENDSEC
  0
SECTION
  2
BLOCKS
  0
BLOCK
  5
20
100
AcDbEntity
  8
0
100
AcDbBlockBegin
  2
*Model_Space
 70
0
 10
0.0
 20
0.0
 30
0.0
  3
*Model_Space
  1

  0
ENDBLK
  5
21
100
AcDbEntity
  8
0
100
AcDbBlockEnd
  0
BLOCK
  5
1C
100
AcDbEntity
  8
0
100
AcDbBlockBegin
  2
*Paper_Space
 70
0
 10
0.0
 20
0.0
 30
0.0
  3
*Paper_Space
  1

  0
ENDBLK
  5
1D
100
AcDbEntity
  8
0
100
AcDbBlockEnd
  0
BLOCK
  5
22C
100
AcDbEntity
  8
0
100
AcDbBlockBegin
  2
_NONE
 70
64
 10
0.0
 20
0.0
  3
_NONE
  1

  0
ENDBLK
  5
22D
100
AcDbEntity
  8
0
  6
BYBLOCK
 62
0
100
AcDbBlockEnd
  0
ENDSEC
  0
SECTION
  2
ENTITIES
  0
MTEXT
  5
22E
100
AcDbEntity
  8
0
100
AcDbMText
 62
7
  6
CONTINUOUS
  7
STANDARD
 71
1
 72
1
 10
15.9560215477
 20
0.9479130325
 30
0.0
 11
1.0
 21
0.0
 31
0.0
 44
0.9
  1
SCALE: 1:0.500
 40
0.3
 41
3.36
  0
LEADER
  5
22F
100
AcDbEntity
  8
0
100
AcDbLeader
 62
2
  6
CONTINUOUS
  3
STANDARD
 71
1
 72
0
 73
0
 75
0
 40
0.15625
 41
1.5
 76
3
 10
4.0511318416
 20
4.6069308965
 30
0.0
 10
8.4418964161
 20
3.4787174443
 30
0.0
 10
8.6918964161
 20
3.4787174443
 30
0.0
340
230
1001
ACAD
1000
DSTYLE
1002
{
1070
77
1070
0
1070
341
1005
22A
1002
}
  0
MTEXT
  5
230
102
{ACAD_REACTORS
330
22F
102
}
100
AcDbEntity
  8
0
100
AcDbMText
 62
2
  6
CONTINUOUS
  7
STANDARD
 71
1
 72
1
 10
8.6918964161
 20
3.5568424443
 30
0.0
 11
1.0
 21
0.0
 31
0.0
 44
0.9
  1
 0.375 BOLTS
 40
0.15625
 41
1.5
  0
LEADER
  5
231
100
AcDbEntity
  8
0
100
AcDbLeader
 62
2
  6
CONTINUOUS
  3
STANDARD
 71
1
 72
0
 73
0
 75
0
 40
0.15625
 41
1.5
 76
3
 10
5.6007070558
 20
4.4678956761
 30
0.0
 10
5.0656660071
 20
3.9220137441
 30
0.0
 10
4.8156660071
 20
3.9220137441
 30
0.0
340
232
1001
ACAD
1000
DSTYLE
1002
{
1070
77
1070
0
1070
341
1005
22A
1002
}
  0
MTEXT
  5
232
102
{ACAD_REACTORS
330
231
102
}
100
AcDbEntity
  8
0
100
AcDbMText
 62
2
  6
CONTINUOUS
  7
STANDARD
 71
2
 72
1
 10
4.0656660071
 20
4.0001387441
 30
0.0
 11
1.0
 21
0.0
 31
0.0
 44
0.9
  1
 Drain Plug 
 40
0.15625
 41
1.5
  0
LINE
  5
233
100
AcDbEntity
  8
0
100
AcDbLine
 62
7
  6
CONTINUOUS
 10
0.0
 20
0.0
 11
0.0
 21
17.0
  0
LINE
  5
234
100
AcDbEntity
  8
0
100
AcDbLine
 62
7
  6
CONTINUOUS
 10
0.0
 20
0.0
 11
22.0
 21
0.0
  0
LINE
  5
235
100
AcDbEntity
  8
0
100
AcDbLine
 62
7
  6
CONTINUOUS
 10
0.0
 20
17.0
 11
22.0
 21
17.0
  0
LINE
  5
236
100
AcDbEntity
  8
0
100
AcDbLine
 62
7
  6
CONTINUOUS
 10
22.0
 20
0.0
 11
22.0
 21
17.0
  0
LINE
  5
237
100
AcDbEntity
  8
0
100
AcDbLine
 62
7
  6
CONTINUOUS
 10
3.7241172762
 20
4.5569308965
 11
3.7241172762
 21
4.1381808965
  0
LINE
  5
238
100
AcDbEntity
  8
0
100
AcDbLine
 62
7
  6
CONTINUOUS
 10
4.6199506095
 20
4.8648865558
 11
4.6199506095
 21
5.9725558965
  0
LINE
  5
239
100
AcDbEntity
  8
0
100
AcDbLine
 62
7
  6
CONTINUOUS
 10
4.7282499528
 20
6.2194308965
 11
4.6918256095
 21
6.1830065531
  0
LINE
  5
23A
100
AcDbEntity
  8
0
100
AcDbLine
 62
7
  6
CONTINUOUS
 10
4.6918256095
 20
5.9975558965
 11
4.6918256095
 21
6.1830065531
  0
LINE
  5
23B
100
AcDbEntity
  8
0
100
AcDbLine
 62
7
  6
CONTINUOUS
 10
4.8277631095
 20
6.0475558965
 11
4.8277631095
 21
6.1830065531
  0
LINE
  5
23C
100
AcDbEntity
  8
0
100
AcDbLine
 62
7
  6
CONTINUOUS
 10
8.5366172762
 20
4.1381808965
 11
3.7241172762
 21
4.1381808965
  0
LINE
  5
23D
100
AcDbEntity
  8
0
100
AcDbLine
 62
7
  6
CONTINUOUS
 10
5.4053672762
 20
4.1881808965
 11
6.8553672762
 21
4.1881808965
  0
LINE
  5
23E
100
AcDbEntity
  8
0
100
AcDbLine
 62
7
  6
CONTINUOUS
 10
6.8553672762
 20
4.2381808965
 11
5.4053672762
 21
4.2381808965
  0
LINE
  5
23F
100
AcDbEntity
  8
0
100
AcDbLine
 62
7
  6
CONTINUOUS
 10
4.8464893905
 20
5.2634808055
 11
4.8462975696
 21
5.2627880943
  0
LINE
  5
240
100
AcDbEntity
  8
0
100
AcDbLine
 62
7
  6
CONTINUOUS
 10
5.6459922762
 20
4.4206808965
 11
5.5534922762
 21
4.5131808965
  0
LINE
  5
241
100
AcDbEntity
  8
0
100
AcDbLine
 62
7
  6
CONTINUOUS
 10
5.5554218355
 20
4.5131808965
 11
5.6459922762
 21
4.4226104558
  0
LINE
  5
242
100
AcDbEntity
  8
0
100
AcDbLine
 62
7
  6
CONTINUOUS
 10
5.7384922762
 20
4.5131808965
 11
5.7365627169
 21
4.5131808965
  0
LINE
  5
243
100
AcDbEntity
  8
0
100
AcDbLine
 62
7
  6
CONTINUOUS
 10
5.5534922762
 20
4.5131808965
 11
5.5554218355
 21
4.5131808965
  0
LINE
  5
244
100
AcDbEntity
  8
0
100
AcDbLine
 62
7
  6
CONTINUOUS
 10
7.9263322293
 20
4.6069308965
 11
6.9553672762
 21
4.6069308965
  0
LINE
  5
245
100
AcDbEntity
  8
0
100
AcDbLine
 62
7
  6
CONTINUOUS
 10
5.3053672762
 20
4.6069308965
 11
4.334402323
 21
4.6069308965
  0
LINE
  5
246
100
AcDbEntity
  8
0
100
AcDbLine
 62
7
  6
CONTINUOUS
 10
3.7741172762
 20
4.6069308965
 11
4.1616172762
 21
4.6069308965
  0
LINE
  5
247
100
AcDbEntity
  8
0
100
AcDbLine
 62
7
  6
CONTINUOUS
 10
8.0991172762
 20
4.6069308965
 11
8.4866172762
 21
4.6069308965
  0
LINE
  5
248
100
AcDbEntity
  8
0
100
AcDbLine
 62
7
  6
CONTINUOUS
 10
5.7365627169
 20
4.5131808965
 11
5.6459922762
 21
4.6037513372
  0
LINE
  5
249
100
AcDbEntity
  8
0
100
AcDbLine
 62
7
  6
CONTINUOUS
 10
5.6459922762
 20
4.6056808965
 11
5.7384922762
 21
4.5131808965
  0
LINE
  5
24A
100
AcDbEntity
  8
0
100
AcDbLine
 62
7
  6
CONTINUOUS
 10
5.3053672762
 20
5.5131808965
 11
5.3053672762
 21
4.2881808965
  0
LINE
  5
24B
100
AcDbEntity
  8
0
100
AcDbLine
 62
7
  6
CONTINUOUS
 10
5.3553672762
 20
4.2881808965
 11
5.3553672762
 21
5.5131808965
  0
LINE
  5
24C
100
AcDbEntity
  8
0
100
AcDbLine
 62
7
  6
CONTINUOUS
 10
5.6459922762
 20
4.6056808965
 11
5.6459922762
 21
4.6037513372
  0
LINE
  5
24D
100
AcDbEntity
  8
0
100
AcDbLine
 62
7
  6
CONTINUOUS
 10
5.6459922762
 20
4.4206808965
 11
5.6459922762
 21
4.4226104558
  0
LINE
  5
24E
100
AcDbEntity
  8
0
100
AcDbLine
 62
7
  6
CONTINUOUS
 10
5.2553728738
 20
5.5131808965
 11
5.3053672762
 21
5.5131808965
  0
LINE
  5
24F
100
AcDbEntity
  8
0
100
AcDbLine
 62
7
  6
CONTINUOUS
 10
6.9553672762
 20
5.5131808965
 11
7.0053629452
 21
5.5131808965
  0
LINE
  5
250
100
AcDbEntity
  8
0
100
AcDbLine
 62
7
  6
CONTINUOUS
 10
4.9303647712
 20
5.5131808967
 11
4.8803892068
 21
5.5131808965
  0
LINE
  5
251
100
AcDbEntity
  8
0
100
AcDbLine
 62
7
  6
CONTINUOUS
 10
5.6629220553
 20
6.7143769332
 11
5.6710101505
 21
6.6841917511
  0
LINE
  5
252
100
AcDbEntity
  8
0
100
AcDbLine
 62
7
  6
CONTINUOUS
 10
5.7102508872
 20
6.6947062748
 11
5.7112878251
 21
6.6908363697
  0
LINE
  5
253
100
AcDbEntity
  8
0
100
AcDbLine
 62
7
  6
CONTINUOUS
 10
5.8522866168
 20
6.2899023053
 11
5.8433217929
 21
6.3233594327
  0
LINE
  5
254
100
AcDbEntity
  8
0
100
AcDbLine
 62
7
  6
CONTINUOUS
 10
5.9149582469
 20
6.3168085565
 11
5.9100481537
 21
6.3351332457
  0
LINE
  5
255
100
AcDbEntity
  8
0
100
AcDbLine
 62
7
  6
CONTINUOUS
 10
5.8068434698
 20
6.7205881793
 11
5.7987553746
 21
6.7507733614
  0
LINE
  5
256
100
AcDbEntity
  8
0
100
AcDbLine
 62
7
  6
CONTINUOUS
 10
5.9826834164
 20
6.3248547704
 11
5.9737217661
 21
6.3583000535
  0
LINE
  5
257
100
AcDbEntity
  8
0
100
AcDbLine
 62
7
  6
CONTINUOUS
 10
5.9034360524
 20
6.7464700838
 11
5.9044729904
 21
6.7426001788
  0
LINE
  5
258
100
AcDbEntity
  8
0
100
AcDbLine
 62
7
  6
CONTINUOUS
 10
5.9426767891
 20
6.7569846076
 11
5.934588694
 21
6.7871697896
  0
LINE
  5
259
100
AcDbEntity
  8
0
100
AcDbLine
 62
7
  6
CONTINUOUS
 10
5.5534922762
 20
4.5131808965
 11
5.6459922762
 21
4.6056808965
  0
LINE
  5
25A
100
AcDbEntity
  8
0
100
AcDbLine
 62
7
  6
CONTINUOUS
 10
5.6459922762
 20
4.6037513372
 11
5.5554218355
 21
4.5131808965
  0
LINE
  5
25B
100
AcDbEntity
  8
0
100
AcDbLine
 62
7
  6
CONTINUOUS
 10
5.6459922762
 20
4.4226104558
 11
5.7365627169
 21
4.5131808965
  0
LINE
  5
25C
100
AcDbEntity
  8
0
100
AcDbLine
 62
7
  6
CONTINUOUS
 10
5.7384922762
 20
4.5131808965
 11
5.6459922762
 21
4.4206808965
  0
LINE
  5
25D
100
AcDbEntity
  8
0
100
AcDbLine
 62
7
  6
CONTINUOUS
 10
4.6449506095
 20
5.9975558965
 11
4.9802569113
 21
5.9975558965
  0
LINE
  5
25E
100
AcDbEntity
  8
0
100
AcDbLine
 62
7
  6
CONTINUOUS
 10
7.280477641
 20
5.9975558965
 11
7.6157839428
 21
5.9975558965
  0
LINE
  5
25F
100
AcDbEntity
  8
0
100
AcDbLine
 62
7
  6
CONTINUOUS
 10
4.6918256095
 20
6.0475558965
 11
5.0024486117
 21
6.0475558965
  0
LINE
  5
260
100
AcDbEntity
  8
0
100
AcDbLine
 62
7
  6
CONTINUOUS
 10
7.2582859093
 20
6.0475558965
 11
7.5689089428
 21
6.0475558965
  0
LINE
  5
261
100
AcDbEntity
  8
0
100
AcDbLine
 62
7
  6
CONTINUOUS
 10
4.7282610428
 20
6.2194308965
 11
5.1029293577
 21
6.2194308965
  0
LINE
  5
262
100
AcDbEntity
  8
0
100
AcDbLine
 62
7
  6
CONTINUOUS
 10
7.1578052095
 20
6.2194308965
 11
7.5324735095
 21
6.2194308965
  0
LINE
  5
263
100
AcDbEntity
  8
0
100
AcDbLine
 62
7
  6
CONTINUOUS
 10
6.9053672762
 20
5.5131808965
 11
6.9053672762
 21
4.2881808965
  0
LINE
  5
264
100
AcDbEntity
  8
0
100
AcDbLine
 62
7
  6
CONTINUOUS
 10
6.9553672762
 20
4.2881808965
 11
6.9553672762
 21
5.5131808965
  0
LINE
  5
265
100
AcDbEntity
  8
0
100
AcDbLine
 62
7
  6
CONTINUOUS
 10
5.9801752379
 20
6.3342154057
 11
5.8497752646
 21
6.299274785
  0
LINE
  5
266
100
AcDbEntity
  8
0
100
AcDbLine
 62
7
  6
CONTINUOUS
 10
7.4329714428
 20
6.0475558965
 11
7.4329714428
 21
6.1830065531
  0
LINE
  5
267
100
AcDbEntity
  8
0
100
AcDbLine
 62
7
  6
CONTINUOUS
 10
5.6710101505
 20
6.6841917511
 11
5.9426767891
 21
6.7569846076
  0
LINE
  5
268
100
AcDbEntity
  8
0
100
AcDbLine
 62
7
  6
CONTINUOUS
 10
5.6629220553
 20
6.7143769332
 11
5.934588694
 21
6.7871697896
  0
LINE
  5
269
100
AcDbEntity
  8
0
100
AcDbLine
 62
7
  6
CONTINUOUS
 10
7.4144369827
 20
5.2627880943
 11
7.4142451616
 21
5.2634808054
  0
LINE
  5
26A
100
AcDbEntity
  8
0
100
AcDbLine
 62
7
  6
CONTINUOUS
 10
7.5689089428
 20
5.9975558965
 11
7.5689089428
 21
6.1830065531
  0
LINE
  5
26B
100
AcDbEntity
  8
0
100
AcDbLine
 62
7
  6
CONTINUOUS
 10
5.7257530887
 20
6.8049758857
 11
5.8348759466
 21
6.8342152673
  0
LINE
  5
26C
100
AcDbEntity
  8
0
100
AcDbLine
 62
7
  6
CONTINUOUS
 10
5.7361984827
 20
6.8876462779
 11
5.784494774
 21
6.9005872302
  0
LINE
  5
26D
100
AcDbEntity
  8
0
100
AcDbLine
 62
7
  6
CONTINUOUS
 10
7.5324845995
 20
6.2194308965
 11
7.5689089428
 21
6.1830065531
  0
LINE
  5
26E
100
AcDbEntity
  8
0
100
AcDbLine
 62
7
  6
CONTINUOUS
 10
7.6407839428
 20
4.8648865558
 11
7.6407839428
 21
5.9725558965
  0
LINE
  5
26F
100
AcDbEntity
  8
0
100
AcDbLine
 62
7
  6
CONTINUOUS
 10
8.5366172762
 20
4.1381808965
 11
8.5366172762
 21
4.5569308965
  0
LINE
  5
270
100
AcDbEntity
  8
0
100
AcDbLine
 62
7
  6
CONTINUOUS
 10
3.6646220839
 20
13.1875477814
 11
3.6646220839
 21
12.0125477814
  0
LINE
  5
271
100
AcDbEntity
  8
0
100
AcDbLine
 62
7
  6
CONTINUOUS
 10
4.5604554172
 20
12.9875477814
 11
4.5604554172
 21
12.2125477814
  0
LINE
  5
272
100
AcDbEntity
  8
0
100
AcDbLine
 62
7
  6
CONTINUOUS
 10
4.6323304172
 20
12.8778255591
 11
4.7682679172
 21
13.1132762158
  0
LINE
  5
273
100
AcDbEntity
  8
0
100
AcDbLine
 62
7
  6
CONTINUOUS
 10
4.6323304172
 20
12.3222700036
 11
4.7682679172
 21
12.0868193469
  0
LINE
  5
274
100
AcDbEntity
  8
0
100
AcDbLine
 62
7
  6
CONTINUOUS
 10
5.2958720839
 20
13.5687977814
 11
5.2458720839
 21
13.5187977814
  0
LINE
  5
275
100
AcDbEntity
  8
0
100
AcDbLine
 62
7
  6
CONTINUOUS
 10
5.2958720839
 20
11.6312977814
 11
5.2458720839
 21
11.6812977814
  0
LINE
  5
276
100
AcDbEntity
  8
0
100
AcDbLine
 62
7
  6
CONTINUOUS
 10
4.9185349546
 20
11.9649411427
 11
4.9185349546
 21
11.9875477814
  0
LINE
  5
277
100
AcDbEntity
  8
0
100
AcDbLine
 62
7
  6
CONTINUOUS
 10
4.9185349546
 20
13.2125477814
 11
4.9185349546
 21
13.23515442
  0
LINE
  5
278
100
AcDbEntity
  8
0
100
AcDbLine
 62
7
  6
CONTINUOUS
 10
4.7682679172
 20
12.5577206602
 11
4.6323304172
 21
12.3222700036
  0
LINE
  5
279
100
AcDbEntity
  8
0
100
AcDbLine
 62
7
  6
CONTINUOUS
 10
5.6770675246
 20
11.5750477814
 11
5.4959266432
 21
11.5750477814
  0
LINE
  5
27A
100
AcDbEntity
  8
0
100
AcDbLine
 62
7
  6
CONTINUOUS
 10
4.7682679172
 20
12.6423749025
 11
4.6323304172
 21
12.8778255591
  0
LINE
  5
27B
100
AcDbEntity
  8
0
100
AcDbLine
 62
7
  6
CONTINUOUS
 10
5.1760804172
 20
12.8778255591
 11
5.0401429172
 21
12.6423749025
  0
LINE
  5
27C
100
AcDbEntity
  8
0
100
AcDbLine
 62
7
  6
CONTINUOUS
 10
5.6789970839
 20
11.6062977814
 11
5.4939970839
 21
11.6062977814
  0
LINE
  5
27D
100
AcDbEntity
  8
0
100
AcDbLine
 62
7
  6
CONTINUOUS
 10
6.8458720839
 20
11.6312977814
 11
5.2958720839
 21
11.6312977814
  0
LINE
  5
27E
100
AcDbEntity
  8
0
100
AcDbLine
 62
7
  6
CONTINUOUS
 10
6.8958720839
 20
11.6812977814
 11
5.2458720839
 21
11.6812977814
  0
LINE
  5
27F
100
AcDbEntity
  8
0
100
AcDbLine
 62
7
  6
CONTINUOUS
 10
5.8554630546
 20
11.7200895078
 11
5.8505529614
 21
11.7201214905
  0
LINE
  5
280
100
AcDbEntity
  8
0
100
AcDbLine
 62
7
  6
CONTINUOUS
 10
5.1760804172
 20
12.3222700036
 11
5.0401429172
 21
12.5577206602
  0
LINE
  5
281
100
AcDbEntity
  8
0
100
AcDbLine
 62
7
  6
CONTINUOUS
 10
5.2458720839
 20
11.6812977814
 11
5.2458720839
 21
11.8650226353
  0
LINE
  5
282
100
AcDbEntity
  8
0
100
AcDbLine
 62
7
  6
CONTINUOUS
 10
5.2458720839
 20
13.3350498034
 11
5.2458720839
 21
13.5187977814
  0
LINE
  5
283
100
AcDbEntity
  8
0
100
AcDbLine
 62
7
  6
CONTINUOUS
 10
3.7646220839
 20
11.9125477814
 11
5.2061669565
 21
11.9125477814
  0
LINE
  5
284
100
AcDbEntity
  8
0
100
AcDbLine
 62
7
  6
CONTINUOUS
 10
6.9355810687
 20
11.9125477814
 11
8.3771220839
 21
11.9125477814
  0
LINE
  5
285
100
AcDbEntity
  8
0
100
AcDbLine
 62
7
  6
CONTINUOUS
 10
5.9206800456
 20
11.7590605956
 11
5.9157699524
 21
11.7590925783
  0
LINE
  5
286
100
AcDbEntity
  8
0
100
AcDbLine
 62
7
  6
CONTINUOUS
 10
5.9158039611
 20
11.8370347539
 11
5.9207140543
 21
11.8370027712
  0
LINE
  5
287
100
AcDbEntity
  8
0
100
AcDbLine
 62
7
  6
CONTINUOUS
 10
5.8555310721
 20
11.875973859
 11
5.8506209789
 21
11.8760058416
  0
LINE
  5
288
100
AcDbEntity
  8
0
100
AcDbLine
 62
7
  6
CONTINUOUS
 10
5.8555310721
 20
11.875973859
 11
5.9207140543
 21
11.8370027712
  0
LINE
  5
289
100
AcDbEntity
  8
0
100
AcDbLine
 62
7
  6
CONTINUOUS
 10
5.4939970839
 20
11.6062977814
 11
5.4959266432
 21
11.5750477814
  0
LINE
  5
28A
100
AcDbEntity
  8
0
100
AcDbLine
 62
7
  6
CONTINUOUS
 10
5.4939970839
 20
11.6312977814
 11
5.4939970839
 21
11.6062977814
  0
LINE
  5
28B
100
AcDbEntity
  8
0
100
AcDbLine
 62
7
  6
CONTINUOUS
 10
5.4939970839
 20
13.5687977814
 11
5.4939970839
 21
13.5937977814
  0
LINE
  5
28C
100
AcDbEntity
  8
0
100
AcDbLine
 62
7
  6
CONTINUOUS
 10
5.4939970839
 20
13.5937977814
 11
5.4959266432
 21
13.6250477814
  0
LINE
  5
28D
100
AcDbEntity
  8
0
100
AcDbLine
 62
7
  6
CONTINUOUS
 10
5.0401429172
 20
12.0868193469
 11
5.1760804172
 21
12.3222700036
  0
LINE
  5
28E
100
AcDbEntity
  8
0
100
AcDbLine
 62
7
  6
CONTINUOUS
 10
4.8104554172
 20
11.9625477814
 11
4.9084021717
 21
11.9625477814
  0
LINE
  5
28F
100
AcDbEntity
  8
0
100
AcDbLine
 62
7
  6
CONTINUOUS
 10
7.233341996
 20
11.9625477814
 11
7.3312887505
 21
11.9625477814
  0
LINE
  5
290
100
AcDbEntity
  8
0
100
AcDbLine
 62
7
  6
CONTINUOUS
 10
4.7682679172
 20
12.0868193469
 11
5.0401429172
 21
12.0868193469
  0
LINE
  5
291
100
AcDbEntity
  8
0
100
AcDbLine
 62
7
  6
CONTINUOUS
 10
7.1016012505
 20
12.0868193469
 11
7.3734762505
 21
12.0868193469
  0
LINE
  5
292
100
AcDbEntity
  8
0
100
AcDbLine
 62
7
  6
CONTINUOUS
 10
5.0401429172
 20
13.1132762158
 11
5.1760804172
 21
12.8778255591
  0
LINE
  5
293
100
AcDbEntity
  8
0
100
AcDbLine
 62
7
  6
CONTINUOUS
 10
5.6789970839
 20
13.5937977814
 11
5.6770675246
 21
13.6250477814
  0
LINE
  5
294
100
AcDbEntity
  8
0
100
AcDbLine
 62
7
  6
CONTINUOUS
 10
5.5864970839
 20
11.6062977814
 11
5.5864970839
 21
11.5750477814
  0
LINE
  5
295
100
AcDbEntity
  8
0
100
AcDbLine
 62
7
  6
CONTINUOUS
 10
5.5864970839
 20
13.5937977814
 11
5.5864970839
 21
13.6250477814
  0
LINE
  5
296
100
AcDbEntity
  8
0
100
AcDbLine
 62
7
  6
CONTINUOUS
 10
5.603426863
 20
12.681237663
 11
5.603426863
 21
12.5188578998
  0
LINE
  5
297
100
AcDbEntity
  8
0
100
AcDbLine
 62
7
  6
CONTINUOUS
 10
5.6789970839
 20
11.6312977814
 11
5.6789970839
 21
11.6062977814
  0
LINE
  5
298
100
AcDbEntity
  8
0
100
AcDbLine
 62
7
  6
CONTINUOUS
 10
5.6789970839
 20
13.5687977814
 11
5.6789970839
 21
13.5937977814
  0
LINE
  5
299
100
AcDbEntity
  8
0
100
AcDbLine
 62
7
  6
CONTINUOUS
 10
5.6789970839
 20
11.6062977814
 11
5.6770675246
 21
11.5750477814
  0
LINE
  5
29A
100
AcDbEntity
  8
0
100
AcDbLine
 62
7
  6
CONTINUOUS
 10
4.1021220839
 20
12.266714448
 11
4.2271220839
 21
12.266714448
  0
LINE
  5
29B
100
AcDbEntity
  8
0
100
AcDbLine
 62
7
  6
CONTINUOUS
 10
7.9146220839
 20
12.266714448
 11
8.0396220839
 21
12.266714448
  0
LINE
  5
29C
100
AcDbEntity
  8
0
100
AcDbLine
 62
7
  6
CONTINUOUS
 10
5.8750935016
 20
12.5188578998
 11
5.8750935016
 21
12.681237663
  0
LINE
  5
29D
100
AcDbEntity
  8
0
100
AcDbLine
 62
7
  6
CONTINUOUS
 10
5.8831815968
 20
12.5188578998
 11
5.8831815968
 21
12.681237663
  0
LINE
  5
29E
100
AcDbEntity
  8
0
100
AcDbLine
 62
7
  6
CONTINUOUS
 10
5.7392601823
 20
12.7624275446
 11
5.603426863
 21
12.681237663
  0
LINE
  5
29F
100
AcDbEntity
  8
0
100
AcDbLine
 62
7
  6
CONTINUOUS
 10
5.7473482775
 20
12.4376680182
 11
5.7392601823
 21
12.4376680182
  0
LINE
  5
2A0
100
AcDbEntity
  8
0
100
AcDbLine
 62
7
  6
CONTINUOUS
 10
8.0396220839
 20
12.4437977814
 11
7.9146220839
 21
12.4437977814
  0
LINE
  5
2A1
100
AcDbEntity
  8
0
100
AcDbLine
 62
7
  6
CONTINUOUS
 10
4.2271220839
 20
12.4437977814
 11
4.1021220839
 21
12.4437977814
  0
LINE
  5
2A2
100
AcDbEntity
  8
0
100
AcDbLine
 62
7
  6
CONTINUOUS
 10
5.603426863
 20
12.5188578998
 11
5.7392601823
 21
12.4376680182
  0
LINE
  5
2A3
100
AcDbEntity
  8
0
100
AcDbLine
 62
7
  6
CONTINUOUS
 10
5.9207140543
 20
11.8370027712
 11
5.9206800456
 21
11.7590605956
  0
LINE
  5
2A4
100
AcDbEntity
  8
0
100
AcDbLine
 62
7
  6
CONTINUOUS
 10
5.7392601823
 20
12.4376680182
 11
5.8750935016
 21
12.5188578998
  0
LINE
  5
2A5
100
AcDbEntity
  8
0
100
AcDbLine
 62
7
  6
CONTINUOUS
 10
5.7473482775
 20
12.4376680182
 11
5.8831815968
 21
12.5188578998
  0
LINE
  5
2A6
100
AcDbEntity
  8
0
100
AcDbLine
 62
7
  6
CONTINUOUS
 10
5.8831815968
 20
12.5188578998
 11
5.8750935016
 21
12.5188578998
  0
LINE
  5
2A7
100
AcDbEntity
  8
0
100
AcDbLine
 62
7
  6
CONTINUOUS
 10
7.3734762505
 20
12.5577206602
 11
7.1016012505
 21
12.5577206602
  0
LINE
  5
2A8
100
AcDbEntity
  8
0
100
AcDbLine
 62
7
  6
CONTINUOUS
 10
5.0401429172
 20
12.5577206602
 11
4.7682679172
 21
12.5577206602
  0
LINE
  5
2A9
100
AcDbEntity
  8
0
100
AcDbLine
 62
7
  6
CONTINUOUS
 10
5.8750935016
 20
12.681237663
 11
5.7392601823
 21
12.7624275446
  0
LINE
  5
2AA
100
AcDbEntity
  8
0
100
AcDbLine
 62
7
  6
CONTINUOUS
 10
5.8831815968
 20
12.681237663
 11
5.7473482775
 21
12.7624275446
  0
LINE
  5
2AB
100
AcDbEntity
  8
0
100
AcDbLine
 62
7
  6
CONTINUOUS
 10
7.3734762505
 20
12.6423749025
 11
7.1016012505
 21
12.6423749025
  0
LINE
  5
2AC
100
AcDbEntity
  8
0
100
AcDbLine
 62
7
  6
CONTINUOUS
 10
5.0401429172
 20
12.6423749025
 11
4.7682679172
 21
12.6423749025
  0
LINE
  5
2AD
100
AcDbEntity
  8
0
100
AcDbLine
 62
7
  6
CONTINUOUS
 10
5.8750935016
 20
12.681237663
 11
5.8831815968
 21
12.681237663
  0
LINE
  5
2AE
100
AcDbEntity
  8
0
100
AcDbLine
 62
7
  6
CONTINUOUS
 10
4.1021220839
 20
12.7562977814
 11
4.2271220839
 21
12.7562977814
  0
LINE
  5
2AF
100
AcDbEntity
  8
0
100
AcDbLine
 62
7
  6
CONTINUOUS
 10
7.9146220839
 20
12.7562977814
 11
8.0396220839
 21
12.7562977814
  0
LINE
  5
2B0
100
AcDbEntity
  8
0
100
AcDbLine
 62
7
  6
CONTINUOUS
 10
5.7473482775
 20
12.7624275446
 11
5.7392601823
 21
12.7624275446
  0
LINE
  5
2B1
100
AcDbEntity
  8
0
100
AcDbLine
 62
7
  6
CONTINUOUS
 10
8.0396220839
 20
12.9333811147
 11
7.9146220839
 21
12.9333811147
  0
LINE
  5
2B2
100
AcDbEntity
  8
0
100
AcDbLine
 62
7
  6
CONTINUOUS
 10
4.2271220839
 20
12.9333811147
 11
4.1021220839
 21
12.9333811147
  0
LINE
  5
2B3
100
AcDbEntity
  8
0
100
AcDbLine
 62
7
  6
CONTINUOUS
 10
4.7682679172
 20
13.1132762158
 11
5.0401429172
 21
13.1132762158
  0
LINE
  5
2B4
100
AcDbEntity
  8
0
100
AcDbLine
 62
7
  6
CONTINUOUS
 10
7.1016012505
 20
13.1132762158
 11
7.3734762505
 21
13.1132762158
  0
LINE
  5
2B5
100
AcDbEntity
  8
0
100
AcDbLine
 62
7
  6
CONTINUOUS
 10
6.9656637505
 20
12.8778255591
 11
7.1016012505
 21
13.1132762158
  0
LINE
  5
2B6
100
AcDbEntity
  8
0
100
AcDbLine
 62
7
  6
CONTINUOUS
 10
5.9206800456
 20
11.7590605956
 11
5.8554630546
 21
11.7200895078
  0
LINE
  5
2B7
100
AcDbEntity
  8
0
100
AcDbLine
 62
7
  6
CONTINUOUS
 10
7.3312887505
 20
13.2375477814
 11
7.233341996
 21
13.2375477814
  0
LINE
  5
2B8
100
AcDbEntity
  8
0
100
AcDbLine
 62
7
  6
CONTINUOUS
 10
4.9084021717
 20
13.2375477814
 11
4.8104554172
 21
13.2375477814
  0
LINE
  5
2B9
100
AcDbEntity
  8
0
100
AcDbLine
 62
7
  6
CONTINUOUS
 10
3.7646220839
 20
13.2875477814
 11
5.2061645284
 21
13.2875477814
  0
LINE
  5
2BA
100
AcDbEntity
  8
0
100
AcDbLine
 62
7
  6
CONTINUOUS
 10
6.9355790545
 20
13.2875477814
 11
8.3771220839
 21
13.2875477814
  0
LINE
  5
2BB
100
AcDbEntity
  8
0
100
AcDbLine
 62
7
  6
CONTINUOUS
 10
6.9656637505
 20
12.3222700036
 11
7.1016012505
 21
12.0868193469
  0
LINE
  5
2BC
100
AcDbEntity
  8
0
100
AcDbLine
 62
7
  6
CONTINUOUS
 10
6.8958720839
 20
11.6812977814
 11
6.8958720839
 21
11.864946598
  0
LINE
  5
2BD
100
AcDbEntity
  8
0
100
AcDbLine
 62
7
  6
CONTINUOUS
 10
6.8958720839
 20
13.3350498034
 11
6.8958720839
 21
13.5187977814
  0
LINE
  5
2BE
100
AcDbEntity
  8
0
100
AcDbLine
 62
7
  6
CONTINUOUS
 10
7.1016012505
 20
12.5577206602
 11
6.9656637505
 21
12.3222700036
  0
LINE
  5
2BF
100
AcDbEntity
  8
0
100
AcDbLine
 62
7
  6
CONTINUOUS
 10
5.2458720839
 20
13.5187977814
 11
6.8958720839
 21
13.5187977814
  0
LINE
  5
2C0
100
AcDbEntity
  8
0
100
AcDbLine
 62
7
  6
CONTINUOUS
 10
5.2958720839
 20
13.5687977814
 11
6.8458720839
 21
13.5687977814
  0
LINE
  5
2C1
100
AcDbEntity
  8
0
100
AcDbLine
 62
7
  6
CONTINUOUS
 10
5.4939970839
 20
13.5937977814
 11
5.6789970839
 21
13.5937977814
  0
LINE
  5
2C2
100
AcDbEntity
  8
0
100
AcDbLine
 62
7
  6
CONTINUOUS
 10
5.4959266432
 20
13.6250477814
 11
5.6770675246
 21
13.6250477814
  0
LINE
  5
2C3
100
AcDbEntity
  8
0
100
AcDbLine
 62
7
  6
CONTINUOUS
 10
7.1016012505
 20
12.6423749025
 11
6.9656637505
 21
12.8778255591
  0
LINE
  5
2C4
100
AcDbEntity
  8
0
100
AcDbLine
 62
7
  6
CONTINUOUS
 10
7.2232092131
 20
13.23515442
 11
7.2232092131
 21
13.2125477814
  0
LINE
  5
2C5
100
AcDbEntity
  8
0
100
AcDbLine
 62
7
  6
CONTINUOUS
 10
7.2232092131
 20
11.9875477814
 11
7.2232092131
 21
11.9649411427
  0
LINE
  5
2C6
100
AcDbEntity
  8
0
100
AcDbLine
 62
7
  6
CONTINUOUS
 10
7.5094137505
 20
12.8778255591
 11
7.3734762505
 21
12.6423749025
  0
LINE
  5
2C7
100
AcDbEntity
  8
0
100
AcDbLine
 62
7
  6
CONTINUOUS
 10
6.8458720839
 20
11.6312977814
 11
6.8958720839
 21
11.6812977814
  0
LINE
  5
2C8
100
AcDbEntity
  8
0
100
AcDbLine
 62
7
  6
CONTINUOUS
 10
6.8458720839
 20
13.5687977814
 11
6.8958720839
 21
13.5187977814
  0
LINE
  5
2C9
100
AcDbEntity
  8
0
100
AcDbLine
 62
7
  6
CONTINUOUS
 10
7.5094137505
 20
12.3222700036
 11
7.3734762505
 21
12.5577206602
  0
LINE
  5
2CA
100
AcDbEntity
  8
0
100
AcDbLine
 62
7
  6
CONTINUOUS
 10
7.3734762505
 20
12.0868193469
 11
7.5094137505
 21
12.3222700036
  0
LINE
  5
2CB
100
AcDbEntity
  8
0
100
AcDbLine
 62
7
  6
CONTINUOUS
 10
7.3734762505
 20
13.1132762158
 11
7.5094137505
 21
12.8778255591
  0
LINE
  5
2CC
100
AcDbEntity
  8
0
100
AcDbLine
 62
7
  6
CONTINUOUS
 10
7.5812887505
 20
12.2125477814
 11
7.5812887505
 21
12.9875477814
  0
LINE
  5
2CD
100
AcDbEntity
  8
0
100
AcDbLine
 62
7
  6
CONTINUOUS
 10
8.4771220839
 20
12.0125477814
 11
8.4771220839
 21
13.1875477814
  0
LINE
  5
2CE
100
AcDbEntity
  8
0
100
AcDbLine
 62
7
  6
CONTINUOUS
 10
14.5916052569
 20
4.1786857042
 11
14.6416052569
 21
4.1286857042
  0
LINE
  5
2CF
100
AcDbEntity
  8
0
100
AcDbLine
 62
7
  6
CONTINUOUS
 10
16.2478552569
 20
4.0786857042
 11
14.8728552569
 21
4.0786857042
  0
LINE
  5
2D0
100
AcDbEntity
  8
0
100
AcDbLine
 62
7
  6
CONTINUOUS
 10
14.6416052569
 20
4.1286857042
 11
14.8728552569
 21
4.1286857042
  0
LINE
  5
2D1
100
AcDbEntity
  8
0
100
AcDbLine
 62
7
  6
CONTINUOUS
 10
16.2478552569
 20
4.1286857042
 11
16.4791052569
 21
4.1286857042
  0
LINE
  5
2D2
100
AcDbEntity
  8
0
100
AcDbLine
 62
7
  6
CONTINUOUS
 10
14.5916052569
 20
6.2286857042
 11
14.6416052569
 21
6.2786857042
  0
LINE
  5
2D3
100
AcDbEntity
  8
0
100
AcDbLine
 62
7
  6
CONTINUOUS
 10
15.4256531081
 20
6.7036857042
 11
15.4791653753
 21
6.7276745973
  0
LINE
  5
2D4
100
AcDbEntity
  8
0
100
AcDbLine
 62
7
  6
CONTINUOUS
 10
16.5541052569
 20
4.3611857042
 11
16.5853552569
 21
4.3631152635
  0
LINE
  5
2D5
100
AcDbEntity
  8
0
100
AcDbLine
 62
7
  6
CONTINUOUS
 10
14.5666052569
 20
4.3611857042
 11
14.5353552569
 21
4.3631152635
  0
LINE
  5
2D6
100
AcDbEntity
  8
0
100
AcDbLine
 62
7
  6
CONTINUOUS
 10
14.5353552569
 20
4.3631152635
 11
14.5353552569
 21
4.5442561449
  0
LINE
  5
2D7
100
AcDbEntity
  8
0
100
AcDbLine
 62
7
  6
CONTINUOUS
 10
16.5541052569
 20
4.3611857042
 11
16.5291052569
 21
4.3611857042
  0
LINE
  5
2D8
100
AcDbEntity
  8
0
100
AcDbLine
 62
7
  6
CONTINUOUS
 10
14.5666052569
 20
4.3611857042
 11
14.5916052569
 21
4.3611857042
  0
LINE
  5
2D9
100
AcDbEntity
  8
0
100
AcDbLine
 62
7
  6
CONTINUOUS
 10
14.5666052569
 20
4.3611857042
 11
14.5666052569
 21
4.5461857042
  0
LINE
  5
2DA
100
AcDbEntity
  8
0
100
AcDbLine
 62
7
  6
CONTINUOUS
 10
14.5916052569
 20
4.1786857042
 11
14.5916052569
 21
6.2286855719
  0
LINE
  5
2DB
100
AcDbEntity
  8
0
100
AcDbLine
 62
7
  6
CONTINUOUS
 10
14.6416052569
 20
4.1286857042
 11
14.6416052569
 21
6.2786857042
  0
LINE
  5
2DC
100
AcDbEntity
  8
0
100
AcDbLine
 62
7
  6
CONTINUOUS
 10
14.5666052569
 20
4.4536857042
 11
14.5353552569
 21
4.4536857042
  0
LINE
  5
2DD
100
AcDbEntity
  8
0
100
AcDbLine
 62
7
  6
CONTINUOUS
 10
16.5541052569
 20
4.4536857042
 11
16.5853552569
 21
4.4536857042
  0
LINE
  5
2DE
100
AcDbEntity
  8
0
100
AcDbLine
 62
7
  6
CONTINUOUS
 10
16.5541052569
 20
4.5461857042
 11
16.5291052569
 21
4.5461857042
  0
LINE
  5
2DF
100
AcDbEntity
  8
0
100
AcDbLine
 62
7
  6
CONTINUOUS
 10
14.5666052569
 20
4.5461857042
 11
14.5916052569
 21
4.5461857042
  0
LINE
  5
2E0
100
AcDbEntity
  8
0
100
AcDbLine
 62
7
  6
CONTINUOUS
 10
14.9228552569
 20
4.5474357042
 11
16.1978552569
 21
4.5474357042
  0
LINE
  5
2E1
100
AcDbEntity
  8
0
100
AcDbLine
 62
7
  6
CONTINUOUS
 10
14.7193749923
 20
6.2786857042
 11
14.7194000539
 21
6.2930449027
  0
LINE
  5
2E2
100
AcDbEntity
  8
0
100
AcDbLine
 62
7
  6
CONTINUOUS
 10
14.5666052569
 20
4.5461857042
 11
14.5353552569
 21
4.5442561449
  0
LINE
  5
2E3
100
AcDbEntity
  8
0
100
AcDbLine
 62
7
  6
CONTINUOUS
 10
16.5541052569
 20
4.5461857042
 11
16.5853552569
 21
4.5442561449
  0
LINE
  5
2E4
100
AcDbEntity
  8
0
100
AcDbLine
 62
7
  6
CONTINUOUS
 10
14.8728552569
 20
4.0786857042
 11
14.8728552569
 21
4.5474357042
  0
LINE
  5
2E5
100
AcDbEntity
  8
0
100
AcDbLine
 62
7
  6
CONTINUOUS
 10
14.7973422294
 20
6.2929179804
 11
14.7973173894
 21
6.2786857042
  0
LINE
  5
2E6
100
AcDbEntity
  8
0
100
AcDbLine
 62
7
  6
CONTINUOUS
 10
14.8728552569
 20
4.5474357042
 11
14.876531498
 21
6.6537645522
  0
LINE
  5
2E7
100
AcDbEntity
  8
0
100
AcDbLine
 62
7
  6
CONTINUOUS
 10
14.9228552569
 20
5.9130607042
 11
14.9228552569
 21
5.3142277515
  0
LINE
  5
2E8
100
AcDbEntity
  8
0
100
AcDbLine
 62
7
  6
CONTINUOUS
 10
15.9478552569
 20
4.8053913635
 11
15.1728552569
 21
4.8053913635
  0
LINE
  5
2E9
100
AcDbEntity
  8
0
100
AcDbLine
 62
7
  6
CONTINUOUS
 10
15.0107024792
 20
5.9380607042
 11
15.0107024792
 21
5.9880607042
  0
LINE
  5
2EA
100
AcDbEntity
  8
0
100
AcDbLine
 62
7
  6
CONTINUOUS
 10
15.0471268225
 20
5.9880607042
 11
15.0471268225
 21
6.1599357042
  0
LINE
  5
2EB
100
AcDbEntity
  8
0
100
AcDbLine
 62
7
  6
CONTINUOUS
 10
15.2270219236
 20
4.5817141495
 11
15.2270219236
 21
4.5474357042
  0
LINE
  5
2EC
100
AcDbEntity
  8
0
100
AcDbLine
 62
7
  6
CONTINUOUS
 10
15.2825774792
 20
5.9880607042
 11
15.2825774792
 21
6.1235113608
  0
LINE
  5
2ED
100
AcDbEntity
  8
0
100
AcDbLine
 62
7
  6
CONTINUOUS
 10
15.4791653753
 20
6.7036857042
 11
15.4791653753
 21
6.7276745973
  0
LINE
  5
2EE
100
AcDbEntity
  8
0
100
AcDbLine
 62
7
  6
CONTINUOUS
 10
15.5180281358
 20
5.9880607042
 11
15.5180281358
 21
6.1599357042
  0
LINE
  5
2EF
100
AcDbEntity
  8
0
100
AcDbLine
 62
7
  6
CONTINUOUS
 10
15.5544524792
 20
5.9380607042
 11
15.5544524792
 21
5.9880607042
  0
LINE
  5
2F0
100
AcDbEntity
  8
0
100
AcDbLine
 62
7
  6
CONTINUOUS
 10
15.5603552569
 20
6.3005418929
 11
15.5603552569
 21
5.9380607042
  0
LINE
  5
2F1
100
AcDbEntity
  8
0
100
AcDbLine
 62
7
  6
CONTINUOUS
 10
15.5662580347
 20
5.9380607042
 11
15.5662580347
 21
5.9880607042
  0
LINE
  5
2F2
100
AcDbEntity
  8
0
100
AcDbLine
 62
7
  6
CONTINUOUS
 10
14.8252540735
 20
5.4536857042
 11
14.8744578167
 21
5.4536857042
  0
LINE
  5
2F3
100
AcDbEntity
  8
0
100
AcDbLine
 62
7
  6
CONTINUOUS
 10
16.295357279
 20
5.4536857042
 11
16.1978551899
 21
5.4536857039
  0
LINE
  5
2F4
100
AcDbEntity
  8
0
100
AcDbLine
 62
7
  6
CONTINUOUS
 10
15.6026823781
 20
5.9880607042
 11
15.6026823781
 21
6.1599357042
  0
LINE
  5
2F5
100
AcDbEntity
  8
0
100
AcDbLine
 62
7
  6
CONTINUOUS
 10
15.6415451385
 20
6.7276745973
 11
15.6415451385
 21
6.7036857042
  0
LINE
  5
2F6
100
AcDbEntity
  8
0
100
AcDbLine
 62
7
  6
CONTINUOUS
 10
15.8381330347
 20
5.9880607042
 11
15.8381330347
 21
6.1235113608
  0
LINE
  5
2F7
100
AcDbEntity
  8
0
100
AcDbLine
 62
7
  6
CONTINUOUS
 10
15.8936885903
 20
4.5474357042
 11
15.8936885903
 21
4.5817141495
  0
LINE
  5
2F8
100
AcDbEntity
  8
0
100
AcDbLine
 62
7
  6
CONTINUOUS
 10
16.0735836914
 20
5.9880607042
 11
16.0735836914
 21
6.1599357042
  0
LINE
  5
2F9
100
AcDbEntity
  8
0
100
AcDbLine
 62
7
  6
CONTINUOUS
 10
16.1100080347
 20
5.9380607042
 11
16.1100080347
 21
5.9880607042
  0
LINE
  5
2FA
100
AcDbEntity
  8
0
100
AcDbLine
 62
7
  6
CONTINUOUS
 10
14.9110712147
 20
5.9380607042
 11
16.2096392991
 21
5.9380607042
  0
LINE
  5
2FB
100
AcDbEntity
  8
0
100
AcDbLine
 62
7
  6
CONTINUOUS
 10
15.0107024792
 20
5.9880607042
 11
15.5544524792
 21
5.9880607042
  0
LINE
  5
2FC
100
AcDbEntity
  8
0
100
AcDbLine
 62
7
  6
CONTINUOUS
 10
15.5662580347
 20
5.9880607042
 11
16.1100080347
 21
5.9880607042
  0
LINE
  5
2FD
100
AcDbEntity
  8
0
100
AcDbLine
 62
7
  6
CONTINUOUS
 10
16.1978552569
 20
5.9130607042
 11
16.1978552569
 21
5.3142277515
  0
LINE
  5
2FE
100
AcDbEntity
  8
0
100
AcDbLine
 62
7
  6
CONTINUOUS
 10
16.2478552569
 20
4.0786857042
 11
16.2478552569
 21
4.5176424106
  0
LINE
  5
2FF
100
AcDbEntity
  8
0
100
AcDbLine
 62
7
  6
CONTINUOUS
 10
16.2478552569
 20
4.5176424106
 11
16.2441790161
 21
6.6537643899
  0
LINE
  5
300
100
AcDbEntity
  8
0
100
AcDbLine
 62
7
  6
CONTINUOUS
 10
15.0471268225
 20
6.1599357042
 11
15.5180281358
 21
6.1599357042
  0
LINE
  5
301
100
AcDbEntity
  8
0
100
AcDbLine
 62
7
  6
CONTINUOUS
 10
15.6026823781
 20
6.1599357042
 11
16.0735836914
 21
6.1599357042
  0
LINE
  5
302
100
AcDbEntity
  8
0
100
AcDbLine
 62
7
  6
CONTINUOUS
 10
14.6416052569
 20
6.2786857042
 11
14.825922197
 21
6.2786857042
  0
LINE
  5
303
100
AcDbEntity
  8
0
100
AcDbLine
 62
7
  6
CONTINUOUS
 10
16.2947891816
 20
6.2786857042
 11
16.4791052569
 21
6.2786857042
  0
LINE
  5
304
100
AcDbEntity
  8
0
100
AcDbLine
 62
7
  6
CONTINUOUS
 10
16.4791052569
 20
6.2786857042
 11
16.4791052569
 21
4.1286857042
  0
LINE
  5
305
100
AcDbEntity
  8
0
100
AcDbLine
 62
7
  6
CONTINUOUS
 10
16.5291052569
 20
4.1786857042
 11
16.5291052569
 21
6.2286855719
  0
LINE
  5
306
100
AcDbEntity
  8
0
100
AcDbLine
 62
7
  6
CONTINUOUS
 10
16.5541052569
 20
4.5461857042
 11
16.5541052569
 21
4.3611857042
  0
LINE
  5
307
100
AcDbEntity
  8
0
100
AcDbLine
 62
7
  6
CONTINUOUS
 10
16.5853552569
 20
4.5442561449
 11
16.5853552569
 21
4.3631152635
  0
LINE
  5
308
100
AcDbEntity
  8
0
100
AcDbLine
 62
7
  6
CONTINUOUS
 10
14.9264776992
 20
6.7036857042
 11
16.1942332113
 21
6.7036857042
  0
LINE
  5
309
100
AcDbEntity
  8
0
100
AcDbLine
 62
7
  6
CONTINUOUS
 10
15.4791653753
 20
6.7276745973
 11
15.6415451385
 21
6.7276745973
  0
LINE
  5
30A
100
AcDbEntity
  8
0
100
AcDbLine
 62
7
  6
CONTINUOUS
 10
15.6415451385
 20
6.7276745973
 11
15.6950574058
 21
6.7036857042
  0
LINE
  5
30B
100
AcDbEntity
  8
0
100
AcDbLine
 62
7
  6
CONTINUOUS
 10
16.5291052569
 20
6.2286857042
 11
16.4791052569
 21
6.2786857042
  0
LINE
  5
30C
100
AcDbEntity
  8
0
100
AcDbLine
 62
7
  6
CONTINUOUS
 10
16.4791052569
 20
4.1286857042
 11
16.5291052569
 21
4.1786857042
  0
LINE
  5
30D
100
AcDbEntity
  8
0
100
AcDbLine
 62
7
  6
CONTINUOUS
 10
13.1799888161
 20
11.2813014907
 11
13.0522525344
 21
11.5416006649
  0
LINE
  5
30E
100
AcDbEntity
  8
0
100
AcDbLine
 62
7
  6
CONTINUOUS
 10
13.0482016079
 20
11.6004173043
 11
13.3326295379
 21
12.5208264232
  0
LINE
  5
30F
100
AcDbEntity
  8
0
100
AcDbLine
 62
7
  6
CONTINUOUS
 10
13.4907661168
 20
12.6296681133
 11
13.5382361501
 21
12.7832811972
  0
LINE
  5
310
100
AcDbEntity
  8
0
100
AcDbLine
 62
7
  6
CONTINUOUS
 10
13.5859022341
 20
12.9375287015
 11
13.6727146965
 21
13.218453933
  0
LINE
  5
311
100
AcDbEntity
  8
0
100
AcDbLine
 62
7
  6
CONTINUOUS
 10
14.090843769
 20
13.546687452
 11
14.0870034202
 21
13.5375475286
  0
LINE
  5
312
100
AcDbEntity
  8
0
100
AcDbLine
 62
7
  6
CONTINUOUS
 10
13.4974574482
 20
12.5121512518
 11
13.8205676016
 21
11.8537219864
  0
LINE
  5
313
100
AcDbEntity
  8
0
100
AcDbLine
 62
7
  6
CONTINUOUS
 10
15.9519753287
 20
11.0902874497
 11
15.9923699198
 21
11.0997873724
  0
LINE
  5
314
100
AcDbEntity
  8
0
100
AcDbLine
 62
7
  6
CONTINUOUS
 10
14.6441043633
 20
11.2157539767
 11
14.7551530397
 21
11.1594544879
  0
LINE
  5
315
100
AcDbEntity
  8
0
100
AcDbLine
 62
7
  6
CONTINUOUS
 10
14.5480497605
 20
11.1114206703
 11
14.5200572248
 21
11.1420538135
  0
LINE
  5
316
100
AcDbEntity
  8
0
100
AcDbLine
 62
7
  6
CONTINUOUS
 10
14.5420925627
 20
11.1199538725
 11
14.5480517253
 21
11.1114210856
  0
LINE
  5
317
100
AcDbEntity
  8
0
100
AcDbLine
 62
7
  6
CONTINUOUS
 10
14.5081428292
 20
11.159120218
 11
14.5200572248
 21
11.1420538135
  0
LINE
  5
318
100
AcDbEntity
  8
0
100
AcDbLine
 62
7
  6
CONTINUOUS
 10
13.5678509514
 20
12.6350834969
 11
13.5831030447
 21
12.6040029985
  0
LINE
  5
319
100
AcDbEntity
  8
0
100
AcDbLine
 62
7
  6
CONTINUOUS
 10
13.629720341
 20
12.5704212107
 11
13.5884022199
 21
12.654618689
  0
LINE
  5
31A
100
AcDbEntity
  8
0
100
AcDbLine
 62
7
  6
CONTINUOUS
 10
13.8126654987
 20
12.1201379772
 11
13.8126403815
 21
12.1201891879
  0
LINE
  5
31B
100
AcDbEntity
  8
0
100
AcDbLine
 62
7
  6
CONTINUOUS
 10
14.3305396289
 20
13.421768742
 11
14.3001263201
 21
13.3233512386
  0
LINE
  5
31C
100
AcDbEntity
  8
0
100
AcDbLine
 62
7
  6
CONTINUOUS
 10
14.0184024959
 20
13.0094366596
 11
14.0146150895
 21
13.0056028271
  0
LINE
  5
31D
100
AcDbEntity
  8
0
100
AcDbLine
 62
7
  6
CONTINUOUS
 10
14.4730946662
 20
13.5367702783
 11
14.434748575
 21
13.5120339448
  0
LINE
  5
31E
100
AcDbEntity
  8
0
100
AcDbLine
 62
7
  6
CONTINUOUS
 10
15.938936147
 20
11.0888733741
 11
15.95197489
 21
11.0902879105
  0
LINE
  5
31F
100
AcDbEntity
  8
0
100
AcDbLine
 62
7
  6
CONTINUOUS
 10
15.938936147
 20
11.0888733741
 11
14.6033977057
 21
11.0888733741
  0
LINE
  5
320
100
AcDbEntity
  8
0
100
AcDbLine
 62
7
  6
CONTINUOUS
 10
14.8109461635
 20
11.2157539767
 11
14.6998974871
 21
11.2720534655
  0
LINE
  5
321
100
AcDbEntity
  8
0
100
AcDbLine
 62
7
  6
CONTINUOUS
 10
14.7068734634
 20
11.2977318647
 11
14.820287978
 21
11.2402329426
  0
LINE
  5
322
100
AcDbEntity
  8
0
100
AcDbLine
 62
7
  6
CONTINUOUS
 10
14.1344665426
 20
11.9205924291
 11
14.5081428292
 21
11.159120218
  0
LINE
  5
323
100
AcDbEntity
  8
0
100
AcDbLine
 62
7
  6
CONTINUOUS
 10
14.5420925627
 20
11.1199538725
 11
14.1684162761
 21
11.8814260836
  0
LINE
  5
324
100
AcDbEntity
  8
0
100
AcDbLine
 62
7
  6
CONTINUOUS
 10
13.7023322422
 20
13.0702651134
 11
13.7175843355
 21
13.039184615
  0
LINE
  5
325
100
AcDbEntity
  8
0
100
AcDbLine
 62
7
  6
CONTINUOUS
 10
13.7483992025
 20
13.0378047924
 11
13.7228835107
 21
13.0898003055
  0
LINE
  5
326
100
AcDbEntity
  8
0
100
AcDbLine
 62
7
  6
CONTINUOUS
 10
14.1061196661
 20
12.1641715106
 11
14.1505526357
 21
12.3079566528
  0
LINE
  5
327
100
AcDbEntity
  8
0
100
AcDbLine
 62
7
  6
CONTINUOUS
 10
14.5281429955
 20
13.3686000037
 11
14.5674496678
 21
13.4957964418
  0
LINE
  5
328
100
AcDbEntity
  8
0
100
AcDbLine
 62
7
  6
CONTINUOUS
 10
14.5448003688
 20
13.3498365937
 11
14.584107041
 21
13.4770330318
  0
LINE
  5
329
100
AcDbEntity
  8
0
100
AcDbLine
 62
7
  6
CONTINUOUS
 10
14.3944813217
 20
13.2823774021
 11
14.5281429955
 21
13.3686000037
  0
LINE
  5
32A
100
AcDbEntity
  8
0
100
AcDbLine
 62
7
  6
CONTINUOUS
 10
14.4111386949
 20
13.263613992
 11
14.5448003688
 21
13.3498365937
  0
LINE
  5
32B
100
AcDbEntity
  8
0
100
AcDbLine
 62
7
  6
CONTINUOUS
 10
17.4939491839
 20
11.2470230706
 11
16.0676173241
 21
11.2470230706
  0
LINE
  5
32C
100
AcDbEntity
  8
0
100
AcDbLine
 62
7
  6
CONTINUOUS
 10
14.4650063745
 20
11.2470230706
 11
13.2455553491
 21
11.2470230706
  0
LINE
  5
32D
100
AcDbEntity
  8
0
100
AcDbLine
 62
7
  6
CONTINUOUS
 10
13.9921771912
 20
12.9432563249
 11
13.9528050272
 21
13.0234883595
  0
LINE
  5
32E
100
AcDbEntity
  8
0
100
AcDbLine
 62
7
  6
CONTINUOUS
 10
14.2618142372
 20
12.0731517003
 11
14.2620400882
 21
12.0738782078
  0
LINE
  5
32F
100
AcDbEntity
  8
0
100
AcDbLine
 62
7
  6
CONTINUOUS
 10
14.2761434484
 20
12.0687236349
 11
14.2885215063
 21
12.1087642909
  0
LINE
  5
330
100
AcDbEntity
  8
0
100
AcDbLine
 62
7
  6
CONTINUOUS
 10
14.261832657
 20
12.0731460088
 11
14.2620942108
 21
12.0738614151
  0
LINE
  5
331
100
AcDbEntity
  8
0
100
AcDbLine
 62
7
  6
CONTINUOUS
 10
14.2882677922
 20
12.1078834875
 11
14.2885828902
 21
12.1087452268
  0
LINE
  5
332
100
AcDbEntity
  8
0
100
AcDbLine
 62
7
  6
CONTINUOUS
 10
16.8809571565
 20
11.5384027432
 11
15.9866392116
 21
11.5384027432
  0
LINE
  5
333
100
AcDbEntity
  8
0
100
AcDbLine
 62
7
  6
CONTINUOUS
 10
14.3220179995
 20
11.5384027432
 11
13.5725706266
 21
11.5384027432
  0
LINE
  5
334
100
AcDbEntity
  8
0
100
AcDbLine
 62
7
  6
CONTINUOUS
 10
14.0146150895
 20
13.0056028271
 11
13.9732969684
 21
13.0898003055
  0
LINE
  5
335
100
AcDbEntity
  8
0
100
AcDbLine
 62
7
  6
CONTINUOUS
 10
14.0388395656
 20
13.1111209338
 11
14.0115710747
 21
13.166688276
  0
LINE
  5
336
100
AcDbEntity
  8
0
100
AcDbLine
 62
7
  6
CONTINUOUS
 10
14.5433169104
 20
12.5528446767
 11
14.5243796938
 21
12.4918693694
  0
LINE
  5
337
100
AcDbEntity
  8
0
100
AcDbLine
 62
7
  6
CONTINUOUS
 10
14.4048271662
 20
12.4815657935
 11
14.414931717
 21
12.4701499312
  0
LINE
  5
338
100
AcDbEntity
  8
0
100
AcDbLine
 62
7
  6
CONTINUOUS
 10
14.4322125352
 20
12.4626549821
 11
14.4330312629
 21
12.4617300046
  0
LINE
  5
339
100
AcDbEntity
  8
0
100
AcDbLine
 62
7
  6
CONTINUOUS
 10
14.4601870971
 20
12.4505219966
 11
14.4500825463
 21
12.4619378589
  0
LINE
  5
33A
100
AcDbEntity
  8
0
100
AcDbLine
 62
7
  6
CONTINUOUS
 10
14.1266412026
 20
13.3784731532
 11
14.087286318
 21
13.458669976
  0
LINE
  5
33B
100
AcDbEntity
  8
0
100
AcDbLine
 62
7
  6
CONTINUOUS
 10
17.1687004578
 20
11.954545164
 11
17.0535678335
 21
11.954545164
  0
LINE
  5
33C
100
AcDbEntity
  8
0
100
AcDbLine
 62
7
  6
CONTINUOUS
 10
13.6571554181
 20
11.954545164
 11
13.5420227939
 21
11.954545164
  0
LINE
  5
33D
100
AcDbEntity
  8
0
100
AcDbLine
 62
7
  6
CONTINUOUS
 10
14.5243796938
 20
12.4918693694
 11
14.514275143
 21
12.5032852317
  0
LINE
  5
33E
100
AcDbEntity
  8
0
100
AcDbLine
 62
7
  6
CONTINUOUS
 10
14.5332123596
 20
12.5642605391
 11
14.5433169104
 21
12.5528446767
  0
LINE
  5
33F
100
AcDbEntity
  8
0
100
AcDbLine
 62
7
  6
CONTINUOUS
 10
14.6498916941
 20
11.2402329426
 11
14.6441043633
 21
11.2157539767
  0
LINE
  5
340
100
AcDbEntity
  8
0
100
AcDbLine
 62
7
  6
CONTINUOUS
 10
14.7068734634
 20
11.2977318647
 11
14.6998974871
 21
11.2720534655
  0
LINE
  5
341
100
AcDbEntity
  8
0
100
AcDbLine
 62
7
  6
CONTINUOUS
 10
14.6467134079
 20
11.2675433245
 11
14.652765066
 21
11.2871264972
  0
LINE
  5
342
100
AcDbEntity
  8
0
100
AcDbLine
 62
7
  6
CONTINUOUS
 10
14.5243796938
 20
12.4918693694
 11
14.4601870971
 21
12.4505219966
  0
LINE
  5
343
100
AcDbEntity
  8
0
100
AcDbLine
 62
7
  6
CONTINUOUS
 10
14.4601870971
 20
12.4505219966
 11
14.414931717
 21
12.4701499312
  0
LINE
  5
344
100
AcDbEntity
  8
0
100
AcDbLine
 62
7
  6
CONTINUOUS
 10
14.8234662641
 20
11.2129225608
 11
14.8295179222
 21
11.2325057335
  0
LINE
  5
345
100
AcDbEntity
  8
0
100
AcDbLine
 62
7
  6
CONTINUOUS
 10
13.61766852
 20
12.1993348232
 11
13.6509654551
 21
12.1993348232
  0
LINE
  5
346
100
AcDbEntity
  8
0
100
AcDbLine
 62
7
  6
CONTINUOUS
 10
17.1292135596
 20
12.1993348232
 11
17.2443461838
 21
12.1993348232
  0
LINE
  5
347
100
AcDbEntity
  8
0
100
AcDbLine
 62
7
  6
CONTINUOUS
 10
17.172079471
 20
12.3380489635
 11
17.2872120953
 21
12.3380489635
  0
LINE
  5
348
100
AcDbEntity
  8
0
100
AcDbLine
 62
7
  6
CONTINUOUS
 10
14.3001263201
 20
13.3233512386
 11
14.3167836934
 21
13.3045878285
  0
LINE
  5
349
100
AcDbEntity
  8
0
100
AcDbLine
 62
7
  6
CONTINUOUS
 10
14.4111386949
 20
13.263613992
 11
14.3944813217
 21
13.2823774021
  0
LINE
  5
34A
100
AcDbEntity
  8
0
100
AcDbLine
 62
7
  6
CONTINUOUS
 10
15.5960608168
 20
11.8814260836
 11
15.9697371034
 21
11.1199538725
  0
LINE
  5
34B
100
AcDbEntity
  8
0
100
AcDbLine
 62
7
  6
CONTINUOUS
 10
14.820287978
 20
11.2402329426
 11
14.8109461635
 21
11.2157539767
  0
LINE
  5
34C
100
AcDbEntity
  8
0
100
AcDbLine
 62
7
  6
CONTINUOUS
 10
14.5448003688
 20
13.3498365937
 11
14.5281429955
 21
13.3686000037
  0
LINE
  5
34D
100
AcDbEntity
  8
0
100
AcDbLine
 62
7
  6
CONTINUOUS
 10
14.5674496678
 20
13.4957964418
 11
14.584107041
 21
13.4770330318
  0
LINE
  5
34E
100
AcDbEntity
  8
0
100
AcDbLine
 62
7
  6
CONTINUOUS
 10
16.0278934693
 20
11.159120218
 11
15.6542171827
 21
11.9205924291
  0
LINE
  5
34F
100
AcDbEntity
  8
0
100
AcDbLine
 62
7
  6
CONTINUOUS
 10
16.3459588126
 20
13.1900376624
 11
16.1637574089
 21
13.0056028271
  0
LINE
  5
350
100
AcDbEntity
  8
0
100
AcDbLine
 62
7
  6
CONTINUOUS
 10
13.629720341
 20
12.5704212107
 11
13.7919060692
 21
12.5704212107
  0
LINE
  5
351
100
AcDbEntity
  8
0
100
AcDbLine
 62
7
  6
CONTINUOUS
 10
15.7788626604
 20
12.5704212107
 11
16.0292761181
 21
12.5704212107
  0
LINE
  5
352
100
AcDbEntity
  8
0
100
AcDbLine
 62
7
  6
CONTINUOUS
 10
17.6869507808
 20
12.5952304001
 11
17.3760926953
 21
12.5952304001
  0
LINE
  5
353
100
AcDbEntity
  8
0
100
AcDbLine
 62
7
  6
CONTINUOUS
 10
13.4842954623
 20
12.5952304001
 11
13.438556946
 21
12.5952304001
  0
LINE
  5
354
100
AcDbEntity
  8
0
100
AcDbLine
 62
7
  6
CONTINUOUS
 10
16.0838713066
 20
11.3402645658
 11
15.9866392116
 21
11.5384027432
  0
LINE
  5
355
100
AcDbEntity
  8
0
100
AcDbLine
 62
7
  6
CONTINUOUS
 10
15.9866392116
 20
11.5384027432
 11
15.7174346451
 21
12.0889530352
  0
LINE
  5
356
100
AcDbEntity
  8
0
100
AcDbLine
 62
7
  6
CONTINUOUS
 10
15.5004369607
 20
11.7332948778
 11
15.4883336445
 21
11.6941285324
  0
LINE
  5
357
100
AcDbEntity
  8
0
100
AcDbLine
 62
7
  6
CONTINUOUS
 10
15.5026628557
 20
11.689700467
 11
15.5024373839
 21
11.6889751718
  0
LINE
  5
358
100
AcDbEntity
  8
0
100
AcDbLine
 62
7
  6
CONTINUOUS
 10
15.5026444359
 20
11.6897061585
 11
15.5023833188
 21
11.6889919465
  0
LINE
  5
359
100
AcDbEntity
  8
0
100
AcDbLine
 62
7
  6
CONTINUOUS
 10
16.0292761181
 20
12.5704212107
 11
16.2114775218
 21
12.7548560459
  0
LINE
  5
35A
100
AcDbEntity
  8
0
100
AcDbLine
 62
7
  6
CONTINUOUS
 10
14.6498916941
 20
11.2402329426
 11
14.7068734634
 21
11.2977318647
  0
LINE
  5
35B
100
AcDbEntity
  8
0
100
AcDbLine
 62
7
  6
CONTINUOUS
 10
14.6998974871
 20
11.2720534655
 11
14.6441043633
 21
11.2157539767
  0
LINE
  5
35C
100
AcDbEntity
  8
0
100
AcDbLine
 62
7
  6
CONTINUOUS
 10
14.3167836934
 20
13.3045878285
 11
14.4111386949
 21
13.263613992
  0
LINE
  5
35D
100
AcDbEntity
  8
0
100
AcDbLine
 62
7
  6
CONTINUOUS
 10
14.3001263201
 20
13.3233512386
 11
14.3944813217
 21
13.2823774021
  0
LINE
  5
35E
100
AcDbEntity
  8
0
100
AcDbLine
 62
7
  6
CONTINUOUS
 10
15.7169932707
 20
12.6350834969
 11
15.7322453641
 21
12.6040029985
  0
LINE
  5
35F
100
AcDbEntity
  8
0
100
AcDbLine
 62
7
  6
CONTINUOUS
 10
15.7788626604
 20
12.5704212107
 11
15.7375445392
 21
12.654618689
  0
LINE
  5
360
100
AcDbEntity
  8
0
100
AcDbLine
 62
7
  6
CONTINUOUS
 10
15.8820928017
 20
12.4615786236
 11
15.8766204958
 21
12.4438702352
  0
LINE
  5
361
100
AcDbEntity
  8
0
100
AcDbLine
 62
7
  6
CONTINUOUS
 10
14.7551530397
 20
11.1594544879
 11
14.8109461635
 21
11.2157539767
  0
LINE
  5
362
100
AcDbEntity
  8
0
100
AcDbLine
 62
7
  6
CONTINUOUS
 10
16.1637574089
 20
13.0056028271
 11
16.1107242911
 21
13.0056028271
  0
LINE
  5
363
100
AcDbEntity
  8
0
100
AcDbLine
 62
7
  6
CONTINUOUS
 10
14.0146150895
 20
13.0056028271
 11
13.9615819717
 21
13.0056028271
  0
LINE
  5
364
100
AcDbEntity
  8
0
100
AcDbLine
 62
7
  6
CONTINUOUS
 10
14.5674496678
 20
13.4957964418
 11
14.4730946662
 21
13.5367702783
  0
LINE
  5
365
100
AcDbEntity
  8
0
100
AcDbLine
 62
7
  6
CONTINUOUS
 10
15.7052563346
 20
13.166688276
 11
15.7922264442
 21
12.9894618263
  0
LINE
  5
366
100
AcDbEntity
  8
0
100
AcDbLine
 62
7
  6
CONTINUOUS
 10
16.0292761181
 20
12.5704212107
 11
15.987957997
 21
12.654618689
  0
LINE
  5
367
100
AcDbEntity
  8
0
100
AcDbLine
 62
7
  6
CONTINUOUS
 10
15.8514745615
 20
13.0702651134
 11
15.8667266549
 21
13.039184615
  0
LINE
  5
368
100
AcDbEntity
  8
0
100
AcDbLine
 62
7
  6
CONTINUOUS
 10
15.8975415218
 20
13.0378047924
 11
15.87202583
 21
13.0898003055
  0
LINE
  5
369
100
AcDbEntity
  8
0
100
AcDbLine
 62
7
  6
CONTINUOUS
 10
16.2114775218
 20
12.7548560459
 11
16.1701594006
 21
12.8390535243
  0
LINE
  5
36A
100
AcDbEntity
  8
0
100
AcDbLine
 62
7
  6
CONTINUOUS
 10
16.0313294543
 20
11.1295954808
 11
16.0873072916
 21
11.3107398287
  0
LINE
  5
36B
100
AcDbEntity
  8
0
100
AcDbLine
 62
7
  6
CONTINUOUS
 10
16.2501965898
 20
13.4306138387
 11
16.2857979407
 21
13.4306138387
  0
LINE
  5
36C
100
AcDbEntity
  8
0
100
AcDbLine
 62
7
  6
CONTINUOUS
 10
16.1432654677
 20
12.9392908811
 11
16.1019473466
 21
13.0234883595
  0
LINE
  5
36D
100
AcDbEntity
  8
0
100
AcDbLine
 62
7
  6
CONTINUOUS
 10
16.2051348573
 20
12.8746285949
 11
16.2203869507
 21
12.8435480965
  0
LINE
  5
36E
100
AcDbEntity
  8
0
100
AcDbLine
 62
7
  6
CONTINUOUS
 10
16.1637574089
 20
13.0056028271
 11
16.1224392877
 21
13.0898003055
  0
LINE
  5
36F
100
AcDbEntity
  8
0
100
AcDbLine
 62
7
  6
CONTINUOUS
 10
16.2114775218
 20
12.7548560459
 11
16.1432654677
 21
12.9392908811
  0
LINE
  5
370
100
AcDbEntity
  8
0
100
AcDbLine
 62
7
  6
CONTINUOUS
 10
16.3459588126
 20
13.1900376624
 11
16.3046406914
 21
13.2742351407
  0
LINE
  5
371
100
AcDbEntity
  8
0
100
AcDbLine
 62
7
  6
CONTINUOUS
 10
16.2777467585
 20
13.3744724976
 11
16.2364286373
 21
13.458669976
  0
LINE
  5
372
100
AcDbEntity
  8
0
100
AcDbLine
 62
7
  6
CONTINUOUS
 10
16.3396161481
 20
13.3098102113
 11
16.3548682414
 21
13.2787297129
  0
LINE
  5
373
100
AcDbEntity
  8
0
100
AcDbLine
 62
7
  6
CONTINUOUS
 10
16.2777467585
 20
13.3744724976
 11
16.3459588126
 21
13.1900376624
  0
LINE
  5
374
100
AcDbEntity
  8
0
100
AcDbLine
 62
7
  6
CONTINUOUS
 10
16.7994837897
 20
12.5408269803
 11
16.6118823891
 21
11.9337486253
  0
LINE
  5
375
100
AcDbEntity
  8
0
100
AcDbLine
 62
7
  6
CONTINUOUS
 10
16.4557659313
 20
13.3395009612
 11
16.7788760846
 21
12.6810716958
  0
LINE
  5
376
100
AcDbEntity
  8
0
100
AcDbLine
 62
7
  6
CONTINUOUS
 10
17.8923569116
 20
12.2898191513
 11
17.76462063
 21
12.5501183255
  0
LINE
  5
377
100
AcDbEntity
  8
0
100
AcDbLine
 62
7
  6
CONTINUOUS
 10
17.8946898457
 20
12.2457648804
 11
17.6102619157
 21
11.3253557616
  0
ARC
  5
378
100
AcDbEntity
  8
0
100
AcDbCircle
 62
7
  6
CONTINUOUS
 10
6.1303488692
 20
5.5130876996
 40
1.2499618097
100
AcDbArc
 50
158.4331965825
 51
179.9957280388
  0
ARC
  5
379
100
AcDbEntity
  8
0
100
AcDbCircle
 62
7
  6
CONTINUOUS
 10
3.9417756677
 20
5.5133031848
 40
0.9386114032
100
AcDbArc
 50
351.4478642131
 51
359.9925351387
  0
ARC
  5
37A
100
AcDbEntity
  8
0
100
AcDbCircle
 62
7
  6
CONTINUOUS
 10
3.9432106828
 20
5.5131808965
 40
0.9371565934
100
AcDbArc
 50
286.1088288928
 51
344.503261317
  0
ARC
  5
37B
100
AcDbEntity
  8
0
100
AcDbCircle
 62
7
  6
CONTINUOUS
 10
3.9434855261
 20
5.5132718928
 40
0.93691593
100
AcDbArc
 50
344.5373640992
 51
351.4342069169
  0
ARC
  5
37C
100
AcDbEntity
  8
0
100
AcDbCircle
 62
7
  6
CONTINUOUS
 10
4.1616172762
 20
4.7569308965
 40
0.15
100
AcDbArc
 50
270.0
 51
286.1088288928
  0
ARC
  5
37D
100
AcDbEntity
  8
0
100
AcDbCircle
 62
7
  6
CONTINUOUS
 10
5.4053672762
 20
4.2881808965
 40
0.1
100
AcDbArc
 50
180.0
 51
270.0
  0
CIRCLE
  5
37E
100
AcDbEntity
  8
0
100
AcDbCircle
 62
7
  6
CONTINUOUS
 10
5.6459922762
 20
4.5131808965
 40
0.0925
  0
ARC
  5
37F
100
AcDbEntity
  8
0
100
AcDbCircle
 62
7
  6
CONTINUOUS
 10
3.7741172762
 20
4.5569308965
 40
0.05
100
AcDbArc
 50
90.0
 51
180.0
  0
ARC
  5
380
100
AcDbEntity
  8
0
100
AcDbCircle
 62
7
  6
CONTINUOUS
 10
5.4053672762
 20
4.2881808965
 40
0.05
100
AcDbArc
 50
180.0
 51
270.0
  0
ARC
  5
381
100
AcDbEntity
  8
0
100
AcDbCircle
 62
7
  6
CONTINUOUS
 10
5.6701380209
 20
6.7764589744
 40
0.0625
100
AcDbArc
 50
306.6298953685
 51
27.1467154853
  0
ARC
  5
382
100
AcDbEntity
  8
0
100
AcDbCircle
 62
7
  6
CONTINUOUS
 10
5.8972984638
 20
6.8373264316
 40
0.0625
100
AcDbArc
 50
182.8532845147
 51
263.3701046315
  0
ARC
  5
383
100
AcDbEntity
  8
0
100
AcDbCircle
 62
7
  6
CONTINUOUS
 10
5.7478453397
 20
6.8441796157
 40
0.045
100
AcDbArc
 50
105.0
 51
240.597687854
  0
ARC
  5
384
100
AcDbEntity
  8
0
100
AcDbCircle
 62
7
  6
CONTINUOUS
 10
5.796141631
 20
6.857120568
 40
0.045
100
AcDbArc
 50
329.402312146
 51
105.0
  0
ARC
  5
385
100
AcDbEntity
  8
0
100
AcDbCircle
 62
7
  6
CONTINUOUS
 10
4.6449506095
 20
5.9725558965
 40
0.025
100
AcDbArc
 50
90.0
 51
180.0
  0
ARC
  5
386
100
AcDbEntity
  8
0
100
AcDbCircle
 62
7
  6
CONTINUOUS
 10
6.1303672762
 20
5.5131808965
 40
1.25
100
AcDbArc
 50
157.2009687281
 51
157.9139617371
  0
ARC
  5
387
100
AcDbEntity
  8
0
100
AcDbCircle
 62
7
  6
CONTINUOUS
 10
6.1303672762
 20
5.5131808965
 40
1.25
100
AcDbArc
 50
22.0860382629
 51
22.7990312719
  0
ARC
  5
388
100
AcDbEntity
  8
0
100
AcDbCircle
 62
7
  6
CONTINUOUS
 10
6.1303672762
 20
5.5131808965
 40
1.25
100
AcDbArc
 50
31.7734745429
 51
148.2265254571
  0
ARC
  5
389
100
AcDbEntity
  8
0
100
AcDbCircle
 62
7
  6
CONTINUOUS
 10
6.130444887
 20
5.5130984504
 40
1.2499030699
100
AcDbArc
 50
0.0037793436
 51
21.5673427002
  0
ARC
  5
38A
100
AcDbEntity
  8
0
100
AcDbCircle
 62
7
  6
CONTINUOUS
 10
8.3184404265
 20
5.5132594359
 40
0.9380922046
100
AcDbArc
 50
180.0047969467
 51
188.5542024528
  0
ARC
  5
38B
100
AcDbEntity
  8
0
100
AcDbCircle
 62
7
  6
CONTINUOUS
 10
8.3175238696
 20
5.5131808965
 40
0.9371565934
100
AcDbArc
 50
195.4967386831
 51
253.8911711072
  0
ARC
  5
38C
100
AcDbEntity
  8
0
100
AcDbCircle
 62
7
  6
CONTINUOUS
 10
8.3172492004
 20
5.5132719299
 40
0.9369161078
100
AcDbArc
 50
188.5657937384
 51
195.4626352463
  0
ARC
  5
38D
100
AcDbEntity
  8
0
100
AcDbCircle
 62
7
  6
CONTINUOUS
 10
6.1303672762
 20
5.5131808965
 40
0.825
100
AcDbArc
 50
0.0
 51
180.0
  0
ARC
  5
38E
100
AcDbEntity
  8
0
100
AcDbCircle
 62
7
  6
CONTINUOUS
 10
6.1303672762
 20
5.5131808965
 40
0.775
100
AcDbArc
 50
0.0
 51
180.0
  0
CIRCLE
  5
38F
100
AcDbEntity
  8
0
100
AcDbCircle
 62
7
  6
CONTINUOUS
 10
6.1303672762
 20
5.5131808965
 40
0.649375
  0
CIRCLE
  5
390
100
AcDbEntity
  8
0
100
AcDbCircle
 62
7
  6
CONTINUOUS
 10
6.1303672762
 20
5.5131808965
 40
0.634375
  0
CIRCLE
  5
391
100
AcDbEntity
  8
0
100
AcDbCircle
 62
7
  6
CONTINUOUS
 10
6.1303672762
 20
5.5131808965
 40
0.5
  0
ARC
  5
392
100
AcDbEntity
  8
0
100
AcDbCircle
 62
7
  6
CONTINUOUS
 10
8.0991172762
 20
4.7569308965
 40
0.15
100
AcDbArc
 50
253.8911711072
 51
270.0
  0
ARC
  5
393
100
AcDbEntity
  8
0
100
AcDbCircle
 62
7
  6
CONTINUOUS
 10
6.8553672762
 20
4.2881808965
 40
0.1
100
AcDbArc
 50
270.0
 51
360.0
  0
ARC
  5
394
100
AcDbEntity
  8
0
100
AcDbCircle
 62
7
  6
CONTINUOUS
 10
8.4866172762
 20
4.5569308965
 40
0.05
100
AcDbArc
 50
0.0
 51
90.0
  0
ARC
  5
395
100
AcDbEntity
  8
0
100
AcDbCircle
 62
7
  6
CONTINUOUS
 10
6.8553672762
 20
4.2881808965
 40
0.05
100
AcDbArc
 50
270.0
 51
360.0
  0
ARC
  5
396
100
AcDbEntity
  8
0
100
AcDbCircle
 62
7
  6
CONTINUOUS
 10
7.6157839428
 20
5.9725558965
 40
0.025
100
AcDbArc
 50
0.0
 51
90.0
  0
ARC
  5
397
100
AcDbEntity
  8
0
100
AcDbCircle
 62
7
  6
CONTINUOUS
 10
3.7646220839
 20
12.0125477814
 40
0.1
100
AcDbArc
 50
180.0
 51
270.0
  0
ARC
  5
398
100
AcDbEntity
  8
0
100
AcDbCircle
 62
7
  6
CONTINUOUS
 10
5.8546320393
 20
11.7979917087
 40
0.0685561889
100
AcDbArc
 50
344.8506435083
 51
15.2243120832
  0
ARC
  5
399
100
AcDbEntity
  8
0
100
AcDbCircle
 62
7
  6
CONTINUOUS
 10
5.8560575062
 20
11.7970084861
 40
0.0667508517
100
AcDbArc
 50
308.5229091995
 51
311.8389160908
  0
ARC
  5
39A
100
AcDbEntity
  8
0
100
AcDbCircle
 62
7
  6
CONTINUOUS
 10
5.8563238353
 20
11.7994263081
 40
0.0662738197
100
AcDbArc
 50
52.6800679585
 51
59.3728104197
  0
ARC
  5
39B
100
AcDbEntity
  8
0
100
AcDbCircle
 62
7
  6
CONTINUOUS
 10
5.8563900584
 20
11.7965240909
 40
0.066164771
100
AcDbArc
 50
295.6043217853
 51
308.5588630887
  0
ARC
  5
39C
100
AcDbEntity
  8
0
100
AcDbCircle
 62
7
  6
CONTINUOUS
 10
5.8566755544
 20
11.7999712709
 40
0.0656257006
100
AcDbArc
 50
59.394657408
 51
65.7416143352
  0
ARC
  5
39D
100
AcDbEntity
  8
0
100
AcDbCircle
 62
7
  6
CONTINUOUS
 10
5.856837964
 20
11.7956413584
 40
0.0651751626
100
AcDbArc
 50
292.7773437837
 51
295.5845902626
  0
ARC
  5
39E
100
AcDbEntity
  8
0
100
AcDbCircle
 62
7
  6
CONTINUOUS
 10
4.8708692489
 20
11.9641866693
 40
0.0500021
100
AcDbArc
 50
181.8782847501
 51
270.0003781491
  0
ARC
  5
39F
100
AcDbEntity
  8
0
100
AcDbCircle
 62
7
  6
CONTINUOUS
 10
5.1959114918
 20
11.8641893021
 40
0.0499638589
100
AcDbArc
 50
0.9555941476
 51
90.0387745837
  0
ARC
  5
3A0
100
AcDbEntity
  8
0
100
AcDbCircle
 62
7
  6
CONTINUOUS
 10
4.9649497309
 20
11.9649676739
 40
0.0464147839
100
AcDbArc
 50
180.0327509513
 51
197.8196471616
  0
ARC
  5
3A1
100
AcDbEntity
  8
0
100
AcDbCircle
 62
7
  6
CONTINUOUS
 10
4.2271220839
 20
12.6000477814
 40
0.3333333333
100
AcDbArc
 50
270.0
 51
90.0
  0
ARC
  5
3A2
100
AcDbEntity
  8
0
100
AcDbCircle
 62
7
  6
CONTINUOUS
 10
4.1021220839
 20
12.6000477814
 40
0.15625
100
AcDbArc
 50
90.0
 51
270.0
  0
ARC
  5
3A3
100
AcDbEntity
  8
0
100
AcDbCircle
 62
7
  6
CONTINUOUS
 10
4.2271220839
 20
12.6000477814
 40
0.15625
100
AcDbArc
 50
270.0
 51
90.0
  0
ARC
  5
3A4
100
AcDbEntity
  8
0
100
AcDbCircle
 62
7
  6
CONTINUOUS
 10
3.7646220839
 20
13.1875477814
 40
0.1
100
AcDbArc
 50
90.0
 51
180.0
  0
ARC
  5
3A5
100
AcDbEntity
  8
0
100
AcDbCircle
 62
7
  6
CONTINUOUS
 10
4.9042054172
 20
12.3222700036
 40
0.371875
100
AcDbArc
 50
272.551717309
 51
48.3281953498
  0
CIRCLE
  5
3A6
100
AcDbEntity
  8
0
100
AcDbCircle
 62
7
  6
CONTINUOUS
 10
4.9042054172
 20
12.3222700036
 40
0.271875
  0
ARC
  5
3A7
100
AcDbEntity
  8
0
100
AcDbCircle
 62
7
  6
CONTINUOUS
 10
4.8104554172
 20
12.2125477814
 40
0.25
100
AcDbArc
 50
180.0
 51
270.0
  0
CIRCLE
  5
3A8
100
AcDbEntity
  8
0
100
AcDbCircle
 62
7
  6
CONTINUOUS
 10
4.9042054172
 20
12.3222700036
 40
0.2354506567
  0
ARC
  5
3A9
100
AcDbEntity
  8
0
100
AcDbCircle
 62
7
  6
CONTINUOUS
 10
4.9042054172
 20
12.8778255591
 40
0.371875
100
AcDbArc
 50
311.6718046502
 51
87.448282691
  0
CIRCLE
  5
3AA
100
AcDbEntity
  8
0
100
AcDbCircle
 62
7
  6
CONTINUOUS
 10
4.9042054172
 20
12.8778255591
 40
0.271875
  0
ARC
  5
3AB
100
AcDbEntity
  8
0
100
AcDbCircle
 62
7
  6
CONTINUOUS
 10
4.8104554172
 20
12.9875477814
 40
0.25
100
AcDbArc
 50
90.0
 51
180.0
  0
CIRCLE
  5
3AC
100
AcDbEntity
  8
0
100
AcDbCircle
 62
7
  6
CONTINUOUS
 10
4.9042054172
 20
12.8778255591
 40
0.2354506567
  0
ARC
  5
3AD
100
AcDbEntity
  8
0
100
AcDbCircle
 62
7
  6
CONTINUOUS
 10
5.1959125095
 20
13.3359065266
 40
0.0499633367
100
AcDbArc
 50
269.9625569172
 51
359.0175694265
  0
ARC
  5
3AE
100
AcDbEntity
  8
0
100
AcDbCircle
 62
7
  6
CONTINUOUS
 10
4.9646598837
 20
13.2351734135
 40
0.0461249329
100
AcDbArc
 50
162.1240085091
 51
180.0235933788
  0
ARC
  5
3AF
100
AcDbEntity
  8
0
100
AcDbCircle
 62
7
  6
CONTINUOUS
 10
6.2527440833
 20
11.1272378011
 40
0.8498343832
100
AcDbArc
 50
120.8895481045
 51
123.3614579236
  0
ARC
  5
3B0
100
AcDbEntity
  8
0
100
AcDbCircle
 62
7
  6
CONTINUOUS
 10
6.3133398069
 20
11.0175758681
 40
0.8412740432
100
AcDbArc
 50
120.876969729
 51
123.3740362991
  0
ARC
  5
3B1
100
AcDbEntity
  8
0
100
AcDbCircle
 62
7
  6
CONTINUOUS
 10
8.3771220839
 20
12.0125477814
 40
0.1
100
AcDbArc
 50
270.0
 51
360.0
  0
ARC
  5
3B2
100
AcDbEntity
  8
0
100
AcDbCircle
 62
7
  6
CONTINUOUS
 10
6.9458327069
 20
11.8641916046
 40
0.049962529
100
AcDbArc
 50
89.9598071528
 51
179.1342253734
  0
ARC
  5
3B3
100
AcDbEntity
  8
0
100
AcDbCircle
 62
7
  6
CONTINUOUS
 10
7.1770842579
 20
11.9649221534
 40
0.0461249591
100
AcDbArc
 50
342.1240136321
 51
0.0235882559
  0
ARC
  5
3B4
100
AcDbEntity
  8
0
100
AcDbCircle
 62
7
  6
CONTINUOUS
 10
6.3267899772
 20
12.6002505841
 40
0.8667568067
100
AcDbArc
 50
236.6762909612
 51
239.098265516
  0
ARC
  5
3B5
100
AcDbEntity
  8
0
100
AcDbCircle
 62
7
  6
CONTINUOUS
 10
6.2569718253
 20
12.4760602461
 40
0.858167197
100
AcDbArc
 50
236.6641680548
 51
239.1103884224
  0
ARC
  5
3B6
100
AcDbEntity
  8
0
100
AcDbCircle
 62
7
  6
CONTINUOUS
 10
7.2375387505
 20
12.3222700036
 40
0.371875
100
AcDbArc
 50
131.6718046502
 51
267.4482826911
  0
CIRCLE
  5
3B7
100
AcDbEntity
  8
0
100
AcDbCircle
 62
7
  6
CONTINUOUS
 10
7.2375387505
 20
12.3222700036
 40
0.271875
  0
CIRCLE
  5
3B8
100
AcDbEntity
  8
0
100
AcDbCircle
 62
7
  6
CONTINUOUS
 10
7.2375387505
 20
12.3222700036
 40
0.2354506567
  0
ARC
  5
3B9
100
AcDbEntity
  8
0
100
AcDbCircle
 62
7
  6
CONTINUOUS
 10
7.2375387505
 20
12.8778255591
 40
0.371875
100
AcDbArc
 50
92.551717309
 51
228.3281953498
  0
CIRCLE
  5
3BA
100
AcDbEntity
  8
0
100
AcDbCircle
 62
7
  6
CONTINUOUS
 10
7.2375387505
 20
12.8778255591
 40
0.271875
  0
CIRCLE
  5
3BB
100
AcDbEntity
  8
0
100
AcDbCircle
 62
7
  6
CONTINUOUS
 10
7.2375387505
 20
12.8778255591
 40
0.2354506567
  0
ARC
  5
3BC
100
AcDbEntity
  8
0
100
AcDbCircle
 62
7
  6
CONTINUOUS
 10
7.2708746416
 20
13.235907442
 40
0.050002596
100
AcDbArc
 50
1.8798521841
 51
90.0002527214
  0
ARC
  5
3BD
100
AcDbEntity
  8
0
100
AcDbCircle
 62
7
  6
CONTINUOUS
 10
6.9458316593
 20
13.3359065269
 40
0.0499633388
100
AcDbArc
 50
180.9824308701
 51
270.0374419439
  0
ARC
  5
3BE
100
AcDbEntity
  8
0
100
AcDbCircle
 62
7
  6
CONTINUOUS
 10
7.1767944648
 20
13.2351278932
 40
0.0464147558
100
AcDbArc
 50
0.0327455375
 51
17.8196525754
  0
ARC
  5
3BF
100
AcDbEntity
  8
0
100
AcDbCircle
 62
7
  6
CONTINUOUS
 10
7.9146220839
 20
12.6000477814
 40
0.3333333333
100
AcDbArc
 50
90.0
 51
270.0
  0
ARC
  5
3C0
100
AcDbEntity
  8
0
100
AcDbCircle
 62
7
  6
CONTINUOUS
 10
7.3312887505
 20
12.2125477814
 40
0.25
100
AcDbArc
 50
270.0
 51
360.0
  0
ARC
  5
3C1
100
AcDbEntity
  8
0
100
AcDbCircle
 62
7
  6
CONTINUOUS
 10
8.0396220839
 20
12.6000477814
 40
0.15625
100
AcDbArc
 50
270.0
 51
90.0
  0
ARC
  5
3C2
100
AcDbEntity
  8
0
100
AcDbCircle
 62
7
  6
CONTINUOUS
 10
7.9146220839
 20
12.6000477814
 40
0.15625
100
AcDbArc
 50
90.0
 51
270.0
  0
ARC
  5
3C3
100
AcDbEntity
  8
0
100
AcDbCircle
 62
7
  6
CONTINUOUS
 10
7.3312887505
 20
12.9875477814
 40
0.25
100
AcDbArc
 50
0.0
 51
90.0
  0
ARC
  5
3C4
100
AcDbEntity
  8
0
100
AcDbCircle
 62
7
  6
CONTINUOUS
 10
8.3771220839
 20
13.1875477814
 40
0.1
100
AcDbArc
 50
0.0
 51
90.0
  0
ARC
  5
3C5
100
AcDbEntity
  8
0
100
AcDbCircle
 62
7
  6
CONTINUOUS
 10
14.77363655
 20
6.2153631147
 40
0.0867350284
100
AcDbArc
 50
47.9014476104
 51
50.6180011836
  0
ARC
  5
3C6
100
AcDbEntity
  8
0
100
AcDbCircle
 62
7
  6
CONTINUOUS
 10
14.8253454271
 20
5.5126149752
 40
0.0589293419
100
AcDbArc
 50
269.1173303899
 51
269.9111787962
  0
ARC
  5
3C7
100
AcDbEntity
  8
0
100
AcDbCircle
 62
7
  6
CONTINUOUS
 10
15.6700580321
 20
6.7473974133
 40
0.0546158774
100
AcDbArc
 50
175.7895847202
 51
179.9998977878
  0
ARC
  5
3C8
100
AcDbEntity
  8
0
100
AcDbCircle
 62
7
  6
CONTINUOUS
 10
15.4507025406
 20
6.7473984994
 40
0.0545658185
100
AcDbArc
 50
359.9989617938
 51
8.8993483321
  0
ARC
  5
3C9
100
AcDbEntity
  8
0
100
AcDbCircle
 62
7
  6
CONTINUOUS
 10
15.6698045505
 20
6.7474216309
 40
0.054361302
100
AcDbArc
 50
168.2859702107
 51
175.795425654
  0
ARC
  5
3CA
100
AcDbEntity
  8
0
100
AcDbCircle
 62
7
  6
CONTINUOUS
 10
15.4510312614
 20
6.7474449203
 40
0.0542338739
100
AcDbArc
 50
8.9046209456
 51
12.5800453002
  0
ARC
  5
3CB
100
AcDbEntity
  8
0
100
AcDbCircle
 62
7
  6
CONTINUOUS
 10
15.6695440175
 20
6.747473262
 40
0.0540957127
100
AcDbArc
 50
167.4180553491
 51
168.2834923742
  0
ARC
  5
3CC
100
AcDbEntity
  8
0
100
AcDbCircle
 62
7
  6
CONTINUOUS
 10
16.1942332113
 20
6.65367757
 40
0.0500020197
100
AcDbArc
 50
0.1
 51
90.0
  0
ARC
  5
3CD
100
AcDbEntity
  8
0
100
AcDbCircle
 62
7
  6
CONTINUOUS
 10
14.825922197
 20
6.3286922783
 40
0.0500017124
100
AcDbArc
 50
270.0
 51
359.9
  0
ARC
  5
3CE
100
AcDbEntity
  8
0
100
AcDbCircle
 62
7
  6
CONTINUOUS
 10
14.9264776992
 20
6.6536773795
 40
0.0500015185
100
AcDbArc
 50
90.0
 51
179.9
  0
ARC
  5
3CF
100
AcDbEntity
  8
0
100
AcDbCircle
 62
7
  6
CONTINUOUS
 10
14.9228552569
 20
4.4974357042
 40
0.05
100
AcDbArc
 50
90.0
 51
180.0
  0
ARC
  5
3D0
100
AcDbEntity
  8
0
100
AcDbCircle
 62
7
  6
CONTINUOUS
 10
16.1978552569
 20
4.4974357042
 40
0.05
100
AcDbArc
 50
0.0
 51
90.0
  0
ARC
  5
3D1
100
AcDbEntity
  8
0
100
AcDbCircle
 62
7
  6
CONTINUOUS
 10
16.2947891816
 20
6.3286903764
 40
0.0499999265
100
AcDbArc
 50
180.1
 51
270.0
  0
ARC
  5
3D2
100
AcDbEntity
  8
0
100
AcDbCircle
 62
7
  6
CONTINUOUS
 10
15.5816168377
 20
6.7924668309
 40
0.0491533953
100
AcDbArc
 50
315.8034164681
 51
316.6448413398
  0
ARC
  5
3D3
100
AcDbEntity
  8
0
100
AcDbCircle
 62
7
  6
CONTINUOUS
 10
16.2954273453
 20
5.5018641113
 40
0.0481784581
100
AcDbArc
 50
269.9166742343
 51
271.0064806461
  0
ARC
  5
3D4
100
AcDbEntity
  8
0
100
AcDbCircle
 62
7
  6
CONTINUOUS
 10
14.9478552569
 20
5.9130607042
 40
0.025
100
AcDbArc
 50
90.0
 51
180.0
  0
ARC
  5
3D5
100
AcDbEntity
  8
0
100
AcDbCircle
 62
7
  6
CONTINUOUS
 10
16.1728552569
 20
5.9130607042
 40
0.025
100
AcDbArc
 50
0.0
 51
90.0
  0
ARC
  5
3D6
100
AcDbEntity
  8
0
100
AcDbCircle
 62
7
  6
CONTINUOUS
 10
14.683525106
 20
11.2524272235
 40
0.0403731206
100
AcDbArc
 50
131.5668936002
 51
132.7564230162
  0
ARC
  5
3D7
100
AcDbEntity
  8
0
100
AcDbCircle
 62
7
  6
CONTINUOUS
 10
14.6825574886
 20
11.2534663161
 40
0.0389532718
100
AcDbArc
 50
132.7489991302
 51
135.2472141264
  0
ARC
  5
3D8
100
AcDbEntity
  8
0
100
AcDbCircle
 62
7
  6
CONTINUOUS
 10
14.6818608632
 20
11.278131906
 40
0.0304541416
100
AcDbArc
 50
155.127248839
 51
162.8216586908
  0
ARC
  5
3D9
100
AcDbEntity
  8
0
100
AcDbCircle
 62
7
  6
CONTINUOUS
 10
14.2416717409
 20
12.3691214518
 40
0.4933043833
100
AcDbArc
 50
169.1726424653
 51
171.3066340961
  0
ARC
  5
3DA
100
AcDbEntity
  8
0
100
AcDbCircle
 62
7
  6
CONTINUOUS
 10
14.2324011271
 20
12.3706008168
 40
0.4839166792
100
AcDbArc
 50
171.3138742243
 51
171.9532991421
  0
ARC
  5
3DB
100
AcDbEntity
  8
0
100
AcDbCircle
 62
7
  6
CONTINUOUS
 10
14.2294569987
 20
12.3710172907
 40
0.4809432396
100
AcDbArc
 50
171.9533293668
 51
172.6235416182
  0
ARC
  5
3DC
100
AcDbEntity
  8
0
100
AcDbCircle
 62
7
  6
CONTINUOUS
 10
14.2091707949
 20
12.3779905437
 40
0.4604707186
100
AcDbArc
 50
173.1585098094
 51
173.9437900572
  0
ARC
  5
3DD
100
AcDbEntity
  8
0
100
AcDbCircle
 62
7
  6
CONTINUOUS
 10
14.626101326
 20
12.0492729494
 40
0.3809470783
100
AcDbArc
 50
206.1424349908
 51
207.1916139685
  0
ARC
  5
3DE
100
AcDbEntity
  8
0
100
AcDbCircle
 62
7
  6
CONTINUOUS
 10
14.6229065575
 20
12.0409080599
 40
0.3619909576
100
AcDbArc
 50
205.3777069557
 51
206.1401880423
  0
ARC
  5
3DF
100
AcDbEntity
  8
0
100
AcDbCircle
 62
7
  6
CONTINUOUS
 10
14.4943897979
 20
11.9919610879
 40
0.2474893468
100
AcDbArc
 50
139.3975291235
 51
141.3735115733
  0
ARC
  5
3E0
100
AcDbEntity
  8
0
100
AcDbCircle
 62
7
  6
CONTINUOUS
 10
14.4739920015
 20
12.0061373119
 40
0.222617305
100
AcDbArc
 50
150.4763748995
 51
151.2366267928
  0
ARC
  5
3E1
100
AcDbEntity
  8
0
100
AcDbCircle
 62
7
  6
CONTINUOUS
 10
14.486163065
 20
12.0483858293
 40
0.2217480679
100
AcDbArc
 50
174.1986488219
 51
175.0716192934
  0
ARC
  5
3E2
100
AcDbEntity
  8
0
100
AcDbCircle
 62
7
  6
CONTINUOUS
 10
14.4852784899
 20
12.0484744573
 40
0.2208590649
100
AcDbArc
 50
173.7785332534
 51
174.1983274979
  0
ARC
  5
3E3
100
AcDbEntity
  8
0
100
AcDbCircle
 62
7
  6
CONTINUOUS
 10
14.4975487379
 20
12.0413177586
 40
0.2197798819
100
AcDbArc
 50
146.2279152537
 51
151.9764959889
  0
ARC
  5
3E4
100
AcDbEntity
  8
0
100
AcDbCircle
 62
7
  6
CONTINUOUS
 10
14.481077606
 20
12.0490203131
 40
0.2166237846
100
AcDbArc
 50
167.352164355
 51
173.8016456999
  0
ARC
  5
3E5
100
AcDbEntity
  8
0
100
AcDbCircle
 62
7
  6
CONTINUOUS
 10
14.4823548882
 20
12.003841982
 40
0.2162574137
100
AcDbArc
 50
151.2009963882
 51
151.9891687793
  0
ARC
  5
3E6
100
AcDbEntity
  8
0
100
AcDbCircle
 62
7
  6
CONTINUOUS
 10
14.4674119024
 20
12.0095290981
 40
0.2152170764
100
AcDbArc
 50
151.1852426765
 51
162.6026713955
  0
ARC
  5
3E7
100
AcDbEntity
  8
0
100
AcDbCircle
 62
7
  6
CONTINUOUS
 10
14.4887917602
 20
12.0458517827
 40
0.2099194091
100
AcDbArc
 50
151.9459561671
 51
162.5605115758
  0
ARC
  5
3E8
100
AcDbEntity
  8
0
100
AcDbCircle
 62
7
  6
CONTINUOUS
 10
14.4766348443
 20
12.0067105035
 40
0.2098603108
100
AcDbArc
 50
151.947163992
 51
162.812862578
  0
ARC
  5
3E9
100
AcDbEntity
  8
0
100
AcDbCircle
 62
7
  6
CONTINUOUS
 10
14.4393396594
 20
12.5606865044
 40
0.110022388
100
AcDbArc
 50
298.2337396995
 51
300.6953448904
  0
ARC
  5
3EA
100
AcDbEntity
  8
0
100
AcDbCircle
 62
7
  6
CONTINUOUS
 10
13.758438772
 20
11.90589947
 40
0.0932681869
100
AcDbArc
 50
335.4792453992
 51
336.9211089162
  0
ARC
  5
3EB
100
AcDbEntity
  8
0
100
AcDbCircle
 62
7
  6
CONTINUOUS
 10
14.4866366715
 20
12.5327616554
 40
0.0547870542
100
AcDbArc
 50
342.804831765
 51
348.08079973
  0
ARC
  5
3EC
100
AcDbEntity
  8
0
100
AcDbCircle
 62
7
  6
CONTINUOUS
 10
14.9848287022
 20
11.5393953634
 40
0.7029993644
100
AcDbArc
 50
41.4751430661
 51
41.9935329258
  0
ARC
  5
3ED
100
AcDbEntity
  8
0
100
AcDbCircle
 62
7
  6
CONTINUOUS
 10
15.025148375
 20
11.6419395613
 40
0.5151246452
100
AcDbArc
 50
37.2406391282
 51
37.5600750659
  0
ARC
  5
3EE
100
AcDbEntity
  8
0
100
AcDbCircle
 62
7
  6
CONTINUOUS
 10
15.0927675838
 20
11.6882344093
 40
0.4331371801
100
AcDbArc
 50
30.8566364069
 51
31.5370718756
  0
ARC
  5
3EF
100
AcDbEntity
  8
0
100
AcDbCircle
 62
7
  6
CONTINUOUS
 10
15.1124925728
 20
11.6999032074
 40
0.4102193802
100
AcDbArc
 50
27.2386548637
 51
30.8705566292
  0
ARC
  5
3F0
100
AcDbEntity
  8
0
100
AcDbCircle
 62
7
  6
CONTINUOUS
 10
15.1383757668
 20
11.7135792179
 40
0.3809470783
100
AcDbArc
 50
26.1424349909
 51
27.1916139685
  0
ARC
  5
3F1
100
AcDbEntity
  8
0
100
AcDbCircle
 62
7
  6
CONTINUOUS
 10
15.1535359724
 20
11.7209900493
 40
0.364072497
100
AcDbArc
 50
23.2270112558
 51
26.1466738926
  0
ARC
  5
3F2
100
AcDbEntity
  8
0
100
AcDbCircle
 62
7
  6
CONTINUOUS
 10
15.1415705352
 20
11.7219441074
 40
0.3619909577
100
AcDbArc
 50
25.3777069558
 51
26.1401880422
  0
ARC
  5
3F3
100
AcDbEntity
  8
0
100
AcDbCircle
 62
7
  6
CONTINUOUS
 10
15.2904556528
 20
11.754033774
 40
0.2218312581
100
AcDbArc
 50
354.0950605182
 51
355.2378804058
  0
ARC
  5
3F4
100
AcDbEntity
  8
0
100
AcDbCircle
 62
7
  6
CONTINUOUS
 10
15.3038447088
 20
11.7956495093
 40
0.2213222183
100
AcDbArc
 50
331.127537931
 51
332.1278316037
  0
ARC
  5
3F5
100
AcDbEntity
  8
0
100
AcDbCircle
 62
7
  6
CONTINUOUS
 10
15.3066503678
 20
11.7941812641
 40
0.2181556311
100
AcDbArc
 50
332.124225936
 51
336.107571366
  0
ARC
  5
3F6
100
AcDbEntity
  8
0
100
AcDbCircle
 62
7
  6
CONTINUOUS
 10
15.2927164992
 20
11.7961796531
 40
0.2171216292
100
AcDbArc
 50
354.7050270365
 51
355.2345716673
  0
ARC
  5
3F7
100
AcDbEntity
  8
0
100
AcDbCircle
 62
7
  6
CONTINUOUS
 10
15.2810292135
 20
11.7569748546
 40
0.2167038282
100
AcDbArc
 50
354.319420513
 51
355.0686711048
  0
ARC
  5
3F8
100
AcDbEntity
  8
0
100
AcDbCircle
 62
7
  6
CONTINUOUS
 10
15.293614501
 20
11.7960958267
 40
0.2162197236
100
AcDbArc
 50
353.9216572608
 51
354.705185544
  0
ARC
  5
3F9
100
AcDbEntity
  8
0
100
AcDbCircle
 62
7
  6
CONTINUOUS
 10
15.2817995708
 20
11.7568990724
 40
0.2159297529
100
AcDbArc
 50
353.9240333755
 51
354.3191971305
  0
ARC
  5
3FA
100
AcDbEntity
  8
0
100
AcDbCircle
 62
7
  6
CONTINUOUS
 10
15.296632994
 20
11.7532397276
 40
0.2156050592
100
AcDbArc
 50
342.8603260233
 51
354.1360698694
  0
ARC
  5
3FB
100
AcDbEntity
  8
0
100
AcDbCircle
 62
7
  6
CONTINUOUS
 10
15.2991126285
 20
11.7953720341
 40
0.2106759101
100
AcDbArc
 50
343.2667045688
 51
353.9590619453
  0
ARC
  5
3FC
100
AcDbEntity
  8
0
100
AcDbCircle
 62
7
  6
CONTINUOUS
 10
15.2871335586
 20
11.7561848432
 40
0.2105501805
100
AcDbArc
 50
342.8586235565
 51
353.9636629639
  0
ARC
  5
3FD
100
AcDbEntity
  8
0
100
AcDbCircle
 62
7
  6
CONTINUOUS
 10
15.301510477
 20
11.7947468855
 40
0.208199627
100
AcDbArc
 50
342.8331292403
 51
343.2414678006
  0
ARC
  5
3FE
100
AcDbEntity
  8
0
100
AcDbCircle
 62
7
  6
CONTINUOUS
 10
14.7838492656
 20
11.2210419581
 40
0.041086638
100
AcDbArc
 50
13.3799611867
 51
14.6726283692
  0
ARC
  5
3FF
100
AcDbEntity
  8
0
100
AcDbCircle
 62
7
  6
CONTINUOUS
 10
14.7943237977
 20
11.2219408453
 40
0.0305056926
100
AcDbArc
 50
334.5382387994
 51
342.8050491799
  0
ARC
  5
400
100
AcDbEntity
  8
0
100
AcDbCircle
 62
7
  6
CONTINUOUS
 10
14.8005027517
 20
11.241469423
 40
0.0303679885
100
AcDbArc
 50
343.445504581
 51
344.9221157052
  0
ARC
  5
401
100
AcDbEntity
  8
0
100
AcDbCircle
 62
7
  6
CONTINUOUS
 10
15.6202588439
 20
12.0887568444
 40
0.0820946382
100
AcDbArc
 50
342.3123713454
 51
342.7771236194
  0
ARC
  5
402
100
AcDbEntity
  8
0
100
AcDbCircle
 62
7
  6
CONTINUOUS
 10
15.0077206645
 20
13.6971521187
 40
1.4183063883
100
AcDbArc
 50
199.1748945268
 51
200.3185916728
  0
ARC
  5
403
100
AcDbEntity
  8
0
100
AcDbCircle
 62
7
  6
CONTINUOUS
 10
14.6288263213
 20
13.563913621
 40
1.0166713601
100
AcDbArc
 50
198.973547244
 51
199.0961331015
  0
ARC
  5
404
100
AcDbEntity
  8
0
100
AcDbCircle
 62
7
  6
CONTINUOUS
 10
13.8682333035
 20
13.3489570262
 40
0.3732555871
100
AcDbArc
 50
293.0899482064
 51
293.6027416098
  0
ARC
  5
405
100
AcDbEntity
  8
0
100
AcDbCircle
 62
7
  6
CONTINUOUS
 10
13.8698752407
 20
13.3446139441
 40
0.3686165505
100
AcDbArc
 50
285.6597222997
 51
293.1199236671
  0
ARC
  5
406
100
AcDbEntity
  8
0
100
AcDbCircle
 62
7
  6
CONTINUOUS
 10
13.886257752
 20
13.3098473432
 40
0.3647620028
100
AcDbArc
 50
285.5801933272
 51
288.4485082801
  0
ARC
  5
407
100
AcDbEntity
  8
0
100
AcDbCircle
 62
7
  6
CONTINUOUS
 10
13.8312606013
 20
13.4275066588
 40
0.3146988343
100
AcDbArc
 50
304.6964842644
 51
305.6895651742
  0
ARC
  5
408
100
AcDbEntity
  8
0
100
AcDbCircle
 62
7
  6
CONTINUOUS
 10
13.7613323282
 20
12.8080223498
 40
0.2972138073
100
AcDbArc
 50
270.0057308925
 51
271.5210790629
  0
ARC
  5
409
100
AcDbEntity
  8
0
100
AcDbCircle
 62
7
  6
CONTINUOUS
 10
14.2883074686
 20
13.4555114086
 40
0.2174970887
100
AcDbArc
 50
154.4183832754
 51
155.2155428447
  0
ARC
  5
40A
100
AcDbEntity
  8
0
100
AcDbCircle
 62
7
  6
CONTINUOUS
 10
13.8448567613
 20
13.101627772
 40
0.1417638152
100
AcDbArc
 50
206.1337701512
 51
210.244784975
  0
ARC
  5
40B
100
AcDbEntity
  8
0
100
AcDbCircle
 62
7
  6
CONTINUOUS
 10
13.8043522096
 20
13.2497014977
 40
0.1345992654
100
AcDbArc
 50
184.1840756024
 51
186.2554296364
  0
ARC
  5
40C
100
AcDbEntity
  8
0
100
AcDbCircle
 62
7
  6
CONTINUOUS
 10
14.4789613303
 20
13.3773885948
 40
0.1086013523
100
AcDbArc
 50
108.0856789028
 51
108.6586050014
  0
ARC
  5
40D
100
AcDbEntity
  8
0
100
AcDbCircle
 62
7
  6
CONTINUOUS
 10
14.4778965303
 20
13.3806773654
 40
0.1051445139
100
AcDbArc
 50
105.7398264074
 51
108.0904580917
  0
ARC
  5
40E
100
AcDbEntity
  8
0
100
AcDbCircle
 62
7
  6
CONTINUOUS
 10
14.4570155631
 20
13.3624367812
 40
0.1048902228
100
AcDbArc
 50
155.1965598909
 51
157.5251786983
  0
ARC
  5
40F
100
AcDbEntity
  8
0
100
AcDbCircle
 62
7
  6
CONTINUOUS
 10
14.3755171501
 20
13.4829369768
 40
0.0695214051
100
AcDbArc
 50
338.7317604553
 51
342.8131600149
  0
ARC
  5
410
100
AcDbEntity
  8
0
100
AcDbCircle
 62
7
  6
CONTINUOUS
 10
14.3862777404
 20
13.4811051475
 40
0.0585483744
100
AcDbArc
 50
359.8980109102
 51
3.1956876763
  0
ARC
  5
411
100
AcDbEntity
  8
0
100
AcDbCircle
 62
7
  6
CONTINUOUS
 10
14.3868906698
 20
13.4811327252
 40
0.0579348612
100
AcDbArc
 50
3.2022482597
 51
4.9622934923
  0
ARC
  5
412
100
AcDbEntity
  8
0
100
AcDbCircle
 62
7
  6
CONTINUOUS
 10
16.6943498878
 20
12.4311262778
 40
0.6491058375
100
AcDbArc
 50
215.4971735158
 51
223.278494974
  0
ARC
  5
413
100
AcDbEntity
  8
0
100
AcDbCircle
 62
7
  6
CONTINUOUS
 10
16.0933066229
 20
13.7388911518
 40
2.2583235068
100
AcDbArc
 50
200.3401906585
 51
201.0275541174
  0
ARC
  5
414
100
AcDbEntity
  8
0
100
AcDbCircle
 62
7
  6
CONTINUOUS
 10
16.0781748058
 20
14.1175015189
 40
2.0983759342
100
AcDbArc
 50
200.3118146379
 51
201.0551904334
  0
ARC
  5
415
100
AcDbEntity
  8
0
100
AcDbCircle
 62
7
  6
CONTINUOUS
 10
17.3654184377
 20
13.3898157065
 40
1.5950412721
100
AcDbArc
 50
256.7651745265
 51
259.9000988156
  0
ARC
  5
416
100
AcDbEntity
  8
0
100
AcDbCircle
 62
7
  6
CONTINUOUS
 10
17.5250997674
 20
13.9038193533
 40
1.5866568311
100
AcDbArc
 50
256.7568894333
 51
259.9083839087
  0
ARC
  5
417
100
AcDbEntity
  8
0
100
AcDbCircle
 62
7
  6
CONTINUOUS
 10
16.01901756
 20
13.3446139441
 40
0.3686165505
100
AcDbArc
 50
285.6597222997
 51
293.1199236671
  0
ARC
  5
418
100
AcDbEntity
  8
0
100
AcDbCircle
 62
7
  6
CONTINUOUS
 10
15.9939990806
 20
13.101627772
 40
0.1417638152
100
AcDbArc
 50
206.1337701511
 51
210.244784975
  0
SPLINE
  5
419
100
AcDbEntity
  8
0
100
AcDbSpline
 62
7
  6
CONTINUOUS
 70
0
 71
3
 72
11
 73
7
 74
0
 42
0.0000001
 43
0.0000001
 44
0.0000000001
 40
0.0
 40
0.0
 40
0.0
 40
0.0
 40
0.2488157531
 40
0.4987548756
 40
0.7492454043
 40
1.0
 40
1.0
 40
1.0
 40
1.0
 10
5.0676965767
 20
6.171383741
 30
0.0
 10
5.05919058
 20
6.1576512124
 30
0.0
 10
5.0429633335
 20
6.1296109234
 30
0.0
 10
5.0204628663
 20
6.0864736004
 30
0.0
 10
4.9994988695
 20
6.0424308177
 30
0.0
 10
4.9865060958
 20
6.012588009
 30
0.0
 10
4.9802569113
 20
5.9975558965
 30
0.0
  0
SPLINE
  5
41A
100
AcDbEntity
  8
0
100
AcDbSpline
 62
7
  6
CONTINUOUS
 70
0
 71
3
 72
11
 73
7
 74
0
 42
0.0000001
 43
0.0000001
 44
0.0000000001
 40
0.0
 40
0.0
 40
0.0
 40
0.0
 40
0.2507546001
 40
0.5012451182
 40
0.7511842443
 40
1.0
 40
1.0
 40
1.0
 40
1.0
 10
7.280477641
 20
5.9975558965
 30
0.0
 10
7.2742284589
 20
6.0125880104
 30
0.0
 10
7.2612356991
 20
6.0424308249
 30
0.0
 10
7.2402716929
 20
6.0864736035
 30
0.0
 10
7.2177712186
 20
6.1296109224
 30
0.0
 10
7.2015439755
 20
6.1576512141
 30
0.0
 10
7.1930379756
 20
6.171383741
 30
0.0
  0
LINE
  5
41B
100
AcDbEntity
  8
0
100
AcDbLine
 62
7
  6
CONTINUOUS
 10
5.8433217929
 20
6.3233594327
 11
5.8758962796
 21
6.3321897796
  0
LINE
  5
41C
100
AcDbEntity
  8
0
100
AcDbLine
 62
7
  6
CONTINUOUS
 10
5.8758962796
 20
6.3321897796
 11
5.9084910384
 21
6.3409393152
  0
LINE
  5
41D
100
AcDbEntity
  8
0
100
AcDbLine
 62
7
  6
CONTINUOUS
 10
5.9084910384
 20
6.3409393152
 11
5.9410962662
 21
6.34966009
  0
LINE
  5
41E
100
AcDbEntity
  8
0
100
AcDbLine
 62
7
  6
CONTINUOUS
 10
5.9410962662
 20
6.34966009
 11
5.9737217661
 21
6.3583000535
  0
LINE
  5
41F
100
AcDbEntity
  8
0
100
AcDbLine
 62
7
  6
CONTINUOUS
 10
4.967897364
 20
5.9725558965
 11
4.9720919249
 21
5.9831789928
  0
SPLINE
  5
420
100
AcDbEntity
  8
0
100
AcDbSpline
 62
7
  6
CONTINUOUS
 70
0
 71
3
 72
9
 73
5
 74
0
 42
0.0000001
 43
0.0000001
 44
0.0000000001
 40
0.0
 40
0.0
 40
0.0
 40
0.0
 40
0.5018067586
 40
1.0
 40
1.0
 40
1.0
 40
1.0
 10
5.9100481537
 20
6.3351332457
 30
0.0
 10
5.9043053993
 20
6.335472889
 30
0.0
 10
5.8928042056
 20
6.3355329858
 30
0.0
 10
5.8814115912
 20
6.3336733603
 30
0.0
 10
5.8758962796
 20
6.3321897796
 30
0.0
  0
SPLINE
  5
421
100
AcDbEntity
  8
0
100
AcDbSpline
 62
7
  6
CONTINUOUS
 70
0
 71
3
 72
9
 73
5
 74
0
 42
0.0000001
 43
0.0000001
 44
0.0000000001
 40
0.0
 40
0.0
 40
0.0
 40
0.0
 40
0.498127623
 40
1.0
 40
1.0
 40
1.0
 40
1.0
 10
5.8758962796
 20
6.3321897796
 30
0.0
 10
5.8703801108
 20
6.3307059684
 30
0.0
 10
5.8595964249
 20
6.3265801523
 30
0.0
 10
5.8496651708
 20
6.3207747324
 30
0.0
 10
5.8448651715
 20
6.3175994742
 30
0.0
  0
SPLINE
  5
422
100
AcDbEntity
  8
0
100
AcDbSpline
 62
7
  6
CONTINUOUS
 70
0
 71
3
 72
9
 73
5
 74
0
 42
0.0000001
 43
0.0000001
 44
0.0000000001
 40
0.0
 40
0.0
 40
0.0
 40
0.0
 40
0.5018808254
 40
1.0
 40
1.0
 40
1.0
 40
1.0
 10
5.9752651447
 20
6.352540095
 30
0.0
 10
5.9695202365
 20
6.3528899669
 30
0.0
 10
5.9580154389
 20
6.3529711088
 30
0.0
 10
5.9466154701
 20
6.3511332023
 30
0.0
 10
5.9410962662
 20
6.34966009
 30
0.0
  0
SPLINE
  5
423
100
AcDbEntity
  8
0
100
AcDbSpline
 62
7
  6
CONTINUOUS
 70
0
 71
3
 72
9
 73
5
 74
0
 42
0.0000001
 43
0.0000001
 44
0.0000000001
 40
0.0
 40
0.0
 40
0.0
 40
0.0
 40
0.4982011287
 40
1.0
 40
1.0
 40
1.0
 40
1.0
 10
5.9410962662
 20
6.34966009
 30
0.0
 10
5.9355782402
 20
6.3481872921
 30
0.0
 10
5.9247900208
 20
6.3440839714
 30
0.0
 10
5.9148514074
 20
6.3382985729
 30
0.0
 10
5.9100481537
 20
6.3351332457
 30
0.0
  0
SPLINE
  5
424
100
AcDbEntity
  8
0
100
AcDbSpline
 62
7
  6
CONTINUOUS
 70
0
 71
3
 72
14
 73
10
 74
0
 42
0.0000001
 43
0.0000001
 44
0.0000000001
 40
0.0
 40
0.0
 40
0.0
 40
0.0
 40
0.1124351762
 40
0.2268043085
 40
0.344450496
 40
0.4663514129
 40
0.5929780141
 40
0.7243086536
 40
1.0
 40
1.0
 40
1.0
 40
1.0
 10
7.5009401928
 20
6.2194308965
 30
0.0
 10
7.5039043489
 20
6.2194308965
 30
0.0
 10
7.5098922238
 20
6.2189656602
 30
0.0
 10
7.5187763447
 20
6.216956213
 30
0.0
 10
7.5275463462
 20
6.2136989558
 30
0.0
 10
7.5361606382
 20
6.2093026592
 30
0.0
 10
7.5446161932
 20
6.203913441
 30
0.0
 10
7.5558563035
 20
6.1954348502
 30
0.0
 10
7.5637696069
 20
6.188145889
 30
0.0
 10
7.5689089428
 20
6.1830065531
 30
0.0
  0
SPLINE
  5
425
100
AcDbEntity
  8
0
100
AcDbSpline
 62
7
  6
CONTINUOUS
 70
0
 71
3
 72
12
 73
8
 74
0
 42
0.0000001
 43
0.0000001
 44
0.0000000001
 40
0.0
 40
0.0
 40
0.0
 40
0.0
 40
0.2499613293
 40
0.3750549292
 40
0.5000896552
 40
0.7500750806
 40
1.0
 40
1.0
 40
1.0
 40
1.0
 10
7.2970339428
 20
6.2194308965
 30
0.0
 10
7.3088630704
 20
6.2194308965
 30
0.0
 10
7.3266439421
 20
6.2180614068
 30
0.0
 10
7.3499279506
 20
6.2137630595
 30
0.0
 10
7.3728831194
 20
6.2079350353
 30
0.0
 10
7.4008536594
 20
6.1981466113
 30
0.0
 10
7.4223926906
 20
6.1882959292
 30
0.0
 10
7.4329714428
 20
6.1830065531
 30
0.0
  0
SPLINE
  5
426
100
AcDbEntity
  8
0
100
AcDbSpline
 62
7
  6
CONTINUOUS
 70
0
 71
3
 72
14
 73
10
 74
0
 42
0.0000001
 43
0.0000001
 44
0.0000000001
 40
0.0
 40
0.0
 40
0.0
 40
0.0
 40
0.2757263534
 40
0.4070474589
 40
0.5336369912
 40
0.6555144943
 40
0.7731721923
 40
0.8875607456
 40
1.0
 40
1.0
 40
1.0
 40
1.0
 10
7.4329714428
 20
6.1830065531
 30
0.0
 10
7.438111176
 20
6.1881462863
 30
0.0
 10
7.4460216291
 20
6.1954385451
 30
0.0
 10
7.457262039
 20
6.2039154648
 30
0.0
 10
7.4657202352
 20
6.2092964685
 30
0.0
 10
7.4743366648
 20
6.213684279
 30
0.0
 10
7.4831056371
 20
6.2169421976
 30
0.0
 10
7.4919878601
 20
6.2189612282
 30
0.0
 10
7.4979760765
 20
6.2194308965
 30
0.0
 10
7.5009401928
 20
6.2194308965
 30
0.0
  0
SPLINE
  5
427
100
AcDbEntity
  8
0
100
AcDbSpline
 62
7
  6
CONTINUOUS
 70
0
 71
3
 72
12
 73
8
 74
0
 42
0.0000001
 43
0.0000001
 44
0.0000000001
 40
0.0
 40
0.0
 40
0.0
 40
0.0
 40
0.2499444778
 40
0.4999243152
 40
0.6249517127
 40
0.7500555735
 40
1.0
 40
1.0
 40
1.0
 40
1.0
 10
7.1786034717
 20
6.1913258051
 30
0.0
 10
7.1879205113
 20
6.1955135672
 30
0.0
 10
7.2068614737
 20
6.2032351357
 30
0.0
 10
7.2313141664
 20
6.2107637136
 30
0.0
 10
7.2512815156
 20
6.2151814649
 30
0.0
 10
7.2714703697
 20
6.2184091595
 30
0.0
 10
7.2868190256
 20
6.2194308965
 30
0.0
 10
7.2970339428
 20
6.2194308965
 30
0.0
  0
LINE
  5
428
100
AcDbEntity
  8
0
100
AcDbLine
 62
7
  6
CONTINUOUS
 10
7.2886426275
 20
5.9831789928
 11
7.2928371883
 21
5.9725558965
  0
SPLINE
  5
429
100
AcDbEntity
  8
0
100
AcDbSpline
 62
7
  6
CONTINUOUS
 70
0
 71
3
 72
34
 73
30
 74
0
 42
0.0000001
 43
0.0000001
 44
0.0000000001
 40
0.0
 40
0.0
 40
0.0
 40
0.0
 40
0.0437191856
 40
0.0874888534
 40
0.1314745637
 40
0.175655462
 40
0.2195478179
 40
0.2632593022
 40
0.3072645207
 40
0.3511223362
 40
0.3942134587
 40
0.4367510272
 40
0.4787058132
 40
0.5196111995
 40
0.5593752065
 40
0.597992863
 40
0.6713585836
 40
0.738608442
 40
0.7988798026
 40
0.8513802919
 40
0.8954588066
 40
0.9306651774
 40
0.9449047025
 40
0.9569537812
 40
0.9669934314
 40
0.9755625787
 40
0.9840022621
 40
0.9896824413
 40
1.0
 40
1.0
 40
1.0
 40
1.0
 10
4.2492209398
 20
4.5771371682
 30
0.0
 10
4.2483045831
 20
4.5768046094
 30
0.0
 10
4.2464474526
 20
4.5762016724
 30
0.0
 10
4.2436027029
 20
4.5754848203
 30
0.0
 10
4.2407076127
 20
4.5749525751
 30
0.0
 10
4.2377809474
 20
4.5746022454
 30
0.0
 10
4.2348326619
 20
4.5745784181
 30
0.0
 10
4.2319194119
 20
4.5750662618
 30
0.0
 10
4.2291665202
 20
4.576130909
 30
0.0
 10
4.2266552572
 20
4.577651034
 30
0.0
 10
4.2244877434
 20
4.5795799926
 30
0.0
 10
4.2226580696
 20
4.581766769
 30
0.0
 10
4.221062596
 20
4.5840648724
 30
0.0
 10
4.2195963662
 20
4.5863733246
 30
0.0
 10
4.2182519157
 20
4.5886689491
 30
0.0
 10
4.2166286243
 20
4.5916381759
 30
0.0
 10
4.2148272048
 20
4.5952064239
 30
0.0
 10
4.2128735817
 20
4.5992372375
 30
0.0
 10
4.2111475707
 20
4.6028612169
 30
0.0
 10
4.2096263797
 20
4.6060107349
 30
0.0
 10
4.2082980361
 20
4.6086316442
 30
0.0
 10
4.2072785987
 20
4.6104535289
 30
0.0
 10
4.2065121367
 20
4.6115916541
 30
0.0
 10
4.2060063856
 20
4.6122260038
 30
0.0
 10
4.2055148571
 20
4.6127050528
 30
0.0
 10
4.2049900326
 20
4.6130210378
 30
0.0
 10
4.2044758451
 20
4.6131031571
 30
0.0
 10
4.2039352193
 20
4.613017575
 30
0.0
 10
4.2035926218
 20
4.6129171676
 30
0.0
 10
4.2033715277
 20
4.6128535764
 30
0.0
  0
SPLINE
  5
42A
100
AcDbEntity
  8
0
100
AcDbSpline
 62
7
  6
CONTINUOUS
 70
0
 71
3
 72
19
 73
15
 74
0
 42
0.0000001
 43
0.0000001
 44
0.0000000001
 40
0.0
 40
0.0
 40
0.0
 40
0.0
 40
0.2499969886
 40
0.3749970353
 40
0.4999970649
 40
0.6249971423
 40
0.6874973061
 40
0.7499974603
 40
0.812497631
 40
0.8749980919
 40
0.9062471329
 40
0.9374996678
 40
0.968747578
 40
1.0
 40
1.0
 40
1.0
 40
1.0
 10
4.2492207669
 20
4.5771376029
 30
0.0
 10
4.2563947033
 20
4.579397406
 30
0.0
 10
4.26712457
 20
4.5828874043
 30
0.0
 10
4.2813565288
 20
4.5877605643
 30
0.0
 10
4.2919957862
 20
4.5915156357
 30
0.0
 10
4.300832625
 20
4.5947263202
 30
0.0
 10
4.307888432
 20
4.5973319572
 30
0.0
 10
4.3131741138
 20
4.599302833
 30
0.0
 10
4.3184558546
 20
4.6012842852
 30
0.0
 10
4.3228541235
 20
4.6029437864
 30
0.0
 10
4.3263804962
 20
4.6042511355
 30
0.0
 10
4.329024264
 20
4.6052333107
 30
0.0
 10
4.3316806131
 20
4.6061851287
 30
0.0
 10
4.3334922139
 20
4.6066946796
 30
0.0
 10
4.334402323
 20
4.6069308965
 30
0.0
  0
SPLINE
  5
42B
100
AcDbEntity
  8
0
100
AcDbSpline
 62
7
  6
CONTINUOUS
 70
0
 71
3
 72
12
 73
8
 74
0
 42
0.0000001
 43
0.0000001
 44
0.0000000001
 40
0.0
 40
0.0
 40
0.0
 40
0.0
 40
0.2499475442
 40
0.3750584812
 40
0.5000881099
 40
0.7500641947
 40
1.0
 40
1.0
 40
1.0
 40
1.0
 10
4.9637006095
 20
6.2194308965
 30
0.0
 10
4.9739160298
 20
6.2194308965
 30
0.0
 10
4.989265617
 20
6.2184082086
 30
0.0
 10
5.0094556886
 20
6.2151802363
 30
0.0
 10
5.0294237955
 20
6.2107611529
 30
0.0
 10
5.0538758884
 20
6.2032291433
 30
0.0
 10
5.0728178502
 20
6.1955096644
 30
0.0
 10
5.0821352662
 20
6.1913226884
 30
0.0
  0
SPLINE
  5
42C
100
AcDbEntity
  8
0
100
AcDbSpline
 62
7
  6
CONTINUOUS
 70
0
 71
3
 72
11
 73
7
 74
0
 42
0.0000001
 43
0.0000001
 44
0.0000000001
 40
0.0
 40
0.0
 40
0.0
 40
0.0
 40
0.2653781222
 40
0.5210312118
 40
0.7659940495
 40
1.0
 40
1.0
 40
1.0
 40
1.0
 10
4.6918256095
 20
6.1830065531
 30
0.0
 10
4.6949791011
 20
6.1861600447
 30
0.0
 10
4.7013298277
 20
6.1921961533
 30
0.0
 10
4.711243545
 20
6.2004268741
 30
0.0
 10
4.721397159
 20
6.2074792874
 30
0.0
 10
4.7284873408
 20
6.2113402675
 30
0.0
 10
4.7320625148
 20
6.2129781526
 30
0.0
  0
SPLINE
  5
42D
100
AcDbEntity
  8
0
100
AcDbSpline
 62
7
  6
CONTINUOUS
 70
0
 71
3
 72
9
 73
5
 74
0
 42
0.0000001
 43
0.0000001
 44
0.0000000001
 40
0.0
 40
0.0
 40
0.0
 40
0.0
 40
0.5093621803
 40
1.0
 40
1.0
 40
1.0
 40
1.0
 10
4.7320625148
 20
6.2129781526
 30
0.0
 10
4.7364833089
 20
6.2150034395
 30
0.0
 10
4.7455369603
 20
6.2182378665
 30
0.0
 10
4.7551104781
 20
6.2194308965
 30
0.0
 10
4.7597943595
 20
6.2194308965
 30
0.0
  0
SPLINE
  5
42E
100
AcDbEntity
  8
0
100
AcDbSpline
 62
7
  6
CONTINUOUS
 70
0
 71
3
 72
19
 73
15
 74
0
 42
0.0000001
 43
0.0000001
 44
0.0000000001
 40
0.0
 40
0.0
 40
0.0
 40
0.0
 40
0.0312524215
 40
0.0625003327
 40
0.093752868
 40
0.1250019088
 40
0.1875023697
 40
0.2500025403
 40
0.3125026944
 40
0.3750028582
 40
0.5000029353
 40
0.6250029649
 40
0.7500030116
 40
1.0
 40
1.0
 40
1.0
 40
1.0
 10
7.9263322293
 20
4.6069308965
 30
0.0
 10
7.92724234
 20
4.606694686
 30
0.0
 10
7.9290539392
 20
4.6061851283
 30
0.0
 10
7.9317102896
 20
4.6052333149
 30
0.0
 10
7.9343540541
 20
4.6042511306
 30
0.0
 10
7.9378804289
 20
4.6029437871
 30
0.0
 10
7.9422786986
 20
4.6012842882
 30
0.0
 10
7.9475604385
 20
4.5993028336
 30
0.0
 10
7.9528461185
 20
4.5973319531
 30
0.0
 10
7.9599019226
 20
4.5947263087
 30
0.0
 10
7.9687387635
 20
4.5915156298
 30
0.0
 10
7.9793780353
 20
4.5877605993
 30
0.0
 10
7.9936100005
 20
4.5828874594
 30
0.0
 10
8.0043398497
 20
4.5793974078
 30
0.0
 10
8.0115137855
 20
4.5771376029
 30
0.0
  0
SPLINE
  5
42F
100
AcDbEntity
  8
0
100
AcDbSpline
 62
7
  6
CONTINUOUS
 70
0
 71
3
 72
14
 73
10
 74
0
 42
0.0000001
 43
0.0000001
 44
0.0000000001
 40
0.0
 40
0.0
 40
0.0
 40
0.0
 40
0.1124351762
 40
0.2268043085
 40
0.344450496
 40
0.4663514129
 40
0.5929780141
 40
0.7243086536
 40
1.0
 40
1.0
 40
1.0
 40
1.0
 10
4.7597943595
 20
6.2194308965
 30
0.0
 10
4.7627585156
 20
6.2194308965
 30
0.0
 10
4.7687463904
 20
6.2189656602
 30
0.0
 10
4.7776305113
 20
6.216956213
 30
0.0
 10
4.7864005128
 20
6.2136989558
 30
0.0
 10
4.7950148049
 20
6.2093026592
 30
0.0
 10
4.8034703599
 20
6.203913441
 30
0.0
 10
4.8147104702
 20
6.1954348502
 30
0.0
 10
4.8226237736
 20
6.188145889
 30
0.0
 10
4.8277631095
 20
6.1830065531
 30
0.0
  0
SPLINE
  5
430
100
AcDbEntity
  8
0
100
AcDbSpline
 62
7
  6
CONTINUOUS
 70
0
 71
3
 72
12
 73
8
 74
0
 42
0.0000001
 43
0.0000001
 44
0.0000000001
 40
0.0
 40
0.0
 40
0.0
 40
0.0
 40
0.2499349022
 40
0.4999225103
 40
0.6249577513
 40
0.7500443476
 40
1.0
 40
1.0
 40
1.0
 40
1.0
 10
4.8277631095
 20
6.1830065531
 30
0.0
 10
4.8383423291
 20
6.1882961629
 30
0.0
 10
4.8598803627
 20
6.1981505906
 30
0.0
 10
4.8878521437
 20
6.2079384035
 30
0.0
 10
4.9108077673
 20
6.2137640342
 30
0.0
 10
4.9340912641
 20
6.2180624959
 30
0.0
 10
4.9518717004
 20
6.2194308965
 30
0.0
 10
4.9637006095
 20
6.2194308965
 30
0.0
  0
SPLINE
  5
431
100
AcDbEntity
  8
0
100
AcDbSpline
 62
7
  6
CONTINUOUS
 70
0
 71
3
 72
32
 73
28
 74
0
 42
0.0000001
 43
0.0000001
 44
0.0000000001
 40
0.0
 40
0.0
 40
0.0
 40
0.0
 40
0.0103602915
 40
0.0159713454
 40
0.0244362898
 40
0.0330097062
 40
0.0430500616
 40
0.0693242652
 40
0.1045428282
 40
0.1486364515
 40
0.2011544746
 40
0.2614439084
 40
0.3287116574
 40
0.402093461
 40
0.4804971213
 40
0.5213280731
 40
0.56326787
 40
0.6059320861
 40
0.648946882
 40
0.6926441617
 40
0.7367245442
 40
0.7805779635
 40
0.8244088696
 40
0.8684986758
 40
0.9124745063
 40
0.9562627753
 40
1.0
 40
1.0
 40
1.0
 40
1.0
 10
8.0573630247
 20
4.6128535764
 30
0.0
 10
8.0571410163
 20
4.6129174348
 30
0.0
 10
8.0567991071
 20
4.6130185747
 30
0.0
 10
8.0562583172
 20
4.6131020691
 30
0.0
 10
8.0557449398
 20
4.6130214922
 30
0.0
 10
8.0552192016
 20
4.6127052019
 30
0.0
 10
8.0545011783
 20
4.6120022138
 30
0.0
 10
8.0535885405
 20
4.6106828351
 30
0.0
 10
8.0524349045
 20
4.6086315968
 30
0.0
 10
8.0511072336
 20
4.6060076458
 30
0.0
 10
8.0495852188
 20
4.6028578287
 30
0.0
 10
8.0478585131
 20
4.599232722
 30
0.0
 10
8.0459054717
 20
4.5952002243
 30
0.0
 10
8.0437009765
 20
4.5908413525
 30
0.0
 10
8.0416038517
 20
4.5870896313
 30
0.0
 10
8.0396654055
 20
4.5840621906
 30
0.0
 10
8.0380505742
 20
4.5817768657
 30
0.0
 10
8.0362311033
 20
4.5795827328
 30
0.0
 10
8.034088429
 20
4.5776289588
 30
0.0
 10
8.0315760825
 20
4.5761122643
 30
0.0
 10
8.0288145605
 20
4.5750696006
 30
0.0
 10
8.0259002802
 20
4.5745731546
 30
0.0
 10
8.0229513151
 20
4.5745981972
 30
0.0
 10
8.0200295779
 20
4.5749592232
 30
0.0
 10
8.0171380668
 20
4.5754996402
 30
0.0
 10
8.0142919731
 20
4.576212611
 30
0.0
 10
8.012431888
 20
4.5768087526
 30
0.0
 10
8.0115136125
 20
4.5771371682
 30
0.0
  0
SPLINE
  5
432
100
AcDbEntity
  8
0
100
AcDbSpline
 62
7
  6
CONTINUOUS
 70
0
 71
3
 72
23
 73
19
 74
0
 42
0.0000001
 43
0.0000001
 44
0.0000000001
 40
0.0
 40
0.0
 40
0.0
 40
0.0
 40
0.0625802913
 40
0.1252537184
 40
0.1878130058
 40
0.2503248321
 40
0.3127952048
 40
0.375220689
 40
0.437609241
 40
0.4999833449
 40
0.5623593739
 40
0.6247512531
 40
0.6871822353
 40
0.7496590193
 40
0.8121763348
 40
0.8747415518
 40
0.9374189903
 40
1.0
 40
1.0
 40
1.0
 40
1.0
 10
5.7816464387
 20
12.6000477814
 30
0.0
 10
5.7816464387
 20
12.5954955892
 30
0.0
 10
5.7807566093
 20
12.5863609592
 30
0.0
 10
5.7768368052
 20
12.573188682
 30
0.0
 10
5.7704409417
 20
12.5610222905
 30
0.0
 10
5.7618151065
 20
12.5503418468
 30
0.0
 10
5.7512840443
 20
12.5415467234
 30
0.0
 10
5.7392345606
 20
12.5349996063
 30
0.0
 10
5.7261367603
 20
12.5309615198
 30
0.0
 10
5.7125018692
 20
12.529591406
 30
0.0
 10
5.6988664741
 20
12.5309598449
 30
0.0
 10
5.6857677964
 20
12.5349976365
 30
0.0
 10
5.6737164013
 20
12.5415435948
 30
0.0
 10
5.6631841669
 20
12.5503393873
 30
0.0
 10
5.6545568123
 20
12.5610202476
 30
0.0
 10
5.6481601878
 20
12.5731875714
 30
0.0
 10
5.6442400786
 20
12.5863605651
 30
0.0
 10
5.6433501474
 20
12.5954955369
 30
0.0
 10
5.6433501474
 20
12.6000477814
 30
0.0
  0
SPLINE
  5
433
100
AcDbEntity
  8
0
100
AcDbSpline
 62
7
  6
CONTINUOUS
 70
0
 71
3
 72
23
 73
19
 74
0
 42
0.0000001
 43
0.0000001
 44
0.0000000001
 40
0.0
 40
0.0
 40
0.0
 40
0.0
 40
0.0625802913
 40
0.1252537184
 40
0.1878130058
 40
0.2503248321
 40
0.3127952048
 40
0.375220689
 40
0.437609241
 40
0.4999833449
 40
0.5623593739
 40
0.6247512531
 40
0.6871822353
 40
0.7496590193
 40
0.8121763348
 40
0.8747415518
 40
0.9374189903
 40
1.0
 40
1.0
 40
1.0
 40
1.0
 10
5.6433501474
 20
12.6000477814
 30
0.0
 10
5.6433501474
 20
12.6045999736
 30
0.0
 10
5.6442399768
 20
12.6137346035
 30
0.0
 10
5.6481597809
 20
12.6269068807
 30
0.0
 10
5.6545556445
 20
12.6390732722
 30
0.0
 10
5.6631814796
 20
12.6497537159
 30
0.0
 10
5.6737125418
 20
12.6585488393
 30
0.0
 10
5.6857620255
 20
12.6650959564
 30
0.0
 10
5.6988598259
 20
12.6691340429
 30
0.0
 10
5.712494717
 20
12.6705041567
 30
0.0
 10
5.726130112
 20
12.6691357178
 30
0.0
 10
5.7392287897
 20
12.6650979262
 30
0.0
 10
5.7512801848
 20
12.6585519679
 30
0.0
 10
5.7618124192
 20
12.6497561754
 30
0.0
 10
5.7704397738
 20
12.6390753152
 30
0.0
 10
5.7768363983
 20
12.6269079913
 30
0.0
 10
5.7807565075
 20
12.6137349976
 30
0.0
 10
5.7816464387
 20
12.6046000258
 30
0.0
 10
5.7816464387
 20
12.6000477814
 30
0.0
  0
SPLINE
  5
434
100
AcDbEntity
  8
0
100
AcDbSpline
 62
7
  6
CONTINUOUS
 70
0
 71
3
 72
9
 73
5
 74
0
 42
0.0000001
 43
0.0000001
 44
0.0000000001
 40
0.0
 40
0.0
 40
0.0
 40
0.0
 40
0.2513927263
 40
1.0
 40
1.0
 40
1.0
 40
1.0
 10
5.8505529614
 20
11.7201214905
 30
0.0
 10
5.8476647072
 20
11.7217082199
 30
0.0
 10
5.8361950667
 20
11.7280548777
 30
0.0
 10
5.8248237345
 20
11.7345815322
 30
0.0
 10
5.8164010873
 20
11.7396171982
 30
0.0
  0
SPLINE
  5
435
100
AcDbEntity
  8
0
100
AcDbSpline
 62
7
  6
CONTINUOUS
 70
0
 71
3
 72
9
 73
5
 74
0
 42
0.0000001
 43
0.0000001
 44
0.0000000001
 40
0.0
 40
0.0
 40
0.0
 40
0.0
 40
0.2472469783
 40
1.0
 40
1.0
 40
1.0
 40
1.0
 10
5.8164521004
 20
11.8565304615
 30
0.0
 10
5.8192346328
 20
11.8581931925
 30
0.0
 10
5.8305297373
 20
11.8648495378
 30
0.0
 10
5.8419666377
 20
11.8712628965
 30
0.0
 10
5.8506209789
 20
11.8760058416
 30
0.0
  0
SPLINE
  5
436
100
AcDbEntity
  8
0
100
AcDbSpline
 62
7
  6
CONTINUOUS
 70
0
 71
3
 72
9
 73
5
 74
0
 42
0.0000001
 43
0.0000001
 44
0.0000000001
 40
0.0
 40
0.0
 40
0.0
 40
0.0
 40
0.4950050432
 40
1.0
 40
1.0
 40
1.0
 40
1.0
 10
5.7853699792
 20
11.7590925782
 30
0.0
 10
5.784893308
 20
11.7655130608
 30
0.0
 10
5.7841086993
 20
11.7784980465
 30
0.0
 10
5.7838237347
 20
11.7915057465
 30
0.0
 10
5.7838266006
 20
11.7980738298
 30
0.0
  0
SPLINE
  5
437
100
AcDbEntity
  8
0
100
AcDbSpline
 62
7
  6
CONTINUOUS
 70
0
 71
3
 72
9
 73
5
 74
0
 42
0.0000001
 43
0.0000001
 44
0.0000000001
 40
0.0
 40
0.0
 40
0.0
 40
0.0
 40
0.2533480661
 40
1.0
 40
1.0
 40
1.0
 40
1.0
 10
5.7838266006
 20
11.7980738298
 30
0.0
 10
5.7838280376
 20
11.8013672182
 30
0.0
 10
5.783980967
 20
11.8143666721
 30
0.0
 10
5.7846762651
 20
11.8273559993
 30
0.0
 10
5.7854039879
 20
11.8370347538
 30
0.0
  0
SPLINE
  5
438
100
AcDbEntity
  8
0
100
AcDbSpline
 62
7
  6
CONTINUOUS
 70
0
 71
3
 72
11
 73
7
 74
0
 42
0.0000001
 43
0.0000001
 44
0.0000000001
 40
0.0
 40
0.0
 40
0.0
 40
0.0
 40
0.2924956656
 40
0.5502165766
 40
0.7817320221
 40
1.0
 40
1.0
 40
1.0
 40
1.0
 10
4.9125967326
 20
13.2351785088
 30
0.0
 10
4.9122804093
 20
13.235544576
 30
0.0
 10
4.9116434365
 20
13.2361996316
 30
0.0
 10
4.9105937106
 20
13.2369680408
 30
0.0
 10
4.9095108981
 20
13.2374409239
 30
0.0
 10
4.9087631985
 20
13.2375477814
 30
0.0
 10
4.9084021717
 20
13.2375477814
 30
0.0
  0
SPLINE
  5
439
100
AcDbEntity
  8
0
100
AcDbSpline
 62
7
  6
CONTINUOUS
 70
0
 71
3
 72
12
 73
8
 74
0
 42
0.0000001
 43
0.0000001
 44
0.0000000001
 40
0.0
 40
0.0
 40
0.0
 40
0.0
 40
0.3011120151
 40
0.5785032946
 40
0.8141693037
 40
0.9135646826
 40
1.0
 40
1.0
 40
1.0
 40
1.0
 10
4.9185349546
 20
13.2125477814
 30
0.0
 10
4.9185349546
 20
13.2149347959
 30
0.0
 10
4.9182597061
 20
13.2195266928
 30
0.0
 10
4.9170767761
 20
13.2258870555
 30
0.0
 10
4.9154885929
 20
13.2305069393
 30
0.0
 10
4.9139062712
 20
13.2334568028
 30
0.0
 10
4.9130448305
 20
13.2346601372
 30
0.0
 10
4.9125967326
 20
13.2351785088
 30
0.0
  0
SPLINE
  5
43A
100
AcDbEntity
  8
0
100
AcDbSpline
 62
7
  6
CONTINUOUS
 70
0
 71
3
 72
34
 73
30
 74
0
 42
0.0000001
 43
0.0000001
 44
0.0000000001
 40
0.0
 40
0.0
 40
0.0
 40
0.0
 40
0.0704289371
 40
0.1066902071
 40
0.1434991428
 40
0.1803022708
 40
0.216452644
 40
0.2510507762
 40
0.2828297115
 40
0.3108130194
 40
0.3356864143
 40
0.3815216874
 40
0.4274619209
 40
0.4763001011
 40
0.5293266637
 40
0.586811886
 40
0.6485657202
 40
0.7141261367
 40
0.7828671912
 40
0.8182014112
 40
0.8540383553
 40
0.8902678673
 40
0.9084970503
 40
0.9267829359
 40
0.9450944883
 40
0.9542655848
 40
0.9634555065
 40
0.9817777888
 40
1.0
 40
1.0
 40
1.0
 40
1.0
 10
7.9520184202
 20
13.2875043772
 30
0.0
 10
7.9538918306
 20
13.2875084429
 30
0.0
 10
7.9567298243
 20
13.2875035636
 30
0.0
 10
7.9605468361
 20
13.2874803061
 30
0.0
 10
7.9634693878
 20
13.287454962
 30
0.0
 10
7.9663885305
 20
13.2873914612
 30
0.0
 10
7.9692468865
 20
13.2872612092
 30
0.0
 10
7.9719655288
 20
13.2870340737
 30
0.0
 10
7.9744527463
 20
13.2866793093
 30
0.0
 10
7.9766440232
 20
13.2861390437
 30
0.0
 10
7.9790948718
 20
13.2851783623
 30
0.0
 10
7.9817341578
 20
13.2834829969
 30
0.0
 10
7.9843666482
 20
13.2807921784
 30
0.0
 10
7.986589608
 20
13.2775322053
 30
0.0
 10
7.9885407228
 20
13.2737610514
 30
0.0
 10
7.990261682
 20
13.2695087256
 30
0.0
 10
7.9917799052
 20
13.2648300757
 30
0.0
 10
7.9931085506
 20
13.2597848425
 30
0.0
 10
7.9940666247
 20
13.2553743364
 30
0.0
 10
7.9947742371
 20
13.2517204872
 30
0.0
 10
7.9952811447
 20
13.248908876
 30
0.0
 10
7.9956846816
 20
13.2465411326
 30
0.0
 10
7.9960134297
 20
13.2446342707
 30
0.0
 10
7.9962617897
 20
13.2431971258
 30
0.0
 10
7.9964903422
 20
13.2420013372
 30
0.0
 10
7.9966822189
 20
13.241044746
 30
0.0
 10
7.9968660362
 20
13.2400870588
 30
0.0
 10
7.9971407313
 20
13.238896415
 30
0.0
 10
7.9975941035
 20
13.2380212133
 30
0.0
 10
7.9978678324
 20
13.2376211904
 30
0.0
  0
SPLINE
  5
43B
100
AcDbEntity
  8
0
100
AcDbSpline
 62
7
  6
CONTINUOUS
 70
0
 71
3
 72
9
 73
5
 74
0
 42
0.0000001
 43
0.0000001
 44
0.0000000001
 40
0.0
 40
0.0
 40
0.0
 40
0.0
 40
0.2472008691
 40
1.0
 40
1.0
 40
1.0
 40
1.0
 10
5.881652087
 20
11.8565304616
 30
0.0
 10
5.8844333821
 20
11.8548676028
 30
0.0
 10
5.8957247388
 20
11.8482080452
 30
0.0
 10
5.9071549927
 20
11.8417862654
 30
0.0
 10
5.9158039611
 20
11.8370347539
 30
0.0
  0
SPLINE
  5
43C
100
AcDbEntity
  8
0
100
AcDbSpline
 62
7
  6
CONTINUOUS
 70
0
 71
3
 72
11
 73
7
 74
0
 42
0.0000001
 43
0.0000001
 44
0.0000000001
 40
0.0
 40
0.0
 40
0.0
 40
0.0
 40
0.2924960276
 40
0.5502163274
 40
0.781732035
 40
1.0
 40
1.0
 40
1.0
 40
1.0
 10
7.2291474352
 20
11.9649170539
 30
0.0
 10
7.2294637642
 20
11.9645509909
 30
0.0
 10
7.2301007323
 20
11.9638959327
 30
0.0
 10
7.2311504566
 20
11.9631275201
 30
0.0
 10
7.2322332695
 20
11.9626546395
 30
0.0
 10
7.2329809692
 20
11.9625477814
 30
0.0
 10
7.233341996
 20
11.9625477814
 30
0.0
  0
SPLINE
  5
43D
100
AcDbEntity
  8
0
100
AcDbSpline
 62
7
  6
CONTINUOUS
 70
0
 71
3
 72
12
 73
8
 74
0
 42
0.0000001
 43
0.0000001
 44
0.0000000001
 40
0.0
 40
0.0
 40
0.0
 40
0.0
 40
0.3011120151
 40
0.5785032946
 40
0.8141693037
 40
0.9135646826
 40
1.0
 40
1.0
 40
1.0
 40
1.0
 10
7.2232092131
 20
11.9875477814
 30
0.0
 10
7.2232092131
 20
11.9851607668
 30
0.0
 10
7.2234844616
 20
11.9805688699
 30
0.0
 10
7.2246673917
 20
11.9742085072
 30
0.0
 10
7.2262555748
 20
11.9695886235
 30
0.0
 10
7.2278378965
 20
11.9666387599
 30
0.0
 10
7.2286993373
 20
11.9654354256
 30
0.0
 10
7.2291474352
 20
11.9649170539
 30
0.0
  0
SPLINE
  5
43E
100
AcDbEntity
  8
0
100
AcDbSpline
 62
7
  6
CONTINUOUS
 70
0
 71
3
 72
12
 73
8
 74
0
 42
0.0000001
 43
0.0000001
 44
0.0000000001
 40
0.0
 40
0.0
 40
0.0
 40
0.0
 40
0.0864394938
 40
0.1858379911
 40
0.4215088423
 40
0.6989054575
 40
1.0
 40
1.0
 40
1.0
 40
1.0
 10
7.2291474352
 20
13.2351785088
 30
0.0
 10
7.2286993247
 20
13.2346601226
 30
0.0
 10
7.2278376315
 20
13.2334569653
 30
0.0
 10
7.2262546244
 20
13.2305073633
 30
0.0
 10
7.2246695729
 20
13.225886185
 30
0.0
 10
7.223488269
 20
13.2195261381
 30
0.0
 10
7.2232092131
 20
13.2149346092
 30
0.0
 10
7.2232092131
 20
13.2125477814
 30
0.0
  0
SPLINE
  5
43F
100
AcDbEntity
  8
0
100
AcDbSpline
 62
7
  6
CONTINUOUS
 70
0
 71
3
 72
11
 73
7
 74
0
 42
0.0000001
 43
0.0000001
 44
0.0000000001
 40
0.0
 40
0.0
 40
0.0
 40
0.0
 40
0.2182681586
 40
0.4497838585
 40
0.7075046193
 40
1.0
 40
1.0
 40
1.0
 40
1.0
 10
7.233341996
 20
13.2375477814
 30
0.0
 10
7.2329809688
 20
13.2375477814
 30
0.0
 10
7.2322332685
 20
13.2374409237
 30
0.0
 10
7.2311504549
 20
13.2369680417
 30
0.0
 10
7.2301007291
 20
13.2361996322
 30
0.0
 10
7.2294637582
 20
13.2355445757
 30
0.0
 10
7.2291474352
 20
13.2351785088
 30
0.0
  0
SPLINE
  5
440
100
AcDbEntity
  8
0
100
AcDbSpline
 62
7
  6
CONTINUOUS
 70
0
 71
3
 72
24
 73
20
 74
0
 42
0.0000001
 43
0.0000001
 44
0.0000000001
 40
0.0
 40
0.0
 40
0.0
 40
0.0
 40
0.0631083338
 40
0.0945687741
 40
0.1259407779
 40
0.1883586372
 40
0.2504438903
 40
0.3122617432
 40
0.3739008232
 40
0.4354769827
 40
0.4971077064
 40
0.5589107286
 40
0.6209773347
 40
0.6833750734
 40
0.746135113
 40
0.8092272099
 40
0.8726311612
 40
0.9363158236
 40
1.0
 40
1.0
 40
1.0
 40
1.0
 10
5.6585503533
 20
12.6442932434
 30
0.0
 10
5.6609046973
 20
12.6488966289
 30
0.0
 10
5.6650054691
 20
12.6555242059
 30
0.0
 10
5.6714784507
 20
12.6635704911
 30
0.0
 10
5.6785510005
 20
12.6710202871
 30
0.0
 10
5.688480846
 20
12.6791532484
 30
0.0
 10
5.7018011367
 20
12.686754819
 30
0.0
 10
5.7161598356
 20
12.6919684481
 30
0.0
 10
5.7311542984
 20
12.6946594816
 30
0.0
 10
5.7463737042
 20
12.6947448392
 30
0.0
 10
5.7613956698
 20
12.6922226037
 30
0.0
 10
5.7758080348
 20
12.6871705437
 30
0.0
 10
5.7892089724
 20
12.6797177889
 30
0.0
 10
5.8012372268
 20
12.6700833568
 30
0.0
 10
5.8115545274
 20
12.6585239972
 30
0.0
 10
5.8198897962
 20
12.6453677663
 30
0.0
 10
5.8260133466
 20
12.6309640304
 30
0.0
 10
5.829742827
 20
12.61571937
 30
0.0
 10
5.8305873059
 20
12.6052654628
 30
0.0
 10
5.8305873059
 20
12.6000477814
 30
0.0
  0
SPLINE
  5
441
100
AcDbEntity
  8
0
100
AcDbSpline
 62
7
  6
CONTINUOUS
 70
0
 71
3
 72
24
 73
20
 74
0
 42
0.0000001
 43
0.0000001
 44
0.0000000001
 40
0.0
 40
0.0
 40
0.0
 40
0.0
 40
0.0636845135
 40
0.1273670521
 40
0.1907675542
 40
0.2538572876
 40
0.31661538
 40
0.3790126599
 40
0.4410801519
 40
0.5028857648
 40
0.5645185055
 40
0.6260956224
 40
0.6877345286
 40
0.7495512735
 40
0.8116366092
 40
0.8740553222
 40
0.9054281905
 40
0.9368895023
 40
1.0
 40
1.0
 40
1.0
 40
1.0
 10
5.8305873059
 20
12.6000477814
 30
0.0
 10
5.8305873059
 20
12.5948334036
 30
0.0
 10
5.8297439835
 20
12.5843863314
 30
0.0
 10
5.8260193167
 20
12.5691513483
 30
0.0
 10
5.8199039758
 20
12.5547557908
 30
0.0
 10
5.8115793459
 20
12.5416054736
 30
0.0
 10
5.8012750355
 20
12.5300484532
 30
0.0
 10
5.7892604969
 20
12.5204129479
 30
0.0
 10
5.7758734319
 20
12.5129551791
 30
0.0
 10
5.7614743657
 20
12.5078935186
 30
0.0
 10
5.7464639972
 20
12.5053588721
 30
0.0
 10
5.7312540914
 20
12.5054272527
 30
0.0
 10
5.7162662145
 20
12.5080993285
 30
0.0
 10
5.7019101292
 20
12.5132909218
 30
0.0
 10
5.6885880305
 20
12.520869415
 30
0.0
 10
5.6786527116
 20
12.5289828667
 30
0.0
 10
5.6715732826
 20
12.5364173425
 30
0.0
 10
5.6650915384
 20
12.5444485024
 30
0.0
 10
5.6609827283
 20
12.5510655048
 30
0.0
 10
5.658622254
 20
12.5556622384
 30
0.0
  0
SPLINE
  5
442
100
AcDbEntity
  8
0
100
AcDbSpline
 62
7
  6
CONTINUOUS
 70
0
 71
3
 72
34
 73
30
 74
0
 42
0.0000001
 43
0.0000001
 44
0.0000000001
 40
0.0
 40
0.0
 40
0.0
 40
0.0
 40
0.0704289371
 40
0.1066902071
 40
0.1434991428
 40
0.1803022708
 40
0.216452644
 40
0.2510507762
 40
0.2828297115
 40
0.3108130194
 40
0.3356864143
 40
0.3815216875
 40
0.427461921
 40
0.4763001011
 40
0.5293266638
 40
0.586811886
 40
0.6485657202
 40
0.7141261367
 40
0.7828671912
 40
0.8182014112
 40
0.8540383553
 40
0.8902678673
 40
0.9084970503
 40
0.9267829359
 40
0.9450944883
 40
0.9542655848
 40
0.9634555065
 40
0.9817777888
 40
1.0
 40
1.0
 40
1.0
 40
1.0
 10
4.1897257475
 20
11.9125911855
 30
0.0
 10
4.1878523371
 20
11.9125871198
 30
0.0
 10
4.1850143434
 20
11.9125919991
 30
0.0
 10
4.1811973316
 20
11.9126152567
 30
0.0
 10
4.1782747799
 20
11.9126406007
 30
0.0
 10
4.1753556373
 20
11.9127041015
 30
0.0
 10
4.1724972813
 20
11.9128343535
 30
0.0
 10
4.1697786389
 20
11.913061489
 30
0.0
 10
4.1672914215
 20
11.9134162534
 30
0.0
 10
4.1651001445
 20
11.913956519
 30
0.0
 10
4.1626492959
 20
11.9149172004
 30
0.0
 10
4.1600100099
 20
11.9166125658
 30
0.0
 10
4.1573775195
 20
11.9193033843
 30
0.0
 10
4.1551545598
 20
11.9225633575
 30
0.0
 10
4.1532034449
 20
11.9263345114
 30
0.0
 10
4.1514824857
 20
11.9305868371
 30
0.0
 10
4.1499642625
 20
11.935265487
 30
0.0
 10
4.1486356171
 20
11.9403107202
 30
0.0
 10
4.147677543
 20
11.9447212263
 30
0.0
 10
4.1469699306
 20
11.9483750755
 30
0.0
 10
4.146463023
 20
11.9511866867
 30
0.0
 10
4.1460594861
 20
11.9535544301
 30
0.0
 10
4.145730738
 20
11.955461292
 30
0.0
 10
4.145482378
 20
11.9568984369
 30
0.0
 10
4.1452538256
 20
11.9580942255
 30
0.0
 10
4.1450619488
 20
11.9590508167
 30
0.0
 10
4.1448781315
 20
11.960008504
 30
0.0
 10
4.1446034364
 20
11.9611991478
 30
0.0
 10
4.1441500642
 20
11.9620743494
 30
0.0
 10
4.1438763353
 20
11.9624743723
 30
0.0
  0
SPLINE
  5
443
100
AcDbEntity
  8
0
100
AcDbSpline
 62
7
  6
CONTINUOUS
 70
0
 71
3
 72
11
 73
7
 74
0
 42
0.0000001
 43
0.0000001
 44
0.0000000001
 40
0.0
 40
0.0
 40
0.0
 40
0.0
 40
0.2523610459
 40
0.5036007741
 40
0.7529140216
 40
1.0
 40
1.0
 40
1.0
 40
1.0
 10
5.9142265738
 20
11.7980738299
 30
0.0
 10
5.9142291351
 20
11.8039438105
 30
0.0
 10
5.9127446412
 20
11.8157121814
 30
0.0
 10
5.9061854601
 20
11.8321494394
 30
0.0
 10
5.8957428676
 20
11.8462905717
 30
0.0
 10
5.8865849653
 20
11.8535812311
 30
0.0
 10
5.881652087
 20
11.8565304616
 30
0.0
  0
SPLINE
  5
444
100
AcDbEntity
  8
0
100
AcDbSpline
 62
7
  6
CONTINUOUS
 70
0
 71
3
 72
11
 73
7
 74
0
 42
0.0000001
 43
0.0000001
 44
0.0000000001
 40
0.0
 40
0.0
 40
0.0
 40
0.0
 40
0.2505375542
 40
0.4999458356
 40
0.7493832412
 40
1.0
 40
1.0
 40
1.0
 40
1.0
 10
5.881652087
 20
11.8565304616
 30
0.0
 10
5.8767577592
 20
11.8594566437
 30
0.0
 10
5.8661569991
 20
11.8640182804
 30
0.0
 10
5.8490553535
 20
11.8663493585
 30
0.0
 10
5.8319520286
 20
11.8640177695
 30
0.0
 10
5.8213486478
 20
11.8594564441
 30
0.0
 10
5.8164521004
 20
11.8565304615
 30
0.0
  0
SPLINE
  5
445
100
AcDbEntity
  8
0
100
AcDbSpline
 62
7
  6
CONTINUOUS
 70
0
 71
3
 72
11
 73
7
 74
0
 42
0.0000001
 43
0.0000001
 44
0.0000000001
 40
0.0
 40
0.0
 40
0.0
 40
0.0
 40
0.2471138366
 40
0.4964533085
 40
0.7476901959
 40
1.0
 40
1.0
 40
1.0
 40
1.0
 10
5.8164521004
 20
11.8565304615
 30
0.0
 10
5.8115164475
 20
11.853581111
 30
0.0
 10
5.8023524866
 20
11.8462905874
 30
0.0
 10
5.7918980025
 20
11.8321503308
 30
0.0
 10
5.7853243847
 20
11.8157138554
 30
0.0
 10
5.7838291621
 20
11.8039444516
 30
0.0
 10
5.7838266006
 20
11.7980738299
 30
0.0
  0
SPLINE
  5
446
100
AcDbEntity
  8
0
100
AcDbSpline
 62
7
  6
CONTINUOUS
 70
0
 71
3
 72
11
 73
7
 74
0
 42
0.0000001
 43
0.0000001
 44
0.0000000001
 40
0.0
 40
0.0
 40
0.0
 40
0.0
 40
0.2523610459
 40
0.5036007741
 40
0.7529140216
 40
1.0
 40
1.0
 40
1.0
 40
1.0
 10
5.7838266006
 20
11.7980738299
 30
0.0
 10
5.7838240393
 20
11.7922038492
 30
0.0
 10
5.7853085331
 20
11.7804354783
 30
0.0
 10
5.7918677142
 20
11.7639982203
 30
0.0
 10
5.8023103068
 20
11.749857088
 30
0.0
 10
5.811468209
 20
11.7425664286
 30
0.0
 10
5.8164010873
 20
11.7396171982
 30
0.0
  0
SPLINE
  5
447
100
AcDbEntity
  8
0
100
AcDbSpline
 62
7
  6
CONTINUOUS
 70
0
 71
3
 72
11
 73
7
 74
0
 42
0.0000001
 43
0.0000001
 44
0.0000000001
 40
0.0
 40
0.0
 40
0.0
 40
0.0
 40
0.2505375542
 40
0.4999458356
 40
0.7493832412
 40
1.0
 40
1.0
 40
1.0
 40
1.0
 10
5.8164010873
 20
11.7396171982
 30
0.0
 10
5.8212954152
 20
11.736691016
 30
0.0
 10
5.8318961753
 20
11.7321293793
 30
0.0
 10
5.8489978208
 20
11.7297983012
 30
0.0
 10
5.8661011458
 20
11.7321298902
 30
0.0
 10
5.8767045265
 20
11.7366912156
 30
0.0
 10
5.8816010739
 20
11.7396171982
 30
0.0
  0
SPLINE
  5
448
100
AcDbEntity
  8
0
100
AcDbSpline
 62
7
  6
CONTINUOUS
 70
0
 71
3
 72
11
 73
7
 74
0
 42
0.0000001
 43
0.0000001
 44
0.0000000001
 40
0.0
 40
0.0
 40
0.0
 40
0.0
 40
0.2471138366
 40
0.4964533085
 40
0.7476901959
 40
1.0
 40
1.0
 40
1.0
 40
1.0
 10
5.8816010739
 20
11.7396171982
 30
0.0
 10
5.8865367269
 20
11.7425665487
 30
0.0
 10
5.8957006877
 20
11.7498570723
 30
0.0
 10
5.9061551719
 20
11.7639973289
 30
0.0
 10
5.9127287896
 20
11.7804338043
 30
0.0
 10
5.9142240123
 20
11.7922032081
 30
0.0
 10
5.9142265738
 20
11.7980738299
 30
0.0
  0
SPLINE
  5
449
100
AcDbEntity
  8
0
100
AcDbSpline
 62
7
  6
CONTINUOUS
 70
0
 71
3
 72
33
 73
29
 74
0
 42
0.0000001
 43
0.0000001
 44
0.0000000001
 40
0.0
 40
0.0
 40
0.0
 40
0.0
 40
0.0182214701
 40
0.0365505302
 40
0.0457409706
 40
0.0549119391
 40
0.0732281603
 40
0.0915187524
 40
0.1097511921
 40
0.1459887394
 40
0.1818330421
 40
0.2171743922
 40
0.2859283734
 40
0.3514993895
 40
0.4132614085
 40
0.4707517745
 40
0.5237791853
 40
0.5726182254
 40
0.6185398903
 40
0.6645390378
 40
0.6893865749
 40
0.7171351494
 40
0.7488024206
 40
0.7835207102
 40
0.8565317052
 40
0.8932523491
 40
0.9294899301
 40
1.0
 40
1.0
 40
1.0
 40
1.0
 10
4.1438763353
 20
13.2376211915
 30
0.0
 10
4.1441526881
 20
13.2380193762
 30
0.0
 10
4.1446085323
 20
13.2388947121
 30
0.0
 10
4.1448748143
 20
13.2400874662
 30
0.0
 10
4.1450615625
 20
13.24104472
 30
0.0
 10
4.1452550973
 20
13.2420011177
 30
0.0
 10
4.1454821145
 20
13.2431974407
 30
0.0
 10
4.1457304174
 20
13.2446349124
 30
0.0
 10
4.1460602482
 20
13.2465420025
 30
0.0
 10
4.146462932
 20
13.2489103707
 30
0.0
 10
4.1469704027
 20
13.2517224623
 30
0.0
 10
4.1476779609
 20
13.2553770234
 30
0.0
 10
4.1486364251
 20
13.259788241
 30
0.0
 10
4.1499654098
 20
13.2648341862
 30
0.0
 10
4.1514840747
 20
13.2695133647
 30
0.0
 10
4.1532058607
 20
13.2737655734
 30
0.0
 10
4.1551565506
 20
13.2775374723
 30
0.0
 10
4.1573817019
 20
13.2807944899
 30
0.0
 10
4.1600123992
 20
13.2834940698
 30
0.0
 10
4.1626648943
 20
13.2851755079
 30
0.0
 10
4.1651120404
 20
13.2861359092
 30
0.0
 10
4.1672909057
 20
13.2866850063
 30
0.0
 10
4.1697724756
 20
13.2870394027
 30
0.0
 10
4.1734693167
 20
13.2873400421
 30
0.0
 10
4.1773121381
 20
13.2874447678
 30
0.0
 10
4.1811945094
 20
13.2874806839
 30
0.0
 10
4.1850107309
 20
13.2875028193
 30
0.0
 10
4.1878501971
 20
13.2875080006
 30
0.0
 10
4.1897257475
 20
13.2875043772
 30
0.0
  0
SPLINE
  5
44A
100
AcDbEntity
  8
0
100
AcDbSpline
 62
7
  6
CONTINUOUS
 70
0
 71
3
 72
9
 73
5
 74
0
 42
0.0000001
 43
0.0000001
 44
0.0000000001
 40
0.0
 40
0.0
 40
0.0
 40
0.0
 40
0.2513517865
 40
1.0
 40
1.0
 40
1.0
 40
1.0
 10
5.9157699524
 20
11.7590925783
 30
0.0
 10
5.9128801984
 20
11.7575088708
 30
0.0
 10
5.9014031199
 20
11.7511724078
 30
0.0
 10
5.8900263554
 20
11.7446518123
 30
0.0
 10
5.8816010739
 20
11.7396171982
 30
0.0
  0
SPLINE
  5
44B
100
AcDbEntity
  8
0
100
AcDbSpline
 62
7
  6
CONTINUOUS
 70
0
 71
3
 72
12
 73
8
 74
0
 42
0.0000001
 43
0.0000001
 44
0.0000000001
 40
0.0
 40
0.0
 40
0.0
 40
0.0
 40
0.0864394938
 40
0.1858379911
 40
0.4215088423
 40
0.6989054575
 40
1.0
 40
1.0
 40
1.0
 40
1.0
 10
4.9125967326
 20
11.9649170539
 30
0.0
 10
4.9130448431
 20
11.9654354402
 30
0.0
 10
4.9139065362
 20
11.9666385974
 30
0.0
 10
4.9154895434
 20
11.9695881995
 30
0.0
 10
4.9170745948
 20
11.9742093777
 30
0.0
 10
4.9182558987
 20
11.9805694246
 30
0.0
 10
4.9185349546
 20
11.9851609535
 30
0.0
 10
4.9185349546
 20
11.9875477814
 30
0.0
  0
SPLINE
  5
44C
100
AcDbEntity
  8
0
100
AcDbSpline
 62
7
  6
CONTINUOUS
 70
0
 71
3
 72
11
 73
7
 74
0
 42
0.0000001
 43
0.0000001
 44
0.0000000001
 40
0.0
 40
0.0
 40
0.0
 40
0.0
 40
0.2182681512
 40
0.4497840902
 40
0.7075042805
 40
1.0
 40
1.0
 40
1.0
 40
1.0
 10
4.9084021717
 20
11.9625477814
 30
0.0
 10
4.9087631988
 20
11.9625477814
 30
0.0
 10
4.9095108993
 20
11.9626546396
 30
0.0
 10
4.9105937133
 20
11.9631275194
 30
0.0
 10
4.9116434376
 20
11.963895932
 30
0.0
 10
4.9122804041
 20
11.964550991
 30
0.0
 10
4.9125967326
 20
11.9649170539
 30
0.0
  0
SPLINE
  5
44D
100
AcDbEntity
  8
0
100
AcDbSpline
 62
7
  6
CONTINUOUS
 70
0
 71
3
 72
33
 73
29
 74
0
 42
0.0000001
 43
0.0000001
 44
0.0000000001
 40
0.0
 40
0.0
 40
0.0
 40
0.0
 40
0.0182214701
 40
0.0365505302
 40
0.0457409706
 40
0.0549119391
 40
0.0732281603
 40
0.0915187524
 40
0.1097511921
 40
0.1459887394
 40
0.1818330421
 40
0.2171743922
 40
0.2859283734
 40
0.3514993895
 40
0.4132614086
 40
0.4707517745
 40
0.5237791853
 40
0.5726182254
 40
0.6185398903
 40
0.6645390379
 40
0.6893865749
 40
0.7171351494
 40
0.7488024206
 40
0.7835207102
 40
0.8565317052
 40
0.8932523491
 40
0.9294899301
 40
1.0
 40
1.0
 40
1.0
 40
1.0
 10
7.9978678324
 20
11.9624743713
 30
0.0
 10
7.9975914796
 20
11.9620761865
 30
0.0
 10
7.9971356354
 20
11.9612008507
 30
0.0
 10
7.9968693534
 20
11.9600080965
 30
0.0
 10
7.9966826052
 20
11.9590508427
 30
0.0
 10
7.9964890704
 20
11.958094445
 30
0.0
 10
7.9962620532
 20
11.956898122
 30
0.0
 10
7.9960137503
 20
11.9554606503
 30
0.0
 10
7.9956839195
 20
11.9535535602
 30
0.0
 10
7.9952812357
 20
11.951185192
 30
0.0
 10
7.994773765
 20
11.9483731004
 30
0.0
 10
7.9940662068
 20
11.9447185393
 30
0.0
 10
7.9931077426
 20
11.9403073217
 30
0.0
 10
7.9917787579
 20
11.9352613765
 30
0.0
 10
7.990260093
 20
11.9305821981
 30
0.0
 10
7.988538307
 20
11.9263299893
 30
0.0
 10
7.9865876171
 20
11.9225580905
 30
0.0
 10
7.9843624659
 20
11.9193010728
 30
0.0
 10
7.9817317685
 20
11.9166014929
 30
0.0
 10
7.9790792734
 20
11.9149200548
 30
0.0
 10
7.9766321274
 20
11.9139596536
 30
0.0
 10
7.974453262
 20
11.9134105565
 30
0.0
 10
7.9719716921
 20
11.91305616
 30
0.0
 10
7.968274851
 20
11.9127555206
 30
0.0
 10
7.9644320297
 20
11.9126507949
 30
0.0
 10
7.9605496583
 20
11.9126148789
 30
0.0
 10
7.9567334368
 20
11.9125927434
 30
0.0
 10
7.9538939706
 20
11.9125875622
 30
0.0
 10
7.9520184202
 20
11.9125911855
 30
0.0
  0
SPLINE
  5
44E
100
AcDbEntity
  8
0
100
AcDbSpline
 62
7
  6
CONTINUOUS
 70
0
 71
3
 72
9
 73
5
 74
0
 42
0.0000001
 43
0.0000001
 44
0.0000000001
 40
0.0
 40
0.0
 40
0.0
 40
0.0
 40
0.4948909679
 40
1.0
 40
1.0
 40
1.0
 40
1.0
 10
5.9158039611
 20
11.8370347539
 30
0.0
 10
5.9153215995
 20
11.8306193175
 30
0.0
 10
5.9145255492
 20
11.8176413461
 30
0.0
 10
5.9142294389
 20
11.8046402079
 30
0.0
 10
5.9142265738
 20
11.7980738299
 30
0.0
  0
SPLINE
  5
44F
100
AcDbEntity
  8
0
100
AcDbSpline
 62
7
  6
CONTINUOUS
 70
0
 71
3
 72
9
 73
5
 74
0
 42
0.0000001
 43
0.0000001
 44
0.0000000001
 40
0.0
 40
0.0
 40
0.0
 40
0.0
 40
0.2532591561
 40
1.0
 40
1.0
 40
1.0
 40
1.0
 10
5.9142265738
 20
11.7980738299
 30
0.0
 10
5.9142251366
 20
11.794779998
 30
0.0
 10
5.9143668137
 20
11.7817741
 30
0.0
 10
5.9150508946
 20
11.7687778678
 30
0.0
 10
5.9157699524
 20
11.7590925783
 30
0.0
  0
SPLINE
  5
450
100
AcDbEntity
  8
0
100
AcDbSpline
 62
7
  6
CONTINUOUS
 70
0
 71
3
 72
22
 73
18
 74
0
 42
0.0000001
 43
0.0000001
 44
0.0000000001
 40
0.0
 40
0.0
 40
0.0
 40
0.0
 40
0.0641239113
 40
0.1270690687
 40
0.2469063657
 40
0.3061016583
 40
0.3664866913
 40
0.4282874658
 40
0.4910746125
 40
0.5544132293
 40
0.6180438326
 40
0.6818124515
 40
0.7456590924
 40
0.809542254
 40
0.8733408433
 40
0.9367942223
 40
1.0
 40
1.0
 40
1.0
 40
1.0
 10
15.5603552569
 20
6.8426253757
 30
0.0
 10
15.5575074377
 20
6.8426253757
 30
0.0
 10
15.5518616486
 20
6.8424535775
 30
0.0
 10
15.5409412344
 20
6.8414458333
 30
0.0
 10
15.5303359927
 20
6.839348852
 30
0.0
 10
15.5203357438
 20
6.8356668061
 30
0.0
 10
15.5131898667
 20
6.8318898092
 30
0.0
 10
15.5065507768
 20
6.8269926019
 30
0.0
 10
15.5007298654
 20
6.8209542381
 30
0.0
 10
15.4959859184
 20
6.8139361303
 30
0.0
 10
15.4925548219
 20
6.8061404938
 30
0.0
 10
15.4905742288
 20
6.7978334713
 30
0.0
 10
15.4901300522
 20
6.7892923363
 30
0.0
 10
15.491255713
 20
6.7808135081
 30
0.0
 10
15.4938806644
 20
6.7726920546
 30
0.0
 10
15.4979037205
 20
6.7652018363
 30
0.0
 10
15.5014220694
 20
6.7607697986
 30
0.0
 10
15.5033484902
 20
6.7587281332
 30
0.0
  0
SPLINE
  5
451
100
AcDbEntity
  8
0
100
AcDbSpline
 62
7
  6
CONTINUOUS
 70
0
 71
3
 72
23
 73
19
 74
0
 42
0.0000001
 43
0.0000001
 44
0.0000000001
 40
0.0
 40
0.0
 40
0.0
 40
0.0
 40
0.0630570804
 40
0.1264851392
 40
0.1902133232
 40
0.2540252431
 40
0.317852595
 40
0.3816528621
 40
0.4453271599
 40
0.5087350746
 40
0.5715575687
 40
0.6334056751
 40
0.6937721078
 40
0.752995861
 40
0.8122668086
 40
0.8729418609
 40
0.9358818451
 40
1.0
 40
1.0
 40
1.0
 40
1.0
 10
15.6173568702
 20
6.7587221077
 30
0.0
 10
15.6192797515
 20
6.7607586989
 30
0.0
 10
15.6227960339
 20
6.765183987
 30
0.0
 10
15.6268145387
 20
6.7726650895
 30
0.0
 10
15.6294544142
 20
6.7807758319
 30
0.0
 10
15.6305739057
 20
6.7892498865
 30
0.0
 10
15.6301444981
 20
6.797789998
 30
0.0
 10
15.6281674601
 20
6.8061024586
 30
0.0
 10
15.6247406563
 20
6.8139085345
 30
0.0
 10
15.6199946059
 20
6.8209352385
 30
0.0
 10
15.61417091
 20
6.8269823826
 30
0.0
 10
15.607528858
 20
6.8318828421
 30
0.0
 10
15.6003818441
 20
6.8356657905
 30
0.0
 10
15.5929077991
 20
6.8384147213
 30
0.0
 10
15.5851838118
 20
6.8403794241
 30
0.0
 10
15.5771574004
 20
6.8416853978
 30
0.0
 10
15.5688486556
 20
6.8424537355
 30
0.0
 10
15.5632033128
 20
6.8426253757
 30
0.0
 10
15.5603552569
 20
6.8426253757
 30
0.0
  0
SPLINE
  5
452
100
AcDbEntity
  8
0
100
AcDbSpline
 62
7
  6
CONTINUOUS
 70
0
 71
3
 72
9
 73
5
 74
0
 42
0.0000001
 43
0.0000001
 44
0.0000000001
 40
0.0
 40
0.0
 40
0.0
 40
0.0
 40
0.4947176418
 40
1.0
 40
1.0
 40
1.0
 40
1.0
 10
15.5014655818
 20
6.7274322762
 30
0.0
 10
15.5027101508
 20
6.7305603317
 30
0.0
 10
15.5046208474
 20
6.7371389007
 30
0.0
 10
15.5052683591
 20
6.7439590642
 30
0.0
 10
15.5052683591
 20
6.7473975107
 30
0.0
  0
SPLINE
  5
453
100
AcDbEntity
  8
0
100
AcDbSpline
 62
7
  6
CONTINUOUS
 70
0
 71
3
 72
9
 73
5
 74
0
 42
0.0000001
 43
0.0000001
 44
0.0000000001
 40
0.0
 40
0.0
 40
0.0
 40
0.0
 40
0.2540769026
 40
1.0
 40
1.0
 40
1.0
 40
1.0
 10
15.6154421548
 20
6.7473975107
 30
0.0
 10
15.6154421548
 20
6.7456774121
 30
0.0
 10
15.6157669006
 20
6.7389117596
 30
0.0
 10
15.6173509295
 20
6.7322030628
 30
0.0
 10
15.6192135984
 20
6.7275092489
 30
0.0
  0
SPLINE
  5
454
100
AcDbEntity
  8
0
100
AcDbSpline
 62
7
  6
CONTINUOUS
 70
0
 71
3
 72
9
 73
5
 74
0
 42
0.0000001
 43
0.0000001
 44
0.0000000001
 40
0.0
 40
0.0
 40
0.0
 40
0.0
 40
0.5163270637
 40
1.0
 40
1.0
 40
1.0
 40
1.0
 10
14.7583813054
 20
6.2988048612
 30
0.0
 10
14.7642084059
 20
6.2987953722
 30
0.0
 10
14.775496393
 20
6.2984039148
 30
0.0
 10
14.7867337614
 20
6.2972245733
 30
0.0
 10
14.7921311126
 20
6.2964092598
 30
0.0
  0
SPLINE
  5
455
100
AcDbEntity
  8
0
100
AcDbSpline
 62
7
  6
CONTINUOUS
 70
0
 71
3
 72
11
 73
7
 74
0
 42
0.0000001
 43
0.0000001
 44
0.0000000001
 40
0.0
 40
0.0
 40
0.0
 40
0.0
 40
0.2910487846
 40
0.5571532652
 40
0.794532521
 40
1.0
 40
1.0
 40
1.0
 40
1.0
 10
14.7921311126
 20
6.2964092598
 30
0.0
 10
14.7945866745
 20
6.2960383273
 30
0.0
 10
14.7992732281
 20
6.2952288703
 30
0.0
 10
14.8058902935
 20
6.2937368818
 30
0.0
 10
14.811700481
 20
6.2920387643
 30
0.0
 10
14.8152391216
 20
6.2906938493
 30
0.0
 10
14.8168379371
 20
6.2899745143
 30
0.0
  0
SPLINE
  5
456
100
AcDbEntity
  8
0
100
AcDbSpline
 62
7
  6
CONTINUOUS
 70
0
 71
3
 72
11
 73
7
 74
0
 42
0.0000001
 43
0.0000001
 44
0.0000000001
 40
0.0
 40
0.0
 40
0.0
 40
0.0
 40
0.2054027304
 40
0.4427575302
 40
0.7088829235
 40
1.0
 40
1.0
 40
1.0
 40
1.0
 10
14.6999246737
 20
6.2901648977
 30
0.0
 10
14.7015236796
 20
6.2908791106
 30
0.0
 10
14.7050626998
 20
6.292212601
 30
0.0
 10
14.7108728807
 20
6.293891752
 30
0.0
 10
14.7174899254
 20
6.2953621529
 30
0.0
 10
14.7221761103
 20
6.2961562678
 30
0.0
 10
14.7246314982
 20
6.2965191772
 30
0.0
  0
SPLINE
  5
457
100
AcDbEntity
  8
0
100
AcDbSpline
 62
7
  6
CONTINUOUS
 70
0
 71
3
 72
9
 73
5
 74
0
 42
0.0000001
 43
0.0000001
 44
0.0000000001
 40
0.0
 40
0.0
 40
0.0
 40
0.0
 40
0.4836144141
 40
1.0
 40
1.0
 40
1.0
 40
1.0
 10
14.7246314982
 20
6.2965191772
 30
0.0
 10
14.7300295558
 20
6.2973170169
 30
0.0
 10
14.7412681775
 20
6.298459779
 30
0.0
 10
14.7525548508
 20
6.2988143491
 30
0.0
 10
14.7583813054
 20
6.2988048612
 30
0.0
  0
SPLINE
  5
458
100
AcDbEntity
  8
0
100
AcDbSpline
 62
7
  6
CONTINUOUS
 70
0
 71
3
 72
9
 73
5
 74
0
 42
0.0000001
 43
0.0000001
 44
0.0000000001
 40
0.0
 40
0.0
 40
0.0
 40
0.0
 40
0.47574468
 40
1.0
 40
1.0
 40
1.0
 40
1.0
 10
14.6999246737
 20
6.2901648977
 30
0.0
 10
14.6970490805
 20
6.2888804835
 30
0.0
 10
14.6913326831
 20
6.2854409704
 30
0.0
 10
14.686255767
 20
6.2811684879
 30
0.0
 10
14.6837110386
 20
6.2788086084
 30
0.0
  0
LINE
  5
459
100
AcDbEntity
  8
0
100
AcDbLine
 62
7
  6
CONTINUOUS
 10
14.8286688591
 20
6.2824034765
 11
14.823093819
 21
6.2865146154
  0
SPLINE
  5
45A
100
AcDbEntity
  8
0
100
AcDbSpline
 62
7
  6
CONTINUOUS
 70
0
 71
3
 72
9
 73
5
 74
0
 42
0.0000001
 43
0.0000001
 44
0.0000000001
 40
0.0
 40
0.0
 40
0.0
 40
0.0
 40
0.257667181
 40
1.0
 40
1.0
 40
1.0
 40
1.0
 10
14.823093819
 20
6.2865146154
 30
0.0
 10
14.8225794985
 20
6.2868506202
 30
0.0
 10
14.8205617592
 20
6.2881206946
 30
0.0
 10
14.8184520195
 20
6.2892483105
 30
0.0
 10
14.8168379371
 20
6.2899745143
 30
0.0
  0
SPLINE
  5
45B
100
AcDbEntity
  8
0
100
AcDbSpline
 62
7
  6
CONTINUOUS
 70
0
 71
3
 72
11
 73
7
 74
0
 42
0.0000001
 43
0.0000001
 44
0.0000000001
 40
0.0
 40
0.0
 40
0.0
 40
0.0
 40
0.2565862004
 40
0.5092880504
 40
0.7575132055
 40
1.0
 40
1.0
 40
1.0
 40
1.0
 10
14.9110712147
 20
5.9380607042
 30
0.0
 10
14.9113478238
 20
5.9529909173
 30
0.0
 10
14.9122305181
 20
5.982620821
 30
0.0
 10
14.9148155081
 20
6.0266387005
 30
0.0
 10
14.9189400953
 20
6.0697171788
 30
0.0
 10
14.9230342386
 20
6.0980005483
 30
0.0
 10
14.9255398699
 20
6.1118885487
 30
0.0
  0
SPLINE
  5
45C
100
AcDbEntity
  8
0
100
AcDbSpline
 62
7
  6
CONTINUOUS
 70
0
 71
3
 72
12
 73
8
 74
0
 42
0.0000001
 43
0.0000001
 44
0.0000000001
 40
0.0
 40
0.0
 40
0.0
 40
0.0
 40
0.2468501913
 40
0.3709404323
 40
0.4955296371
 40
0.746514485
 40
1.0
 40
1.0
 40
1.0
 40
1.0
 10
15.4003028075
 20
6.1599357042
 30
0.0
 10
15.4105567568
 20
6.1599357042
 30
0.0
 10
15.4260013311
 20
6.158560327
 30
0.0
 10
15.446144924
 20
6.1542645572
 30
0.0
 10
15.4660789138
 20
6.1484167881
 30
0.0
 10
15.4903595469
 20
6.1385848023
 30
0.0
 10
15.5089092563
 20
6.1287761484
 30
0.0
 10
15.5180281358
 20
6.1235113608
 30
0.0
  0
SPLINE
  5
45D
100
AcDbEntity
  8
0
100
AcDbSpline
 62
7
  6
CONTINUOUS
 70
0
 71
3
 72
11
 73
7
 74
0
 42
0.0000001
 43
0.0000001
 44
0.0000000001
 40
0.0
 40
0.0
 40
0.0
 40
0.0
 40
0.25660269
 40
0.5093122721
 40
0.757523381
 40
1.0
 40
1.0
 40
1.0
 40
1.0
 10
16.2096392991
 20
5.9380607042
 30
0.0
 10
16.209362673
 20
5.9529918883
 30
0.0
 10
16.2084807404
 20
5.9826232398
 30
0.0
 10
16.205896682
 20
6.0266418137
 30
0.0
 10
16.2017713157
 20
6.0697193209
 30
0.0
 10
16.1976761543
 20
6.0980011173
 30
0.0
 10
16.195170644
 20
6.1118885487
 30
0.0
  0
SPLINE
  5
45E
100
AcDbEntity
  8
0
100
AcDbSpline
 62
7
  6
CONTINUOUS
 70
0
 71
3
 72
32
 73
28
 74
0
 42
0.0000001
 43
0.0000001
 44
0.0000000001
 40
0.0
 40
0.0
 40
0.0
 40
0.0
 40
0.0579441041
 40
0.0876746174
 40
0.1180473504
 40
0.1491486674
 40
0.181055065
 40
0.2472153315
 40
0.2813787544
 40
0.3160711041
 40
0.3511204624
 40
0.3863191459
 40
0.4214488487
 40
0.456303524
 40
0.5244050615
 40
0.5574282922
 40
0.5896445491
 40
0.6210586358
 40
0.651697292
 40
0.7109798187
 40
0.7399164581
 40
0.7685555581
 40
0.797032757
 40
0.8254636119
 40
0.8826046165
 40
0.9406714802
 40
1.0
 40
1.0
 40
1.0
 40
1.0
 10
15.5603552569
 20
6.3005418929
 30
0.0
 10
15.5501876496
 20
6.312943897
 30
0.0
 10
15.5332198126
 20
6.3304918513
 30
0.0
 10
15.5077402106
 20
6.3509855099
 30
0.0
 10
15.486787017
 20
6.365118029
 30
0.0
 10
15.4642259904
 20
6.3777847552
 30
0.0
 10
15.4317260961
 20
6.3927504853
 30
0.0
 10
15.3967849107
 20
6.4041568248
 30
0.0
 10
15.3602252053
 20
6.4119816368
 30
0.0
 10
15.3317389527
 20
6.4160914463
 30
0.0
 10
15.302760916
 20
6.4183314433
 30
0.0
 10
15.2735779233
 20
6.4186962376
 30
0.0
 10
15.2444840698
 20
6.4171708346
 30
0.0
 10
15.2065121118
 20
6.4126806378
 30
0.0
 10
15.1696193777
 20
6.4045396717
 30
0.0
 10
15.1346337928
 20
6.3927070339
 30
0.0
 10
15.1099914838
 20
6.3822278906
 30
0.0
 10
15.0868273853
 20
6.3701573541
 30
0.0
 10
15.0583839025
 20
6.3522523762
 30
0.0
 10
15.0327818946
 20
6.331304475
 30
0.0
 10
15.0105218151
 20
6.3078015969
 30
0.0
 10
14.9955819768
 20
6.2892191452
 30
0.0
 10
14.9822126225
 20
6.2696504483
 30
0.0
 10
14.966362034
 20
6.2423255259
 30
0.0
 10
14.9500203308
 20
6.2059543934
 30
0.0
 10
14.9353795256
 20
6.1598371225
 30
0.0
 10
14.9284552129
 20
6.1280479804
 30
0.0
 10
14.9255398699
 20
6.1118885487
 30
0.0
  0
SPLINE
  5
45F
100
AcDbEntity
  8
0
100
AcDbSpline
 62
7
  6
CONTINUOUS
 70
0
 71
3
 72
23
 73
19
 74
0
 42
0.0000001
 43
0.0000001
 44
0.0000000001
 40
0.0
 40
0.0
 40
0.0
 40
0.0
 40
0.1305398731
 40
0.1945454404
 40
0.2575892987
 40
0.3196269795
 40
0.3806649798
 40
0.4407423124
 40
0.5000182662
 40
0.5587585037
 40
0.6174289522
 40
0.6766450594
 40
0.7371539603
 40
0.7996686155
 40
0.8318222909
 40
0.8645827765
 40
0.9316473455
 40
1.0
 40
1.0
 40
1.0
 40
1.0
 10
14.9239767048
 20
5.203292902
 30
0.0
 10
14.9245826655
 20
5.180296885
 30
0.0
 10
14.9259690628
 20
5.1460283819
 30
0.0
 10
14.9296193678
 20
5.100776178
 30
0.0
 10
14.9334349838
 20
5.0676655057
 30
0.0
 10
14.9386218777
 20
5.035266928
 30
0.0
 10
14.9454476454
 20
5.00370105
 30
0.0
 10
14.9542782426
 20
4.9731323786
 30
0.0
 10
14.9654660797
 20
4.9437636983
 30
0.0
 10
14.9794446533
 20
4.915872837
 30
0.0
 10
14.9966208841
 20
4.8898149446
 30
0.0
 10
15.0174028573
 20
4.86608183
 30
0.0
 10
15.0420231755
 20
4.8452659723
 30
0.0
 10
15.0655380972
 20
4.8310631204
 30
0.0
 10
15.0860114154
 20
4.8217896969
 30
0.0
 10
15.1079163824
 20
4.8139070021
 30
0.0
 10
15.1369094857
 20
4.8071990735
 30
0.0
 10
15.1608100145
 20
4.8053913635
 30
0.0
 10
15.1728552569
 20
4.8053913635
 30
0.0
  0
SPLINE
  5
460
100
AcDbEntity
  8
0
100
AcDbSpline
 62
7
  6
CONTINUOUS
 70
0
 71
3
 72
12
 73
8
 74
0
 42
0.0000001
 43
0.0000001
 44
0.0000000001
 40
0.0
 40
0.0
 40
0.0
 40
0.0
 40
0.2849535271
 40
0.5555672105
 40
0.7976093722
 40
0.9043683724
 40
1.0
 40
1.0
 40
1.0
 40
1.0
 10
15.5603552569
 20
6.774720075
 30
0.0
 10
15.5647507535
 20
6.774720075
 30
0.0
 10
15.5733232761
 20
6.7744634297
 30
0.0
 10
15.5855814932
 20
6.7733260937
 30
0.0
 10
15.5950196512
 20
6.7717531055
 30
0.0
 10
15.601679512
 20
6.7701153452
 30
0.0
 10
15.6046638819
 20
6.7691885903
 30
0.0
 10
15.6060535104
 20
6.7686936229
 30
0.0
  0
SPLINE
  5
461
100
AcDbEntity
  8
0
100
AcDbSpline
 62
7
  6
CONTINUOUS
 70
0
 71
3
 72
14
 73
10
 74
0
 42
0.0000001
 43
0.0000001
 44
0.0000000001
 40
0.0
 40
0.0
 40
0.0
 40
0.0
 40
0.3543203825
 40
0.5017036858
 40
0.6294979743
 40
0.7391329049
 40
0.8336694581
 40
0.9181861816
 40
1.0
 40
1.0
 40
1.0
 40
1.0
 10
15.6060535104
 20
6.7686936229
 30
0.0
 10
15.6077604401
 20
6.768085637
 30
0.0
 10
15.6101452265
 20
6.7671065961
 30
0.0
 10
15.6129350502
 20
6.7654908413
 30
0.0
 10
15.6145183694
 20
6.7643124374
 30
0.0
 10
15.6157138393
 20
6.7630945862
 30
0.0
 10
15.6165128543
 20
6.7618355748
 30
0.0
 10
15.6168909223
 20
6.7605336553
 30
0.0
 10
15.6168383814
 20
6.7596655046
 30
0.0
 10
15.6167468536
 20
6.7592572472
 30
0.0
  0
SPLINE
  5
462
100
AcDbEntity
  8
0
100
AcDbSpline
 62
7
  6
CONTINUOUS
 70
0
 71
3
 72
9
 73
5
 74
0
 42
0.0000001
 43
0.0000001
 44
0.0000000001
 40
0.0
 40
0.0
 40
0.0
 40
0.0
 40
0.503228691
 40
1.0
 40
1.0
 40
1.0
 40
1.0
 10
16.1978552569
 20
5.3142277515
 30
0.0
 10
16.1978552569
 20
5.2956178791
 30
0.0
 10
16.1977662865
 20
5.2586368784
 30
0.0
 10
16.1972176856
 20
5.2216576007
 30
0.0
 10
16.1967338091
 20
5.203292902
 30
0.0
  0
SPLINE
  5
463
100
AcDbEntity
  8
0
100
AcDbSpline
 62
7
  6
CONTINUOUS
 70
0
 71
3
 72
38
 73
34
 74
0
 42
0.0000001
 43
0.0000001
 44
0.0000000001
 40
0.0
 40
0.0
 40
0.0
 40
0.0
 40
0.0134644447
 40
0.0245265895
 40
0.0332326865
 40
0.0395802659
 40
0.0416396854
 40
0.0423098438
 40
0.0427262953
 40
0.0429742331
 40
0.0433807649
 40
0.0441165851
 40
0.0452351376
 40
0.0467714427
 40
0.0487561377
 40
0.0541333241
 40
0.0613185184
 40
0.0702012669
 40
0.0806711427
 40
0.0926192641
 40
0.1205109214
 40
0.1527390787
 40
0.1879118136
 40
0.2246759945
 40
0.2622588242
 40
0.3005613828
 40
0.3395229307
 40
0.4189620856
 40
0.4997400849
 40
0.5815488459
 40
0.6641921879
 40
0.8312191029
 40
1.0
 40
1.0
 40
1.0
 40
1.0
 10
16.2478118528
 20
4.5176419759
 30
0.0
 10
16.2478134424
 20
4.5173761593
 30
0.0
 10
16.247814587
 20
4.5168918148
 30
0.0
 10
16.2478093696
 20
4.5162361658
 30
0.0
 10
16.2477976186
 20
4.5157195553
 30
0.0
 10
16.2477825307
 20
4.5153843549
 30
0.0
 10
16.2477669457
 20
4.5152029194
 30
0.0
 10
16.2477514543
 20
4.5151446174
 30
0.0
 10
16.2477428805
 20
4.5151169286
 30
0.0
 10
16.2477186377
 20
4.5151112379
 30
0.0
 10
16.2477015983
 20
4.5151382252
 30
0.0
 10
16.2476824228
 20
4.5151758317
 30
0.0
 10
16.2476596099
 20
4.5152402042
 30
0.0
 10
16.2476329987
 20
4.515327286
 30
0.0
 10
16.2475874778
 20
4.5154972878
 30
0.0
 10
16.2475218925
 20
4.5157767173
 30
0.0
 10
16.2474283354
 20
4.516189714
 30
0.0
 10
16.2473115866
 20
4.5167004338
 30
0.0
 10
16.247168559
 20
4.5173016319
 30
0.0
 10
16.2469264102
 20
4.518264925
 30
0.0
 10
16.2465433571
 20
4.5196355379
 30
0.0
 10
16.2459705582
 20
4.521427975
 30
0.0
 10
16.2452694951
 20
4.5233619076
 30
0.0
 10
16.2444384138
 20
4.525359007
 30
0.0
 10
16.2434775413
 20
4.5273657813
 30
0.0
 10
16.2423972578
 20
4.5293603459
 30
0.0
 10
16.2407909955
 20
4.5320055528
 30
0.0
 10
16.2385035527
 20
4.535212863
 30
0.0
 10
16.235344265
 20
4.5388081019
 30
0.0
 10
16.231793944
 20
4.5421121516
 30
0.0
 10
16.2265736644
 20
4.5460742666
 30
0.0
 10
16.219270344
 20
4.5500563184
 30
0.0
 10
16.212884681
 20
4.552023735
 30
0.0
 10
16.2096172341
 20
4.5526772056
 30
0.0
  0
SPLINE
  5
464
100
AcDbEntity
  8
0
100
AcDbSpline
 62
7
  6
CONTINUOUS
 70
0
 71
3
 72
12
 73
8
 74
0
 42
0.0000001
 43
0.0000001
 44
0.0000000001
 40
0.0
 40
0.0
 40
0.0
 40
0.0
 40
0.2538388572
 40
0.5076220112
 40
0.7605049806
 40
0.8851155973
 40
1.0
 40
1.0
 40
1.0
 40
1.0
 10
16.2096172341
 20
4.5526772056
 30
0.0
 10
16.2086415064
 20
4.5528723455
 30
0.0
 10
16.2066778289
 20
4.5532029373
 30
0.0
 10
16.2037106344
 20
4.5535133259
 30
0.0
 10
16.2012357798
 20
4.5535992838
 30
0.0
 10
16.19930461
 20
4.5535654568
 30
0.0
 10
16.1983705367
 20
4.5534453503
 30
0.0
 10
16.197928666
 20
4.5533583841
 30
0.0
  0
SPLINE
  5
465
100
AcDbEntity
  8
0
100
AcDbSpline
 62
7
  6
CONTINUOUS
 70
0
 71
3
 72
11
 73
7
 74
0
 42
0.0000001
 43
0.0000001
 44
0.0000000001
 40
0.0
 40
0.0
 40
0.0
 40
0.0
 40
0.2535617873
 40
0.5045750669
 40
0.7531236356
 40
1.0
 40
1.0
 40
1.0
 40
1.0
 10
16.0735836914
 20
6.1235113608
 30
0.0
 10
16.0644639206
 20
6.1287766629
 30
0.0
 10
16.0459218983
 20
6.1386035683
 30
0.0
 10
16.0168548393
 20
6.1503503308
 30
0.0
 10
15.9867228995
 20
6.1580697639
 30
0.0
 10
15.9661113169
 20
6.1599357042
 30
0.0
 10
15.955858363
 20
6.1599357042
 30
0.0
  0
SPLINE
  5
466
100
AcDbEntity
  8
0
100
AcDbSpline
 62
7
  6
CONTINUOUS
 70
0
 71
3
 72
12
 73
8
 74
0
 42
0.0000001
 43
0.0000001
 44
0.0000000001
 40
0.0
 40
0.0
 40
0.0
 40
0.0
 40
0.2468355223
 40
0.3709105628
 40
0.4955031141
 40
0.7464992918
 40
1.0
 40
1.0
 40
1.0
 40
1.0
 10
15.955858363
 20
6.1599357042
 30
0.0
 10
15.9456049613
 20
6.1599357042
 30
0.0
 10
15.930161115
 20
6.1585643026
 30
0.0
 10
15.9100189274
 20
6.1542662192
 30
0.0
 10
15.89008463
 20
6.1484195012
 30
0.0
 10
15.865802018
 20
6.1385881665
 30
0.0
 10
15.8472525157
 20
6.1287764956
 30
0.0
 10
15.8381330347
 20
6.1235113608
 30
0.0
  0
SPLINE
  5
467
100
AcDbEntity
  8
0
100
AcDbSpline
 62
7
  6
CONTINUOUS
 70
0
 71
3
 72
12
 73
8
 74
0
 42
0.0000001
 43
0.0000001
 44
0.0000000001
 40
0.0
 40
0.0
 40
0.0
 40
0.0
 40
0.2468355223
 40
0.3709105628
 40
0.4955031141
 40
0.7464992918
 40
1.0
 40
1.0
 40
1.0
 40
1.0
 10
15.7204077064
 20
6.1599357042
 30
0.0
 10
15.7101543047
 20
6.1599357042
 30
0.0
 10
15.6947104584
 20
6.1585643026
 30
0.0
 10
15.6745682707
 20
6.1542662192
 30
0.0
 10
15.6546339733
 20
6.1484195012
 30
0.0
 10
15.6303513614
 20
6.1385881665
 30
0.0
 10
15.611801859
 20
6.1287764956
 30
0.0
 10
15.6026823781
 20
6.1235113608
 30
0.0
  0
SPLINE
  5
468
100
AcDbEntity
  8
0
100
AcDbSpline
 62
7
  6
CONTINUOUS
 70
0
 71
3
 72
11
 73
7
 74
0
 42
0.0000001
 43
0.0000001
 44
0.0000000001
 40
0.0
 40
0.0
 40
0.0
 40
0.0
 40
0.2535617873
 40
0.5045750669
 40
0.7531236356
 40
1.0
 40
1.0
 40
1.0
 40
1.0
 10
15.8381330347
 20
6.1235113608
 30
0.0
 10
15.8290132639
 20
6.1287766629
 30
0.0
 10
15.8104712417
 20
6.1386035683
 30
0.0
 10
15.7814041826
 20
6.1503503308
 30
0.0
 10
15.7512722428
 20
6.1580697639
 30
0.0
 10
15.7306606602
 20
6.1599357042
 30
0.0
 10
15.7204077064
 20
6.1599357042
 30
0.0
  0
SPLINE
  5
469
100
AcDbEntity
  8
0
100
AcDbSpline
 62
7
  6
CONTINUOUS
 70
0
 71
3
 72
31
 73
27
 74
0
 42
0.0000001
 43
0.0000001
 44
0.0000000001
 40
0.0
 40
0.0
 40
0.0
 40
0.0
 40
0.0579461375
 40
0.0876781211
 40
0.1180528571
 40
0.1491564079
 40
0.1810649441
 40
0.2472291024
 40
0.2813950543
 40
0.3160901672
 40
0.3511420508
 40
0.3863433994
 40
0.4562935655
 40
0.524398202
 40
0.5574235185
 40
0.5896408744
 40
0.6210550744
 40
0.6516948935
 40
0.7109763926
 40
0.7399137426
 40
0.7685528823
 40
0.7970307062
 40
0.8254624646
 40
0.8826035293
 40
0.940670435
 40
1.0
 40
1.0
 40
1.0
 40
1.0
 10
15.5603552569
 20
6.3005418929
 30
0.0
 10
15.5705228461
 20
6.3129438748
 30
0.0
 10
15.5874902112
 20
6.3304923831
 30
0.0
 10
15.6129702191
 20
6.3509861069
 30
0.0
 10
15.6339243926
 20
6.3651183445
 30
0.0
 10
15.6564864382
 20
6.377784893
 30
0.0
 10
15.688987225
 20
6.3927509331
 30
0.0
 10
15.7239291426
 20
6.4041583758
 30
0.0
 10
15.7604903369
 20
6.4119822825
 30
0.0
 10
15.7889775619
 20
6.4160913737
 30
0.0
 10
15.8179575674
 20
6.4183315691
 30
0.0
 10
15.8567795125
 20
6.4188147646
 30
0.0
 10
15.9047029564
 20
6.4147756043
 30
0.0
 10
15.9510983927
 20
6.4045368969
 30
0.0
 10
15.9860864102
 20
6.392702939
 30
0.0
 10
16.0107282851
 20
6.3822240347
 30
0.0
 10
16.0338915595
 20
6.3701524037
 30
0.0
 10
16.0623346177
 20
6.3522489195
 30
0.0
 10
16.0879335083
 20
6.3312987199
 30
0.0
 10
16.1101931792
 20
6.3077973046
 30
0.0
 10
16.1251323947
 20
6.2892149536
 30
0.0
 10
16.1385014857
 20
6.2696466384
 30
0.0
 10
16.1543522787
 20
6.2423226741
 30
0.0
 10
16.1706934795
 20
6.2059525405
 30
0.0
 10
16.1853320232
 20
6.1598360623
 30
0.0
 10
16.1922553571
 20
6.1280476691
 30
0.0
 10
16.195170644
 20
6.1118885487
 30
0.0
  0
SPLINE
  5
46A
100
AcDbEntity
  8
0
100
AcDbSpline
 62
7
  6
CONTINUOUS
 70
0
 71
3
 72
9
 73
5
 74
0
 42
0.0000001
 43
0.0000001
 44
0.0000000001
 40
0.0
 40
0.0
 40
0.0
 40
0.0
 40
0.4967713096
 40
1.0
 40
1.0
 40
1.0
 40
1.0
 10
14.9239767048
 20
5.203292902
 30
0.0
 10
14.9234928282
 20
5.2216576007
 30
0.0
 10
14.9229442274
 20
5.2586368784
 30
0.0
 10
14.9228552569
 20
5.2956178792
 30
0.0
 10
14.9228552569
 20
5.3142277515
 30
0.0
  0
SPLINE
  5
46B
100
AcDbEntity
  8
0
100
AcDbSpline
 62
7
  6
CONTINUOUS
 70
0
 71
3
 72
12
 73
8
 74
0
 42
0.0000001
 43
0.0000001
 44
0.0000000001
 40
0.0
 40
0.0
 40
0.0
 40
0.0
 40
0.2407019224
 40
0.3668000915
 40
0.4933753552
 40
0.7467623693
 40
1.0
 40
1.0
 40
1.0
 40
1.0
 10
14.9227818468
 20
4.5533583841
 30
0.0
 10
14.9216926181
 20
4.5535758277
 30
0.0
 10
14.9199823042
 20
4.5536023911
 30
0.0
 10
14.9177098932
 20
4.5535358451
 30
0.0
 10
14.9153796179
 20
4.5533605404
 30
0.0
 10
14.9124806879
 20
4.5529773301
 30
0.0
 10
14.9101892392
 20
4.5525017884
 30
0.0
 10
14.9090540922
 20
4.5522243175
 30
0.0
  0
SPLINE
  5
46C
100
AcDbEntity
  8
0
100
AcDbSpline
 62
7
  6
CONTINUOUS
 70
0
 71
3
 72
40
 73
36
 74
0
 42
0.0000001
 43
0.0000001
 44
0.0000000001
 40
0.0
 40
0.0
 40
0.0
 40
0.0
 40
0.1701611812
 40
0.3384101475
 40
0.4216155921
 40
0.5039483656
 40
0.5852004852
 40
0.6253454684
 40
0.6650488168
 40
0.7425099253
 40
0.8165641507
 40
0.8514523887
 40
0.8831832597
 40
0.8973713329
 40
0.9101852894
 40
0.9215220831
 40
0.9313175726
 40
0.9395060521
 40
0.946020705
 40
0.95079529
 40
0.9525141705
 40
0.9538054482
 40
0.9547008025
 40
0.9552416774
 40
0.9555234395
 40
0.9558486665
 40
0.956413929
 40
0.9572341194
 40
0.9582932075
 40
0.9595687299
 40
0.9626701301
 40
0.9663551148
 40
0.975338169
 40
0.9865300571
 40
1.0
 40
1.0
 40
1.0
 40
1.0
 10
14.9090540922
 20
4.5522243175
 30
0.0
 10
14.9059052839
 20
4.551454635
 30
0.0
 10
14.8997788109
 20
4.5492997181
 30
0.0
 10
14.8928152306
 20
4.5451931111
 30
0.0
 10
14.8878614753
 20
4.5411927607
 30
0.0
 10
14.8845040125
 20
4.5378911159
 30
0.0
 10
14.882011759
 20
4.5349073108
 30
0.0
 10
14.880223918
 20
4.5324116048
 30
0.0
 10
14.8785991832
 20
4.5298924256
 30
0.0
 10
14.8768418239
 20
4.5266950263
 30
0.0
 10
14.8754381478
 20
4.5234267129
 30
0.0
 10
14.8745614927
 20
4.5208936955
 30
0.0
 10
14.8741109103
 20
4.5194214231
 30
0.0
 10
14.8738106127
 20
4.5183435924
 30
0.0
 10
14.8736258848
 20
4.5176369678
 30
0.0
 10
14.8734712896
 20
4.5170090344
 30
0.0
 10
14.8733438133
 20
4.5164652233
 30
0.0
 10
14.8732406489
 20
4.516010058
 30
0.0
 10
14.873158329
 20
4.5156483126
 30
0.0
 10
14.8731011185
 20
4.515407088
 30
0.0
 10
14.8730605643
 20
4.5152644869
 30
0.0
 10
14.8730379071
 20
4.515193483
 30
0.0
 10
14.8730164606
 20
4.5151461286
 30
0.0
 10
14.8730021503
 20
4.5151166317
 30
0.0
 10
14.872978462
 20
4.5151054
 30
0.0
 10
14.872963428
 20
4.5151277081
 30
0.0
 10
14.8729549964
 20
4.5151573735
 30
0.0
 10
14.8729460048
 20
4.515203957
 30
0.0
 10
14.8729390135
 20
4.5152633534
 30
0.0
 10
14.8729301715
 20
4.5153666832
 30
0.0
 10
14.872922341
 20
4.5155200005
 30
0.0
 10
14.8729109469
 20
4.5158202275
 30
0.0
 10
14.8729013496
 20
4.5162746558
 30
0.0
 10
14.8728963284
 20
4.5169155781
 30
0.0
 10
14.872897275
 20
4.5173853818
 30
0.0
 10
14.8728986611
 20
4.5176419759
 30
0.0
  0
SPLINE
  5
46D
100
AcDbEntity
  8
0
100
AcDbSpline
 62
7
  6
CONTINUOUS
 70
0
 71
3
 72
24
 73
20
 74
0
 42
0.0000001
 43
0.0000001
 44
0.0000000001
 40
0.0
 40
0.0
 40
0.0
 40
0.0
 40
0.0838018358
 40
0.1666770105
 40
0.2478649818
 40
0.3268128158
 40
0.4031487031
 40
0.4766036927
 40
0.54694835
 40
0.61395303
 40
0.677367932
 40
0.7369174103
 40
0.7923070459
 40
0.8432439694
 40
0.8894769419
 40
0.930867791
 40
0.9497782756
 40
0.9675496437
 40
1.0
 40
1.0
 40
1.0
 40
1.0
 10
15.5603552569
 20
4.8053913635
 30
0.0
 10
15.548416107
 20
4.8053913635
 30
0.0
 10
15.5246486455
 20
4.8040521948
 30
0.0
 10
15.4897589761
 20
4.7982023369
 30
0.0
 10
15.4563239109
 20
4.7890029569
 30
0.0
 10
15.4247675227
 20
4.7770828952
 30
0.0
 10
15.3953073917
 20
4.7630740128
 30
0.0
 10
15.3680351757
 20
4.7475353709
 30
0.0
 10
15.3429816832
 20
4.730935219
 30
0.0
 10
15.3201627516
 20
4.7136598508
 30
0.0
 10
15.2996049003
 20
4.6960311276
 30
0.0
 10
15.2813575211
 20
4.6783237272
 30
0.0
 10
15.26549776
 20
4.6607791368
 30
0.0
 10
15.2521284617
 20
4.6436127469
 30
0.0
 10
15.2413803138
 20
4.6270217064
 30
0.0
 10
15.2345310151
 20
4.6134278797
 30
0.0
 10
15.2306431012
 20
4.6029924412
 30
0.0
 10
15.2279823899
 20
4.5935058488
 30
0.0
 10
15.2270219236
 20
4.586337314
 30
0.0
 10
15.2270219236
 20
4.5817141495
 30
0.0
  0
SPLINE
  5
46E
100
AcDbEntity
  8
0
100
AcDbSpline
 62
7
  6
CONTINUOUS
 70
0
 71
3
 72
24
 73
20
 74
0
 42
0.0000001
 43
0.0000001
 44
0.0000000001
 40
0.0
 40
0.0
 40
0.0
 40
0.0
 40
0.0324503582
 40
0.0502217254
 40
0.0691322088
 40
0.1105230599
 40
0.1567560317
 40
0.2076929599
 40
0.2630825964
 40
0.3226320766
 40
0.3860469845
 40
0.4530516574
 40
0.5233963087
 40
0.59685129
 40
0.673187176
 40
0.7521350181
 40
0.8333229954
 40
0.9161981705
 40
1.0
 40
1.0
 40
1.0
 40
1.0
 10
15.8936885903
 20
4.5817141495
 30
0.0
 10
15.8936885903
 20
4.5863373142
 30
0.0
 10
15.8927281238
 20
4.5935058492
 30
0.0
 10
15.8900674127
 20
4.6029924416
 30
0.0
 10
15.8861794986
 20
4.61342788
 30
0.0
 10
15.8793301999
 20
4.6270217067
 30
0.0
 10
15.8685820515
 20
4.643612748
 30
0.0
 10
15.8552127528
 20
4.6607791385
 30
0.0
 10
15.8393529906
 20
4.6783237291
 30
0.0
 10
15.8211056107
 20
4.6960311307
 30
0.0
 10
15.8005477585
 20
4.7136598531
 30
0.0
 10
15.777728828
 20
4.7309352209
 30
0.0
 10
15.7526753379
 20
4.747535371
 30
0.0
 10
15.7254031239
 20
4.7630740118
 30
0.0
 10
15.6959429931
 20
4.7770828944
 30
0.0
 10
15.6643866033
 20
4.789002957
 30
0.0
 10
15.6309515361
 20
4.7982023371
 30
0.0
 10
15.5960618667
 20
4.8040521951
 30
0.0
 10
15.572294406
 20
4.8053913635
 30
0.0
 10
15.5603552569
 20
4.8053913635
 30
0.0
  0
SPLINE
  5
46F
100
AcDbEntity
  8
0
100
AcDbSpline
 62
7
  6
CONTINUOUS
 70
0
 71
3
 72
14
 73
10
 74
0
 42
0.0000001
 43
0.0000001
 44
0.0000000001
 40
0.0
 40
0.0
 40
0.0
 40
0.0
 40
0.0818138184
 40
0.1663305419
 40
0.2608670951
 40
0.3705020257
 40
0.4982963142
 40
0.6456796175
 40
1.0
 40
1.0
 40
1.0
 40
1.0
 10
15.5039636603
 20
6.7592572472
 30
0.0
 10
15.5038721325
 20
6.7596655046
 30
0.0
 10
15.5038195916
 20
6.7605336553
 30
0.0
 10
15.5041976595
 20
6.7618355748
 30
0.0
 10
15.5049966746
 20
6.7630945862
 30
0.0
 10
15.5061921445
 20
6.7643124374
 30
0.0
 10
15.5077754637
 20
6.7654908413
 30
0.0
 10
15.5105652873
 20
6.7671065961
 30
0.0
 10
15.5129500737
 20
6.768085637
 30
0.0
 10
15.5146570035
 20
6.7686936229
 30
0.0
  0
SPLINE
  5
470
100
AcDbEntity
  8
0
100
AcDbSpline
 62
7
  6
CONTINUOUS
 70
0
 71
3
 72
12
 73
8
 74
0
 42
0.0000001
 43
0.0000001
 44
0.0000000001
 40
0.0
 40
0.0
 40
0.0
 40
0.0
 40
0.0956316276
 40
0.2023906278
 40
0.4444327895
 40
0.7150464729
 40
1.0
 40
1.0
 40
1.0
 40
1.0
 10
15.5146570035
 20
6.7686936229
 30
0.0
 10
15.516046632
 20
6.7691885903
 30
0.0
 10
15.5190310019
 20
6.7701153452
 30
0.0
 10
15.5256908626
 20
6.7717531055
 30
0.0
 10
15.5351290207
 20
6.7733260937
 30
0.0
 10
15.5473872378
 20
6.7744634297
 30
0.0
 10
15.5559597603
 20
6.774720075
 30
0.0
 10
15.5603552569
 20
6.774720075
 30
0.0
  0
SPLINE
  5
471
100
AcDbEntity
  8
0
100
AcDbSpline
 62
7
  6
CONTINUOUS
 70
0
 71
3
 72
11
 73
7
 74
0
 42
0.0000001
 43
0.0000001
 44
0.0000000001
 40
0.0
 40
0.0
 40
0.0
 40
0.0
 40
0.2404014585
 40
0.4843777536
 40
0.7360166272
 40
1.0
 40
1.0
 40
1.0
 40
1.0
 10
14.7194000539
 20
6.2930449027
 30
0.0
 10
14.717813672
 20
6.2932211894
 30
0.0
 10
14.7145959119
 20
6.2934183087
 30
0.0
 10
14.709704588
 20
6.2931018739
 30
0.0
 10
14.7047515259
 20
6.2920648902
 30
0.0
 10
14.7015250096
 20
6.2908797047
 30
0.0
 10
14.6999246737
 20
6.2901648977
 30
0.0
  0
SPLINE
  5
472
100
AcDbEntity
  8
0
100
AcDbSpline
 62
7
  6
CONTINUOUS
 70
0
 71
3
 72
9
 73
5
 74
0
 42
0.0000001
 43
0.0000001
 44
0.0000000001
 40
0.0
 40
0.0
 40
0.0
 40
0.0
 40
0.4997135225
 40
1.0
 40
1.0
 40
1.0
 40
1.0
 10
14.7973422294
 20
6.2929179804
 30
0.0
 10
14.7910078957
 20
6.294695418
 30
0.0
 10
14.778148734
 20
6.2976610694
 30
0.0
 10
14.7649678268
 20
6.2987941356
 30
0.0
 10
14.7583813054
 20
6.2988048612
 30
0.0
  0
SPLINE
  5
473
100
AcDbEntity
  8
0
100
AcDbSpline
 62
7
  6
CONTINUOUS
 70
0
 71
3
 72
9
 73
5
 74
0
 42
0.0000001
 43
0.0000001
 44
0.0000000001
 40
0.0
 40
0.0
 40
0.0
 40
0.0
 40
0.5002725251
 40
1.0
 40
1.0
 40
1.0
 40
1.0
 10
14.7583813054
 20
6.2988048612
 30
0.0
 10
14.7517949584
 20
6.2988155865
 30
0.0
 10
14.738612509
 20
6.2977069428
 30
0.0
 10
14.7257403585
 20
6.2948016456
 30
0.0
 10
14.7194000539
 20
6.2930449027
 30
0.0
  0
SPLINE
  5
474
100
AcDbEntity
  8
0
100
AcDbSpline
 62
7
  6
CONTINUOUS
 70
0
 71
3
 72
11
 73
7
 74
0
 42
0.0000001
 43
0.0000001
 44
0.0000000001
 40
0.0
 40
0.0
 40
0.0
 40
0.0
 40
0.2638947892
 40
0.5154793654
 40
0.7595269332
 40
1.0
 40
1.0
 40
1.0
 40
1.0
 10
14.8168379371
 20
6.2899745143
 30
0.0
 10
14.8152379535
 20
6.2906943748
 30
0.0
 10
14.8120100024
 20
6.2918869534
 30
0.0
 10
14.8070525271
 20
6.2929321003
 30
0.0
 10
14.8021560677
 20
6.2932676986
 30
0.0
 10
14.7989317937
 20
6.2930891054
 30
0.0
 10
14.7973422294
 20
6.2929179804
 30
0.0
  0
SPLINE
  5
475
100
AcDbEntity
  8
0
100
AcDbSpline
 62
7
  6
CONTINUOUS
 70
0
 71
3
 72
12
 73
8
 74
0
 42
0.0000001
 43
0.0000001
 44
0.0000000001
 40
0.0
 40
0.0
 40
0.0
 40
0.0
 40
0.2468501913
 40
0.3709404323
 40
0.4955296371
 40
0.746514485
 40
1.0
 40
1.0
 40
1.0
 40
1.0
 10
15.1648521508
 20
6.1599357042
 30
0.0
 10
15.1751061001
 20
6.1599357042
 30
0.0
 10
15.1905506745
 20
6.158560327
 30
0.0
 10
15.2106942673
 20
6.1542645572
 30
0.0
 10
15.2306282572
 20
6.1484167881
 30
0.0
 10
15.2549088903
 20
6.1385848023
 30
0.0
 10
15.2734585996
 20
6.1287761484
 30
0.0
 10
15.2825774792
 20
6.1235113608
 30
0.0
  0
SPLINE
  5
476
100
AcDbEntity
  8
0
100
AcDbSpline
 62
7
  6
CONTINUOUS
 70
0
 71
3
 72
12
 73
8
 74
0
 42
0.0000001
 43
0.0000001
 44
0.0000000001
 40
0.0
 40
0.0
 40
0.0
 40
0.0
 40
0.2534923578
 40
0.5044662456
 40
0.6290552499
 40
0.7531510233
 40
1.0
 40
1.0
 40
1.0
 40
1.0
 10
15.2825774792
 20
6.1235113608
 30
0.0
 10
15.2916964019
 20
6.1287761733
 30
0.0
 10
15.3102417789
 20
6.1385918746
 30
0.0
 10
15.3345265392
 20
6.1484138176
 30
0.0
 10
15.3544632853
 20
6.1542491703
 30
0.0
 10
15.3746055824
 20
6.1585468112
 30
0.0
 10
15.3900491368
 20
6.1599357042
 30
0.0
 10
15.4003028075
 20
6.1599357042
 30
0.0
  0
SPLINE
  5
477
100
AcDbEntity
  8
0
100
AcDbSpline
 62
7
  6
CONTINUOUS
 70
0
 71
3
 72
12
 73
8
 74
0
 42
0.0000001
 43
0.0000001
 44
0.0000000001
 40
0.0
 40
0.0
 40
0.0
 40
0.0
 40
0.2534923578
 40
0.5044662456
 40
0.6290552499
 40
0.7531510233
 40
1.0
 40
1.0
 40
1.0
 40
1.0
 10
15.0471268225
 20
6.1235113608
 30
0.0
 10
15.0562457452
 20
6.1287761733
 30
0.0
 10
15.0747911222
 20
6.1385918746
 30
0.0
 10
15.0990758825
 20
6.1484138176
 30
0.0
 10
15.1190126287
 20
6.1542491703
 30
0.0
 10
15.1391549258
 20
6.1585468112
 30
0.0
 10
15.1545984802
 20
6.1599357042
 30
0.0
 10
15.1648521508
 20
6.1599357042
 30
0.0
  0
SPLINE
  5
478
100
AcDbEntity
  8
0
100
AcDbSpline
 62
7
  6
CONTINUOUS
 70
0
 71
3
 72
24
 73
20
 74
0
 42
0.0000001
 43
0.0000001
 44
0.0000000001
 40
0.0
 40
0.0
 40
0.0
 40
0.0
 40
0.0342622057
 40
0.0684123254
 40
0.1354865242
 40
0.1682487258
 40
0.2004000035
 40
0.2629065489
 40
0.3234034234
 40
0.3826141674
 40
0.4412812279
 40
0.5000197343
 40
0.5592896418
 40
0.6193607254
 40
0.6803924459
 40
0.7424254942
 40
0.8054653669
 40
0.8694672663
 40
1.0
 40
1.0
 40
1.0
 40
1.0
 10
15.9478552569
 20
4.8053913635
 30
0.0
 10
15.9538933061
 20
4.8053913635
 30
0.0
 10
15.9659554606
 20
4.8058534282
 30
0.0
 10
15.989694294
 20
4.8085569826
 30
0.0
 10
16.0128073533
 20
4.8139149939
 30
0.0
 10
16.0347097756
 20
4.8218048809
 30
0.0
 10
16.0551835622
 20
4.8310771716
 30
0.0
 10
16.0786989846
 20
4.8452732721
 30
0.0
 10
16.1033211213
 20
4.8660829766
 30
0.0
 10
16.1241003537
 20
4.889816192
 30
0.0
 10
16.1412696588
 20
4.9158782859
 30
0.0
 10
16.1552442186
 20
4.9437704398
 30
0.0
 10
16.1664311345
 20
4.9731383851
 30
0.0
 10
16.1752624561
 20
5.0037050142
 30
0.0
 10
16.1820897178
 20
5.0352691098
 30
0.0
 10
16.1872759882
 20
5.0676667735
 30
0.0
 10
16.1910911477
 20
5.1007769431
 30
0.0
 10
16.1947413808
 20
5.1460287558
 30
0.0
 10
16.196127852
 20
5.1802970218
 30
0.0
 10
16.1967338091
 20
5.203292902
 30
0.0
  0
SPLINE
  5
479
100
AcDbEntity
  8
0
100
AcDbSpline
 62
7
  6
CONTINUOUS
 70
0
 71
3
 72
14
 73
10
 74
0
 42
0.0000001
 43
0.0000001
 44
0.0000000001
 40
0.0
 40
0.0
 40
0.0
 40
0.0
 40
0.1164577145
 40
0.2338094116
 40
0.3529345271
 40
0.4746571828
 40
0.5997231098
 40
0.7287509591
 40
1.0
 40
1.0
 40
1.0
 40
1.0
 10
15.3599463188
 20
11.7338032163
 30
0.0
 10
15.3616906006
 20
11.7394482341
 30
0.0
 10
15.3645818729
 20
11.7509806213
 30
0.0
 10
15.3670508114
 20
11.7687479488
 30
0.0
 10
15.3676485575
 20
11.7869438722
 30
0.0
 10
15.3663807393
 20
11.805494567
 30
0.0
 10
15.3632497679
 20
11.8243322444
 30
0.0
 10
15.3564991913
 20
11.8501438608
 30
0.0
 10
15.34883159
 20
11.8690719127
 30
0.0
 10
15.3427690434
 20
11.8814260836
 30
0.0
  0
SPLINE
  5
47A
100
AcDbEntity
  8
0
100
AcDbSpline
 62
7
  6
CONTINUOUS
 70
0
 71
3
 72
10
 73
6
 74
0
 42
0.0000001
 43
0.0000001
 44
0.0000000001
 40
0.0
 40
0.0
 40
0.0
 40
0.0
 40
0.3243716911
 40
0.5956374466
 40
1.0
 40
1.0
 40
1.0
 40
1.0
 10
15.8268088533
 20
13.204659458
 30
0.0
 10
15.8240597464
 20
13.2120926175
 30
0.0
 10
15.8191014556
 20
13.2257761829
 30
0.0
 10
15.8112135573
 20
13.2489001811
 30
0.0
 10
15.8063679593
 20
13.2646913918
 30
0.0
 10
15.8038137759
 20
13.2742351407
 30
0.0
  0
SPLINE
  5
47B
100
AcDbEntity
  8
0
100
AcDbSpline
 62
7
  6
CONTINUOUS
 70
0
 71
3
 72
10
 73
6
 74
0
 42
0.0000001
 43
0.0000001
 44
0.0000000001
 40
0.0
 40
0.0
 40
0.0
 40
0.0
 40
0.5324567997
 40
0.7777831435
 40
1.0
 40
1.0
 40
1.0
 40
1.0
 10
15.87202583
 20
13.0898003055
 30
0.0
 10
15.8637521718
 20
13.1100875273
 30
0.0
 10
15.8517671642
 20
13.1397638969
 30
0.0
 10
15.8367953698
 20
13.1780917774
 30
0.0
 10
15.8299806372
 20
13.1960834453
 30
0.0
 10
15.8268088533
 20
13.204659458
 30
0.0
  0
SPLINE
  5
47C
100
AcDbEntity
  8
0
100
AcDbSpline
 62
7
  6
CONTINUOUS
 70
0
 71
3
 72
12
 73
8
 74
0
 42
0.0000001
 43
0.0000001
 44
0.0000000001
 40
0.0
 40
0.0
 40
0.0
 40
0.0
 40
0.2668856828
 40
0.3960420628
 40
0.5221508955
 40
0.7659211107
 40
1.0
 40
1.0
 40
1.0
 40
1.0
 10
15.8838035281
 20
13.3890942933
 30
0.0
 10
15.8915781845
 20
13.3969642517
 30
0.0
 10
15.9037282793
 20
13.4080631021
 30
0.0
 10
15.9208259254
 20
13.4213455111
 30
0.0
 10
15.9378008891
 20
13.4331811317
 30
0.0
 10
15.9593386978
 20
13.4460135531
 30
0.0
 10
15.9771564528
 20
13.4547119027
 30
0.0
 10
15.9860151796
 20
13.458669976
 30
0.0
  0
SPLINE
  5
47D
100
AcDbEntity
  8
0
100
AcDbSpline
 62
7
  6
CONTINUOUS
 70
0
 71
3
 72
10
 73
6
 74
0
 42
0.0000001
 43
0.0000001
 44
0.0000000001
 40
0.0
 40
0.0
 40
0.0
 40
0.0
 40
0.2526475283
 40
0.6305364853
 40
1.0
 40
1.0
 40
1.0
 40
1.0
 10
15.8038137759
 20
13.2742351407
 30
0.0
 10
15.8092965726
 20
13.2847124063
 30
0.0
 10
15.8235355418
 20
13.3105757418
 30
0.0
 10
15.8490694743
 20
13.3498915494
 30
0.0
 10
15.8716504469
 20
13.3767922392
 30
0.0
 10
15.8838035281
 20
13.3890942933
 30
0.0
  0
SPLINE
  5
47E
100
AcDbEntity
  8
0
100
AcDbSpline
 62
7
  6
CONTINUOUS
 70
0
 71
3
 72
11
 73
7
 74
0
 42
0.0000001
 43
0.0000001
 44
0.0000000001
 40
0.0
 40
0.0
 40
0.0
 40
0.0
 40
0.2412599235
 40
0.4906273334
 40
0.7444204344
 40
1.0
 40
1.0
 40
1.0
 40
1.0
 10
16.1001109588
 20
13.4813117109
 30
0.0
 10
16.1112581031
 20
13.4813117109
 30
0.0
 10
16.1339374539
 20
13.4801216607
 30
0.0
 10
16.1680293186
 20
13.4753273871
 30
0.0
 10
16.2023448696
 20
13.4680518564
 30
0.0
 10
16.2250856457
 20
13.4619538039
 30
0.0
 10
16.2364286373
 20
13.458669976
 30
0.0
  0
SPLINE
  5
47F
100
AcDbEntity
  8
0
100
AcDbSpline
 62
7
  6
CONTINUOUS
 70
0
 71
3
 72
12
 73
8
 74
0
 42
0.0000001
 43
0.0000001
 44
0.0000000001
 40
0.0
 40
0.0
 40
0.0
 40
0.0
 40
0.2297968981
 40
0.471593496
 40
0.597847589
 40
0.7280463529
 40
1.0
 40
1.0
 40
1.0
 40
1.0
 10
15.9860151796
 20
13.458669976
 30
0.0
 10
15.9943261126
 20
13.4620309971
 30
0.0
 10
16.0116469321
 20
13.4682987451
 30
0.0
 10
16.0342325065
 20
13.4742664448
 30
0.0
 10
16.0533499353
 20
13.4778252519
 30
0.0
 10
16.0737942946
 20
13.4805221475
 30
0.0
 10
16.089501518
 20
13.4813117109
 30
0.0
 10
16.1001109588
 20
13.4813117109
 30
0.0
  0
SPLINE
  5
480
100
AcDbEntity
  8
0
100
AcDbSpline
 62
7
  6
CONTINUOUS
 70
0
 71
3
 72
11
 73
7
 74
0
 42
0.0000001
 43
0.0000001
 44
0.0000000001
 40
0.0
 40
0.0
 40
0.0
 40
0.0
 40
0.2605438985
 40
0.5122983945
 40
0.7577741743
 40
1.0
 40
1.0
 40
1.0
 40
1.0
 10
15.8395627496
 20
13.167426038
 30
0.0
 10
15.8380037852
 20
13.1589277596
 30
0.0
 10
15.8360882975
 20
13.1419757698
 30
0.0
 10
15.837102451
 20
13.1167654418
 30
0.0
 10
15.842044891
 20
13.0926369765
 30
0.0
 10
15.8479379677
 20
13.077477296
 30
0.0
 10
15.8514753958
 20
13.0702655197
 30
0.0
  0
SPLINE
  5
481
100
AcDbEntity
  8
0
100
AcDbSpline
 62
7
  6
CONTINUOUS
 70
0
 71
3
 72
11
 73
7
 74
0
 42
0.0000001
 43
0.0000001
 44
0.0000000001
 40
0.0
 40
0.0
 40
0.0
 40
0.0
 40
0.2336479463
 40
0.4745077242
 40
0.7287055553
 40
1.0
 40
1.0
 40
1.0
 40
1.0
 10
14.6467136515
 20
11.2675432507
 30
0.0
 10
14.6460667727
 20
11.2654499688
 30
0.0
 10
14.6452171729
 20
11.2610408326
 30
0.0
 10
14.6453663155
 20
11.2541637703
 30
0.0
 10
14.6469132707
 20
11.2471062704
 30
0.0
 10
14.6487709659
 20
11.2425167465
 30
0.0
 10
14.6498916941
 20
11.2402329426
 30
0.0
  0
SPLINE
  5
482
100
AcDbEntity
  8
0
100
AcDbSpline
 62
7
  6
CONTINUOUS
 70
0
 71
3
 72
11
 73
7
 74
0
 42
0.0000001
 43
0.0000001
 44
0.0000000001
 40
0.0
 40
0.0
 40
0.0
 40
0.0
 40
0.2605413088
 40
0.5122952403
 40
0.7577721467
 40
1.0
 40
1.0
 40
1.0
 40
1.0
 10
15.7050786801
 20
12.732229271
 30
0.0
 10
15.7035206688
 20
12.7237322613
 30
0.0
 10
15.7016067754
 20
12.7067828629
 30
0.0
 10
15.7026222313
 20
12.681576579
 30
0.0
 10
15.7075648088
 20
12.6574519657
 30
0.0
 10
15.7134571935
 20
12.6422946264
 30
0.0
 10
15.7169941051
 20
12.6350839033
 30
0.0
  0
SPLINE
  5
483
100
AcDbEntity
  8
0
100
AcDbSpline
 62
7
  6
CONTINUOUS
 70
0
 71
3
 72
11
 73
7
 74
0
 42
0.0000001
 43
0.0000001
 44
0.0000000001
 40
0.0
 40
0.0
 40
0.0
 40
0.0
 40
0.2605438985
 40
0.5122983945
 40
0.7577741743
 40
1.0
 40
1.0
 40
1.0
 40
1.0
 10
13.6904204302
 20
13.167426038
 30
0.0
 10
13.6888614659
 20
13.1589277596
 30
0.0
 10
13.6869459782
 20
13.1419757698
 30
0.0
 10
13.6879601316
 20
13.1167654418
 30
0.0
 10
13.6929025717
 20
13.0926369765
 30
0.0
 10
13.6987956483
 20
13.077477296
 30
0.0
 10
13.7023330765
 20
13.0702655197
 30
0.0
  0
SPLINE
  5
484
100
AcDbEntity
  8
0
100
AcDbSpline
 62
7
  6
CONTINUOUS
 70
0
 71
3
 72
9
 73
5
 74
0
 42
0.0000001
 43
0.0000001
 44
0.0000000001
 40
0.0
 40
0.0
 40
0.0
 40
0.0
 40
0.5160223175
 40
1.0
 40
1.0
 40
1.0
 40
1.0
 10
13.7835089154
 20
12.5521515013
 30
0.0
 10
13.7774215082
 20
12.5371282534
 30
0.0
 10
13.7672967042
 20
12.5073206675
 30
0.0
 10
13.7600045127
 20
12.4767214148
 30
0.0
 10
13.757149326
 20
12.4617888354
 30
0.0
  0
LINE
  5
485
100
AcDbEntity
  8
0
100
AcDbLine
 62
7
  6
CONTINUOUS
 10
15.871137638
 20
12.4327646935
 11
15.8686146235
 21
12.4351113928
  0
SPLINE
  5
486
100
AcDbEntity
  8
0
100
AcDbSpline
 62
7
  6
CONTINUOUS
 70
0
 71
3
 72
11
 73
7
 74
0
 42
0.0000001
 43
0.0000001
 44
0.0000000001
 40
0.0
 40
0.0
 40
0.0
 40
0.0
 40
0.2414687637
 40
0.4883844742
 40
0.741064151
 40
1.0
 40
1.0
 40
1.0
 40
1.0
 10
15.8686146235
 20
12.4351113928
 30
0.0
 10
15.8584094889
 20
12.4445971586
 30
0.0
 10
15.8376942759
 20
12.4637022225
 30
0.0
 10
15.8061571633
 20
12.492577905
 30
0.0
 10
15.7738561312
 20
12.5221117232
 30
0.0
 10
15.7520890843
 20
12.5420529608
 30
0.0
 10
15.7410779768
 20
12.5521515013
 30
0.0
  0
SPLINE
  5
487
100
AcDbEntity
  8
0
100
AcDbSpline
 62
7
  6
CONTINUOUS
 70
0
 71
3
 72
15
 73
11
 74
0
 42
0.0000001
 43
0.0000001
 44
0.0000000001
 40
0.0
 40
0.0
 40
0.0
 40
0.0
 40
0.1271345276
 40
0.2552957759
 40
0.3835795582
 40
0.5112243102
 40
0.6374521876
 40
0.7614773085
 40
0.8825589124
 40
1.0
 40
1.0
 40
1.0
 40
1.0
 10
17.3251408709
 20
12.6004732249
 30
0.0
 10
17.2960069647
 20
12.6057631065
 30
0.0
 10
17.2377862787
 20
12.6180074174
 30
0.0
 10
17.1514346142
 20
12.6410682733
 30
0.0
 10
17.0663215261
 20
12.668743907
 30
0.0
 10
16.9832320396
 20
12.7007728795
 30
0.0
 10
16.902906174
 20
12.736856947
 30
0.0
 10
16.8260774704
 20
12.7766731709
 30
0.0
 10
16.7534468002
 20
12.8198318819
 30
0.0
 10
16.707478608
 20
12.851104419
 30
0.0
 10
16.6853846936
 20
12.8672296812
 30
0.0
  0
SPLINE
  5
488
100
AcDbEntity
  8
0
100
AcDbSpline
 62
7
  6
CONTINUOUS
 70
0
 71
3
 72
22
 73
18
 74
0
 42
0.0000001
 43
0.0000001
 44
0.0000000001
 40
0.0
 40
0.0
 40
0.0
 40
0.0
 40
0.0434774674
 40
0.0899550846
 40
0.1407727679
 40
0.196565176
 40
0.2573775481
 40
0.3227817039
 40
0.3920082668
 40
0.464052483
 40
0.6116520946
 40
0.6848333493
 40
0.7558944762
 40
0.8237020538
 40
0.8873641173
 40
0.9462601536
 40
1.0
 40
1.0
 40
1.0
 40
1.0
 10
14.6542315214
 20
11.2909410517
 30
0.0
 10
14.6554519904
 20
11.2935743052
 30
0.0
 10
14.6587741812
 20
11.2986790762
 30
0.0
 10
14.6657754357
 20
11.3050678562
 30
0.0
 10
14.6746725835
 20
11.3102272137
 30
0.0
 10
14.6852182771
 20
11.3140680364
 30
0.0
 10
14.6971560203
 20
11.3165205271
 30
0.0
 10
14.7101929346
 20
11.3175307439
 30
0.0
 10
14.7240086889
 20
11.3170837705
 30
0.0
 10
14.7431456108
 20
11.3145295216
 30
0.0
 10
14.7620985233
 20
11.3092252461
 30
0.0
 10
14.77998646
 20
11.3014549191
 30
0.0
 10
14.7923907632
 20
11.294583826
 30
0.0
 10
14.8035002651
 20
11.2868337335
 30
0.0
 10
14.8130430117
 20
11.2783908273
 30
0.0
 10
14.820764022
 20
11.2694603704
 30
0.0
 10
14.8247592315
 20
11.2630366412
 30
0.0
 10
14.826339636
 20
11.2598161154
 30
0.0
  0
SPLINE
  5
489
100
AcDbEntity
  8
0
100
AcDbSpline
 62
7
  6
CONTINUOUS
 70
0
 71
3
 72
15
 73
11
 74
0
 42
0.0000001
 43
0.0000001
 44
0.0000000001
 40
0.0
 40
0.0
 40
0.0
 40
0.0
 40
0.1109994984
 40
0.2297143248
 40
0.3547094026
 40
0.4840220849
 40
0.6154424385
 40
0.7467894111
 40
0.8758318155
 40
1.0
 40
1.0
 40
1.0
 40
1.0
 10
14.5480506313
 20
11.1114208533
 30
0.0
 10
14.549579435
 20
11.109746221
 30
0.0
 10
14.5530004171
 20
11.1065107083
 30
0.0
 10
14.5588334815
 20
11.102188156
 30
0.0
 10
14.5654172888
 20
11.0983246986
 30
0.0
 10
14.5725791265
 20
11.0950105448
 30
0.0
 10
14.5801414249
 20
11.0923374914
 30
0.0
 10
14.5879115359
 20
11.0903686196
 30
0.0
 10
14.5956857083
 20
11.0891637763
 30
0.0
 10
14.6008611764
 20
11.0888733741
 30
0.0
 10
14.6033977057
 20
11.0888733741
 30
0.0
  0
SPLINE
  5
48A
100
AcDbEntity
  8
0
100
AcDbSpline
 62
7
  6
CONTINUOUS
 70
0
 71
3
 72
14
 73
10
 74
0
 42
0.0000001
 43
0.0000001
 44
0.0000000001
 40
0.0
 40
0.0
 40
0.0
 40
0.0
 40
0.2892758036
 40
0.4224841871
 40
0.5484208539
 40
0.6678226812
 40
0.7818078886
 40
0.891925648
 40
1.0
 40
1.0
 40
1.0
 40
1.0
 10
15.9923701051
 20
11.099787178
 30
0.0
 10
15.9971842834
 20
11.1009193892
 30
0.0
 10
16.0041186216
 20
11.1031380139
 30
0.0
 10
16.0124945017
 20
11.1073866511
 30
0.0
 10
16.0179000751
 20
11.110975721
 30
0.0
 10
16.0225482765
 20
11.1150215719
 30
0.0
 10
16.0263858849
 20
11.1194971305
 30
0.0
 10
16.0293748096
 20
11.124353659
 30
0.0
 10
16.0307840528
 20
11.1278301486
 30
0.0
 10
16.031329551
 20
11.129595451
 30
0.0
  0
SPLINE
  5
48B
100
AcDbEntity
  8
0
100
AcDbSpline
 62
7
  6
CONTINUOUS
 70
0
 71
3
 72
23
 73
19
 74
0
 42
0.0000001
 43
0.0000001
 44
0.0000000001
 40
0.0
 40
0.0
 40
0.0
 40
0.0
 40
0.0504420703
 40
0.101716593
 40
0.1545517033
 40
0.2095117447
 40
0.2669499481
 40
0.3270091683
 40
0.389635263
 40
0.4546016954
 40
0.5215443486
 40
0.5899934632
 40
0.6594049619
 40
0.7291751634
 40
0.7986830292
 40
0.8673687138
 40
0.9346882005
 40
1.0
 40
1.0
 40
1.0
 40
1.0
 10
17.3467924248
 20
12.1457740702
 30
0.0
 10
17.3490391985
 20
12.1411973854
 30
0.0
 10
17.3527014248
 20
12.1315142183
 30
0.0
 10
17.3554467802
 20
12.1160527512
 30
0.0
 10
17.3554279498
 20
12.0998953398
 30
0.0
 10
17.3526648092
 20
12.0833546983
 30
0.0
 10
17.3472222561
 20
12.0667315884
 30
0.0
 10
17.3392184776
 20
12.0503208535
 30
0.0
 10
17.3287984606
 20
12.0344173316
 30
0.0
 10
17.3161639151
 20
12.0192972733
 30
0.0
 10
17.301536413
 20
12.0052374004
 30
0.0
 10
17.2851892285
 20
11.9924801307
 30
0.0
 10
17.267409677
 20
11.9812668681
 30
0.0
 10
17.2485299668
 20
11.9717856488
 30
0.0
 10
17.2288827919
 20
11.9642199411
 30
0.0
 10
17.208821172
 20
11.9586963612
 30
0.0
 10
17.1887171201
 20
11.9553353809
 30
0.0
 10
17.1753018511
 20
11.954545164
 30
0.0
 10
17.1687004578
 20
11.954545164
 30
0.0
  0
SPLINE
  5
48C
100
AcDbEntity
  8
0
100
AcDbSpline
 62
7
  6
CONTINUOUS
 70
0
 71
3
 72
10
 73
6
 74
0
 42
0.0000001
 43
0.0000001
 44
0.0000000001
 40
0.0
 40
0.0
 40
0.0
 40
0.0
 40
0.5096151736
 40
0.7590851023
 40
1.0
 40
1.0
 40
1.0
 40
1.0
 10
13.7574680524
 20
11.9825765048
 30
0.0
 10
13.7419978554
 20
11.9736489402
 30
0.0
 10
13.7171589843
 20
11.9631220568
 30
0.0
 10
13.6828099714
 20
11.9558371468
 30
0.0
 10
13.6655991802
 20
11.954545164
 30
0.0
 10
13.6571554181
 20
11.954545164
 30
0.0
  0
SPLINE
  5
48D
100
AcDbEntity
  8
0
100
AcDbSpline
 62
7
  6
CONTINUOUS
 70
0
 71
3
 72
9
 73
5
 74
0
 42
0.0000001
 43
0.0000001
 44
0.0000000001
 40
0.0
 40
0.0
 40
0.0
 40
0.0
 40
0.2569974872
 40
1.0
 40
1.0
 40
1.0
 40
1.0
 10
15.4881002184
 20
11.8645712053
 30
0.0
 10
15.4899930485
 20
11.8601553465
 30
0.0
 10
15.4970034971
 20
11.8428246677
 30
0.0
 10
15.5025490235
 20
11.8248881749
 30
0.0
 10
15.5056583262
 20
11.8113506043
 30
0.0
  0
SPLINE
  5
48E
100
AcDbEntity
  8
0
100
AcDbSpline
 62
7
  6
CONTINUOUS
 70
0
 71
3
 72
9
 73
5
 74
0
 42
0.0000001
 43
0.0000001
 44
0.0000000001
 40
0.0
 40
0.0
 40
0.0
 40
0.0
 40
0.2545891237
 40
1.0
 40
1.0
 40
1.0
 40
1.0
 10
15.5056583262
 20
11.8113506043
 30
0.0
 10
15.5064195427
 20
11.8080363492
 30
0.0
 10
15.5091726045
 20
11.7949654952
 30
0.0
 10
15.510953534
 20
11.7816860979
 30
0.0
 10
15.5116725415
 20
11.7717556325
 30
0.0
  0
SPLINE
  5
48F
100
AcDbEntity
  8
0
100
AcDbSpline
 62
7
  6
CONTINUOUS
 70
0
 71
3
 72
9
 73
5
 74
0
 42
0.0000001
 43
0.0000001
 44
0.0000000001
 40
0.0
 40
0.0
 40
0.0
 40
0.0
 40
0.2531112381
 40
1.0
 40
1.0
 40
1.0
 40
1.0
 10
15.5116725415
 20
11.7717556325
 30
0.0
 10
15.5118928501
 20
11.7687128725
 30
0.0
 10
15.5125389145
 20
11.756676549
 30
0.0
 10
15.5122685996
 20
11.7445886566
 30
0.0
 10
15.5115211414
 20
11.7356175635
 30
0.0
  0
SPLINE
  5
490
100
AcDbEntity
  8
0
100
AcDbSpline
 62
7
  6
CONTINUOUS
 70
0
 71
3
 72
13
 73
9
 74
0
 42
0.0000001
 43
0.0000001
 44
0.0000000001
 40
0.0
 40
0.0
 40
0.0
 40
0.0
 40
0.2529366115
 40
0.5026510957
 40
0.6271868989
 40
0.7515026803
 40
0.8756838084
 40
1.0
 40
1.0
 40
1.0
 40
1.0
 10
17.6869507808
 20
12.5952304001
 30
0.0
 10
17.6949222636
 20
12.5952304001
 30
0.0
 10
17.7108360214
 20
12.5934027875
 30
0.0
 10
17.7294912712
 20
12.5861197405
 30
0.0
 10
17.7426251946
 20
12.5774071558
 30
0.0
 10
17.7514086205
 20
12.5695247096
 30
0.0
 10
17.7588903711
 20
12.5604089073
 30
0.0
 10
17.7628946207
 20
12.5536355626
 30
0.0
 10
17.76462063
 20
12.5501183255
 30
0.0
  0
SPLINE
  5
491
100
AcDbEntity
  8
0
100
AcDbSpline
 62
7
  6
CONTINUOUS
 70
0
 71
3
 72
11
 73
7
 74
0
 42
0.0000001
 43
0.0000001
 44
0.0000000001
 40
0.0
 40
0.0
 40
0.0
 40
0.0
 40
0.239040065
 40
0.4828737631
 40
0.7357657998
 40
1.0
 40
1.0
 40
1.0
 40
1.0
 10
17.8923554652
 20
12.2898184363
 30
0.0
 10
17.8939404626
 20
12.2865902989
 30
0.0
 10
17.8964661963
 20
12.2797137295
 30
0.0
 10
17.898104277
 20
12.2686948924
 30
0.0
 10
17.8975796464
 20
12.2571947518
 30
0.0
 10
17.8958635413
 20
12.2495629608
 30
0.0
 10
17.8946898457
 20
12.2457648804
 30
0.0
  0
SPLINE
  5
492
100
AcDbEntity
  8
0
100
AcDbSpline
 62
7
  6
CONTINUOUS
 70
0
 71
3
 72
13
 73
9
 74
0
 42
0.0000001
 43
0.0000001
 44
0.0000000001
 40
0.0
 40
0.0
 40
0.0
 40
0.0
 40
0.2302905467
 40
0.3553360883
 40
0.4846944076
 40
0.616235948
 40
0.7475987779
 40
1.0
 40
1.0
 40
1.0
 40
1.0
 10
15.6986723765
 20
12.0644494891
 30
0.0
 10
15.7004311115
 20
12.0698229261
 30
0.0
 10
15.7049752095
 20
12.0775642012
 30
0.0
 10
15.7132327117
 20
12.0861569665
 30
0.0
 10
15.7207663898
 20
12.0919669421
 30
0.0
 10
15.7291722283
 20
12.096734616
 30
0.0
 10
15.7409554589
 20
12.1014034529
 30
0.0
 10
15.7504352259
 20
12.1029928777
 30
0.0
 10
15.7566320063
 20
12.1029921051
 30
0.0
  0
SPLINE
  5
493
100
AcDbEntity
  8
0
100
AcDbSpline
 62
7
  6
CONTINUOUS
 70
0
 71
3
 72
14
 73
10
 74
0
 42
0.0000001
 43
0.0000001
 44
0.0000000001
 40
0.0
 40
0.0
 40
0.0
 40
0.0
 40
0.1219644118
 40
0.2453011343
 40
0.3700383848
 40
0.4961263192
 40
0.6229883202
 40
0.7498517386
 40
1.0
 40
1.0
 40
1.0
 40
1.0
 10
13.3326295379
 20
12.5208264232
 30
0.0
 10
13.3342836017
 20
12.5261789758
 30
0.0
 10
13.33865342
 20
12.5366464704
 30
0.0
 10
13.3478922456
 20
12.5510054581
 30
0.0
 10
13.3594870663
 20
12.5637927442
 30
0.0
 10
13.3730308958
 20
12.5747360366
 30
0.0
 10
13.3881305197
 20
12.5836127075
 30
0.0
 10
13.4096222296
 20
12.5923348526
 30
0.0
 10
13.4270666663
 20
12.5952304001
 30
0.0
 10
13.438556946
 20
12.5952304001
 30
0.0
  0
SPLINE
  5
494
100
AcDbEntity
  8
0
100
AcDbSpline
 62
7
  6
CONTINUOUS
 70
0
 71
3
 72
9
 73
5
 74
0
 42
0.0000001
 43
0.0000001
 44
0.0000000001
 40
0.0
 40
0.0
 40
0.0
 40
0.0
 40
0.5043941819
 40
1.0
 40
1.0
 40
1.0
 40
1.0
 10
15.7052563346
 20
13.166688276
 30
0.0
 10
15.6942712864
 20
13.1812261545
 30
0.0
 10
15.6735292813
 20
13.2108544505
 30
0.0
 10
15.6556448719
 20
13.2423367878
 30
0.0
 10
15.6477587366
 20
13.2584103951
 30
0.0
  0
SPLINE
  5
495
100
AcDbEntity
  8
0
100
AcDbSpline
 62
7
  6
CONTINUOUS
 70
0
 71
3
 72
11
 73
7
 74
0
 42
0.0000001
 43
0.0000001
 44
0.0000000001
 40
0.0
 40
0.0
 40
0.0
 40
0.0
 40
0.2495803693
 40
0.4991529675
 40
0.7491342524
 40
1.0
 40
1.0
 40
1.0
 40
1.0
 10
13.0522525344
 20
11.5416006649
 30
0.0
 10
13.0500422902
 20
11.546104669
 30
0.0
 10
13.0465074893
 20
11.5555786026
 30
0.0
 10
13.0440972563
 20
11.5705361276
 30
0.0
 10
13.0445611644
 20
11.5857000185
 30
0.0
 10
13.0467126952
 20
11.5955991811
 30
0.0
 10
13.0482016079
 20
11.6004173043
 30
0.0
  0
SPLINE
  5
496
100
AcDbEntity
  8
0
100
AcDbSpline
 62
7
  6
CONTINUOUS
 70
0
 71
3
 72
11
 73
7
 74
0
 42
0.0000001
 43
0.0000001
 44
0.0000000001
 40
0.0
 40
0.0
 40
0.0
 40
0.0
 40
0.2358587169
 40
0.4777362167
 40
0.731079612
 40
1.0
 40
1.0
 40
1.0
 40
1.0
 10
13.8434784105
 20
11.8647965103
 30
0.0
 10
13.8478776464
 20
11.8790347093
 30
0.0
 10
13.8544488711
 20
11.9086556862
 30
0.0
 10
13.8570940316
 20
11.954954071
 30
0.0
 10
13.852521471
 20
12.0031866244
 30
0.0
 10
13.8448141617
 20
12.0353902223
 30
0.0
 10
13.8398518549
 20
12.0516407342
 30
0.0
  0
SPLINE
  5
497
100
AcDbEntity
  8
0
100
AcDbSpline
 62
7
  6
CONTINUOUS
 70
0
 71
3
 72
9
 73
5
 74
0
 42
0.0000001
 43
0.0000001
 44
0.0000000001
 40
0.0
 40
0.0
 40
0.0
 40
0.0
 40
0.241761718
 40
1.0
 40
1.0
 40
1.0
 40
1.0
 10
13.8398518549
 20
12.0516407342
 30
0.0
 10
13.8381164705
 20
12.0573237535
 30
0.0
 10
13.830433981
 20
12.0806750669
 30
0.0
 10
13.8208010368
 20
12.1033712595
 30
0.0
 10
13.8126141458
 20
12.12011286
 30
0.0
  0
SPLINE
  5
498
100
AcDbEntity
  8
0
100
AcDbSpline
 62
7
  6
CONTINUOUS
 70
0
 71
3
 72
9
 73
5
 74
0
 42
0.0000001
 43
0.0000001
 44
0.0000000001
 40
0.0
 40
0.0
 40
0.0
 40
0.0
 40
0.5129378963
 40
1.0
 40
1.0
 40
1.0
 40
1.0
 10
17.3251499114
 20
12.6005113249
 30
0.0
 10
17.3337458308
 20
12.5987855504
 30
0.0
 10
17.3506669532
 20
12.5961805436
 30
0.0
 10
17.3677675331
 20
12.5952304001
 30
0.0
 10
17.3760926953
 20
12.5952304001
 30
0.0
  0
SPLINE
  5
499
100
AcDbEntity
  8
0
100
AcDbSpline
 62
7
  6
CONTINUOUS
 70
0
 71
3
 72
15
 73
11
 74
0
 42
0.0000001
 43
0.0000001
 44
0.0000000001
 40
0.0
 40
0.0
 40
0.0
 40
0.0
 40
0.1223819642
 40
0.2459749158
 40
0.3704128315
 40
0.4954687475
 40
0.6210088671
 40
0.7469629164
 40
0.8732955201
 40
1.0
 40
1.0
 40
1.0
 40
1.0
 10
16.730332933
 20
12.0560558158
 30
0.0
 10
16.7367753832
 20
12.0429277674
 30
0.0
 10
16.7512625887
 20
12.0172719363
 30
0.0
 10
16.7770536897
 20
11.9812085403
 30
0.0
 10
16.8066365947
 20
11.9477509711
 30
0.0
 10
16.83967535
 20
11.9173553495
 30
0.0
 10
16.8758758015
 20
11.8904894365
 30
0.0
 10
16.9149345553
 20
11.8676565187
 30
0.0
 10
16.9564794406
 20
11.8493855938
 30
0.0
 10
16.9855073177
 20
11.840604124
 30
0.0
 10
17.0002455612
 20
11.837138847
 30
0.0
  0
SPLINE
  5
49A
100
AcDbEntity
  8
0
100
AcDbSpline
 62
7
  6
CONTINUOUS
 70
0
 71
3
 72
13
 73
9
 74
0
 42
0.0000001
 43
0.0000001
 44
0.0000000001
 40
0.0
 40
0.0
 40
0.0
 40
0.0
 40
0.1189906122
 40
0.238593214
 40
0.3594074053
 40
0.4820131276
 40
0.7345264551
 40
1.0
 40
1.0
 40
1.0
 40
1.0
 10
14.2761459038
 20
12.0687228797
 30
0.0
 10
14.2743407734
 20
12.0628795598
 30
0.0
 10
14.2712367875
 20
12.0509964824
 30
0.0
 10
14.268148546
 20
12.03276144
 30
0.0
 10
14.2666345969
 20
12.0141407875
 30
0.0
 10
14.2667187103
 20
11.9886252637
 30
0.0
 10
14.2709020589
 20
11.9558213048
 30
0.0
 10
14.278207217
 20
11.9301159764
 30
0.0
 10
14.2827775096
 20
11.9172595468
 30
0.0
  0
SPLINE
  5
49B
100
AcDbEntity
  8
0
100
AcDbSpline
 62
7
  6
CONTINUOUS
 70
0
 71
3
 72
9
 73
5
 74
0
 42
0.0000001
 43
0.0000001
 44
0.0000000001
 40
0.0
 40
0.0
 40
0.0
 40
0.0
 40
0.2458712886
 40
1.0
 40
1.0
 40
1.0
 40
1.0
 10
14.2827775096
 20
11.9172595468
 30
0.0
 10
14.2837138119
 20
11.9146256882
 30
0.0
 10
14.2876643229
 20
11.9039643125
 30
0.0
 10
14.2921724676
 20
11.8935111009
 30
0.0
 10
14.2958469608
 20
11.8857646631
 30
0.0
  0
SPLINE
  5
49C
100
AcDbEntity
  8
0
100
AcDbSpline
 62
7
  6
CONTINUOUS
 70
0
 71
3
 72
11
 73
7
 74
0
 42
0.0000001
 43
0.0000001
 44
0.0000000001
 40
0.0
 40
0.0
 40
0.0
 40
0.0
 40
0.2605413088
 40
0.5122952403
 40
0.7577721467
 40
1.0
 40
1.0
 40
1.0
 40
1.0
 10
13.5559363608
 20
12.732229271
 30
0.0
 10
13.5543783495
 20
12.7237322613
 30
0.0
 10
13.552464456
 20
12.7067828629
 30
0.0
 10
13.5534799119
 20
12.681576579
 30
0.0
 10
13.5584224895
 20
12.6574519657
 30
0.0
 10
13.5643148741
 20
12.6422946264
 30
0.0
 10
13.5678517857
 20
12.6350839033
 30
0.0
  0
SPLINE
  5
49D
100
AcDbEntity
  8
0
100
AcDbSpline
 62
7
  6
CONTINUOUS
 70
0
 71
3
 72
11
 73
7
 74
0
 42
0.0000001
 43
0.0000001
 44
0.0000000001
 40
0.0
 40
0.0
 40
0.0
 40
0.0
 40
0.2555639102
 40
0.5093474923
 40
0.7587254879
 40
1.0
 40
1.0
 40
1.0
 40
1.0
 10
13.9528050272
 20
13.0234883595
 30
0.0
 10
13.9414627271
 20
13.0267719873
 30
0.0
 10
13.9187226808
 20
13.0328681215
 30
0.0
 10
13.8844085218
 20
13.0401470194
 30
0.0
 10
13.8503156375
 20
13.0449398217
 30
0.0
 10
13.8276351703
 20
13.0461300944
 30
0.0
 10
13.8164873487
 20
13.0461300944
 30
0.0
  0
SPLINE
  5
49E
100
AcDbEntity
  8
0
100
AcDbSpline
 62
7
  6
CONTINUOUS
 70
0
 71
3
 72
12
 73
8
 74
0
 42
0.0000001
 43
0.0000001
 44
0.0000000001
 40
0.0
 40
0.0
 40
0.0
 40
0.0
 40
0.2340591327
 40
0.4778381344
 40
0.6039639244
 40
0.7331391666
 40
1.0
 40
1.0
 40
1.0
 40
1.0
 10
13.7023915695
 20
13.0234883595
 30
0.0
 10
13.693533706
 20
13.0195306719
 30
0.0
 10
13.6757146744
 20
13.0108363973
 30
0.0
 10
13.6541804987
 20
12.9979973302
 30
0.0
 10
13.6372088974
 20
12.9861542301
 30
0.0
 10
13.6201112944
 20
12.9728719518
 30
0.0
 10
13.607953749
 20
12.9617817998
 30
0.0
 10
13.600179918
 20
12.9539126768
 30
0.0
  0
SPLINE
  5
49F
100
AcDbEntity
  8
0
100
AcDbSpline
 62
7
  6
CONTINUOUS
 70
0
 71
3
 72
12
 73
8
 74
0
 42
0.0000001
 43
0.0000001
 44
0.0000000001
 40
0.0
 40
0.0
 40
0.0
 40
0.0
 40
0.2719605275
 40
0.4021724504
 40
0.5284245518
 40
0.7702105732
 40
1.0
 40
1.0
 40
1.0
 40
1.0
 10
13.8164873487
 20
13.0461300944
 30
0.0
 10
13.8058776414
 20
13.0461300944
 30
0.0
 10
13.7901697433
 20
13.0453392182
 30
0.0
 10
13.7697245153
 20
13.0426436949
 30
0.0
 10
13.7506070426
 20
13.0390848413
 30
0.0
 10
13.7280224842
 20
13.0331164547
 30
0.0
 10
13.7107022307
 20
13.0268492708
 30
0.0
 10
13.7023915695
 20
13.0234883595
 30
0.0
  0
SPLINE
  5
4A0
100
AcDbEntity
  8
0
100
AcDbSpline
 62
7
  6
CONTINUOUS
 70
0
 71
3
 72
10
 73
6
 74
0
 42
0.0000001
 43
0.0000001
 44
0.0000000001
 40
0.0
 40
0.0
 40
0.0
 40
0.0
 40
0.4044180255
 40
0.675777587
 40
1.0
 40
1.0
 40
1.0
 40
1.0
 10
13.5201901658
 20
12.8390535243
 30
0.0
 10
13.5227446977
 20
12.829508473
 30
0.0
 10
13.527591991
 20
12.8137139508
 30
0.0
 10
13.5354813143
 20
12.7905904811
 30
0.0
 10
13.5404374034
 20
12.7769075748
 30
0.0
 10
13.5431852432
 20
12.7694778416
 30
0.0
  0
SPLINE
  5
4A1
100
AcDbEntity
  8
0
100
AcDbSpline
 62
7
  6
CONTINUOUS
 70
0
 71
3
 72
12
 73
8
 74
0
 42
0.0000001
 43
0.0000001
 44
0.0000000001
 40
0.0
 40
0.0
 40
0.0
 40
0.0
 40
0.2448561023
 40
0.369544556
 40
0.495080935
 40
0.7474494769
 40
1.0
 40
1.0
 40
1.0
 40
1.0
 10
13.600179918
 20
12.9539126768
 30
0.0
 10
13.5921229907
 20
12.9457569874
 30
0.0
 10
13.5806090513
 20
12.9327935346
 30
0.0
 10
13.5664207227
 20
12.9144582709
 30
0.0
 10
13.5528116458
 20
12.8952530297
 30
0.0
 10
13.5370901657
 20
12.8702427469
 30
0.0
 10
13.5256726707
 20
12.8495302322
 30
0.0
 10
13.5201901658
 20
12.8390535243
 30
0.0
  0
SPLINE
  5
4A2
100
AcDbEntity
  8
0
100
AcDbSpline
 62
7
  6
CONTINUOUS
 70
0
 71
3
 72
10
 73
6
 74
0
 42
0.0000001
 43
0.0000001
 44
0.0000000001
 40
0.0
 40
0.0
 40
0.0
 40
0.0
 40
0.222122098
 40
0.467513963
 40
1.0
 40
1.0
 40
1.0
 40
1.0
 10
13.5431852432
 20
12.7694778416
 30
0.0
 10
13.5463556751
 20
12.7609054844
 30
0.0
 10
13.5531675687
 20
12.742914024
 30
0.0
 10
13.5681424147
 20
12.7045873097
 30
0.0
 10
13.580128106
 20
12.6749070283
 30
0.0
 10
13.5884022199
 20
12.654618689
 30
0.0
  0
SPLINE
  5
4A3
100
AcDbEntity
  8
0
100
AcDbSpline
 62
7
  6
CONTINUOUS
 70
0
 71
3
 72
11
 73
7
 74
0
 42
0.0000001
 43
0.0000001
 44
0.0000000001
 40
0.0
 40
0.0
 40
0.0
 40
0.0
 40
0.2595124782
 40
0.5111586361
 40
0.7570125661
 40
1.0
 40
1.0
 40
1.0
 40
1.0
 10
13.4907661168
 20
12.6296681133
 30
0.0
 10
13.4876905374
 20
12.6197155347
 30
0.0
 10
13.4831801545
 20
12.5995820827
 30
0.0
 10
13.4818741203
 20
12.5690529878
 30
0.0
 10
13.4863259868
 20
12.5394752815
 30
0.0
 10
13.4931605557
 20
12.5209073982
 30
0.0
 10
13.4974574482
 20
12.5121512518
 30
0.0
  0
SPLINE
  5
4A4
100
AcDbEntity
  8
0
100
AcDbSpline
 62
7
  6
CONTINUOUS
 70
0
 71
3
 72
15
 73
11
 74
0
 42
0.0000001
 43
0.0000001
 44
0.0000000001
 40
0.0
 40
0.0
 40
0.0
 40
0.0
 40
0.1166842474
 40
0.2342627797
 40
0.3536890271
 40
0.4757321326
 40
0.6010407411
 40
0.7300796583
 40
0.8631459004
 40
1.0
 40
1.0
 40
1.0
 40
1.0
 10
16.4557659313
 20
13.3395009612
 30
0.0
 10
16.4522846368
 20
13.3465950935
 30
0.0
 10
16.4440834025
 20
13.3602775746
 30
0.0
 10
16.428490228
 20
13.3785923969
 30
0.0
 10
16.4099138746
 20
13.3944364827
 30
0.0
 10
16.3887308716
 20
13.4075761383
 30
0.0
 10
16.365330051
 20
13.4178784751
 30
0.0
 10
16.3400794835
 20
13.4252573226
 30
0.0
 10
16.3133633618
 20
13.4296646888
 30
0.0
 10
16.2950662033
 20
13.4306138387
 30
0.0
 10
16.2857979407
 20
13.4306138387
 30
0.0
  0
SPLINE
  5
4A5
100
AcDbEntity
  8
0
100
AcDbSpline
 62
7
  6
CONTINUOUS
 70
0
 71
3
 72
34
 73
30
 74
0
 42
0.0000001
 43
0.0000001
 44
0.0000000001
 40
0.0
 40
0.0
 40
0.0
 40
0.0
 40
0.0265218139
 40
0.0543742476
 40
0.0835433121
 40
0.1140021181
 40
0.1457064387
 40
0.1785802058
 40
0.247377106
 40
0.3194090623
 40
0.3934626989
 40
0.468205583
 40
0.5422695083
 40
0.5786384872
 40
0.6143464962
 40
0.6492450473
 40
0.6832003062
 40
0.7160906323
 40
0.7478165604
 40
0.7782971531
 40
0.8074805436
 40
0.8353434167
 40
0.8618984801
 40
0.8871996102
 40
0.9113437607
 40
0.934478919
 40
0.9567991944
 40
0.9785474182
 40
1.0
 40
1.0
 40
1.0
 40
1.0
 10
14.2979404784
 20
11.8814260836
 30
0.0
 10
14.303402231
 20
11.8702962019
 30
0.0
 10
14.3157628555
 20
11.8480353416
 30
0.0
 10
14.3377080909
 20
11.81567863
 30
0.0
 10
14.3633664385
 20
11.7837826006
 30
0.0
 10
14.3925468128
 20
11.7525688306
 30
0.0
 10
14.4250557731
 20
11.7222419443
 30
0.0
 10
14.4732709672
 20
11.6826600394
 30
0.0
 10
14.5405478822
 20
11.6368609222
 30
0.0
 10
14.6292061199
 20
11.5892965928
 30
0.0
 10
14.7246530596
 20
11.549558078
 30
0.0
 10
14.8243167567
 20
11.5187194942
 30
0.0
 10
14.9091972502
 20
11.5010077289
 30
0.0
 10
14.9769449045
 20
11.4920411356
 30
0.0
 10
15.0268112748
 20
11.4880022294
 30
0.0
 10
15.0756942729
 20
11.4866467359
 30
0.0
 10
15.1232628332
 20
11.487971648
 30
0.0
 10
15.1691946127
 20
11.4919814479
 30
0.0
 10
15.2131791909
 20
11.498638169
 30
0.0
 10
15.2549190715
 20
11.5079077005
 30
0.0
 10
15.2941331298
 20
11.5197245296
 30
0.0
 10
15.3305575171
 20
11.5340143437
 30
0.0
 10
15.3639439016
 20
11.5506905185
 30
0.0
 10
15.3940689777
 20
11.5696413721
 30
0.0
 10
15.4207154843
 20
11.5907609025
 30
0.0
 10
15.4437023403
 20
11.6139021633
 30
0.0
 10
15.4628432923
 20
11.6389312823
 30
0.0
 10
15.4779967282
 20
11.6656586737
 30
0.0
 10
15.4853712935
 20
11.6845479205
 30
0.0
 10
15.4883311891
 20
11.6941292875
 30
0.0
  0
SPLINE
  5
4A6
100
AcDbEntity
  8
0
100
AcDbSpline
 62
7
  6
CONTINUOUS
 70
0
 71
3
 72
30
 73
26
 74
0
 42
0.0000001
 43
0.0000001
 44
0.0000000001
 40
0.0
 40
0.0
 40
0.0
 40
0.0
 40
0.0265220366
 40
0.0543783069
 40
0.0835531432
 40
0.1140164856
 40
0.1785673736
 40
0.2473732183
 40
0.3194131948
 40
0.3934743059
 40
0.4682252856
 40
0.5422971241
 40
0.6143585164
 40
0.6831933372
 40
0.7477851285
 40
0.7782698695
 40
0.8074569933
 40
0.8353227015
 40
0.8618818736
 40
0.8871849769
 40
0.9113326123
 40
0.9344698938
 40
0.9567933741
 40
0.9785446678
 40
1.0
 40
1.0
 40
1.0
 40
1.0
 10
15.3427690434
 20
11.8814260836
 30
0.0
 10
15.3384646731
 20
11.8901974682
 30
0.0
 10
15.3287221225
 20
11.9077419995
 30
0.0
 10
15.3114254
 20
11.9332446464
 30
0.0
 10
15.2912023014
 20
11.9583873476
 30
0.0
 10
15.2599324081
 20
11.9918314136
 30
0.0
 10
15.2142254108
 20
12.0315176299
 30
0.0
 10
15.1515573325
 20
12.0741836356
 30
0.0
 10
15.0816717134
 20
12.1116774263
 30
0.0
 10
15.0064464322
 20
12.142997077
 30
0.0
 10
14.9278901822
 20
12.1673047494
 30
0.0
 10
14.8481113451
 20
12.1839488461
 30
0.0
 10
14.769241357
 20
12.1924842509
 30
0.0
 10
14.693394719
 20
12.1926809782
 30
0.0
 10
14.6332265817
 20
12.1857551912
 30
0.0
 10
14.588502577
 20
12.1758255825
 30
0.0
 10
14.557593304
 20
12.1665134352
 30
0.0
 10
14.5288859149
 20
12.1552466615
 30
0.0
 10
14.5025688144
 20
12.1421080883
 30
0.0
 10
14.4788280548
 20
12.1271660239
 30
0.0
 10
14.4578226123
 20
12.1105247779
 30
0.0
 10
14.4397071136
 20
12.0922824918
 30
0.0
 10
14.4246194006
 20
12.0725560526
 30
0.0
 10
14.4126748187
 20
12.0514897641
 30
0.0
 10
14.4068642296
 20
12.0366007111
 30
0.0
 10
14.4045307741
 20
12.029048951
 30
0.0
  0
SPLINE
  5
4A7
100
AcDbEntity
  8
0
100
AcDbSpline
 62
7
  6
CONTINUOUS
 70
0
 71
3
 72
15
 73
11
 74
0
 42
0.0000001
 43
0.0000001
 44
0.0000000001
 40
0.0
 40
0.0
 40
0.0
 40
0.0
 40
0.1236188735
 40
0.2493064571
 40
0.3761046476
 40
0.5031094753
 40
0.6295525553
 40
0.7548491818
 40
0.8784638586
 40
1.0
 40
1.0
 40
1.0
 40
1.0
 10
15.5132733282
 20
12.8232278294
 30
0.0
 10
15.5197367229
 20
12.8100569424
 30
0.0
 10
15.5340996559
 20
12.7841338836
 30
0.0
 10
15.5588281016
 20
12.7469297506
 30
0.0
 10
15.5861992815
 20
12.7111282423
 30
0.0
 10
15.6154762044
 20
12.6767639296
 30
0.0
 10
15.6460542727
 20
12.6438027819
 30
0.0
 10
15.677411531
 20
12.6121523252
 30
0.0
 10
15.7091121092
 20
12.5816841853
 30
0.0
 10
15.7304476481
 20
12.5619009605
 30
0.0
 10
15.7410779768
 20
12.5521515013
 30
0.0
  0
SPLINE
  5
4A8
100
AcDbEntity
  8
0
100
AcDbSpline
 62
7
  6
CONTINUOUS
 70
0
 71
3
 72
11
 73
7
 74
0
 42
0.0000001
 43
0.0000001
 44
0.0000000001
 40
0.0
 40
0.0
 40
0.0
 40
0.0
 40
0.2327814768
 40
0.4780704311
 40
0.7342615734
 40
1.0
 40
1.0
 40
1.0
 40
1.0
 10
14.0869657688
 20
13.5375701288
 30
0.0
 10
14.0848021637
 20
13.5320573435
 30
0.0
 10
14.0808797218
 20
13.5205296231
 30
0.0
 10
14.0759882881
 20
13.5024924935
 30
0.0
 10
14.0718732281
 20
13.4834045749
 30
0.0
 10
14.0696584177
 20
13.4703075863
 30
0.0
 10
14.0686675775
 20
13.4636199756
 30
0.0
  0
SPLINE
  5
4A9
100
AcDbEntity
  8
0
100
AcDbSpline
 62
7
  6
CONTINUOUS
 70
0
 71
3
 72
9
 73
5
 74
0
 42
0.0000001
 43
0.0000001
 44
0.0000000001
 40
0.0
 40
0.0
 40
0.0
 40
0.0
 40
0.2456522062
 40
1.0
 40
1.0
 40
1.0
 40
1.0
 10
16.1674522136
 20
13.47594575
 30
0.0
 10
16.1589914274
 20
13.4833286178
 30
0.0
 10
16.1241895712
 20
13.5129689725
 30
0.0
 10
16.0879974637
 20
13.5409691298
 30
0.0
 10
16.0600666619
 20
13.5611901015
 30
0.0
  0
SPLINE
  5
4AA
100
AcDbEntity
  8
0
100
AcDbSpline
 62
7
  6
CONTINUOUS
 70
0
 71
3
 72
28
 73
24
 74
0
 42
0.0000001
 43
0.0000001
 44
0.0000000001
 40
0.0
 40
0.0
 40
0.0
 40
0.0
 40
0.0675079068
 40
0.1373037845
 40
0.2087243313
 40
0.28103956
 40
0.3534843447
 40
0.4252887144
 40
0.4957076986
 40
0.564051922
 40
0.6297215432
 40
0.6922414317
 40
0.7512998224
 40
0.7795019989
 40
0.806818936
 40
0.8332752112
 40
0.8589133308
 40
0.8837942338
 40
0.907992729
 40
0.9316017066
 40
0.9547285528
 40
0.9774853234
 40
1.0
 40
1.0
 40
1.0
 40
1.0
 10
16.0600666619
 20
13.5611901015
 30
0.0
 10
16.0202575795
 20
13.5900105533
 30
0.0
 10
15.9365978259
 20
13.6449815107
 30
0.0
 10
15.8030743525
 20
13.7178290222
 30
0.0
 10
15.6611347618
 20
13.7815937617
 30
0.0
 10
15.5130409226
 20
13.8352777209
 30
0.0
 10
15.3611415841
 20
13.8780388089
 30
0.0
 10
15.207848973
 20
13.9091939974
 30
0.0
 10
15.0555842627
 20
13.9282363911
 30
0.0
 10
14.9067317806
 20
13.9348379285
 30
0.0
 10
14.7635820263
 20
13.9288460602
 30
0.0
 10
14.6283171331
 20
13.9102705837
 30
0.0
 10
14.5222124719
 20
13.8840139384
 30
0.0
 10
14.4433887721
 20
13.8565743854
 30
0.0
 10
14.3883841933
 20
13.8333009041
 30
0.0
 10
14.3368103688
 20
13.807065597
 30
0.0
 10
14.2888749706
 20
13.7779277449
 30
0.0
 10
14.2447957675
 20
13.7459451499
 30
0.0
 10
14.2047846767
 20
13.7112024437
 30
0.0
 10
14.1690664529
 20
13.67379597
 30
0.0
 10
14.1378694387
 20
13.6338564967
 30
0.0
 10
14.111398938
 20
13.591575384
 30
0.0
 10
14.0970005096
 20
13.5618420785
 30
0.0
 10
14.0906805055
 20
13.5467185684
 30
0.0
  0
SPLINE
  5
4AB
100
AcDbEntity
  8
0
100
AcDbSpline
 62
7
  6
CONTINUOUS
 70
0
 71
3
 72
9
 73
5
 74
0
 42
0.0000001
 43
0.0000001
 44
0.0000000001
 40
0.0
 40
0.0
 40
0.0
 40
0.0
 40
0.2559993656
 40
1.0
 40
1.0
 40
1.0
 40
1.0
 10
17.0857039801
 20
11.8194920195
 30
0.0
 10
17.0890919169
 20
11.8188893287
 30
0.0
 10
17.102372236
 20
11.8168088029
 30
0.0
 10
17.115833739
 20
11.8158310237
 30
0.0
 10
17.1258345463
 20
11.8158310237
 30
0.0
  0
SPLINE
  5
4AC
100
AcDbEntity
  8
0
100
AcDbSpline
 62
7
  6
CONTINUOUS
 70
0
 71
3
 72
15
 73
11
 74
0
 42
0.0000001
 43
0.0000001
 44
0.0000000001
 40
0.0
 40
0.0
 40
0.0
 40
0.0
 40
0.1412329818
 40
0.2776837483
 40
0.408787668
 40
0.5346409846
 40
0.6557486507
 40
0.7729160399
 40
0.8872117162
 40
1.0
 40
1.0
 40
1.0
 40
1.0
 10
17.0535678335
 20
11.954545164
 30
0.0
 10
17.0478358637
 20
11.954545164
 30
0.0
 10
17.0365559025
 20
11.9551235816
 30
0.0
 10
17.0201449239
 20
11.9577863919
 30
0.0
 10
17.004763499
 20
11.9622218811
 30
0.0
 10
16.9906493941
 20
11.9683583955
 30
0.0
 10
16.9780128656
 20
11.976121124
 30
0.0
 10
16.9670392436
 20
11.9853956779
 30
0.0
 10
16.9579099879
 20
11.9960514912
 30
0.0
 10
16.9531388171
 20
12.0039968246
 30
0.0
 10
16.9511215926
 20
12.008105917
 30
0.0
  0
SPLINE
  5
4AD
100
AcDbEntity
  8
0
100
AcDbSpline
 62
7
  6
CONTINUOUS
 70
0
 71
3
 72
19
 73
15
 74
0
 42
0.0000001
 43
0.0000001
 44
0.0000000001
 40
0.0
 40
0.0
 40
0.0
 40
0.0
 40
0.0273569852
 40
0.0601739395
 40
0.098898564
 40
0.143762436
 40
0.1947045169
 40
0.2514907815
 40
0.3137059224
 40
0.3808151035
 40
0.5267751934
 40
0.6829557196
 40
0.8426597893
 40
1.0
 40
1.0
 40
1.0
 40
1.0
 10
14.0318182574
 20
13.1508791082
 30
0.0
 10
14.0334407156
 20
13.1475721943
 30
0.0
 10
14.0361620738
 20
13.1398788588
 30
0.0
 10
14.0385231336
 20
13.1267349822
 30
0.0
 10
14.0393479889
 20
13.1110483873
 30
0.0
 10
14.0384385924
 20
13.0929322212
 30
0.0
 10
14.0357015929
 20
13.0725492117
 30
0.0
 10
14.0310442682
 20
13.0501294336
 30
0.0
 10
14.0244722025
 20
13.0259337675
 30
0.0
 10
14.0128594826
 20
12.9907191179
 30
0.0
 10
13.9940364291
 20
12.9446388267
 30
0.0
 10
13.9667751518
 20
12.8887169346
 30
0.0
 10
13.936278697
 20
12.8327557618
 30
0.0
 10
13.9148624269
 20
12.7958260793
 30
0.0
 10
13.9041528551
 20
12.7775473235
 30
0.0
  0
SPLINE
  5
4AE
100
AcDbEntity
  8
0
100
AcDbSpline
 62
7
  6
CONTINUOUS
 70
0
 71
3
 72
9
 73
5
 74
0
 42
0.0000001
 43
0.0000001
 44
0.0000000001
 40
0.0
 40
0.0
 40
0.0
 40
0.0
 40
0.5195353837
 40
1.0
 40
1.0
 40
1.0
 40
1.0
 10
13.9041528551
 20
12.7775473235
 30
0.0
 10
13.8918815435
 20
12.75660304
 30
0.0
 10
13.8680658365
 20
12.7164063335
 30
0.0
 10
13.8448100645
 20
12.6758740175
 30
0.0
 10
13.8340159546
 20
12.656190496
 30
0.0
  0
SPLINE
  5
4AF
100
AcDbEntity
  8
0
100
AcDbSpline
 62
7
  6
CONTINUOUS
 70
0
 71
3
 72
9
 73
5
 74
0
 42
0.0000001
 43
0.0000001
 44
0.0000000001
 40
0.0
 40
0.0
 40
0.0
 40
0.0
 40
0.5228183846
 40
1.0
 40
1.0
 40
1.0
 40
1.0
 10
13.8340159546
 20
12.656190496
 30
0.0
 10
13.8243208167
 20
12.638510997
 30
0.0
 10
13.8063597243
 20
12.6043667024
 30
0.0
 10
13.7904197664
 20
12.5692079103
 30
0.0
 10
13.7835089154
 20
12.5521515013
 30
0.0
  0
SPLINE
  5
4B0
100
AcDbEntity
  8
0
100
AcDbSpline
 62
7
  6
CONTINUOUS
 70
0
 71
3
 72
19
 73
15
 74
0
 42
0.0000001
 43
0.0000001
 44
0.0000000001
 40
0.0
 40
0.0
 40
0.0
 40
0.0
 40
0.0273640888
 40
0.0601804175
 40
0.0989101979
 40
0.1437665319
 40
0.1946973659
 40
0.2514905488
 40
0.3137113532
 40
0.3808108335
 40
0.5267429843
 40
0.682922483
 40
0.8426078017
 40
1.0
 40
1.0
 40
1.0
 40
1.0
 10
14.1662997192
 20
13.5860604573
 30
0.0
 10
14.16792376
 20
13.5827533224
 30
0.0
 10
14.1706399561
 20
13.5750571825
 30
0.0
 10
14.1730063696
 20
13.5619132596
 30
0.0
 10
14.1738223517
 20
13.5462265629
 30
0.0
 10
14.1729209008
 20
13.5281126178
 30
0.0
 10
14.1701838828
 20
13.507731185
 30
0.0
 10
14.1655241105
 20
13.4853121543
 30
0.0
 10
14.1589477186
 20
13.4611177304
 30
0.0
 10
14.1473405408
 20
13.4259065725
 30
0.0
 10
14.1285240737
 20
13.379829923
 30
0.0
 10
14.101264826
 20
13.3239152417
 30
0.0
 10
14.0707649807
 20
13.2679522318
 30
0.0
 10
14.0493492189
 20
13.231017939
 30
0.0
 10
14.0386388456
 20
13.2127319458
 30
0.0
  0
LINE
  5
4B1
100
AcDbEntity
  8
0
100
AcDbLine
 62
7
  6
CONTINUOUS
 10
14.0386388456
 20
13.2127319458
 11
14.0115710747
 21
13.166688276
  0
SPLINE
  5
4B2
100
AcDbEntity
  8
0
100
AcDbSpline
 62
7
  6
CONTINUOUS
 70
0
 71
3
 72
15
 73
11
 74
0
 42
0.0000001
 43
0.0000001
 44
0.0000000001
 40
0.0
 40
0.0
 40
0.0
 40
0.0
 40
0.1164355757
 40
0.2337743067
 40
0.352880517
 40
0.4745683052
 40
0.599575201
 40
0.7285416981
 40
0.8619200682
 40
1.0
 40
1.0
 40
1.0
 40
1.0
 10
14.1061196764
 20
12.1641715074
 30
0.0
 10
14.1032415083
 20
12.1548569985
 30
0.0
 10
14.0984754387
 20
12.1358259487
 30
0.0
 10
14.0944043077
 20
12.1065079734
 30
0.0
 10
14.0934137876
 20
12.0764840111
 30
0.0
 10
14.0955094443
 20
12.0458777934
 30
0.0
 10
14.1006708407
 20
12.0148037924
 30
0.0
 10
14.1088838165
 20
11.9833845432
 30
0.0
 10
14.1200981388
 20
11.9517502274
 30
0.0
 10
14.1293732916
 20
11.9309713833
 30
0.0
 10
14.1344665426
 20
11.9205924291
 30
0.0
  0
SPLINE
  5
4B3
100
AcDbEntity
  8
0
100
AcDbSpline
 62
7
  6
CONTINUOUS
 70
0
 71
3
 72
15
 73
11
 74
0
 42
0.0000001
 43
0.0000001
 44
0.0000000001
 40
0.0
 40
0.0
 40
0.0
 40
0.0
 40
0.141232017
 40
0.2776815372
 40
0.4087830034
 40
0.534633335
 40
0.6557383321
 40
0.7729047412
 40
0.8872056064
 40
1.0
 40
1.0
 40
1.0
 40
1.0
 10
13.5420227939
 20
11.954545164
 30
0.0
 10
13.5362908776
 20
11.954545164
 30
0.0
 10
13.5250110347
 20
11.9551235976
 30
0.0
 10
13.5086002913
 20
11.9577864176
 30
0.0
 10
13.4932191884
 20
11.9622219053
 30
0.0
 10
13.4791054468
 20
11.9683583025
 30
0.0
 10
13.4664689729
 20
11.9761204699
 30
0.0
 10
13.4554949085
 20
11.9853946124
 30
0.0
 10
13.4463660367
 20
11.9960513402
 30
0.0
 10
13.4415949302
 20
12.0039971332
 30
0.0
 10
13.4395773461
 20
12.0081063125
 30
0.0
  0
SPLINE
  5
4B4
100
AcDbEntity
  8
0
100
AcDbSpline
 62
7
  6
CONTINUOUS
 70
0
 71
3
 72
9
 73
5
 74
0
 42
0.0000001
 43
0.0000001
 44
0.0000000001
 40
0.0
 40
0.0
 40
0.0
 40
0.0
 40
0.2472622899
 40
1.0
 40
1.0
 40
1.0
 40
1.0
 10
14.2802809796
 20
12.1158392011
 30
0.0
 10
14.2817842701
 20
12.1184937431
 30
0.0
 10
14.2880832786
 20
12.1291042371
 30
0.0
 10
14.2952461083
 20
12.1391984838
 30
0.0
 10
14.3010432097
 20
12.1464540444
 30
0.0
  0
SPLINE
  5
4B5
100
AcDbEntity
  8
0
100
AcDbSpline
 62
7
  6
CONTINUOUS
 70
0
 71
3
 72
9
 73
5
 74
0
 42
0.0000001
 43
0.0000001
 44
0.0000000001
 40
0.0
 40
0.0
 40
0.0
 40
0.0
 40
0.2466560806
 40
1.0
 40
1.0
 40
1.0
 40
1.0
 10
14.3064851839
 20
12.1530288773
 30
0.0
 10
14.3081542463
 20
12.1549764684
 30
0.0
 10
14.3150415929
 20
12.1627685623
 30
0.0
 10
14.3223991805
 20
12.1701428841
 30
0.0
 10
14.3281587421
 20
12.1754529951
 30
0.0
  0
SPLINE
  5
4B6
100
AcDbEntity
  8
0
100
AcDbSpline
 62
7
  6
CONTINUOUS
 70
0
 71
3
 72
9
 73
5
 74
0
 42
0.0000001
 43
0.0000001
 44
0.0000000001
 40
0.0
 40
0.0
 40
0.0
 40
0.0
 40
0.2433983528
 40
1.0
 40
1.0
 40
1.0
 40
1.0
 10
14.3281587421
 20
12.1754529951
 30
0.0
 10
14.3314828049
 20
12.1785176628
 30
0.0
 10
14.345441616
 20
12.190779548
 30
0.0
 10
14.3605452021
 20
12.2017198803
 30
0.0
 10
14.3724037122
 20
12.2092628886
 30
0.0
  0
SPLINE
  5
4B7
100
AcDbEntity
  8
0
100
AcDbSpline
 62
7
  6
CONTINUOUS
 70
0
 71
3
 72
23
 73
19
 74
0
 42
0.0000001
 43
0.0000001
 44
0.0000000001
 40
0.0
 40
0.0
 40
0.0
 40
0.0
 40
0.0488619786
 40
0.1014154517
 40
0.1576759373
 40
0.2174473749
 40
0.280361899
 40
0.3459201082
 40
0.4135258131
 40
0.4825104774
 40
0.5521606358
 40
0.6217430408
 40
0.6905251223
 40
0.757799054
 40
0.822908923
 40
0.885274687
 40
0.9444140191
 40
1.0
 40
1.0
 40
1.0
 40
1.0
 10
14.3724037122
 20
12.2092628886
 30
0.0
 10
14.3884593406
 20
12.2194756166
 30
0.0
 10
14.4235413973
 20
12.2379811941
 30
0.0
 10
14.4813613476
 20
12.2590897592
 30
0.0
 10
14.5453699781
 20
12.2742837939
 30
0.0
 10
14.6145765686
 20
12.283336472
 30
0.0
 10
14.687926195
 20
12.2861256462
 30
0.0
 10
14.7642880602
 20
12.2826167109
 30
0.0
 10
14.8424813581
 20
12.2728624019
 30
0.0
 10
14.9212919171
 20
12.2570134199
 30
0.0
 10
14.999495249
 20
12.2353210839
 30
0.0
 10
15.0758739193
 20
12.2081204216
 30
0.0
 10
15.1492373498
 20
12.1758318223
 30
0.0
 10
15.2184473961
 20
12.1389629614
 30
0.0
 10
15.2824290703
 20
12.0980834443
 30
0.0
 10
15.340189543
 20
12.0538158685
 30
0.0
 10
15.3908379172
 20
12.006855438
 30
0.0
 10
15.4202994029
 20
11.9731158739
 30
0.0
 10
15.433495209
 20
11.9559559038
 30
0.0
  0
SPLINE
  5
4B8
100
AcDbEntity
  8
0
100
AcDbSpline
 62
7
  6
CONTINUOUS
 70
0
 71
3
 72
9
 73
5
 74
0
 42
0.0000001
 43
0.0000001
 44
0.0000000001
 40
0.0
 40
0.0
 40
0.0
 40
0.0
 40
0.2552498443
 40
1.0
 40
1.0
 40
1.0
 40
1.0
 10
15.4352395603
 20
11.9536744165
 30
0.0
 10
15.4376686792
 20
11.9504788524
 30
0.0
 10
15.4470378185
 20
11.9378484367
 30
0.0
 10
15.455805476
 20
11.9247689083
 30
0.0
 10
15.4619312322
 20
11.9147868702
 30
0.0
  0
SPLINE
  5
4B9
100
AcDbEntity
  8
0
100
AcDbSpline
 62
7
  6
CONTINUOUS
 70
0
 71
3
 72
11
 73
7
 74
0
 42
0.0000001
 43
0.0000001
 44
0.0000000001
 40
0.0
 40
0.0
 40
0.0
 40
0.0
 40
0.2314296198
 40
0.4758017136
 40
0.7323868835
 40
1.0
 40
1.0
 40
1.0
 40
1.0
 10
13.6038331458
 20
11.837138847
 30
0.0
 10
13.6191106328
 20
11.8418084854
 30
0.0
 10
13.6495995376
 20
11.8545819991
 30
0.0
 10
13.6925673342
 20
11.8815458389
 30
0.0
 10
13.733362335
 20
11.9156778107
 30
0.0
 10
13.7583315594
 20
11.9419720918
 30
0.0
 10
13.7704009489
 20
11.9559569952
 30
0.0
  0
SPLINE
  5
4BA
100
AcDbEntity
  8
0
100
AcDbSpline
 62
7
  6
CONTINUOUS
 70
0
 71
3
 72
9
 73
5
 74
0
 42
0.0000001
 43
0.0000001
 44
0.0000000001
 40
0.0
 40
0.0
 40
0.0
 40
0.0
 40
0.2546373477
 40
1.0
 40
1.0
 40
1.0
 40
1.0
 10
13.5356943371
 20
11.8194920195
 30
0.0
 10
13.5415355712
 20
11.820750935
 30
0.0
 10
13.5644247835
 20
11.8259236794
 30
0.0
 10
13.5871062691
 20
11.8320261957
 30
0.0
 10
13.6038331458
 20
11.837138847
 30
0.0
  0
SPLINE
  5
4BB
100
AcDbEntity
  8
0
100
AcDbSpline
 62
7
  6
CONTINUOUS
 70
0
 71
3
 72
9
 73
5
 74
0
 42
0.0000001
 43
0.0000001
 44
0.0000000001
 40
0.0
 40
0.0
 40
0.0
 40
0.0
 40
0.51477075
 40
1.0
 40
1.0
 40
1.0
 40
1.0
 10
13.4991568825
 20
11.8158310237
 30
0.0
 10
13.5054665378
 20
11.8158310237
 30
0.0
 10
13.5177324039
 20
11.8163949083
 30
0.0
 10
13.5298802766
 20
11.8182389606
 30
0.0
 10
13.5356943371
 20
11.8194920195
 30
0.0
  0
SPLINE
  5
4BC
100
AcDbEntity
  8
0
100
AcDbSpline
 62
7
  6
CONTINUOUS
 70
0
 71
3
 72
14
 73
10
 74
0
 42
0.0000001
 43
0.0000001
 44
0.0000000001
 40
0.0
 40
0.0
 40
0.0
 40
0.0
 40
0.2294213061
 40
0.3542447634
 40
0.4835427168
 40
0.6151317163
 40
0.7465888134
 40
0.875646372
 40
1.0
 40
1.0
 40
1.0
 40
1.0
 10
17.6102619157
 20
11.3253557616
 30
0.0
 10
17.6069046964
 20
11.314491796
 30
0.0
 10
17.5979378794
 20
11.2987858997
 30
0.0
 10
17.5814507146
 20
11.2813452194
 30
0.0
 10
17.5663301682
 20
11.2695148071
 30
0.0
 10
17.5494053118
 20
11.2598160238
 30
0.0
 10
17.531296652
 20
11.2525799362
 30
0.0
 10
17.5126898078
 20
11.2480963956
 30
0.0
 10
17.5001125559
 20
11.2470230706
 30
0.0
 10
17.4939491839
 20
11.2470230706
 30
0.0
  0
SPLINE
  5
4BD
100
AcDbEntity
  8
0
100
AcDbSpline
 62
7
  6
CONTINUOUS
 70
0
 71
3
 72
14
 73
10
 74
0
 42
0.0000001
 43
0.0000001
 44
0.0000000001
 40
0.0
 40
0.0
 40
0.0
 40
0.0
 40
0.1413083465
 40
0.2778316116
 40
0.5343818252
 40
0.6555522741
 40
0.7727820064
 40
0.8871446461
 40
1.0
 40
1.0
 40
1.0
 40
1.0
 10
13.2455553491
 20
11.2470230706
 30
0.0
 10
13.2418869227
 20
11.2470230706
 30
0.0
 10
13.2346654653
 20
11.2473940939
 30
0.0
 10
13.2209562895
 20
11.249616056
 30
0.0
 10
13.2081834828
 20
11.2540839083
 30
0.0
 10
13.1972017111
 20
11.2608309675
 30
0.0
 10
13.1901772938
 20
11.2667667948
 30
0.0
 10
13.1843350826
 20
11.2735870019
 30
0.0
 10
13.1812815163
 20
11.2786723309
 30
0.0
 10
13.1799902625
 20
11.2813022056
 30
0.0
  0
SPLINE
  5
4BE
100
AcDbEntity
  8
0
100
AcDbSpline
 62
7
  6
CONTINUOUS
 70
0
 71
3
 72
12
 73
8
 74
0
 42
0.0000001
 43
0.0000001
 44
0.0000000001
 40
0.0
 40
0.0
 40
0.0
 40
0.0
 40
0.2644032388
 40
0.5177692207
 40
0.7620272206
 40
0.8816409697
 40
1.0
 40
1.0
 40
1.0
 40
1.0
 10
13.8126403815
 20
12.1201891879
 30
0.0
 10
13.8003871436
 20
12.1452413545
 30
0.0
 10
13.7791112015
 20
12.1957093286
 30
0.0
 10
13.7575037178
 20
12.273359239
 30
0.0
 10
13.7490293149
 20
12.3381767512
 30
0.0
 10
13.7483171715
 20
12.3890776789
 30
0.0
 10
13.7499528379
 20
12.4141577204
 30
0.0
 10
13.7512700236
 20
12.4265720865
 30
0.0
  0
SPLINE
  5
4BF
100
AcDbEntity
  8
0
100
AcDbSpline
 62
7
  6
CONTINUOUS
 70
0
 71
3
 72
11
 73
7
 74
0
 42
0.0000001
 43
0.0000001
 44
0.0000000001
 40
0.0
 40
0.0
 40
0.0
 40
0.0
 40
0.2433456965
 40
0.4895174623
 40
0.7411652342
 40
1.0
 40
1.0
 40
1.0
 40
1.0
 10
16.205134023
 20
12.8746281885
 30
0.0
 10
16.2018927092
 20
12.8812362747
 30
0.0
 10
16.1943142753
 20
12.8940379564
 30
0.0
 10
16.1800039719
 20
12.9114021857
 30
0.0
 10
16.162914929
 20
12.9267433273
 30
0.0
 10
16.150040937
 20
12.9353689336
 30
0.0
 10
16.1432654677
 20
12.9392908811
 30
0.0
  0
SPLINE
  5
4C0
100
AcDbEntity
  8
0
100
AcDbSpline
 62
7
  6
CONTINUOUS
 70
0
 71
3
 72
9
 73
5
 74
0
 42
0.0000001
 43
0.0000001
 44
0.0000000001
 40
0.0
 40
0.0
 40
0.0
 40
0.0
 40
0.5011915164
 40
1.0
 40
1.0
 40
1.0
 40
1.0
 10
14.3852098146
 20
13.4088091641
 30
0.0
 10
14.3821860846
 20
13.4080300039
 30
0.0
 10
14.3760426692
 20
13.4068716021
 30
0.0
 10
14.3697925837
 20
13.4065973083
 30
0.0
 10
14.3666865523
 20
13.4066978329
 30
0.0
  0
SPLINE
  5
4C1
100
AcDbEntity
  8
0
100
AcDbSpline
 62
7
  6
CONTINUOUS
 70
0
 71
3
 72
15
 73
11
 74
0
 42
0.0000001
 43
0.0000001
 44
0.0000000001
 40
0.0
 40
0.0
 40
0.0
 40
0.0
 40
0.1246665404
 40
0.2496202522
 40
0.3748360939
 40
0.5001747818
 40
0.6254455033
 40
0.7504624676
 40
0.8750959957
 40
1.0
 40
1.0
 40
1.0
 40
1.0
 10
14.3666865523
 20
13.4066978329
 30
0.0
 10
14.3623326973
 20
13.4068387425
 30
0.0
 10
14.3536111705
 20
13.4080518863
 30
0.0
 10
14.3412787618
 20
13.4127984808
 30
0.0
 10
14.330390239
 20
13.4203509527
 30
0.0
 10
14.3216418932
 20
13.4303205481
 30
0.0
 10
14.315565577
 20
13.4421009377
 30
0.0
 10
14.3124697803
 20
13.454954983
 30
0.0
 10
14.312341037
 20
13.4681446926
 30
0.0
 10
14.3141214033
 20
13.4767523612
 30
0.0
 10
14.3154099904
 20
13.4809222307
 30
0.0
  0
SPLINE
  5
4C2
100
AcDbEntity
  8
0
100
AcDbSpline
 62
7
  6
CONTINUOUS
 70
0
 71
3
 72
9
 73
5
 74
0
 42
0.0000001
 43
0.0000001
 44
0.0000000001
 40
0.0
 40
0.0
 40
0.0
 40
0.0
 40
0.2478216784
 40
1.0
 40
1.0
 40
1.0
 40
1.0
 10
14.3154099904
 20
13.4809222307
 30
0.0
 10
14.3159912615
 20
13.4828032245
 30
0.0
 10
14.3186677984
 20
13.4902891683
 30
0.0
 10
14.3225890129
 20
13.4973129174
 30
0.0
 10
14.3260532669
 20
13.5021817501
 30
0.0
  0
SPLINE
  5
4C3
100
AcDbEntity
  8
0
100
AcDbSpline
 62
7
  6
CONTINUOUS
 70
0
 71
3
 72
22
 73
18
 74
0
 42
0.0000001
 43
0.0000001
 44
0.0000000001
 40
0.0
 40
0.0
 40
0.0
 40
0.0
 40
0.0634881773
 40
0.12720476
 40
0.1908929005
 40
0.2542749048
 40
0.3791888123
 40
0.4411749278
 40
0.5030329633
 40
0.56490896
 40
0.6269168158
 40
0.6890476394
 40
0.751274211
 40
0.8135209643
 40
0.8757550393
 40
0.9379239978
 40
1.0
 40
1.0
 40
1.0
 40
1.0
 10
14.3260532669
 20
13.5021817501
 30
0.0
 10
14.3279786755
 20
13.5048878138
 30
0.0
 10
14.3321712888
 20
13.5100792873
 30
0.0
 10
14.3393214039
 20
13.517079138
 30
0.0
 10
14.3472246632
 20
13.5232140316
 30
0.0
 10
14.3585211769
 20
13.530044079
 30
0.0
 10
14.3709320121
 20
13.5347459304
 30
0.0
 10
14.3838356003
 20
13.5367063375
 30
0.0
 10
14.3935915495
 20
13.536716408
 30
0.0
 10
14.4032264614
 20
13.5351565455
 30
0.0
 10
14.412480864
 20
13.5319950747
 30
0.0
 10
14.4210542103
 20
13.5272468798
 30
0.0
 10
14.4286599773
 20
13.5210430601
 30
0.0
 10
14.4350154399
 20
13.5135564101
 30
0.0
 10
14.4399268058
 20
13.505055113
 30
0.0
 10
14.4432199224
 20
13.4958204736
 30
0.0
 10
14.4443274949
 20
13.4893791956
 30
0.0
 10
14.4446083819
 20
13.486144098
 30
0.0
  0
SPLINE
  5
4C4
100
AcDbEntity
  8
0
100
AcDbSpline
 62
7
  6
CONTINUOUS
 70
0
 71
3
 72
9
 73
5
 74
0
 42
0.0000001
 43
0.0000001
 44
0.0000000001
 40
0.0
 40
0.0
 40
0.0
 40
0.0
 40
0.4989208272
 40
1.0
 40
1.0
 40
1.0
 40
1.0
 10
14.4448260221
 20
13.4810009288
 30
0.0
 10
14.4448207466
 20
13.4778606492
 30
0.0
 10
14.4443074448
 20
13.4715588085
 30
0.0
 10
14.4428653358
 20
13.4654074644
 30
0.0
 10
14.4419341643
 20
13.4623941922
 30
0.0
  0
SPLINE
  5
4C5
100
AcDbEntity
  8
0
100
AcDbSpline
 62
7
  6
CONTINUOUS
 70
0
 71
3
 72
9
 73
5
 74
0
 42
0.0000001
 43
0.0000001
 44
0.0000000001
 40
0.0
 40
0.0
 40
0.0
 40
0.0
 40
0.5400188705
 40
1.0
 40
1.0
 40
1.0
 40
1.0
 10
14.3619215367
 20
13.4075430703
 30
0.0
 10
14.3626085036
 20
13.4067332007
 30
0.0
 10
14.3637653159
 20
13.4051325552
 30
0.0
 10
14.3646805718
 20
13.4033819106
 30
0.0
 10
14.365024181
 20
13.4025451267
 30
0.0
  0
LINE
  5
4C6
100
AcDbEntity
  8
0
100
AcDbLine
 62
7
  6
CONTINUOUS
 10
14.365024181
 20
13.4025451267
 11
14.3657082477
 21
13.4003987547
  0
SPLINE
  5
4C7
100
AcDbEntity
  8
0
100
AcDbSpline
 62
7
  6
CONTINUOUS
 70
0
 71
3
 72
20
 73
16
 74
0
 42
0.0000001
 43
0.0000001
 44
0.0000000001
 40
0.0
 40
0.0
 40
0.0
 40
0.0
 40
0.0572464994
 40
0.096179503
 40
0.120423197
 40
0.1344959711
 40
0.164290342
 40
0.208042207
 40
0.2640648141
 40
0.3307711623
 40
0.4067000194
 40
0.4906356285
 40
0.5816674222
 40
0.781550338
 40
1.0
 40
1.0
 40
1.0
 40
1.0
 10
14.4503870938
 20
13.4759815233
 30
0.0
 10
14.4505797245
 20
13.4759753348
 30
0.0
 10
14.4509418938
 20
13.475951262
 30
0.0
 10
14.4512313904
 20
13.4759353077
 30
0.0
 10
14.4517041193
 20
13.4758586649
 30
0.0
 10
14.4513777012
 20
13.475946815
 30
0.0
 10
14.451148631
 20
13.4760246354
 30
0.0
 10
14.45071235
 20
13.4761758309
 30
0.0
 10
14.4502015419
 20
13.4763818837
 30
0.0
 10
14.4495890346
 20
13.4766595623
 30
0.0
 10
14.4489132495
 20
13.4770118656
 30
0.0
 10
14.448187333
 20
13.4774453112
 30
0.0
 10
14.4471390767
 20
13.4781486633
 30
0.0
 10
14.4457912576
 20
13.4792139107
 30
0.0
 10
14.4447785641
 20
13.4801971389
 30
0.0
 10
14.4442795739
 20
13.4807374092
 30
0.0
  0
SPLINE
  5
4C8
100
AcDbEntity
  8
0
100
AcDbSpline
 62
7
  6
CONTINUOUS
 70
0
 71
3
 72
11
 73
7
 74
0
 42
0.0000001
 43
0.0000001
 44
0.0000000001
 40
0.0
 40
0.0
 40
0.0
 40
0.0
 40
0.2433456965
 40
0.4895174623
 40
0.7411652342
 40
1.0
 40
1.0
 40
1.0
 40
1.0
 10
16.3396153138
 20
13.309809805
 30
0.0
 10
16.336374
 20
13.3164178911
 30
0.0
 10
16.3287955661
 20
13.3292195729
 30
0.0
 10
16.3144852627
 20
13.3465838022
 30
0.0
 10
16.2973962198
 20
13.3619249438
 30
0.0
 10
16.2845222278
 20
13.37055055
 30
0.0
 10
16.2777467585
 20
13.3744724976
 30
0.0
  0
SPLINE
  5
4C9
100
AcDbEntity
  8
0
100
AcDbSpline
 62
7
  6
CONTINUOUS
 70
0
 71
3
 72
13
 73
9
 74
0
 42
0.0000001
 43
0.0000001
 44
0.0000000001
 40
0.0
 40
0.0
 40
0.0
 40
0.0
 40
0.2915328227
 40
0.5527705723
 40
0.6727706774
 40
0.7864683009
 40
0.8950186589
 40
1.0
 40
1.0
 40
1.0
 40
1.0
 10
14.7800069279
 20
11.1839313185
 30
0.0
 10
14.78486811
 20
11.1846601351
 30
0.0
 10
14.7940058399
 20
11.1867246316
 30
0.0
 10
14.8044927293
 20
11.1912955277
 30
0.0
 10
14.8114222719
 20
11.1959832861
 30
0.0
 10
14.8157415576
 20
11.1998400391
 30
0.0
 10
14.8192753877
 20
11.2041047691
 30
0.0
 10
14.8211059176
 20
11.2072278619
 30
0.0
 10
14.8218665457
 20
11.208826185
 30
0.0
  0
SPLINE
  5
4CA
100
AcDbEntity
  8
0
100
AcDbSpline
 62
7
  6
CONTINUOUS
 70
0
 71
3
 72
12
 73
8
 74
0
 42
0.0000001
 43
0.0000001
 44
0.0000000001
 40
0.0
 40
0.0
 40
0.0
 40
0.0
 40
0.2668856828
 40
0.3960420628
 40
0.5221508955
 40
0.7659211107
 40
1.0
 40
1.0
 40
1.0
 40
1.0
 10
13.7346612087
 20
13.3890942933
 30
0.0
 10
13.7424358651
 20
13.3969642517
 30
0.0
 10
13.75458596
 20
13.4080631021
 30
0.0
 10
13.7716836061
 20
13.4213455111
 30
0.0
 10
13.7886585698
 20
13.4331811317
 30
0.0
 10
13.8101963784
 20
13.4460135531
 30
0.0
 10
13.8280141334
 20
13.4547119027
 30
0.0
 10
13.8368728603
 20
13.458669976
 30
0.0
  0
SPLINE
  5
4CB
100
AcDbEntity
  8
0
100
AcDbSpline
 62
7
  6
CONTINUOUS
 70
0
 71
3
 72
10
 73
6
 74
0
 42
0.0000001
 43
0.0000001
 44
0.0000000001
 40
0.0
 40
0.0
 40
0.0
 40
0.0
 40
0.2526475283
 40
0.6305364853
 40
1.0
 40
1.0
 40
1.0
 40
1.0
 10
13.6546714566
 20
13.2742351407
 30
0.0
 10
13.6601542533
 20
13.2847124063
 30
0.0
 10
13.6743932224
 20
13.3105757418
 30
0.0
 10
13.6999271549
 20
13.3498915494
 30
0.0
 10
13.7225081275
 20
13.3767922392
 30
0.0
 10
13.7346612087
 20
13.3890942933
 30
0.0
  0
SPLINE
  5
4CC
100
AcDbEntity
  8
0
100
AcDbSpline
 62
7
  6
CONTINUOUS
 70
0
 71
3
 72
9
 73
5
 74
0
 42
0.0000001
 43
0.0000001
 44
0.0000000001
 40
0.0
 40
0.0
 40
0.0
 40
0.0
 40
0.5183493869
 40
1.0
 40
1.0
 40
1.0
 40
1.0
 10
14.826339636
 20
11.2598161154
 30
0.0
 10
14.8276299834
 20
11.257186664
 30
0.0
 10
14.8297069911
 20
11.2518945632
 30
0.0
 10
14.830693045
 20
11.2462785813
 30
0.0
 10
14.8308409531
 20
11.2435609793
 30
0.0
  0
SPLINE
  5
4CD
100
AcDbEntity
  8
0
100
AcDbSpline
 62
7
  6
CONTINUOUS
 70
0
 71
3
 72
9
 73
5
 74
0
 42
0.0000001
 43
0.0000001
 44
0.0000000001
 40
0.0
 40
0.0
 40
0.0
 40
0.0
 40
0.5055036704
 40
1.0
 40
1.0
 40
1.0
 40
1.0
 10
14.8308409531
 20
11.2435609793
 30
0.0
 10
14.8309433153
 20
11.2416802205
 30
0.0
 10
14.8308362391
 20
11.2379346042
 30
0.0
 10
14.8300615904
 20
11.234266215
 30
0.0
 10
14.8295177097
 20
11.2325057879
 30
0.0
  0
SPLINE
  5
4CE
100
AcDbEntity
  8
0
100
AcDbSpline
 62
7
  6
CONTINUOUS
 70
0
 71
3
 72
9
 73
5
 74
0
 42
0.0000001
 43
0.0000001
 44
0.0000000001
 40
0.0
 40
0.0
 40
0.0
 40
0.0
 40
0.5668888452
 40
1.0
 40
1.0
 40
1.0
 40
1.0
 10
13.6673919507
 20
13.2333616497
 30
0.0
 10
13.6647616621
 20
13.2410122968
 30
0.0
 10
13.6602796857
 20
13.2545638857
 30
0.0
 10
13.6562694338
 20
13.2682642719
 30
0.0
 10
13.6546714566
 20
13.2742351407
 30
0.0
  0
SPLINE
  5
4CF
100
AcDbEntity
  8
0
100
AcDbSpline
 62
7
  6
CONTINUOUS
 70
0
 71
3
 72
10
 73
6
 74
0
 42
0.0000001
 43
0.0000001
 44
0.0000000001
 40
0.0
 40
0.0
 40
0.0
 40
0.0
 40
0.5324567997
 40
0.7777831435
 40
1.0
 40
1.0
 40
1.0
 40
1.0
 10
13.7228835107
 20
13.0898003055
 30
0.0
 10
13.7146098525
 20
13.1100875273
 30
0.0
 10
13.7026248448
 20
13.1397638969
 30
0.0
 10
13.6876530504
 20
13.1780917774
 30
0.0
 10
13.6808383178
 20
13.1960834453
 30
0.0
 10
13.6776665339
 20
13.204659458
 30
0.0
  0
SPLINE
  5
4D0
100
AcDbEntity
  8
0
100
AcDbSpline
 62
7
  6
CONTINUOUS
 70
0
 71
3
 72
11
 73
7
 74
0
 42
0.0000001
 43
0.0000001
 44
0.0000000001
 40
0.0
 40
0.0
 40
0.0
 40
0.0
 40
0.2412599235
 40
0.4906273334
 40
0.7444204344
 40
1.0
 40
1.0
 40
1.0
 40
1.0
 10
13.9509686394
 20
13.4813117109
 30
0.0
 10
13.9621157837
 20
13.4813117109
 30
0.0
 10
13.9847951345
 20
13.4801216607
 30
0.0
 10
14.0188869993
 20
13.4753273871
 30
0.0
 10
14.0532025502
 20
13.4680518564
 30
0.0
 10
14.0759433264
 20
13.4619538039
 30
0.0
 10
14.087286318
 20
13.458669976
 30
0.0
  0
SPLINE
  5
4D1
100
AcDbEntity
  8
0
100
AcDbSpline
 62
7
  6
CONTINUOUS
 70
0
 71
3
 72
12
 73
8
 74
0
 42
0.0000001
 43
0.0000001
 44
0.0000000001
 40
0.0
 40
0.0
 40
0.0
 40
0.0
 40
0.2297968981
 40
0.471593496
 40
0.597847589
 40
0.7280463529
 40
1.0
 40
1.0
 40
1.0
 40
1.0
 10
13.8368728603
 20
13.458669976
 30
0.0
 10
13.8451837932
 20
13.4620309971
 30
0.0
 10
13.8625046128
 20
13.4682987451
 30
0.0
 10
13.8850901871
 20
13.4742664448
 30
0.0
 10
13.904207616
 20
13.4778252519
 30
0.0
 10
13.9246519753
 20
13.4805221475
 30
0.0
 10
13.9403591987
 20
13.4813117109
 30
0.0
 10
13.9509686394
 20
13.4813117109
 30
0.0
  0
SPLINE
  5
4D2
100
AcDbEntity
  8
0
100
AcDbSpline
 62
7
  6
CONTINUOUS
 70
0
 71
3
 72
11
 73
7
 74
0
 42
0.0000001
 43
0.0000001
 44
0.0000000001
 40
0.0
 40
0.0
 40
0.0
 40
0.0
 40
0.2555639102
 40
0.5093474923
 40
0.7587254879
 40
1.0
 40
1.0
 40
1.0
 40
1.0
 10
16.1019473466
 20
13.0234883595
 30
0.0
 10
16.0906050464
 20
13.0267719873
 30
0.0
 10
16.0678650001
 20
13.0328681215
 30
0.0
 10
16.0335508411
 20
13.0401470194
 30
0.0
 10
15.9994579569
 20
13.0449398217
 30
0.0
 10
15.9767774896
 20
13.0461300944
 30
0.0
 10
15.965629668
 20
13.0461300944
 30
0.0
  0
SPLINE
  5
4D3
100
AcDbEntity
  8
0
100
AcDbSpline
 62
7
  6
CONTINUOUS
 70
0
 71
3
 72
12
 73
8
 74
0
 42
0.0000001
 43
0.0000001
 44
0.0000000001
 40
0.0
 40
0.0
 40
0.0
 40
0.0
 40
0.2340591327
 40
0.4778381344
 40
0.6039639244
 40
0.7331391666
 40
1.0
 40
1.0
 40
1.0
 40
1.0
 10
15.8515338888
 20
13.0234883595
 30
0.0
 10
15.8426760253
 20
13.0195306719
 30
0.0
 10
15.8248569937
 20
13.0108363973
 30
0.0
 10
15.803322818
 20
12.9979973302
 30
0.0
 10
15.7863512168
 20
12.9861542301
 30
0.0
 10
15.7692536137
 20
12.9728719518
 30
0.0
 10
15.7570960683
 20
12.9617817998
 30
0.0
 10
15.7493222373
 20
12.9539126768
 30
0.0
  0
SPLINE
  5
4D4
100
AcDbEntity
  8
0
100
AcDbSpline
 62
7
  6
CONTINUOUS
 70
0
 71
3
 72
10
 73
6
 74
0
 42
0.0000001
 43
0.0000001
 44
0.0000000001
 40
0.0
 40
0.0
 40
0.0
 40
0.0
 40
0.4044180255
 40
0.675777587
 40
1.0
 40
1.0
 40
1.0
 40
1.0
 10
15.6693324851
 20
12.8390535243
 30
0.0
 10
15.671887017
 20
12.829508473
 30
0.0
 10
15.6767343103
 20
12.8137139508
 30
0.0
 10
15.6846236337
 20
12.7905904811
 30
0.0
 10
15.6895797228
 20
12.7769075748
 30
0.0
 10
15.6923275625
 20
12.7694778416
 30
0.0
  0
SPLINE
  5
4D5
100
AcDbEntity
  8
0
100
AcDbSpline
 62
7
  6
CONTINUOUS
 70
0
 71
3
 72
12
 73
8
 74
0
 42
0.0000001
 43
0.0000001
 44
0.0000000001
 40
0.0
 40
0.0
 40
0.0
 40
0.0
 40
0.2448561023
 40
0.369544556
 40
0.495080935
 40
0.7474494769
 40
1.0
 40
1.0
 40
1.0
 40
1.0
 10
15.7493222373
 20
12.9539126768
 30
0.0
 10
15.74126531
 20
12.9457569874
 30
0.0
 10
15.7297513706
 20
12.9327935346
 30
0.0
 10
15.715563042
 20
12.9144582709
 30
0.0
 10
15.7019539652
 20
12.8952530297
 30
0.0
 10
15.686232485
 20
12.8702427469
 30
0.0
 10
15.6748149901
 20
12.8495302322
 30
0.0
 10
15.6693324851
 20
12.8390535243
 30
0.0
  0
SPLINE
  5
4D6
100
AcDbEntity
  8
0
100
AcDbSpline
 62
7
  6
CONTINUOUS
 70
0
 71
3
 72
10
 73
6
 74
0
 42
0.0000001
 43
0.0000001
 44
0.0000000001
 40
0.0
 40
0.0
 40
0.0
 40
0.0
 40
0.222122098
 40
0.467513963
 40
1.0
 40
1.0
 40
1.0
 40
1.0
 10
15.6923275625
 20
12.7694778416
 30
0.0
 10
15.6954979944
 20
12.7609054844
 30
0.0
 10
15.702309888
 20
12.742914024
 30
0.0
 10
15.7172847341
 20
12.7045873097
 30
0.0
 10
15.7292704253
 20
12.6749070283
 30
0.0
 10
15.7375445392
 20
12.654618689
 30
0.0
  0
SPLINE
  5
4D7
100
AcDbEntity
  8
0
100
AcDbSpline
 62
7
  6
CONTINUOUS
 70
0
 71
3
 72
9
 73
5
 74
0
 42
0.0000001
 43
0.0000001
 44
0.0000000001
 40
0.0
 40
0.0
 40
0.0
 40
0.0
 40
0.5203367972
 40
1.0
 40
1.0
 40
1.0
 40
1.0
 10
14.4110846401
 20
12.5156813045
 30
0.0
 10
14.4126163897
 20
12.5206133336
 30
0.0
 10
14.4162434248
 20
12.5298976849
 30
0.0
 10
14.4211646479
 20
12.538552886
 30
0.0
 10
14.4237643828
 20
12.5425411009
 30
0.0
  0
SPLINE
  5
4D8
100
AcDbEntity
  8
0
100
AcDbSpline
 62
7
  6
CONTINUOUS
 70
0
 71
3
 72
9
 73
5
 74
0
 42
0.0000001
 43
0.0000001
 44
0.0000000001
 40
0.0
 40
0.0
 40
0.0
 40
0.0
 40
0.5148368374
 40
1.0
 40
1.0
 40
1.0
 40
1.0
 10
14.4048271662
 20
12.4815657935
 30
0.0
 10
14.4053809272
 20
12.4875003139
 30
0.0
 10
14.4068102595
 20
12.4990005802
 30
0.0
 10
14.409418724
 20
12.5103172772
 30
0.0
 10
14.4110846401
 20
12.5156813045
 30
0.0
  0
SPLINE
  5
4D9
100
AcDbEntity
  8
0
100
AcDbSpline
 62
7
  6
CONTINUOUS
 70
0
 71
3
 72
9
 73
5
 74
0
 42
0.0000001
 43
0.0000001
 44
0.0000000001
 40
0.0
 40
0.0
 40
0.0
 40
0.0
 40
0.4975504294
 40
1.0
 40
1.0
 40
1.0
 40
1.0
 10
14.4526495468
 20
12.5668426446
 30
0.0
 10
14.45812461
 20
12.5703692114
 30
0.0
 10
14.4696481189
 20
12.5766668475
 30
0.0
 10
14.4817790881
 20
12.5816332575
 30
0.0
 10
14.4879569795
 20
12.5838884737
 30
0.0
  0
SPLINE
  5
4DA
100
AcDbEntity
  8
0
100
AcDbSpline
 62
7
  6
CONTINUOUS
 70
0
 71
3
 72
9
 73
5
 74
0
 42
0.0000001
 43
0.0000001
 44
0.0000000001
 40
0.0
 40
0.0
 40
0.0
 40
0.0
 40
0.4938322392
 40
1.0
 40
1.0
 40
1.0
 40
1.0
 10
14.4237643828
 20
12.5425411009
 30
0.0
 10
14.4280547661
 20
12.5470515764
 30
0.0
 10
14.4371538199
 20
12.5558116595
 30
0.0
 10
14.4472854013
 20
12.5633875215
 30
0.0
 10
14.4526495468
 20
12.5668426446
 30
0.0
  0
SPLINE
  5
4DB
100
AcDbEntity
  8
0
100
AcDbSpline
 62
7
  6
CONTINUOUS
 70
0
 71
3
 72
9
 73
5
 74
0
 42
0.0000001
 43
0.0000001
 44
0.0000000001
 40
0.0
 40
0.0
 40
0.0
 40
0.0
 40
0.4690707822
 40
1.0
 40
1.0
 40
1.0
 40
1.0
 10
14.5073735352
 20
12.5777023637
 30
0.0
 10
14.5115531908
 20
12.5758895846
 30
0.0
 10
14.5202737511
 20
12.5715897676
 30
0.0
 10
14.5287506356
 20
12.5668458738
 30
0.0
 10
14.5332123596
 20
12.5642605391
 30
0.0
  0
SPLINE
  5
4DC
100
AcDbEntity
  8
0
100
AcDbSpline
 62
7
  6
CONTINUOUS
 70
0
 71
3
 72
9
 73
5
 74
0
 42
0.0000001
 43
0.0000001
 44
0.0000000001
 40
0.0
 40
0.0
 40
0.0
 40
0.0
 40
0.4466305832
 40
1.0
 40
1.0
 40
1.0
 40
1.0
 10
14.4879569795
 20
12.5838884737
 30
0.0
 10
14.4909462315
 20
12.5833414455
 30
0.0
 10
14.4975596085
 20
12.581659298
 30
0.0
 10
14.5039192838
 20
12.5792005241
 30
0.0
 10
14.5073735352
 20
12.5777023637
 30
0.0
  0
SPLINE
  5
4DD
100
AcDbEntity
  8
0
100
AcDbSpline
 62
7
  6
CONTINUOUS
 70
0
 71
3
 72
11
 73
7
 74
0
 42
0.0000001
 43
0.0000001
 44
0.0000000001
 40
0.0
 40
0.0
 40
0.0
 40
0.0
 40
0.2349144769
 40
0.4782225846
 40
0.7326796272
 40
1.0
 40
1.0
 40
1.0
 40
1.0
 10
15.4969308999
 20
11.7383466242
 30
0.0
 10
15.4978946373
 20
11.7495156974
 30
0.0
 10
15.4980887871
 20
11.7724369132
 30
0.0
 10
15.4933310405
 20
11.8071849427
 30
0.0
 10
15.4835844593
 20
11.8424712377
 30
0.0
 10
15.4740974806
 20
11.8655614317
 30
0.0
 10
15.468630132
 20
11.8770875042
 30
0.0
  0
SPLINE
  5
4DE
100
AcDbEntity
  8
0
100
AcDbSpline
 62
7
  6
CONTINUOUS
 70
0
 71
3
 72
11
 73
7
 74
0
 42
0.0000001
 43
0.0000001
 44
0.0000000001
 40
0.0
 40
0.0
 40
0.0
 40
0.0
 40
0.2309127045
 40
0.4754880148
 40
0.7328730353
 40
1.0
 40
1.0
 40
1.0
 40
1.0
 10
16.7994837897
 20
12.5408269803
 30
0.0
 10
16.8027774031
 20
12.5514851173
 30
0.0
 10
16.8065243004
 20
12.5744445028
 30
0.0
 10
16.8039976113
 20
12.6100016418
 30
0.0
 10
16.7944996173
 20
12.6460950084
 30
0.0
 10
16.7845624501
 20
12.6694867628
 30
0.0
 10
16.7788769838
 20
12.6810718105
 30
0.0
  0
SPLINE
  5
4DF
100
AcDbEntity
  8
0
100
AcDbSpline
 62
7
  6
CONTINUOUS
 70
0
 71
3
 72
9
 73
5
 74
0
 42
0.0000001
 43
0.0000001
 44
0.0000000001
 40
0.0
 40
0.0
 40
0.0
 40
0.0
 40
0.2622805261
 40
1.0
 40
1.0
 40
1.0
 40
1.0
 10
15.8864696869
 20
12.4349145392
 30
0.0
 10
15.8869339859
 20
12.4341015953
 30
0.0
 10
15.8887986578
 20
12.431059563
 30
0.0
 10
15.8910709179
 20
12.4282474518
 30
0.0
 10
15.8930001013
 20
12.4264552016
 30
0.0
  0
SPLINE
  5
4E0
100
AcDbEntity
  8
0
100
AcDbSpline
 62
7
  6
CONTINUOUS
 70
0
 71
3
 72
11
 73
7
 74
0
 42
0.0000001
 43
0.0000001
 44
0.0000000001
 40
0.0
 40
0.0
 40
0.0
 40
0.0
 40
0.2287310477
 40
0.4799216299
 40
0.7413774575
 40
1.0
 40
1.0
 40
1.0
 40
1.0
 10
15.8820928017
 20
12.4615786236
 30
0.0
 10
15.8814698538
 20
12.4595627634
 30
0.0
 10
15.8808307052
 20
12.455120837
 30
0.0
 10
15.881381509
 20
12.4482631643
 30
0.0
 10
15.8832640647
 20
12.4413648932
 30
0.0
 10
15.8852863327
 20
12.4369860131
 30
0.0
 10
15.8864696869
 20
12.4349145392
 30
0.0
  0
SPLINE
  5
4E1
100
AcDbEntity
  8
0
100
AcDbSpline
 62
7
  6
CONTINUOUS
 70
0
 71
3
 72
10
 73
6
 74
0
 42
0.0000001
 43
0.0000001
 44
0.0000000001
 40
0.0
 40
0.0
 40
0.0
 40
0.0
 40
0.4977557934
 40
0.7482521899
 40
1.0
 40
1.0
 40
1.0
 40
1.0
 10
16.1529066751
 20
13.4772174515
 30
0.0
 10
16.1366021196
 20
13.4902067608
 30
0.0
 10
16.1113674116
 20
13.5088640006
 30
0.0
 10
16.0760811401
 20
13.5314439178
 30
0.0
 10
16.0577574301
 20
13.5418049707
 30
0.0
 10
16.0484128304
 20
13.546687452
 30
0.0
  0
SPLINE
  5
4E2
100
AcDbEntity
  8
0
100
AcDbSpline
 62
7
  6
CONTINUOUS
 70
0
 71
3
 72
23
 73
19
 74
0
 42
0.0000001
 43
0.0000001
 44
0.0000000001
 40
0.0
 40
0.0
 40
0.0
 40
0.0
 40
0.0625008945
 40
0.1244654174
 40
0.1857850251
 40
0.2464240747
 40
0.3064486636
 40
0.3659871468
 40
0.4252326221
 40
0.4844890644
 40
0.5441257321
 40
0.6045626744
 40
0.6661991174
 40
0.7293777786
 40
0.7943216002
 40
0.8611286047
 40
0.9297452769
 40
1.0
 40
1.0
 40
1.0
 40
1.0
 10
15.7052563346
 20
13.166688276
 30
0.0
 10
15.6951400403
 20
13.1665342002
 30
0.0
 10
15.6749935952
 20
13.1652768179
 30
0.0
 10
15.6452689393
 20
13.1603553799
 30
0.0
 10
15.6165568508
 20
13.1522277758
 30
0.0
 10
15.5893072798
 20
13.1408337349
 30
0.0
 10
15.5640065543
 20
13.1261398799
 30
0.0
 10
15.5411349072
 20
13.1082410646
 30
0.0
 10
15.5211926292
 20
13.0872869219
 30
0.0
 10
15.5046080358
 20
13.0635594103
 30
0.0
 10
15.4917721284
 20
13.0373952545
 30
0.0
 10
15.4829192983
 20
13.0092280727
 30
0.0
 10
15.4782279438
 20
12.9795048838
 30
0.0
 10
15.4776613665
 20
12.948701096
 30
0.0
 10
15.4811389265
 20
12.9172600829
 30
0.0
 10
15.4883913444
 20
12.8855802341
 30
0.0
 10
15.4991380097
 20
12.8540151909
 30
0.0
 10
15.5082631577
 20
12.8334373851
 30
0.0
 10
15.5132733282
 20
12.8232278294
 30
0.0
  0
SPLINE
  5
4E3
100
AcDbEntity
  8
0
100
AcDbSpline
 62
7
  6
CONTINUOUS
 70
0
 71
3
 72
9
 73
5
 74
0
 42
0.0000001
 43
0.0000001
 44
0.0000000001
 40
0.0
 40
0.0
 40
0.0
 40
0.0
 40
0.4891383853
 40
1.0
 40
1.0
 40
1.0
 40
1.0
 10
16.1137317114
 20
12.1409031225
 30
0.0
 10
16.1210051772
 20
12.126083156
 30
0.0
 10
16.13726397
 20
12.0964534003
 30
0.0
 10
16.1558675334
 20
12.0682484378
 30
0.0
 10
16.1658841581
 20
12.0542146689
 30
0.0
  0
SPLINE
  5
4E4
100
AcDbEntity
  8
0
100
AcDbSpline
 62
7
  6
CONTINUOUS
 70
0
 71
3
 72
24
 73
20
 74
0
 42
0.0000001
 43
0.0000001
 44
0.0000000001
 40
0.0
 40
0.0
 40
0.0
 40
0.0
 40
0.1245474676
 40
0.1877869023
 40
0.2514637973
 40
0.3154261161
 40
0.3795453832
 40
0.4436206953
 40
0.5075022451
 40
0.5709464036
 40
0.6337839569
 40
0.6958075286
 40
0.7569342226
 40
0.8172623013
 40
0.8472827597
 40
0.8773091478
 40
0.9074636586
 40
0.9378913181
 40
1.0
 40
1.0
 40
1.0
 40
1.0
 10
16.2217812889
 20
11.9861349209
 30
0.0
 10
16.2351248628
 20
11.9719868688
 30
0.0
 10
16.2562651758
 20
11.95157404
 30
0.0
 10
16.2866088038
 20
11.9266288663
 30
0.0
 10
16.3107123416
 20
11.909063236
 30
0.0
 10
16.3360195274
 20
11.8930175064
 30
0.0
 10
16.36246736
 20
11.8787857971
 30
0.0
 10
16.3899767659
 20
11.8667448076
 30
0.0
 10
16.4183834897
 20
11.8573026268
 30
0.0
 10
16.4474532344
 20
11.8509453283
 30
0.0
 10
16.4768128194
 20
11.8481928775
 30
0.0
 10
16.50593505
 20
11.8496433575
 30
0.0
 10
16.5340610675
 20
11.8558455795
 30
0.0
 10
16.5558890535
 20
11.8654536309
 30
0.0
 10
16.5716038696
 20
11.8758351441
 30
0.0
 10
16.5823654871
 20
11.8849769236
 30
0.0
 10
16.5919584867
 20
11.8954306299
 30
0.0
 10
16.6030360422
 20
11.9111081561
 30
0.0
 10
16.6090190371
 20
11.9244828148
 30
0.0
 10
16.6118823891
 20
11.9337486253
 30
0.0
  0
SPLINE
  5
4E5
100
AcDbEntity
  8
0
100
AcDbSpline
 62
7
  6
CONTINUOUS
 70
0
 71
3
 72
9
 73
5
 74
0
 42
0.0000001
 43
0.0000001
 44
0.0000000001
 40
0.0
 40
0.0
 40
0.0
 40
0.0
 40
0.2467796965
 40
1.0
 40
1.0
 40
1.0
 40
1.0
 10
13.746109963
 20
12.5418890423
 30
0.0
 10
13.7489608731
 20
12.5418890423
 30
0.0
 10
13.760512875
 20
12.5420577719
 30
0.0
 10
13.7720538438
 20
12.5428884005
 30
0.0
 10
13.7807009709
 20
12.5438599907
 30
0.0
  0
SPLINE
  5
4E6
100
AcDbEntity
  8
0
100
AcDbSpline
 62
7
  6
CONTINUOUS
 70
0
 71
3
 72
11
 73
7
 74
0
 42
0.0000001
 43
0.0000001
 44
0.0000000001
 40
0.0
 40
0.0
 40
0.0
 40
0.0
 40
0.2343146235
 40
0.4790146443
 40
0.734399347
 40
1.0
 40
1.0
 40
1.0
 40
1.0
 10
13.629720341
 20
12.5704212107
 30
0.0
 10
13.6379077665
 20
12.5656819591
 30
0.0
 10
13.6554331959
 20
12.5573063055
 30
0.0
 10
13.6838055448
 20
12.5484027741
 30
0.0
 10
13.7143300045
 20
12.5430395655
 30
0.0
 10
13.7353866798
 20
12.5418890423
 30
0.0
 10
13.746109963
 20
12.5418890423
 30
0.0
  0
SPLINE
  5
4E7
100
AcDbEntity
  8
0
100
AcDbSpline
 62
7
  6
CONTINUOUS
 70
0
 71
3
 72
10
 73
6
 74
0
 42
0.0000001
 43
0.0000001
 44
0.0000000001
 40
0.0
 40
0.0
 40
0.0
 40
0.0
 40
0.4044535125
 40
0.6759104648
 40
1.0
 40
1.0
 40
1.0
 40
1.0
 10
16.2364286373
 20
13.458669976
 30
0.0
 10
16.2389833925
 20
13.4491240904
 30
0.0
 10
16.243831394
 20
13.4333263703
 30
0.0
 10
16.2517226364
 20
13.4102035735
 30
0.0
 10
16.256677002
 20
13.3965209791
 30
0.0
 10
16.2594237147
 20
13.3890942933
 30
0.0
  0
SPLINE
  5
4E8
100
AcDbEntity
  8
0
100
AcDbSpline
 62
7
  6
CONTINUOUS
 70
0
 71
3
 72
13
 73
9
 74
0
 42
0.0000001
 43
0.0000001
 44
0.0000000001
 40
0.0
 40
0.0
 40
0.0
 40
0.0
 40
0.2775374346
 40
0.5341559095
 40
0.6554100778
 40
0.7726910401
 40
0.8871001018
 40
1.0
 40
1.0
 40
1.0
 40
1.0
 10
13.845440411
 20
12.1030189171
 30
0.0
 10
13.8418413423
 20
12.1030188804
 30
0.0
 10
13.8348864595
 20
12.1037050585
 30
0.0
 10
13.8267655851
 20
12.1065451831
 30
0.0
 10
13.821273992
 20
12.1099133796
 30
0.0
 10
13.817762384
 20
12.1128785293
 30
0.0
 10
13.8148400906
 20
12.1162843608
 30
0.0
 10
13.8133119483
 20
12.1188243536
 30
0.0
 10
13.8126658864
 20
12.1201381677
 30
0.0
  0
SPLINE
  5
4E9
100
AcDbEntity
  8
0
100
AcDbSpline
 62
7
  6
CONTINUOUS
 70
0
 71
3
 72
9
 73
5
 74
0
 42
0.0000001
 43
0.0000001
 44
0.0000000001
 40
0.0
 40
0.0
 40
0.0
 40
0.0
 40
0.4872976247
 40
1.0
 40
1.0
 40
1.0
 40
1.0
 10
14.8234660206
 20
11.2129226346
 30
0.0
 10
14.824319274
 20
11.2156837393
 30
0.0
 10
14.8252481129
 20
11.2216331467
 30
0.0
 10
14.8245241613
 20
11.2275916173
 30
0.0
 10
14.8238206838
 20
11.2305497211
 30
0.0
  0
SPLINE
  5
4EA
100
AcDbEntity
  8
0
100
AcDbSpline
 62
7
  6
CONTINUOUS
 70
0
 71
3
 72
9
 73
5
 74
0
 42
0.0000001
 43
0.0000001
 44
0.0000000001
 40
0.0
 40
0.0
 40
0.0
 40
0.0
 40
0.2424550244
 40
1.0
 40
1.0
 40
1.0
 40
1.0
 10
14.823596022
 20
11.2314490321
 30
0.0
 10
14.8234037288
 20
11.23218358
 30
0.0
 10
14.8225278002
 20
11.2351912796
 30
0.0
 10
14.8213331288
 20
11.2381031491
 30
0.0
 10
14.820287978
 20
11.2402329426
 30
0.0
  0
SPLINE
  5
4EB
100
AcDbEntity
  8
0
100
AcDbSpline
 62
7
  6
CONTINUOUS
 70
0
 71
3
 72
11
 73
7
 74
0
 42
0.0000001
 43
0.0000001
 44
0.0000000001
 40
0.0
 40
0.0
 40
0.0
 40
0.0
 40
0.2413085993
 40
0.4905923042
 40
0.7443372506
 40
1.0
 40
1.0
 40
1.0
 40
1.0
 10
13.7024979991
 20
12.677260424
 30
0.0
 10
13.7132672222
 20
12.677260424
 30
0.0
 10
13.7351711179
 20
12.6761492426
 30
0.0
 10
13.7681149466
 20
12.6716583259
 30
0.0
 10
13.8012932804
 20
12.6648006719
 30
0.0
 10
13.8232931825
 20
12.6590348444
 30
0.0
 10
13.83427001
 20
12.655921423
 30
0.0
  0
SPLINE
  5
4EC
100
AcDbEntity
  8
0
100
AcDbSpline
 62
7
  6
CONTINUOUS
 70
0
 71
3
 72
11
 73
7
 74
0
 42
0.0000001
 43
0.0000001
 44
0.0000000001
 40
0.0
 40
0.0
 40
0.0
 40
0.0
 40
0.2448528648
 40
0.4950262882
 40
0.7474213253
 40
1.0
 40
1.0
 40
1.0
 40
1.0
 10
16.2024290399
 20
13.204659458
 30
0.0
 10
16.1943726432
 20
13.1965043058
 30
0.0
 10
16.1789474092
 20
13.1791467733
 30
0.0
 10
16.1581661852
 20
13.1509467293
 30
0.0
 10
16.139339644
 20
13.1209922037
 30
0.0
 10
16.1279221152
 20
13.1002776297
 30
0.0
 10
16.1224392877
 20
13.0898003055
 30
0.0
  0
SPLINE
  5
4ED
100
AcDbEntity
  8
0
100
AcDbSpline
 62
7
  6
CONTINUOUS
 70
0
 71
3
 72
11
 73
7
 74
0
 42
0.0000001
 43
0.0000001
 44
0.0000000001
 40
0.0
 40
0.0
 40
0.0
 40
0.0
 40
0.3243501035
 40
0.5956228718
 40
0.8180414504
 40
1.0
 40
1.0
 40
1.0
 40
1.0
 10
13.9758001046
 20
12.9539126768
 30
0.0
 10
13.9730510784
 20
12.9613456181
 30
0.0
 10
13.9680937934
 20
12.975029239
 30
0.0
 10
13.9616378787
 20
12.9939470835
 30
0.0
 10
13.9566696159
 20
13.0096919362
 30
0.0
 10
13.9539544234
 20
13.0191936213
 30
0.0
 10
13.9528050272
 20
13.0234883595
 30
0.0
  0
SPLINE
  5
4EE
100
AcDbEntity
  8
0
100
AcDbSpline
 62
7
  6
CONTINUOUS
 70
0
 71
3
 72
11
 73
7
 74
0
 42
0.0000001
 43
0.0000001
 44
0.0000000001
 40
0.0
 40
0.0
 40
0.0
 40
0.0
 40
0.2306673277
 40
0.4742518704
 40
0.7308191759
 40
1.0
 40
1.0
 40
1.0
 40
1.0
 10
16.1137317114
 20
12.1409031225
 30
0.0
 10
16.1014414008
 20
12.1659435484
 30
0.0
 10
16.0731875473
 20
12.2159993397
 30
0.0
 10
16.0221849068
 20
12.2883252486
 30
0.0
 10
15.9618757233
 20
12.3593101657
 30
0.0
 10
15.9168481645
 20
12.4042998717
 30
0.0
 10
15.8930001013
 20
12.4264552016
 30
0.0
  0
SPLINE
  5
4EF
100
AcDbEntity
  8
0
100
AcDbSpline
 62
7
  6
CONTINUOUS
 70
0
 71
3
 72
12
 73
8
 74
0
 42
0.0000001
 43
0.0000001
 44
0.0000000001
 40
0.0
 40
0.0
 40
0.0
 40
0.0
 40
0.2297894597
 40
0.4715755312
 40
0.5978276416
 40
0.7280395053
 40
1.0
 40
1.0
 40
1.0
 40
1.0
 10
13.5884022199
 20
12.654618689
 30
0.0
 10
13.5967128823
 20
12.6579796008
 30
0.0
 10
13.6140331383
 20
12.6642467875
 30
0.0
 10
13.6366177015
 20
12.6702151702
 30
0.0
 10
13.6557351742
 20
12.6737740232
 30
0.0
 10
13.6761803981
 20
12.6764695526
 30
0.0
 10
13.691888293
 20
12.677260424
 30
0.0
 10
13.7024979991
 20
12.677260424
 30
0.0
  0
SPLINE
  5
4F0
100
AcDbEntity
  8
0
100
AcDbSpline
 62
7
  6
CONTINUOUS
 70
0
 71
3
 72
11
 73
7
 74
0
 42
0.0000001
 43
0.0000001
 44
0.0000000001
 40
0.0
 40
0.0
 40
0.0
 40
0.0
 40
0.2409772622
 40
0.4911394623
 40
0.7458600868
 40
1.0
 40
1.0
 40
1.0
 40
1.0
 10
13.7024979991
 20
12.677260424
 30
0.0
 10
13.7177943288
 20
12.677260424
 30
0.0
 10
13.7490172324
 20
12.6800605573
 30
0.0
 10
13.7950795562
 20
12.6917467265
 30
0.0
 10
13.8396404009
 20
12.7105124316
 30
0.0
 10
13.8673577114
 20
12.727374577
 30
0.0
 10
13.8804565966
 20
12.7367902893
 30
0.0
  0
SPLINE
  5
4F1
100
AcDbEntity
  8
0
100
AcDbSpline
 62
7
  6
CONTINUOUS
 70
0
 71
3
 72
15
 73
11
 74
0
 42
0.0000001
 43
0.0000001
 44
0.0000000001
 40
0.0
 40
0.0
 40
0.0
 40
0.0
 40
0.1133561023
 40
0.2275816101
 40
0.3442067196
 40
0.4647225938
 40
0.5901546602
 40
0.7211133369
 40
0.8578649508
 40
1.0
 40
1.0
 40
1.0
 40
1.0
 10
13.5431852432
 20
12.7694778416
 30
0.0
 10
13.5457536903
 20
12.7625331581
 30
0.0
 10
13.5521932338
 20
12.7490273631
 30
0.0
 10
13.5654440756
 20
12.7307203858
 30
0.0
 10
13.5820469167
 20
12.7147071389
 30
0.0
 10
13.6016735196
 20
12.7012714846
 30
0.0
 10
13.6239653257
 20
12.690611766
 30
0.0
 10
13.6485441814
 20
12.6829010149
 30
0.0
 10
13.67497709
 20
12.6782587368
 30
0.0
 10
13.6932137288
 20
12.677260424
 30
0.0
 10
13.7024979991
 20
12.677260424
 30
0.0
  0
SPLINE
  5
4F2
100
AcDbEntity
  8
0
100
AcDbSpline
 62
7
  6
CONTINUOUS
 70
0
 71
3
 72
14
 73
10
 74
0
 42
0.0000001
 43
0.0000001
 44
0.0000000001
 40
0.0
 40
0.0
 40
0.0
 40
0.0
 40
0.1423036394
 40
0.2800271632
 40
0.5387645294
 40
0.66028788
 40
0.7769621289
 40
0.8898062407
 40
1.0
 40
1.0
 40
1.0
 40
1.0
 10
13.600179918
 20
12.9539126768
 30
0.0
 10
13.5934007405
 20
12.9470504
 30
0.0
 10
13.580738431
 20
12.9328442119
 30
0.0
 10
13.559536587
 20
12.9030599266
 30
0.0
 10
13.5442254657
 20
12.8709396174
 30
0.0
 10
13.536483627
 20
12.8380479587
 30
0.0
 10
13.5346181937
 20
12.8142199676
 30
0.0
 10
13.5366416369
 20
12.791175434
 30
0.0
 10
13.5405942047
 20
12.7764836085
 30
0.0
 10
13.5431852432
 20
12.7694778416
 30
0.0
  0
SPLINE
  5
4F3
100
AcDbEntity
  8
0
100
AcDbSpline
 62
7
  6
CONTINUOUS
 70
0
 71
3
 72
13
 73
9
 74
0
 42
0.0000001
 43
0.0000001
 44
0.0000000001
 40
0.0
 40
0.0
 40
0.0
 40
0.0
 40
0.1196980358
 40
0.2428785337
 40
0.495546694
 40
0.7505515712
 40
0.8765483809
 40
1.0
 40
1.0
 40
1.0
 40
1.0
 10
13.8164873487
 20
13.0461300944
 30
0.0
 10
13.8068783282
 20
13.0461300944
 30
0.0
 10
13.7873659074
 20
13.0450249263
 30
0.0
 10
13.7480407236
 20
13.0386583146
 30
0.0
 10
13.6994936021
 20
13.023101479
 30
0.0
 10
13.6544916175
 20
12.998705298
 30
0.0
 10
13.6219785851
 20
12.9744774362
 30
0.0
 10
13.6071447742
 20
12.9609629085
 30
0.0
 10
13.600179918
 20
12.9539126768
 30
0.0
  0
SPLINE
  5
4F4
100
AcDbEntity
  8
0
100
AcDbSpline
 62
7
  6
CONTINUOUS
 70
0
 71
3
 72
15
 73
11
 74
0
 42
0.0000001
 43
0.0000001
 44
0.0000000001
 40
0.0
 40
0.0
 40
0.0
 40
0.0
 40
0.1133561023
 40
0.2275816101
 40
0.3442067196
 40
0.4647225938
 40
0.5901546602
 40
0.7211133369
 40
0.8578649508
 40
1.0
 40
1.0
 40
1.0
 40
1.0
 10
13.9758001046
 20
12.9539126768
 30
0.0
 10
13.9732316574
 20
12.9608573603
 30
0.0
 10
13.9667921139
 20
12.9743631553
 30
0.0
 10
13.9535412721
 20
12.9926701326
 30
0.0
 10
13.9369384311
 20
13.0086833795
 30
0.0
 10
13.9173118281
 20
13.0221190338
 30
0.0
 10
13.8950200221
 20
13.0327787524
 30
0.0
 10
13.8704411663
 20
13.0404895035
 30
0.0
 10
13.8440082578
 20
13.0451317816
 30
0.0
 10
13.8257716189
 20
13.0461300944
 30
0.0
 10
13.8164873487
 20
13.0461300944
 30
0.0
  0
SPLINE
  5
4F5
100
AcDbEntity
  8
0
100
AcDbSpline
 62
7
  6
CONTINUOUS
 70
0
 71
3
 72
9
 73
5
 74
0
 42
0.0000001
 43
0.0000001
 44
0.0000000001
 40
0.0
 40
0.0
 40
0.0
 40
0.0
 40
0.5038452719
 40
1.0
 40
1.0
 40
1.0
 40
1.0
 10
13.9830845031
 20
12.9218703295
 30
0.0
 10
13.9825504372
 20
12.927374718
 30
0.0
 10
13.9808123761
 20
12.9382455674
 30
0.0
 10
13.9776891518
 20
12.9488049855
 30
0.0
 10
13.9758001046
 20
12.9539126768
 30
0.0
  0
SPLINE
  5
4F6
100
AcDbEntity
  8
0
100
AcDbSpline
 62
7
  6
CONTINUOUS
 70
0
 71
3
 72
11
 73
7
 74
0
 42
0.0000001
 43
0.0000001
 44
0.0000000001
 40
0.0
 40
0.0
 40
0.0
 40
0.0
 40
0.2340729862
 40
0.4779012129
 40
0.733159536
 40
1.0
 40
1.0
 40
1.0
 40
1.0
 10
16.3046406914
 20
13.2742351407
 30
0.0
 10
16.2957830661
 20
13.2702775596
 30
0.0
 10
16.2779586303
 20
13.2615908388
 30
0.0
 10
16.2518261109
 20
13.2460013615
 30
0.0
 10
16.2262290698
 20
13.2271374526
 30
0.0
 10
16.2102016085
 20
13.2125273031
 30
0.0
 10
16.2024290399
 20
13.204659458
 30
0.0
  0
SPLINE
  5
4F7
100
AcDbEntity
  8
0
100
AcDbSpline
 62
7
  6
CONTINUOUS
 70
0
 71
3
 72
11
 73
7
 74
0
 42
0.0000001
 43
0.0000001
 44
0.0000000001
 40
0.0
 40
0.0
 40
0.0
 40
0.0
 40
0.2433456965
 40
0.4895174623
 40
0.7411652342
 40
1.0
 40
1.0
 40
1.0
 40
1.0
 10
13.5678517857
 20
12.6350839033
 30
0.0
 10
13.5710930995
 20
12.6284758171
 30
0.0
 10
13.5786715334
 20
12.6156741354
 30
0.0
 10
13.5929818368
 20
12.5983099061
 30
0.0
 10
13.6100708797
 20
12.5829687645
 30
0.0
 10
13.6229448718
 20
12.5743431582
 30
0.0
 10
13.629720341
 20
12.5704212107
 30
0.0
  0
SPLINE
  5
4F8
100
AcDbEntity
  8
0
100
AcDbSpline
 62
7
  6
CONTINUOUS
 70
0
 71
3
 72
9
 73
5
 74
0
 42
0.0000001
 43
0.0000001
 44
0.0000000001
 40
0.0
 40
0.0
 40
0.0
 40
0.0
 40
0.245005297
 40
1.0
 40
1.0
 40
1.0
 40
1.0
 10
14.3571348311
 20
13.3943624046
 30
0.0
 10
14.3573444141
 20
13.3950406156
 30
0.0
 10
14.3582340139
 20
13.3977981354
 30
0.0
 10
14.3592560191
 20
13.4005125377
 30
0.0
 10
14.360092003
 20
13.4025339424
 30
0.0
  0
SPLINE
  5
4F9
100
AcDbEntity
  8
0
100
AcDbSpline
 62
7
  6
CONTINUOUS
 70
0
 71
3
 72
21
 73
17
 74
0
 42
0.0000001
 43
0.0000001
 44
0.0000000001
 40
0.0
 40
0.0
 40
0.0
 40
0.0
 40
0.1483291168
 40
0.2169445297
 40
0.2818323263
 40
0.3432251931
 40
0.401551473
 40
0.457480898
 40
0.5118570838
 40
0.5656770852
 40
0.6199820323
 40
0.6757634007
 40
0.7338996518
 40
0.8595455175
 40
0.927969583
 40
1.0
 40
1.0
 40
1.0
 40
1.0
 10
14.4493740254
 20
13.4818793195
 30
0.0
 10
14.4545581065
 20
13.4833386829
 30
0.0
 10
14.4623423643
 20
13.484888469
 30
0.0
 10
14.472582729
 20
13.4853113359
 30
0.0
 10
14.4796580501
 20
13.484801683
 30
0.0
 10
14.4862493248
 20
13.4834786649
 30
0.0
 10
14.4922831786
 20
13.4813415692
 30
0.0
 10
14.4976923122
 20
13.4784164746
 30
0.0
 10
14.5024102111
 20
13.4747275684
 30
0.0
 10
14.5063710462
 20
13.4703135571
 30
0.0
 10
14.5095337965
 20
13.4652379168
 30
0.0
 10
14.5118569642
 20
13.4595590813
 30
0.0
 10
14.5138586789
 20
13.4510639531
 30
0.0
 10
14.5139754656
 20
13.4417860118
 30
0.0
 10
14.5124988538
 20
13.4322304829
 30
0.0
 10
14.5112133177
 20
13.4272839893
 30
0.0
 10
14.5104411568
 20
13.4247852758
 30
0.0
  0
SPLINE
  5
4FA
100
AcDbEntity
  8
0
100
AcDbSpline
 62
7
  6
CONTINUOUS
 70
0
 71
3
 72
9
 73
5
 74
0
 42
0.0000001
 43
0.0000001
 44
0.0000000001
 40
0.0
 40
0.0
 40
0.0
 40
0.0
 40
0.2488288396
 40
1.0
 40
1.0
 40
1.0
 40
1.0
 10
14.4330323426
 20
12.4617310137
 30
0.0
 10
14.4332964728
 20
12.461432381
 30
0.0
 10
14.4343910926
 20
12.4602618575
 30
0.0
 10
14.4356176089
 20
12.4592153448
 30
0.0
 10
14.4365933753
 20
12.458510783
 30
0.0
  0
SPLINE
  5
4FB
100
AcDbEntity
  8
0
100
AcDbSpline
 62
7
  6
CONTINUOUS
 70
0
 71
3
 72
9
 73
5
 74
0
 42
0.0000001
 43
0.0000001
 44
0.0000000001
 40
0.0
 40
0.0
 40
0.0
 40
0.0
 40
0.4848775197
 40
1.0
 40
1.0
 40
1.0
 40
1.0
 10
14.4365933753
 20
12.458510783
 30
0.0
 10
14.4379336184
 20
12.4575430473
 30
0.0
 10
14.4409253765
 20
12.455850588
 30
0.0
 10
14.4441812654
 20
12.4547727561
 30
0.0
 10
14.4458877382
 20
12.4543577044
 30
0.0
  0
SPLINE
  5
4FC
100
AcDbEntity
  8
0
100
AcDbSpline
 62
7
  6
CONTINUOUS
 70
0
 71
3
 72
9
 73
5
 74
0
 42
0.0000001
 43
0.0000001
 44
0.0000000001
 40
0.0
 40
0.0
 40
0.0
 40
0.0
 40
0.2422738117
 40
1.0
 40
1.0
 40
1.0
 40
1.0
 10
14.4458877382
 20
12.4543577044
 30
0.0
 10
14.4463692454
 20
12.4542405912
 30
0.0
 10
14.4483677239
 20
12.453802954
 30
0.0
 10
14.4504036153
 20
12.4535428521
 30
0.0
 10
14.4519494194
 20
12.4534309818
 30
0.0
  0
SPLINE
  5
4FD
100
AcDbEntity
  8
0
100
AcDbSpline
 62
7
  6
CONTINUOUS
 70
0
 71
3
 72
9
 73
5
 74
0
 42
0.0000001
 43
0.0000001
 44
0.0000000001
 40
0.0
 40
0.0
 40
0.0
 40
0.0
 40
0.4809731484
 40
1.0
 40
1.0
 40
1.0
 40
1.0
 10
14.4671578603
 20
12.4546380791
 30
0.0
 10
14.471230442
 20
12.4554907824
 30
0.0
 10
14.4795497984
 20
12.458001381
 30
0.0
 10
14.4874318769
 20
12.461630179
 30
0.0
 10
14.4913879125
 20
12.4637540268
 30
0.0
  0
SPLINE
  5
4FE
100
AcDbEntity
  8
0
100
AcDbSpline
 62
7
  6
CONTINUOUS
 70
0
 71
3
 72
9
 73
5
 74
0
 42
0.0000001
 43
0.0000001
 44
0.0000000001
 40
0.0
 40
0.0
 40
0.0
 40
0.0
 40
0.5003667348
 40
1.0
 40
1.0
 40
1.0
 40
1.0
 10
14.495503124
 20
12.4660789407
 30
0.0
 10
14.5002791932
 20
12.4689130169
 30
0.0
 10
14.5094189751
 20
12.4752852543
 30
0.0
 10
14.5175476381
 20
12.4829132081
 30
0.0
 10
14.5212757634
 20
12.4870185157
 30
0.0
  0
SPLINE
  5
4FF
100
AcDbEntity
  8
0
100
AcDbSpline
 62
7
  6
CONTINUOUS
 70
0
 71
3
 72
9
 73
5
 74
0
 42
0.0000001
 43
0.0000001
 44
0.0000000001
 40
0.0
 40
0.0
 40
0.0
 40
0.0
 40
0.2562618391
 40
1.0
 40
1.0
 40
1.0
 40
1.0
 10
14.5212757634
 20
12.4870185157
 30
0.0
 10
14.5223205674
 20
12.4881690246
 30
0.0
 10
14.5262942064
 20
12.4927504721
 30
0.0
 10
14.5298490064
 20
12.4977029982
 30
0.0
 10
14.5321654456
 20
12.5015731815
 30
0.0
  0
SPLINE
  5
500
100
AcDbEntity
  8
0
100
AcDbSpline
 62
7
  6
CONTINUOUS
 70
0
 71
3
 72
9
 73
5
 74
0
 42
0.0000001
 43
0.0000001
 44
0.0000000001
 40
0.0
 40
0.0
 40
0.0
 40
0.0
 40
0.2604891744
 40
1.0
 40
1.0
 40
1.0
 40
1.0
 10
14.5321654456
 20
12.5015731815
 30
0.0
 10
14.5329006638
 20
12.5028015449
 30
0.0
 10
14.5355954962
 20
12.5075907738
 30
0.0
 10
14.5377749929
 20
12.5126821149
 30
0.0
 10
14.5389749249
 20
12.5165650961
 30
0.0
  0
SPLINE
  5
501
100
AcDbEntity
  8
0
100
AcDbSpline
 62
7
  6
CONTINUOUS
 70
0
 71
3
 72
27
 73
23
 74
0
 42
0.0000001
 43
0.0000001
 44
0.0000000001
 40
0.0
 40
0.0
 40
0.0
 40
0.0
 40
0.0660236489
 40
0.1371846111
 40
0.2119608721
 40
0.2887119279
 40
0.3655454087
 40
0.4405762142
 40
0.5120712699
 40
0.5786028497
 40
0.6392705716
 40
0.6673608495
 40
0.6940111034
 40
0.7193580591
 40
0.7436270656
 40
0.767113681
 40
0.7901720851
 40
0.8131971883
 40
0.8365791775
 40
0.8856969411
 40
0.9398938304
 40
1.0
 40
1.0
 40
1.0
 40
1.0
 10
14.5104411568
 20
13.4247852758
 30
0.0
 10
14.5088778237
 20
13.419726328
 30
0.0
 10
14.5046751015
 20
13.4094984949
 30
0.0
 10
14.4959932268
 20
13.394828789
 30
0.0
 10
14.48497319
 20
13.3807159124
 30
0.0
 10
14.4720400227
 20
13.3676908114
 30
0.0
 10
14.4576719449
 20
13.3562344776
 30
0.0
 10
14.4424076073
 20
13.3467761506
 30
0.0
 10
14.4268106465
 20
13.3396700051
 30
0.0
 10
14.4114587538
 20
13.3351845169
 30
0.0
 10
14.3990049063
 20
13.3337375366
 30
0.0
 10
14.3897411147
 20
13.3341482307
 30
0.0
 10
14.3833840558
 20
13.3351727438
 30
0.0
 10
14.3775036539
 20
13.3369227086
 30
0.0
 10
14.3721587686
 20
13.3393830845
 30
0.0
 10
14.3674026012
 20
13.3425301247
 30
0.0
 10
14.3632934616
 20
13.3463418525
 30
0.0
 10
14.3598748055
 20
13.3507729122
 30
0.0
 10
14.3562219554
 20
13.357541297
 30
0.0
 10
14.3536100576
 20
13.3675258648
 30
0.0
 10
14.3537193872
 20
13.3807432521
 30
0.0
 10
14.3557116143
 20
13.3897568735
 30
0.0
 10
14.3571348311
 20
13.3943624046
 30
0.0
  0
SPLINE
  5
502
100
AcDbEntity
  8
0
100
AcDbSpline
 62
7
  6
CONTINUOUS
 70
0
 71
3
 72
12
 73
8
 74
0
 42
0.0000001
 43
0.0000001
 44
0.0000000001
 40
0.0
 40
0.0
 40
0.0
 40
0.0
 40
0.2719536395
 40
0.4021523688
 40
0.52840646
 40
0.7702030783
 40
1.0
 40
1.0
 40
1.0
 40
1.0
 10
15.9861216092
 20
13.1124420404
 30
0.0
 10
15.9755121687
 20
13.1124420404
 30
0.0
 10
15.9598049465
 20
13.1116524827
 30
0.0
 10
15.9393605893
 20
13.1089555835
 30
0.0
 10
15.9202431614
 20
13.1053967743
 30
0.0
 10
15.8976575855
 20
13.0994290745
 30
0.0
 10
15.8803367638
 20
13.093161327
 30
0.0
 10
15.87202583
 20
13.0898003055
 30
0.0
  0
SPLINE
  5
503
100
AcDbEntity
  8
0
100
AcDbSpline
 62
7
  6
CONTINUOUS
 70
0
 71
3
 72
11
 73
7
 74
0
 42
0.0000001
 43
0.0000001
 44
0.0000000001
 40
0.0
 40
0.0
 40
0.0
 40
0.0
 40
0.2555803364
 40
0.5093739105
 40
0.7587408605
 40
1.0
 40
1.0
 40
1.0
 40
1.0
 10
16.1224392877
 20
13.0898003055
 30
0.0
 10
16.1110962617
 20
13.0930841434
 30
0.0
 10
16.0883554512
 20
13.0991822979
 30
0.0
 10
16.054039834
 20
13.1064576956
 30
0.0
 10
16.0199480138
 20
13.1112520177
 30
0.0
 10
15.9972687174
 20
13.1124420404
 30
0.0
 10
15.9861216092
 20
13.1124420404
 30
0.0
  0
SPLINE
  5
504
100
AcDbEntity
  8
0
100
AcDbSpline
 62
7
  6
CONTINUOUS
 70
0
 71
3
 72
27
 73
23
 74
0
 42
0.0000001
 43
0.0000001
 44
0.0000000001
 40
0.0
 40
0.0
 40
0.0
 40
0.0
 40
0.0023325498
 40
0.0063504918
 40
0.0202830149
 40
0.0423246047
 40
0.0724628138
 40
0.1106125528
 40
0.1566451794
 40
0.2103994879
 40
0.2716839833
 40
0.4158895829
 40
0.4982781854
 40
0.5871284796
 40
0.6820996205
 40
0.7317540867
 40
0.782796218
 40
0.8350850147
 40
0.8617248858
 40
0.8887430191
 40
0.9434552359
 40
1.0
 40
1.0
 40
1.0
 40
1.0
 10
17.3251415583
 20
12.6004730167
 30
0.0
 10
17.3251252923
 20
12.6004761012
 30
0.0
 10
17.3250799254
 20
12.6004552236
 30
0.0
 10
17.3249782346
 20
12.6003565034
 30
0.0
 10
17.3248146573
 20
12.6001193282
 30
0.0
 10
17.3245858391
 20
12.5997114732
 30
0.0
 10
17.3243063455
 20
12.599133213
 30
0.0
 10
17.3239856982
 20
12.5983879788
 30
0.0
 10
17.3236297055
 20
12.5974756645
 30
0.0
 10
17.3232449541
 20
12.5963989994
 30
0.0
 10
17.3226699762
 20
12.5946509175
 30
0.0
 10
17.3221046331
 20
12.5926864146
 30
0.0
 10
17.3215607408
 20
12.5905143687
 30
0.0
 10
17.321147052
 20
12.5886705634
 30
0.0
 10
17.3208239728
 20
12.5870448619
 30
0.0
 10
17.3205942318
 20
12.585675151
 30
0.0
 10
17.3204327589
 20
12.5846011927
 30
0.0
 10
17.3203314921
 20
12.5836841056
 30
0.0
 10
17.3202685169
 20
12.5829345264
 30
0.0
 10
17.3202016531
 20
12.5821692553
 30
0.0
 10
17.320166025
 20
12.5811794641
 30
0.0
 10
17.3204154718
 20
12.5804096954
 30
0.0
 10
17.3205934941
 20
12.5800499986
 30
0.0
  0
SPLINE
  5
505
100
AcDbEntity
  8
0
100
AcDbSpline
 62
7
  6
CONTINUOUS
 70
0
 71
3
 72
32
 73
28
 74
0
 42
0.0000001
 43
0.0000001
 44
0.0000000001
 40
0.0
 40
0.0
 40
0.0
 40
0.0
 40
0.0261160731
 40
0.0534858676
 40
0.0820978853
 40
0.1119290775
 40
0.1429428213
 40
0.1750775464
 40
0.2423119986
 40
0.3127799391
 40
0.3854194392
 40
0.4590483341
 40
0.5324365732
 40
0.6043659657
 40
0.6394328108
 40
0.6737161754
 40
0.7394405219
 40
0.7707114698
 40
0.8008102383
 40
0.8296889747
 40
0.8573246077
 40
0.8837233633
 40
0.9089280417
 40
0.9330158968
 40
0.9561091185
 40
0.9783689725
 40
1.0
 40
1.0
 40
1.0
 40
1.0
 10
15.4665366145
 20
11.8814260836
 30
0.0
 10
15.4613223922
 20
11.8920515515
 30
0.0
 10
15.4495845816
 20
11.9133048358
 30
0.0
 10
15.4288584982
 20
11.94425117
 30
0.0
 10
15.4047269428
 20
11.9747974312
 30
0.0
 10
15.3773525091
 20
12.0047454044
 30
0.0
 10
15.3469046008
 20
12.0339186011
 30
0.0
 10
15.3017797111
 20
12.0721157883
 30
0.0
 10
15.2387863356
 20
12.1166388824
 30
0.0
 10
15.1555948321
 20
12.1634845366
 30
0.0
 10
15.0656968075
 20
12.2034157916
 30
0.0
 10
14.9712988224
 20
12.2354476709
 30
0.0
 10
14.8747213724
 20
12.2587951878
 30
0.0
 10
14.7936980155
 20
12.2706399924
 30
0.0
 10
14.729806851
 20
12.2752077772
 30
0.0
 10
14.6685853757
 20
12.2764470106
 30
0.0
 10
14.6090374488
 20
12.2729534818
 30
0.0
 10
14.5520575448
 20
12.2643109816
 30
0.0
 10
14.5120732701
 20
12.2555476634
 30
0.0
 10
14.4743839764
 20
12.2444528229
 30
0.0
 10
14.4392189876
 20
12.2310934584
 30
0.0
 10
14.4067994346
 20
12.2155394327
 30
0.0
 10
14.3773209221
 20
12.1978920282
 30
0.0
 10
14.3509779621
 20
12.178238554
 30
0.0
 10
14.3279318566
 20
12.1567033971
 30
0.0
 10
14.3083477832
 20
12.1334106811
 30
0.0
 10
14.2975678142
 20
12.1166122708
 30
0.0
 10
14.2928452602
 20
12.10802149
 30
0.0
  0
SPLINE
  5
506
100
AcDbEntity
  8
0
100
AcDbSpline
 62
7
  6
CONTINUOUS
 70
0
 71
3
 72
30
 73
26
 74
0
 42
0.0000001
 43
0.0000001
 44
0.0000000001
 40
0.0
 40
0.0
 40
0.0
 40
0.0
 40
0.0265220366
 40
0.0543783069
 40
0.0835531432
 40
0.1140164856
 40
0.1785673736
 40
0.2473732183
 40
0.3194131948
 40
0.3934743059
 40
0.4682252856
 40
0.5422971241
 40
0.6143585164
 40
0.6831933372
 40
0.7477851285
 40
0.7782698695
 40
0.8074569933
 40
0.8353227015
 40
0.8618818736
 40
0.8871849769
 40
0.9113326123
 40
0.9344698938
 40
0.9567933741
 40
0.9785446678
 40
1.0
 40
1.0
 40
1.0
 40
1.0
 10
14.4217080494
 20
11.8814260836
 30
0.0
 10
14.4260124198
 20
11.8726546991
 30
0.0
 10
14.4357549704
 20
11.8551101678
 30
0.0
 10
14.4530516928
 20
11.8296075208
 30
0.0
 10
14.4732747915
 20
11.8044648197
 30
0.0
 10
14.5045446848
 20
11.7710207537
 30
0.0
 10
14.5502516821
 20
11.7313345374
 30
0.0
 10
14.6129197604
 20
11.6886685317
 30
0.0
 10
14.6828053794
 20
11.6511747409
 30
0.0
 10
14.7580306607
 20
11.6198550902
 30
0.0
 10
14.8365869106
 20
11.5955474179
 30
0.0
 10
14.9163657477
 20
11.5789033211
 30
0.0
 10
14.9952357359
 20
11.5703679164
 30
0.0
 10
15.0710823739
 20
11.570171189
 30
0.0
 10
15.1312505112
 20
11.5770969761
 30
0.0
 10
15.1759745159
 20
11.5870265848
 30
0.0
 10
15.2068837889
 20
11.596338732
 30
0.0
 10
15.235591178
 20
11.6076055058
 30
0.0
 10
15.2619082784
 20
11.620744079
 30
0.0
 10
15.2856490381
 20
11.6356861433
 30
0.0
 10
15.3066544806
 20
11.6523273894
 30
0.0
 10
15.3247699793
 20
11.6705696755
 30
0.0
 10
15.3398576923
 20
11.6902961147
 30
0.0
 10
15.3518022741
 20
11.7113624032
 30
0.0
 10
15.3576128633
 20
11.7262514562
 30
0.0
 10
15.3599463188
 20
11.7338032163
 30
0.0
  0
SPLINE
  5
507
100
AcDbEntity
  8
0
100
AcDbSpline
 62
7
  6
CONTINUOUS
 70
0
 71
3
 72
30
 73
26
 74
0
 42
0.0000001
 43
0.0000001
 44
0.0000000001
 40
0.0
 40
0.0
 40
0.0
 40
0.0
 40
0.0694153006
 40
0.1032498661
 40
0.1364300154
 40
0.1689416089
 40
0.2008017391
 40
0.2320469505
 40
0.2627466086
 40
0.2929855207
 40
0.3228596778
 40
0.3524804078
 40
0.3819531096
 40
0.4113748736
 40
0.4408370726
 40
0.4704087527
 40
0.5001421622
 40
0.5601843366
 40
0.6211575356
 40
0.6520120028
 40
0.6830655437
 40
0.7456976245
 40
0.8088838424
 40
0.8724834914
 40
1.0
 40
1.0
 40
1.0
 40
1.0
 10
15.6477587366
 20
13.2584103951
 30
0.0
 10
15.6405881922
 20
13.2730254773
 30
0.0
 10
15.6310960209
 20
13.2953936168
 30
0.0
 10
15.6217198247
 20
13.3260079802
 30
0.0
 10
15.6165656026
 20
13.3487982787
 30
0.0
 10
15.6133644301
 20
13.3714793371
 30
0.0
 10
15.6122125515
 20
13.3939051875
 30
0.0
 10
15.6131530755
 20
13.4159192004
 30
0.0
 10
15.6162482222
 20
13.4373540361
 30
0.0
 10
15.6214776561
 20
13.458040534
 30
0.0
 10
15.6288135863
 20
13.4778099642
 30
0.0
 10
15.6382038284
 20
13.4964895221
 30
0.0
 10
15.6495216681
 20
13.5139411453
 30
0.0
 10
15.6626596922
 20
13.5300184141
 30
0.0
 10
15.677457836
 20
13.5446109749
 30
0.0
 10
15.6937471398
 20
13.5576346505
 30
0.0
 10
15.7172974271
 20
13.5728343822
 30
0.0
 10
15.7496512848
 20
13.5876187986
 30
0.0
 10
15.7842885752
 20
13.5965981884
 30
0.0
 10
15.8128523882
 20
13.6005783447
 30
0.0
 10
15.8420208711
 20
13.6024808273
 30
0.0
 10
15.8788962546
 20
13.601091974
 30
0.0
 10
15.9228545904
 20
13.5940549758
 30
0.0
 10
15.980485089
 20
13.5783881304
 30
0.0
 10
16.0219075595
 20
13.5605365794
 30
0.0
 10
16.0484128304
 20
13.546687452
 30
0.0
  0
SPLINE
  5
508
100
AcDbEntity
  8
0
100
AcDbSpline
 62
7
  6
CONTINUOUS
 70
0
 71
3
 72
34
 73
30
 74
0
 42
0.0000001
 43
0.0000001
 44
0.0000000001
 40
0.0
 40
0.0
 40
0.0
 40
0.0
 40
0.0214292116
 40
0.043157036
 40
0.0654555352
 40
0.0885637521
 40
0.1126728283
 40
0.1379289204
 40
0.1644280771
 40
0.1922240775
 40
0.2213305119
 40
0.2517251103
 40
0.2833580578
 40
0.3161504006
 40
0.3500052306
 40
0.3848036565
 40
0.4204144604
 40
0.4566923453
 40
0.530603701
 40
0.605252181
 40
0.679289723
 40
0.7513992458
 40
0.8203746696
 40
0.8533750282
 40
0.8852298593
 40
0.9158586458
 40
0.9452138797
 40
0.9732668123
 40
1.0
 40
1.0
 40
1.0
 40
1.0
 10
15.5024373839
 20
11.6889751718
 30
0.0
 10
15.4993924262
 20
11.6792414142
 30
0.0
 10
15.4918323343
 20
11.6600535665
 30
0.0
 10
15.4763645538
 20
11.6329014912
 30
0.0
 10
15.4568702076
 20
11.6074663818
 30
0.0
 10
15.4334916442
 20
11.5839382751
 30
0.0
 10
15.4064157061
 20
11.5624513361
 30
0.0
 10
15.3758235339
 20
11.5431537783
 30
0.0
 10
15.3419331358
 20
11.5261521206
 30
0.0
 10
15.3049683342
 20
11.5115584748
 30
0.0
 10
15.2651776987
 20
11.499461283
 30
0.0
 10
15.2228259224
 20
11.4899340004
 30
0.0
 10
15.1781942124
 20
11.4830450284
 30
0.0
 10
15.1315808119
 20
11.478827466
 30
0.0
 10
15.0832964374
 20
11.4773216595
 30
0.0
 10
15.0336641511
 20
11.4785236705
 30
0.0
 10
14.9830154885
 20
11.4824370555
 30
0.0
 10
14.9141651824
 20
11.4912775602
 30
0.0
 10
14.8278293273
 20
11.5089142971
 30
0.0
 10
14.7263321464
 20
11.5397942526
 30
0.0
 10
14.6289523266
 20
11.5797171296
 30
0.0
 10
14.5382804102
 20
11.6276182822
 30
0.0
 10
14.4692784041
 20
11.6738169867
 30
0.0
 10
14.419655274
 20
11.7138029294
 30
0.0
 10
14.3860849935
 20
11.7444812056
 30
0.0
 10
14.3558448428
 20
11.7760896095
 30
0.0
 10
14.3291285865
 20
11.8084208594
 30
0.0
 10
14.3061344729
 20
11.8412596551
 30
0.0
 10
14.2930691378
 20
11.8638751643
 30
0.0
 10
14.2872552745
 20
11.8751924225
 30
0.0
  0
SPLINE
  5
509
100
AcDbEntity
  8
0
100
AcDbSpline
 62
7
  6
CONTINUOUS
 70
0
 71
3
 72
11
 73
7
 74
0
 42
0.0000001
 43
0.0000001
 44
0.0000000001
 40
0.0
 40
0.0
 40
0.0
 40
0.0
 40
0.2712945005
 40
0.5254922905
 40
0.766352027
 40
1.0
 40
1.0
 40
1.0
 40
1.0
 10
16.0838713066
 20
11.3402645658
 30
0.0
 10
16.0850829049
 20
11.3377955881
 30
0.0
 10
16.0870912249
 20
11.3328339409
 30
0.0
 10
16.0887636088
 20
11.3252042113
 30
0.0
 10
16.0889248425
 20
11.3177695499
 30
0.0
 10
16.0880063573
 20
11.3130029161
 30
0.0
 10
16.0873070286
 20
11.3107399084
 30
0.0
  0
SPLINE
  5
50A
100
AcDbEntity
  8
0
100
AcDbSpline
 62
7
  6
CONTINUOUS
 70
0
 71
3
 72
36
 73
32
 74
0
 42
0.0000001
 43
0.0000001
 44
0.0000000001
 40
0.0
 40
0.0
 40
0.0
 40
0.0
 40
0.0154611541
 40
0.0303591418
 40
0.0378129272
 40
0.0453026703
 40
0.0603967642
 40
0.0756619434
 40
0.0911024869
 40
0.1224992161
 40
0.1545449148
 40
0.1871577937
 40
0.2537008201
 40
0.321314315
 40
0.3891198653
 40
0.4562112798
 40
0.5216708308
 40
0.584604075
 40
0.6148330219
 40
0.6440828473
 40
0.6723321369
 40
0.699630195
 40
0.7259814764
 40
0.7518102357
 40
0.8062252048
 40
0.8360904578
 40
0.8675679238
 40
0.9001885218
 40
0.9332228284
 40
0.9664807669
 40
1.0
 40
1.0
 40
1.0
 40
1.0
 10
17.0119233918
 20
11.5811931815
 30
0.0
 10
17.0115590082
 20
11.5809382331
 30
0.0
 10
17.01089729
 20
11.580344627
 30
0.0
 10
17.0103372101
 20
11.5794032981
 30
0.0
 10
17.0099349175
 20
11.5786460205
 30
0.0
 10
17.0095302551
 20
11.5778824082
 30
0.0
 10
17.0090475396
 20
11.5769063706
 30
0.0
 10
17.0085067194
 20
11.5757049351
 30
0.0
 10
17.0078021116
 20
11.5740634102
 30
0.0
 10
17.006968142
 20
11.5719528167
 30
0.0
 10
17.006010669
 20
11.5693609914
 30
0.0
 10
17.0047719698
 20
11.5657960157
 30
0.0
 10
17.0033106829
 20
11.5612264173
 30
0.0
 10
17.0016619309
 20
11.5556558907
 30
0.0
 10
17.0000894729
 20
11.5500470933
 30
0.0
 10
16.9985822169
 20
11.5444846721
 30
0.0
 10
16.9971131992
 20
11.5390572678
 30
0.0
 10
16.9958786157
 20
11.534664391
 30
0.0
 10
16.994828078
 20
11.5313034059
 30
0.0
 10
16.9939998744
 20
11.5289191128
 30
0.0
 10
16.9930907084
 20
11.5266546502
 30
0.0
 10
16.9920842872
 20
11.5245226315
 30
0.0
 10
16.9908942657
 20
11.5225618123
 30
0.0
 10
16.9888056247
 20
11.5202767289
 30
0.0
 10
16.9857984693
 20
11.5189163221
 30
0.0
 10
16.98250467
 20
11.5184098016
 30
0.0
 10
16.9797937833
 20
11.5183794409
 30
0.0
 10
16.9770067812
 20
11.5185835685
 30
0.0
 10
16.9741792386
 20
11.5189061845
 30
0.0
 10
16.9713409676
 20
11.5193426213
 30
0.0
 10
16.9694553782
 20
11.5197118691
 30
0.0
 10
16.9685132471
 20
11.5199166644
 30
0.0
  0
SPLINE
  5
50B
100
AcDbEntity
  8
0
100
AcDbSpline
 62
7
  6
CONTINUOUS
 70
0
 71
3
 72
18
 73
14
 74
0
 42
0.0000001
 43
0.0000001
 44
0.0000000001
 40
0.0
 40
0.0
 40
0.0
 40
0.0
 40
0.0310314229
 40
0.0622761337
 40
0.0935866962
 40
0.1249000351
 40
0.1875488704
 40
0.2501956382
 40
0.3754462677
 40
0.5006115263
 40
0.6256638835
 40
0.7505880282
 40
1.0
 40
1.0
 40
1.0
 40
1.0
 10
16.8809571565
 20
11.5384027432
 30
0.0
 10
16.8818709995
 20
11.5382553444
 30
0.0
 10
16.8837017321
 20
11.5379371214
 30
0.0
 10
16.8864306631
 20
11.5373469891
 30
0.0
 10
16.8891633759
 20
11.5367369432
 30
0.0
 10
16.8928107683
 20
11.5359241323
 30
0.0
 10
16.8973670809
 20
11.534892827
 30
0.0
 10
16.9046581336
 20
11.5332506936
 30
0.0
 10
16.9137723163
 20
11.5312159873
 30
0.0
 10
16.9247134864
 20
11.528821604
 30
0.0
 10
16.9356577232
 20
11.5264874571
 30
0.0
 10
16.9502434801
 20
11.5234601668
 30
0.0
 10
16.9611970541
 20
11.5212893358
 30
0.0
 10
16.9685027671
 20
11.5198829349
 30
0.0
  0
SPLINE
  5
50C
100
AcDbEntity
  8
0
100
AcDbSpline
 62
7
  6
CONTINUOUS
 70
0
 71
3
 72
13
 73
9
 74
0
 42
0.0000001
 43
0.0000001
 44
0.0000000001
 40
0.0
 40
0.0
 40
0.0
 40
0.0
 40
0.1156350966
 40
0.2343519566
 40
0.3561571182
 40
0.4808151627
 40
0.7369575147
 40
1.0
 40
1.0
 40
1.0
 40
1.0
 10
16.7056830894
 20
12.2372878028
 30
0.0
 10
16.7035542434
 20
12.2303988546
 30
0.0
 10
16.700167207
 20
12.2161351368
 30
0.0
 10
16.697727548
 20
12.1940128175
 30
0.0
 10
16.697788123
 20
12.1711973036
 30
0.0
 10
16.7010529166
 20
12.1399833448
 30
0.0
 10
16.710708651
 20
12.1008086535
 30
0.0
 10
16.7231070646
 20
12.0707802682
 30
0.0
 10
16.730332933
 20
12.0560558158
 30
0.0
  0
SPLINE
  5
50D
100
AcDbEntity
  8
0
100
AcDbSpline
 62
7
  6
CONTINUOUS
 70
0
 71
3
 72
23
 73
19
 74
0
 42
0.0000001
 43
0.0000001
 44
0.0000000001
 40
0.0
 40
0.0
 40
0.0
 40
0.0
 40
0.0699721515
 40
0.140032411
 40
0.2097298418
 40
0.2786785115
 40
0.3465564779
 40
0.4131061638
 40
0.4781283569
 40
0.5414798888
 40
0.603074989
 40
0.6628953157
 40
0.7210121392
 40
0.7776263699
 40
0.8331238921
 40
0.8881230987
 40
0.943452227
 40
1.0
 40
1.0
 40
1.0
 40
1.0
 10
17.1616231101
 20
12.3593567868
 30
0.0
 10
17.1499970972
 20
12.3620903117
 30
0.0
 10
17.12657726
 20
12.3669277134
 30
0.0
 10
17.0911848363
 20
12.3723866594
 30
0.0
 10
17.055742922
 20
12.3761052856
 30
0.0
 10
17.0205362816
 20
12.3781072049
 30
0.0
 10
16.9858106031
 20
12.3783986209
 30
0.0
 10
16.9517827827
 20
12.3769616483
 30
0.0
 10
16.9186501781
 20
12.3737474608
 30
0.0
 10
16.8866033072
 20
12.3686699271
 30
0.0
 10
16.8558403662
 20
12.3615986528
 30
0.0
 10
16.8265852482
 20
12.3523520636
 30
0.0
 10
16.7991104577
 20
12.3406926386
 30
0.0
 10
16.773766558
 20
12.3263303855
 30
0.0
 10
16.7510180966
 20
12.3089511837
 30
0.0
 10
16.7314687686
 20
12.2882900292
 30
0.0
 10
16.7158280793
 20
12.2642971278
 30
0.0
 10
16.7085327386
 20
12.2465092711
 30
0.0
 10
16.7056830894
 20
12.2372878028
 30
0.0
  0
SPLINE
  5
50E
100
AcDbEntity
  8
0
100
AcDbSpline
 62
7
  6
CONTINUOUS
 70
0
 71
3
 72
15
 73
11
 74
0
 42
0.0000001
 43
0.0000001
 44
0.0000000001
 40
0.0
 40
0.0
 40
0.0
 40
0.0
 40
0.1133561023
 40
0.2275816101
 40
0.3442067196
 40
0.4647225938
 40
0.5901546602
 40
0.7211133369
 40
0.8578649508
 40
1.0
 40
1.0
 40
1.0
 40
1.0
 10
16.2594237147
 20
13.3890942933
 30
0.0
 10
16.2568552676
 20
13.3960389767
 30
0.0
 10
16.250415724
 20
13.4095447717
 30
0.0
 10
16.2371648822
 20
13.427851749
 30
0.0
 10
16.2205620412
 20
13.4438649959
 30
0.0
 10
16.2009354382
 20
13.4573006502
 30
0.0
 10
16.1786436322
 20
13.4679603689
 30
0.0
 10
16.1540647764
 20
13.4756711199
 30
0.0
 10
16.1276318679
 20
13.4803133981
 30
0.0
 10
16.1093952291
 20
13.4813117109
 30
0.0
 10
16.1001109588
 20
13.4813117109
 30
0.0
  0
SPLINE
  5
50F
100
AcDbEntity
  8
0
100
AcDbSpline
 62
7
  6
CONTINUOUS
 70
0
 71
3
 72
14
 73
10
 74
0
 42
0.0000001
 43
0.0000001
 44
0.0000000001
 40
0.0
 40
0.0
 40
0.0
 40
0.0
 40
0.1423036394
 40
0.2800271632
 40
0.5387645294
 40
0.66028788
 40
0.7769621289
 40
0.8898062407
 40
1.0
 40
1.0
 40
1.0
 40
1.0
 10
16.2024290399
 20
13.204659458
 30
0.0
 10
16.2092082173
 20
13.2115217349
 30
0.0
 10
16.2218705269
 20
13.2257279229
 30
0.0
 10
16.2430723709
 20
13.2555122082
 30
0.0
 10
16.2583834922
 20
13.2876325175
 30
0.0
 10
16.2661253309
 20
13.3205241761
 30
0.0
 10
16.2679907641
 20
13.3443521673
 30
0.0
 10
16.2659673209
 20
13.3673967009
 30
0.0
 10
16.2620147532
 20
13.3820885264
 30
0.0
 10
16.2594237147
 20
13.3890942933
 30
0.0
  0
SPLINE
  5
510
100
AcDbEntity
  8
0
100
AcDbSpline
 62
7
  6
CONTINUOUS
 70
0
 71
3
 72
11
 73
7
 74
0
 42
0.0000001
 43
0.0000001
 44
0.0000000001
 40
0.0
 40
0.0
 40
0.0
 40
0.0
 40
0.2602997086
 40
0.5133279496
 40
0.7595249074
 40
1.0
 40
1.0
 40
1.0
 40
1.0
 10
16.7843703652
 20
12.0769399936
 30
0.0
 10
16.7819372514
 20
12.0690664344
 30
0.0
 10
16.7778939602
 20
12.053292162
 30
0.0
 10
16.7743749553
 20
12.0294590168
 30
0.0
 10
16.7735453058
 20
12.0060065648
 30
0.0
 10
16.7748037989
 20
11.9906067912
 30
0.0
 10
16.7758887402
 20
11.9830711955
 30
0.0
  0
SPLINE
  5
511
100
AcDbEntity
  8
0
100
AcDbSpline
 62
7
  6
CONTINUOUS
 70
0
 71
3
 72
16
 73
12
 74
0
 42
0.0000001
 43
0.0000001
 44
0.0000000001
 40
0.0
 40
0.0
 40
0.0
 40
0.0
 40
0.1242525838
 40
0.2531108262
 40
0.3844488672
 40
0.5158883819
 40
0.6450407052
 40
0.7697497349
 40
0.8299356368
 40
0.8884553981
 40
1.0
 40
1.0
 40
1.0
 40
1.0
 10
17.172079471
 20
12.3380489635
 30
0.0
 10
17.1515288381
 20
12.3380489635
 30
0.0
 10
17.1096068798
 20
12.3344799796
 30
0.0
 10
17.047585467
 20
12.319521329
 30
0.0
 10
16.9872272789
 20
12.2954153417
 30
0.0
 10
16.9308038789
 20
12.2630646761
 30
0.0
 10
16.8804246247
 20
12.2236809398
 30
0.0
 10
16.8446086651
 20
12.1857375619
 30
0.0
 10
16.8208114938
 20
12.153203925
 30
0.0
 10
16.8010719009
 20
12.1206048889
 30
0.0
 10
16.7898173276
 20
12.0945663702
 30
0.0
 10
16.7843703652
 20
12.0769399936
 30
0.0
  0
SPLINE
  5
512
100
AcDbEntity
  8
0
100
AcDbSpline
 62
7
  6
CONTINUOUS
 70
0
 71
3
 72
15
 73
11
 74
0
 42
0.0000001
 43
0.0000001
 44
0.0000000001
 40
0.0
 40
0.0
 40
0.0
 40
0.0
 40
0.1412329818
 40
0.2776837483
 40
0.408787668
 40
0.5346409846
 40
0.6557486507
 40
0.7729160399
 40
0.8872117162
 40
1.0
 40
1.0
 40
1.0
 40
1.0
 10
17.2443461838
 20
12.1993348232
 30
0.0
 10
17.2500781537
 20
12.1993348232
 30
0.0
 10
17.2613581148
 20
12.1987564056
 30
0.0
 10
17.2777690934
 20
12.1960935953
 30
0.0
 10
17.2931505184
 20
12.1916581061
 30
0.0
 10
17.3072646233
 20
12.1855215917
 30
0.0
 10
17.3199011518
 20
12.1777588632
 30
0.0
 10
17.3308747737
 20
12.1684843093
 30
0.0
 10
17.3400040295
 20
12.157828496
 30
0.0
 10
17.3447752003
 20
12.1498831626
 30
0.0
 10
17.3467924248
 20
12.1457740702
 30
0.0
  0
SPLINE
  5
513
100
AcDbEntity
  8
0
100
AcDbSpline
 62
7
  6
CONTINUOUS
 70
0
 71
3
 72
9
 73
5
 74
0
 42
0.0000001
 43
0.0000001
 44
0.0000000001
 40
0.0
 40
0.0
 40
0.0
 40
0.0
 40
0.2434678594
 40
1.0
 40
1.0
 40
1.0
 40
1.0
 10
17.2872120953
 20
12.3380489635
 30
0.0
 10
17.2839393372
 20
12.3380489635
 30
0.0
 10
17.2704981294
 20
12.3383715089
 30
0.0
 10
17.2570938393
 20
12.3399288376
 30
0.0
 10
17.247081529
 20
12.3417099593
 30
0.0
  0
SPLINE
  5
514
100
AcDbEntity
  8
0
100
AcDbSpline
 62
7
  6
CONTINUOUS
 70
0
 71
3
 72
19
 73
15
 74
0
 42
0.0000001
 43
0.0000001
 44
0.0000000001
 40
0.0
 40
0.0
 40
0.0
 40
0.0
 40
0.0602330271
 40
0.1125497715
 40
0.158819411
 40
0.2013345153
 40
0.2426951414
 40
0.2854497687
 40
0.3316075045
 40
0.3825038202
 40
0.5010038466
 40
0.6436546127
 40
0.8104245806
 40
1.0
 40
1.0
 40
1.0
 40
1.0
 10
13.8205675681
 20
11.8537201075
 30
0.0
 10
13.8208685943
 20
11.8531068576
 30
0.0
 10
13.8215043251
 20
11.8519934225
 30
0.0
 10
13.822655776
 20
11.8505946427
 30
0.0
 10
13.8239209881
 20
11.8495912456
 30
0.0
 10
13.8252857286
 20
11.8489845705
 30
0.0
 10
13.8267241139
 20
11.8487744738
 30
0.0
 10
13.8282061668
 20
11.8489431815
 30
0.0
 10
13.8297151028
 20
11.8494623624
 30
0.0
 10
13.8318611634
 20
11.8506533358
 30
0.0
 10
13.8345486856
 20
11.8530085913
 30
0.0
 10
13.8376003863
 20
11.8567988497
 30
0.0
 10
13.840593398
 20
11.8616153064
 30
0.0
 10
13.8424026306
 20
11.8652349383
 30
0.0
 10
13.8432951939
 20
11.8671910425
 30
0.0
  0
SPLINE
  5
515
100
AcDbEntity
  8
0
100
AcDbSpline
 62
7
  6
CONTINUOUS
 70
0
 71
3
 72
9
 73
5
 74
0
 42
0.0000001
 43
0.0000001
 44
0.0000000001
 40
0.0
 40
0.0
 40
0.0
 40
0.0
 40
0.2446514886
 40
1.0
 40
1.0
 40
1.0
 40
1.0
 10
14.1504851972
 20
13.43678048
 30
0.0
 10
14.1459620848
 20
13.4381027353
 30
0.0
 10
14.127350187
 20
13.4430786939
 30
0.0
 10
14.1082951967
 20
13.4463581494
 30
0.0
 10
14.093834722
 20
13.4479638258
 30
0.0
  0
SPLINE
  5
516
100
AcDbEntity
  8
0
100
AcDbSpline
 62
7
  6
CONTINUOUS
 70
0
 71
3
 72
15
 73
11
 74
0
 42
0.0000001
 43
0.0000001
 44
0.0000000001
 40
0.0
 40
0.0
 40
0.0
 40
0.0
 40
0.1506425392
 40
0.2881265806
 40
0.4136267109
 40
0.5299111104
 40
0.6413394736
 40
0.7535261622
 40
0.8718942508
 40
1.0
 40
1.0
 40
1.0
 40
1.0
 10
15.9519750708
 20
11.0902877208
 30
0.0
 10
15.9539702104
 20
11.0907561146
 30
0.0
 10
15.9577345912
 20
11.0919077076
 30
0.0
 10
15.9628044645
 20
11.0944159014
 30
0.0
 10
15.9669199426
 20
11.0975938519
 30
0.0
 10
15.9699688795
 20
11.1013749842
 30
0.0
 10
15.9718216502
 20
11.1056778348
 30
0.0
 10
15.9724061056
 20
11.110353923
 30
0.0
 10
15.9717124701
 20
11.1152319967
 30
0.0
 10
15.9705048756
 20
11.1183893174
 30
0.0
 10
15.9697371034
 20
11.1199538725
 30
0.0
  0
SPLINE
  5
517
100
AcDbEntity
  8
0
100
AcDbSpline
 62
7
  6
CONTINUOUS
 70
0
 71
3
 72
15
 73
11
 74
0
 42
0.0000001
 43
0.0000001
 44
0.0000000001
 40
0.0
 40
0.0
 40
0.0
 40
0.0
 40
0.1115258386
 40
0.2301825255
 40
0.3548826754
 40
0.4840529013
 40
0.61551191
 40
0.7468391467
 40
0.8757692153
 40
1.0
 40
1.0
 40
1.0
 40
1.0
 10
13.4359298766
 20
12.0769399936
 30
0.0
 10
13.4384824058
 20
12.085199981
 30
0.0
 10
13.4456208361
 20
12.1017046876
 30
0.0
 10
13.4610483858
 20
12.124636283
 30
0.0
 10
13.4809566571
 20
12.1457220684
 30
0.0
 10
13.5045706589
 20
12.164187158
 30
0.0
 10
13.5310190147
 20
12.1793470018
 30
0.0
 10
13.5593129177
 20
12.1906519124
 30
0.0
 10
13.5883863451
 20
12.1976578369
 30
0.0
 10
13.6080382512
 20
12.1993348232
 30
0.0
 10
13.61766852
 20
12.1993348232
 30
0.0
  0
SPLINE
  5
518
100
AcDbEntity
  8
0
100
AcDbSpline
 62
7
  6
CONTINUOUS
 70
0
 71
3
 72
11
 73
7
 74
0
 42
0.0000001
 43
0.0000001
 44
0.0000000001
 40
0.0
 40
0.0
 40
0.0
 40
0.0
 40
0.2336507478
 40
0.4745100459
 40
0.7287054591
 40
1.0
 40
1.0
 40
1.0
 40
1.0
 10
16.031329551
 20
11.129595451
 30
0.0
 10
16.03202886
 20
11.131858505
 30
0.0
 10
16.0329472296
 20
11.1366252069
 30
0.0
 10
16.032785937
 20
11.1440598928
 30
0.0
 10
16.0311134544
 20
11.1516896118
 30
0.0
 10
16.0291050731
 20
11.1566512291
 30
0.0
 10
16.0278934693
 20
11.159120218
 30
0.0
  0
SPLINE
  5
519
100
AcDbEntity
  8
0
100
AcDbSpline
 62
7
  6
CONTINUOUS
 70
0
 71
3
 72
9
 73
5
 74
0
 42
0.0000001
 43
0.0000001
 44
0.0000000001
 40
0.0
 40
0.0
 40
0.0
 40
0.0
 40
0.2469816271
 40
1.0
 40
1.0
 40
1.0
 40
1.0
 10
14.2652348299
 20
12.0674363032
 30
0.0
 10
14.2649494627
 20
12.064127169
 30
0.0
 10
14.264093855
 20
12.0507041507
 30
0.0
 10
14.2644337418
 20
12.0372093874
 30
0.0
 10
14.2653103681
 20
12.0271207896
 30
0.0
  0
SPLINE
  5
51A
100
AcDbEntity
  8
0
100
AcDbSpline
 62
7
  6
CONTINUOUS
 70
0
 71
3
 72
23
 73
19
 74
0
 42
0.0000001
 43
0.0000001
 44
0.0000000001
 40
0.0
 40
0.0
 40
0.0
 40
0.0
 40
0.0504420703
 40
0.101716593
 40
0.1545517033
 40
0.2095117447
 40
0.2669499481
 40
0.3270091683
 40
0.389635263
 40
0.4546016954
 40
0.5215443486
 40
0.5899934632
 40
0.6594049619
 40
0.7291751634
 40
0.7986830292
 40
0.8673687138
 40
0.9346882005
 40
1.0
 40
1.0
 40
1.0
 40
1.0
 10
16.9511215926
 20
12.008105917
 30
0.0
 10
16.9488748189
 20
12.0126826018
 30
0.0
 10
16.9452125926
 20
12.0223657688
 30
0.0
 10
16.9424672372
 20
12.037827236
 30
0.0
 10
16.9424860676
 20
12.0539846474
 30
0.0
 10
16.9452492082
 20
12.0705252888
 30
0.0
 10
16.9506917613
 20
12.0871483988
 30
0.0
 10
16.9586955397
 20
12.1035591337
 30
0.0
 10
16.9691155568
 20
12.1194626556
 30
0.0
 10
16.9817501023
 20
12.1345827139
 30
0.0
 10
16.9963776043
 20
12.1486425867
 30
0.0
 10
17.0127247889
 20
12.1613998565
 30
0.0
 10
17.0305043404
 20
12.1726131191
 30
0.0
 10
17.0493840505
 20
12.1820943384
 30
0.0
 10
17.0690312255
 20
12.1896600461
 30
0.0
 10
17.0890928454
 20
12.195183626
 30
0.0
 10
17.1091968973
 20
12.1985446063
 30
0.0
 10
17.1226121663
 20
12.1993348232
 30
0.0
 10
17.1292135596
 20
12.1993348232
 30
0.0
  0
SPLINE
  5
51B
100
AcDbEntity
  8
0
100
AcDbSpline
 62
7
  6
CONTINUOUS
 70
0
 71
3
 72
18
 73
14
 74
0
 42
0.0000001
 43
0.0000001
 44
0.0000000001
 40
0.0
 40
0.0
 40
0.0
 40
0.0
 40
0.2528584296
 40
0.3783060831
 40
0.5031253479
 40
0.627357027
 40
0.7511193109
 40
0.8128781207
 40
0.8746268566
 40
0.9055568596
 40
0.936525706
 40
0.9678094554
 40
1.0
 40
1.0
 40
1.0
 40
1.0
 10
13.5032014197
 20
11.519882935
 30
0.0
 10
13.5090903739
 20
11.5212806862
 30
0.0
 10
13.5178843202
 20
11.5234432912
 30
0.0
 10
13.5295382569
 20
11.5264804876
 30
0.0
 10
13.5381932936
 20
11.5288148881
 30
0.0
 10
13.5467896787
 20
11.5312105322
 30
0.0
 10
13.5539185461
 20
11.5332484967
 30
0.0
 10
13.5596044401
 20
11.5348924979
 30
0.0
 10
13.5631539017
 20
11.5359253874
 30
0.0
 10
13.5660001648
 20
11.5367371184
 30
0.0
 10
13.5681444968
 20
11.5373504514
 30
0.0
 10
13.5703255509
 20
11.5379476172
 30
0.0
 10
13.5718138665
 20
11.5382577194
 30
0.0
 10
13.5725706266
 20
11.5384027432
 30
0.0
  0
SPLINE
  5
51C
100
AcDbEntity
  8
0
100
AcDbSpline
 62
7
  6
CONTINUOUS
 70
0
 71
3
 72
36
 73
32
 74
0
 42
0.0000001
 43
0.0000001
 44
0.0000000001
 40
0.0
 40
0.0
 40
0.0
 40
0.0
 40
0.0268610795
 40
0.0546280276
 40
0.0833588449
 40
0.1130688161
 40
0.1437629175
 40
0.175743216
 40
0.2090399529
 40
0.2427704322
 40
0.2761598415
 40
0.3093163321
 40
0.3424316312
 40
0.3754548117
 40
0.4084774883
 40
0.4416088314
 40
0.5082179148
 40
0.5750034932
 40
0.6415562279
 40
0.7073487674
 40
0.771810624
 40
0.8033577641
 40
0.8343357272
 40
0.864658494
 40
0.8942390436
 40
0.9229659498
 40
0.9506655838
 40
0.9640052079
 40
0.9770324867
 40
0.9893102772
 40
1.0
 40
1.0
 40
1.0
 40
1.0
 10
13.5032122182
 20
11.5199166644
 30
0.0
 10
13.5024564997
 20
11.5197048358
 30
0.0
 10
13.5009048528
 20
11.5193252306
 30
0.0
 10
13.4985072706
 20
11.5188891269
 30
0.0
 10
13.4960072641
 20
11.5185736607
 30
0.0
 10
13.4934084866
 20
11.5183771003
 30
0.0
 10
13.4907037064
 20
11.5184197183
 30
0.0
 10
13.4879204621
 20
11.5188346906
 30
0.0
 10
13.485143054
 20
11.5196770103
 30
0.0
 10
13.4824675711
 20
11.520906924
 30
0.0
 10
13.4800190499
 20
11.522537113
 30
0.0
 10
13.4778368703
 20
11.52447584
 30
0.0
 10
13.4758736487
 20
11.5266165043
 30
0.0
 10
13.4740726359
 20
11.5288888467
 30
0.0
 10
13.4724277928
 20
11.5312771238
 30
0.0
 10
13.4704248647
 20
11.5346014608
 30
0.0
 10
13.4682574641
 20
11.538967377
 30
0.0
 10
13.4661265992
 20
11.544413884
 30
0.0
 10
13.4644485125
 20
11.5499912462
 30
0.0
 10
13.4632078947
 20
11.5556114078
 30
0.0
 10
13.4625251927
 20
11.5602939255
 30
0.0
 10
13.4621854587
 20
11.5639893364
 30
0.0
 10
13.4620292243
 20
11.5666982532
 30
0.0
 10
13.4619640872
 20
11.5693533853
 30
0.0
 10
13.4619868712
 20
11.5719433466
 30
0.0
 10
13.4620842082
 20
11.5744549522
 30
0.0
 10
13.4622213093
 20
11.576488698
 30
0.0
 10
13.4623190775
 20
11.578065813
 30
0.0
 10
13.4624016594
 20
11.5791908404
 30
0.0
 10
13.4624681158
 20
11.5802442326
 30
0.0
 10
13.4623010462
 20
11.5809134241
 30
0.0
 10
13.462162153
 20
11.5811931823
 30
0.0
  0
SPLINE
  5
51D
100
AcDbEntity
  8
0
100
AcDbSpline
 62
7
  6
CONTINUOUS
 70
0
 71
3
 72
11
 73
7
 74
0
 42
0.0000001
 43
0.0000001
 44
0.0000000001
 40
0.0
 40
0.0
 40
0.0
 40
0.0
 40
0.239040065
 40
0.4828737631
 40
0.7357657998
 40
1.0
 40
1.0
 40
1.0
 40
1.0
 10
13.4395773461
 20
12.0081063125
 30
0.0
 10
13.4371007876
 20
12.0131502772
 30
0.0
 10
13.4331543287
 20
12.0238949169
 30
0.0
 10
13.4305948277
 20
12.0411118498
 30
0.0
 10
13.431414563
 20
12.0590808195
 30
0.0
 10
13.4340959772
 20
12.0710054929
 30
0.0
 10
13.4359298766
 20
12.0769399936
 30
0.0
  0
SPLINE
  5
51E
100
AcDbEntity
  8
0
100
AcDbSpline
 62
7
  6
CONTINUOUS
 70
0
 71
3
 72
9
 73
5
 74
0
 42
0.0000001
 43
0.0000001
 44
0.0000000001
 40
0.0
 40
0.0
 40
0.0
 40
0.0
 40
0.4968442925
 40
1.0
 40
1.0
 40
1.0
 40
1.0
 10
13.7023330765
 20
13.0702655197
 30
0.0
 10
13.7057232439
 20
13.0633539649
 30
0.0
 10
13.7137037444
 20
13.0499823104
 30
0.0
 10
13.7237319384
 20
13.0380753652
 30
0.0
 10
13.7291985286
 20
13.0325170911
 30
0.0
  0
SPLINE
  5
51F
100
AcDbEntity
  8
0
100
AcDbSpline
 62
7
  6
CONTINUOUS
 70
0
 71
3
 72
22
 73
18
 74
0
 42
0.0000001
 43
0.0000001
 44
0.0000000001
 40
0.0
 40
0.0
 40
0.0
 40
0.0
 40
0.0504538379
 40
0.1017378247
 40
0.1545831892
 40
0.209554803
 40
0.2670053051
 40
0.3270769155
 40
0.389716279
 40
0.4546950451
 40
0.5216519391
 40
0.5901121954
 40
0.7291450568
 40
0.7986689484
 40
0.8673454194
 40
0.9346538192
 40
1.0
 40
1.0
 40
1.0
 40
1.0
 10
16.2203855587
 20
12.8435474191
 30
0.0
 10
16.2242932439
 20
12.8355824391
 30
0.0
 10
16.2306720266
 20
12.8187353883
 30
0.0
 10
16.2354428636
 20
12.791829753
 30
0.0
 10
16.2354143244
 20
12.7637151687
 30
0.0
 10
16.2306023026
 20
12.7349335296
 30
0.0
 10
16.2211331084
 20
12.7060076505
 30
0.0
 10
16.2072042219
 20
12.6774523211
 30
0.0
 10
16.1890728984
 20
12.6497785561
 30
0.0
 10
16.167085781
 20
12.6234715285
 30
0.0
 10
16.1416321842
 20
12.5990023575
 30
0.0
 10
16.1035307407
 20
12.5692797318
 30
0.0
 10
16.0607638774
 20
12.5451838299
 30
0.0
 10
16.0152199416
 20
12.5276403143
 30
0.0
 10
15.9803142249
 20
12.5180333742
 30
0.0
 10
15.9453385857
 20
12.5121787625
 30
0.0
 10
15.9219949959
 20
12.5108085439
 30
0.0
 10
15.9105043757
 20
12.5108085439
 30
0.0
  0
SPLINE
  5
520
100
AcDbEntity
  8
0
100
AcDbSpline
 62
7
  6
CONTINUOUS
 70
0
 71
3
 72
9
 73
5
 74
0
 42
0.0000001
 43
0.0000001
 44
0.0000000001
 40
0.0
 40
0.0
 40
0.0
 40
0.0
 40
0.5072807048
 40
1.0
 40
1.0
 40
1.0
 40
1.0
 10
15.461044605
 20
11.6392415884
 30
0.0
 10
15.4682480611
 20
11.646795452
 30
0.0
 10
15.4815768342
 20
11.6625494188
 30
0.0
 10
15.4927605327
 20
11.6799033719
 30
0.0
 10
15.4976558461
 20
11.6887815188
 30
0.0
  0
SPLINE
  5
521
100
AcDbEntity
  8
0
100
AcDbSpline
 62
7
  6
CONTINUOUS
 70
0
 71
3
 72
11
 73
7
 74
0
 42
0.0000001
 43
0.0000001
 44
0.0000000001
 40
0.0
 40
0.0
 40
0.0
 40
0.0
 40
0.2433456965
 40
0.4895174623
 40
0.7411652342
 40
1.0
 40
1.0
 40
1.0
 40
1.0
 10
15.7169941051
 20
12.6350839033
 30
0.0
 10
15.7202354189
 20
12.6284758171
 30
0.0
 10
15.7278138527
 20
12.6156741354
 30
0.0
 10
15.7421241561
 20
12.5983099061
 30
0.0
 10
15.7592131991
 20
12.5829687645
 30
0.0
 10
15.7720871911
 20
12.5743431582
 30
0.0
 10
15.7788626604
 20
12.5704212107
 30
0.0
  0
SPLINE
  5
522
100
AcDbEntity
  8
0
100
AcDbSpline
 62
7
  6
CONTINUOUS
 70
0
 71
3
 72
9
 73
5
 74
0
 42
0.0000001
 43
0.0000001
 44
0.0000000001
 40
0.0
 40
0.0
 40
0.0
 40
0.0
 40
0.2423912724
 40
1.0
 40
1.0
 40
1.0
 40
1.0
 10
15.5960608168
 20
11.8814260836
 30
0.0
 10
15.5933149749
 20
11.887021521
 30
0.0
 10
15.5815045773
 20
11.9098678788
 30
0.0
 10
15.5678583582
 20
11.9317499164
 30
0.0
 10
15.5567241728
 20
11.9477357444
 30
0.0
  0
SPLINE
  5
523
100
AcDbEntity
  8
0
100
AcDbSpline
 62
7
  6
CONTINUOUS
 70
0
 71
3
 72
9
 73
5
 74
0
 42
0.0000001
 43
0.0000001
 44
0.0000000001
 40
0.0
 40
0.0
 40
0.0
 40
0.0
 40
0.2438551171
 40
1.0
 40
1.0
 40
1.0
 40
1.0
 10
15.5567241728
 20
11.9477357444
 30
0.0
 10
15.5533349259
 20
11.9526018318
 30
0.0
 10
15.539126629
 20
11.9723400875
 30
0.0
 10
15.523724306
 20
11.9912112503
 30
0.0
 10
15.5115461381
 20
12.0049883714
 30
0.0
  0
SPLINE
  5
524
100
AcDbEntity
  8
0
100
AcDbSpline
 62
7
  6
CONTINUOUS
 70
0
 71
3
 72
23
 73
19
 74
0
 42
0.0000001
 43
0.0000001
 44
0.0000000001
 40
0.0
 40
0.0
 40
0.0
 40
0.0
 40
0.0562578542
 40
0.1154013307
 40
0.1771228447
 40
0.2410408458
 40
0.3067165794
 40
0.373659351
 40
0.4413494917
 40
0.5092490785
 40
0.5768155088
 40
0.6435140641
 40
0.7088304303
 40
0.7722867613
 40
0.833451927
 40
0.8919624105
 40
0.9475377875
 40
1.0
 40
1.0
 40
1.0
 40
1.0
 10
15.5073121335
 20
12.0097347838
 30
0.0
 10
15.4916891424
 20
12.0270904389
 30
0.0
 10
15.4578739127
 20
12.0611288903
 30
0.0
 10
15.4017110856
 20
12.1086918737
 30
0.0
 10
15.3394165531
 20
12.1535655215
 30
0.0
 10
15.2717313551
 20
12.1952211267
 30
0.0
 10
15.1994467051
 20
12.2331667033
 30
0.0
 10
15.1234175744
 20
12.2669603946
 30
0.0
 10
15.0445407771
 20
12.2962019709
 30
0.0
 10
14.9637465321
 20
12.3205418424
 30
0.0
 10
14.8819911642
 20
12.3397000377
 30
0.0
 10
14.8002383157
 20
12.353444386
 30
0.0
 10
14.7194527264
 20
12.3616137751
 30
0.0
 10
14.6405858516
 20
12.3641162341
 30
0.0
 10
14.564564699
 20
12.3609133196
 30
0.0
 10
14.4922764254
 20
12.352044411
 30
0.0
 10
14.424574866
 20
12.3376112511
 30
0.0
 10
14.3817522309
 20
12.3239711288
 30
0.0
 10
14.3614137831
 20
12.3161900298
 30
0.0
  0
SPLINE
  5
525
100
AcDbEntity
  8
0
100
AcDbSpline
 62
7
  6
CONTINUOUS
 70
0
 71
3
 72
22
 73
18
 74
0
 42
0.0000001
 43
0.0000001
 44
0.0000000001
 40
0.0
 40
0.0
 40
0.0
 40
0.0
 40
0.1431421417
 40
0.2104698482
 40
0.2751589164
 40
0.3374776416
 40
0.3977768253
 40
0.4564803117
 40
0.5140867381
 40
0.5711422251
 40
0.6282197915
 40
0.6858861546
 40
0.7446843781
 40
0.8051151965
 40
0.8676166625
 40
0.932512015
 40
1.0
 40
1.0
 40
1.0
 40
1.0
 10
14.3614137831
 20
12.3161900298
 30
0.0
 10
14.3370133233
 20
12.306854883
 30
0.0
 10
14.3019664777
 20
12.2906231619
 30
0.0
 10
14.2594415395
 20
12.2638109238
 30
0.0
 10
14.2312501934
 20
12.2421947198
 30
0.0
 10
14.206272419
 20
12.218767095
 30
0.0
 10
14.1846280731
 20
12.193644904
 30
0.0
 10
14.166447503
 20
12.1669403179
 30
0.0
 10
14.1518220396
 20
12.1387955276
 30
0.0
 10
14.1408417028
 20
12.1093522939
 30
0.0
 10
14.1335689199
 20
12.0787707739
 30
0.0
 10
14.1300287805
 20
12.0472185986
 30
0.0
 10
14.1302489772
 20
12.0148615393
 30
0.0
 10
14.1342086252
 20
11.9818641347
 30
0.0
 10
14.141890282
 20
11.948392902
 30
0.0
 10
14.1532348999
 20
11.9146279574
 30
0.0
 10
14.1629899359
 20
11.8924838023
 30
0.0
 10
14.1684162761
 20
11.8814260836
 30
0.0
  0
SPLINE
  5
526
100
AcDbEntity
  8
0
100
AcDbSpline
 62
7
  6
CONTINUOUS
 70
0
 71
3
 72
13
 73
9
 74
0
 42
0.0000001
 43
0.0000001
 44
0.0000000001
 40
0.0
 40
0.0
 40
0.0
 40
0.0
 40
0.1164649857
 40
0.2401256029
 40
0.4999357166
 40
0.7597036059
 40
0.8834497481
 40
1.0
 40
1.0
 40
1.0
 40
1.0
 10
14.3852099392
 20
13.4088096766
 30
0.0
 10
14.388068044
 20
13.4095468099
 30
0.0
 10
14.3938528966
 20
13.4115081051
 30
0.0
 10
14.405267863
 20
13.4170636977
 30
0.0
 10
14.4186076874
 20
13.4266639732
 30
0.0
 10
14.4297251584
 20
13.4387715972
 30
0.0
 10
14.4365959747
 20
13.4494507602
 30
0.0
 10
14.4392301846
 20
13.4549665707
 30
0.0
 10
14.440302172
 20
13.4577189756
 30
0.0
  0
SPLINE
  5
527
100
AcDbEntity
  8
0
100
AcDbSpline
 62
7
  6
CONTINUOUS
 70
0
 71
3
 72
14
 73
10
 74
0
 42
0.0000001
 43
0.0000001
 44
0.0000000001
 40
0.0
 40
0.0
 40
0.0
 40
0.0
 40
0.271271332
 40
0.4002872662
 40
0.5253384776
 40
0.6470562857
 40
0.7661827559
 40
0.8835399019
 40
1.0
 40
1.0
 40
1.0
 40
1.0
 10
14.2841245635
 20
11.8814260836
 30
0.0
 10
14.276250177
 20
11.8974723961
 30
0.0
 10
14.2662900437
 20
11.922055277
 30
0.0
 10
14.2575240948
 20
11.9555783078
 30
0.0
 10
14.2534596962
 20
11.9800419165
 30
0.0
 10
14.2518119754
 20
12.0041333376
 30
0.0
 10
14.2525887261
 20
12.0277655191
 30
0.0
 10
14.2557962657
 20
12.0508412237
 30
0.0
 10
14.2595493329
 20
12.065819913
 30
0.0
 10
14.2618142372
 20
12.0731517003
 30
0.0
  0
SPLINE
  5
528
100
AcDbEntity
  8
0
100
AcDbSpline
 62
7
  6
CONTINUOUS
 70
0
 71
3
 72
40
 73
36
 74
0
 42
0.0000001
 43
0.0000001
 44
0.0000000001
 40
0.0
 40
0.0
 40
0.0
 40
0.0
 40
0.0265226592
 40
0.0543700929
 40
0.0835317863
 40
0.1139861008
 40
0.1456883619
 40
0.1785577874
 40
0.2124929498
 40
0.2473732206
 40
0.2830650343
 40
0.3194200558
 40
0.3562816629
 40
0.3934850024
 40
0.4308612902
 40
0.4682389467
 40
0.5054463853
 40
0.5423147245
 40
0.5786790244
 40
0.6143826196
 40
0.6492770508
 40
0.6832280922
 40
0.7161147184
 40
0.7478368488
 40
0.7783138694
 40
0.8074940577
 40
0.8353532784
 40
0.8619057317
 40
0.8872030619
 40
0.8994151883
 40
0.9113545777
 40
0.9344862764
 40
0.9568047295
 40
0.9785502109
 40
1.0
 40
1.0
 40
1.0
 40
1.0
 10
15.6542171827
 20
11.9205924291
 30
0.0
 10
15.6471130957
 20
11.9350690363
 30
0.0
 10
15.6310389749
 20
11.9640214085
 30
0.0
 10
15.6024986258
 20
12.0060999791
 30
0.0
 10
15.5691308212
 20
12.0475762925
 30
0.0
 10
15.5311837017
 20
12.0881695362
 30
0.0
 10
15.4889055756
 20
12.1276082015
 30
0.0
 10
15.4425891927
 20
12.1656387068
 30
0.0
 10
15.3925406791
 20
12.2019924311
 30
0.0
 10
15.339107175
 20
12.2364337357
 30
0.0
 10
15.2826454512
 20
12.2687196206
 30
0.0
 10
15.2235443173
 20
12.298641282
 30
0.0
 10
15.1622007116
 20
12.3259847696
 30
0.0
 10
15.0990363385
 20
12.350574567
 30
0.0
 10
15.0344770839
 20
12.372232916
 30
0.0
 10
14.9689657916
 20
12.3908229973
 30
0.0
 10
14.9029452206
 20
12.4062075635
 30
0.0
 10
14.8368673008
 20
12.4182928082
 30
0.0
 10
14.7711792173
 20
12.4269854321
 30
0.0
 10
14.7063293733
 20
12.4322375895
 30
0.0
 10
14.6427568984
 20
12.4340018079
 30
0.0
 10
14.5808939872
 20
12.432277684
 30
0.0
 10
14.5211595884
 20
12.4270638827
 30
0.0
 10
14.4639573285
 20
12.4184071613
 30
0.0
 10
14.4096747597
 20
12.4063507263
 30
0.0
 10
14.3586758938
 20
12.3909861866
 30
0.0
 10
14.3113070754
 20
12.3723971224
 30
0.0
 10
14.2678872494
 20
12.3507174307
 30
0.0
 10
14.2348574723
 20
12.3299303442
 30
0.0
 10
14.210800926
 20
12.3118734216
 30
0.0
 10
14.1888155896
 20
12.2933305856
 30
0.0
 10
14.1641647564
 20
12.2685015719
 30
0.0
 10
14.1392652967
 20
12.2359585963
 30
0.0
 10
14.1195658719
 20
12.2011942554
 30
0.0
 10
14.1099698487
 20
12.176631678
 30
0.0
 10
14.1061196764
 20
12.1641715074
 30
0.0
  0
SPLINE
  5
529
100
AcDbEntity
  8
0
100
AcDbSpline
 62
7
  6
CONTINUOUS
 70
0
 71
3
 72
9
 73
5
 74
0
 42
0.0000001
 43
0.0000001
 44
0.0000000001
 40
0.0
 40
0.0
 40
0.0
 40
0.0
 40
0.2573043753
 40
1.0
 40
1.0
 40
1.0
 40
1.0
 10
14.5402425074
 20
12.5214463711
 30
0.0
 10
14.5403925817
 20
12.5221618446
 30
0.0
 10
14.5409163875
 20
12.5249543425
 30
0.0
 10
14.5411958939
 20
12.5277949223
 30
0.0
 10
14.5412388364
 20
12.5299046041
 30
0.0
  0
SPLINE
  5
52A
100
AcDbEntity
  8
0
100
AcDbSpline
 62
7
  6
CONTINUOUS
 70
0
 71
3
 72
9
 73
5
 74
0
 42
0.0000001
 43
0.0000001
 44
0.0000000001
 40
0.0
 40
0.0
 40
0.0
 40
0.0
 40
0.2601571531
 40
1.0
 40
1.0
 40
1.0
 40
1.0
 10
14.5412388364
 20
12.5299046041
 30
0.0
 10
14.5412586633
 20
12.5308786653
 30
0.0
 10
14.5412007009
 20
12.5346231181
 30
0.0
 10
14.5405771636
 20
12.538368029
 30
0.0
 10
14.5397563613
 20
12.5410142947
 30
0.0
  0
SPLINE
  5
52B
100
AcDbEntity
  8
0
100
AcDbSpline
 62
7
  6
CONTINUOUS
 70
0
 71
3
 72
11
 73
7
 74
0
 42
0.0000001
 43
0.0000001
 44
0.0000000001
 40
0.0
 40
0.0
 40
0.0
 40
0.0
 40
0.2707731213
 40
0.5275545119
 40
0.7699989877
 40
1.0
 40
1.0
 40
1.0
 40
1.0
 10
15.9105043757
 20
12.5108085439
 30
0.0
 10
15.8964721674
 20
12.5108085439
 30
0.0
 10
15.8690786265
 20
12.5127643456
 30
0.0
 10
15.8300618225
 20
12.5219955128
 30
0.0
 10
15.7952501513
 20
12.537254216
 30
0.0
 10
15.7750872823
 20
12.5515309248
 30
0.0
 10
15.7662087757
 20
12.5594833763
 30
0.0
  0
SPLINE
  5
52C
100
AcDbEntity
  8
0
100
AcDbSpline
 62
7
  6
CONTINUOUS
 70
0
 71
3
 72
10
 73
6
 74
0
 42
0.0000001
 43
0.0000001
 44
0.0000000001
 40
0.0
 40
0.0
 40
0.0
 40
0.0
 40
0.5041618166
 40
0.7526499902
 40
1.0
 40
1.0
 40
1.0
 40
1.0
 10
15.7662087757
 20
12.5594833763
 30
0.0
 10
15.7591623165
 20
12.5657948684
 30
0.0
 10
15.7494653403
 20
12.5762148858
 30
0.0
 10
15.738803895
 20
12.5916793604
 30
0.0
 10
15.7342909652
 20
12.5998369931
 30
0.0
 10
15.7322467561
 20
12.6040036759
 30
0.0
  0
SPLINE
  5
52D
100
AcDbEntity
  8
0
100
AcDbSpline
 62
7
  6
CONTINUOUS
 70
0
 71
3
 72
18
 73
14
 74
0
 42
0.0000001
 43
0.0000001
 44
0.0000000001
 40
0.0
 40
0.0
 40
0.0
 40
0.0
 40
0.0511083689
 40
0.1028160592
 40
0.1556725567
 40
0.2101356568
 40
0.2665437101
 40
0.3251086577
 40
0.4487391485
 40
0.5805613689
 40
0.7184650081
 40
0.8594325772
 40
1.0
 40
1.0
 40
1.0
 40
1.0
 10
16.3548668495
 20
13.2787290355
 30
0.0
 10
16.3581527478
 20
13.2720314349
 30
0.0
 10
16.3637058442
 20
13.2580091585
 30
0.0
 10
16.3686783079
 20
13.2357482917
 30
0.0
 10
16.3702776058
 20
13.2125046338
 30
0.0
 10
16.3684801406
 20
13.1885967412
 30
0.0
 10
16.3633363841
 20
13.1643333222
 30
0.0
 10
16.3519071006
 20
13.1313531062
 30
0.0
 10
16.3293819405
 20
13.0909817957
 30
0.0
 10
16.2918481849
 20
13.0471114324
 30
0.0
 10
16.2452169866
 20
13.0089621199
 30
0.0
 10
16.1918509012
 20
12.9784301001
 30
0.0
 10
16.1531355536
 20
12.963996858
 30
0.0
 10
16.1333703476
 20
12.9584883478
 30
0.0
  0
SPLINE
  5
52E
100
AcDbEntity
  8
0
100
AcDbSpline
 62
7
  6
CONTINUOUS
 70
0
 71
3
 72
13
 73
9
 74
0
 42
0.0000001
 43
0.0000001
 44
0.0000000001
 40
0.0
 40
0.0
 40
0.0
 40
0.0
 40
0.1196980358
 40
0.2428785337
 40
0.495546694
 40
0.7505515712
 40
0.8765483809
 40
1.0
 40
1.0
 40
1.0
 40
1.0
 10
15.9861216092
 20
13.1124420404
 30
0.0
 10
15.9957306297
 20
13.1124420404
 30
0.0
 10
16.0152430504
 20
13.1135472085
 30
0.0
 10
16.0545682343
 20
13.1199138203
 30
0.0
 10
16.1031153558
 20
13.1354706559
 30
0.0
 10
16.1481173404
 20
13.1598668368
 30
0.0
 10
16.1806303728
 20
13.1840946987
 30
0.0
 10
16.1954641837
 20
13.1976092264
 30
0.0
 10
16.2024290399
 20
13.204659458
 30
0.0
  0
SPLINE
  5
52F
100
AcDbEntity
  8
0
100
AcDbSpline
 62
7
  6
CONTINUOUS
 70
0
 71
3
 72
15
 73
11
 74
0
 42
0.0000001
 43
0.0000001
 44
0.0000000001
 40
0.0
 40
0.0
 40
0.0
 40
0.0
 40
0.1133561023
 40
0.2275816101
 40
0.3442067196
 40
0.4647225938
 40
0.5901546602
 40
0.7211133369
 40
0.8578649508
 40
1.0
 40
1.0
 40
1.0
 40
1.0
 10
15.8268088533
 20
13.204659458
 30
0.0
 10
15.8293773004
 20
13.1977147746
 30
0.0
 10
15.8358168439
 20
13.1842089796
 30
0.0
 10
15.8490676858
 20
13.1659020023
 30
0.0
 10
15.8656705268
 20
13.1498887554
 30
0.0
 10
15.8852971297
 20
13.1364531011
 30
0.0
 10
15.9075889358
 20
13.1257933825
 30
0.0
 10
15.9321677915
 20
13.1180826314
 30
0.0
 10
15.9586007001
 20
13.1134403532
 30
0.0
 10
15.9768373389
 20
13.1124420404
 30
0.0
 10
15.9861216092
 20
13.1124420404
 30
0.0
  0
SPLINE
  5
530
100
AcDbEntity
  8
0
100
AcDbSpline
 62
7
  6
CONTINUOUS
 70
0
 71
3
 72
9
 73
5
 74
0
 42
0.0000001
 43
0.0000001
 44
0.0000000001
 40
0.0
 40
0.0
 40
0.0
 40
0.0
 40
0.4968442925
 40
1.0
 40
1.0
 40
1.0
 40
1.0
 10
15.8514753958
 20
13.0702655197
 30
0.0
 10
15.8548655632
 20
13.0633539649
 30
0.0
 10
15.8628460637
 20
13.0499823104
 30
0.0
 10
15.8728742577
 20
13.0380753652
 30
0.0
 10
15.878340848
 20
13.0325170911
 30
0.0
  0
SPLINE
  5
531
100
AcDbEntity
  8
0
100
AcDbSpline
 62
7
  6
CONTINUOUS
 70
0
 71
3
 72
14
 73
10
 74
0
 42
0.0000001
 43
0.0000001
 44
0.0000000001
 40
0.0
 40
0.0
 40
0.0
 40
0.0
 40
0.1423036394
 40
0.2800271632
 40
0.5387645294
 40
0.66028788
 40
0.7769621289
 40
0.8898062407
 40
1.0
 40
1.0
 40
1.0
 40
1.0
 10
15.8838035281
 20
13.3890942933
 30
0.0
 10
15.8770243507
 20
13.3822320165
 30
0.0
 10
15.8643620411
 20
13.3680258284
 30
0.0
 10
15.8431601971
 20
13.3382415431
 30
0.0
 10
15.8278490758
 20
13.3061212338
 30
0.0
 10
15.8201072371
 20
13.2732295752
 30
0.0
 10
15.8182418039
 20
13.249401584
 30
0.0
 10
15.8202652471
 20
13.2263570504
 30
0.0
 10
15.8242178148
 20
13.2116652249
 30
0.0
 10
15.8268088533
 20
13.204659458
 30
0.0
  0
SPLINE
  5
532
100
AcDbEntity
  8
0
100
AcDbSpline
 62
7
  6
CONTINUOUS
 70
0
 71
3
 72
11
 73
7
 74
0
 42
0.0000001
 43
0.0000001
 44
0.0000000001
 40
0.0
 40
0.0
 40
0.0
 40
0.0
 40
0.2414617884
 40
0.4898069621
 40
0.7433130789
 40
1.0
 40
1.0
 40
1.0
 40
1.0
 10
15.8952522824
 20
12.5418890423
 30
0.0
 10
15.9063504814
 20
12.5418890423
 30
0.0
 10
15.92887886
 20
12.5431630925
 30
0.0
 10
15.9626593188
 20
12.548633279
 30
0.0
 10
15.9964037478
 20
12.5576101835
 30
0.0
 10
16.0184232539
 20
12.5657943557
 30
0.0
 10
16.0292761181
 20
12.5704212107
 30
0.0
  0
SPLINE
  5
533
100
AcDbEntity
  8
0
100
AcDbSpline
 62
7
  6
CONTINUOUS
 70
0
 71
3
 72
11
 73
7
 74
0
 42
0.0000001
 43
0.0000001
 44
0.0000000001
 40
0.0
 40
0.0
 40
0.0
 40
0.0
 40
0.2343146235
 40
0.4790146443
 40
0.734399347
 40
1.0
 40
1.0
 40
1.0
 40
1.0
 10
15.7788626604
 20
12.5704212107
 30
0.0
 10
15.7870500858
 20
12.5656819591
 30
0.0
 10
15.8045755153
 20
12.5573063055
 30
0.0
 10
15.8329478641
 20
12.5484027741
 30
0.0
 10
15.8634723238
 20
12.5430395655
 30
0.0
 10
15.8845289992
 20
12.5418890423
 30
0.0
 10
15.8952522824
 20
12.5418890423
 30
0.0
  0
SPLINE
  5
534
100
AcDbEntity
  8
0
100
AcDbSpline
 62
7
  6
CONTINUOUS
 70
0
 71
3
 72
15
 73
11
 74
0
 42
0.0000001
 43
0.0000001
 44
0.0000000001
 40
0.0
 40
0.0
 40
0.0
 40
0.0
 40
0.1133561023
 40
0.2275816101
 40
0.3442067196
 40
0.4647225938
 40
0.5901546602
 40
0.7211133369
 40
0.8578649508
 40
1.0
 40
1.0
 40
1.0
 40
1.0
 10
14.1102813954
 20
13.3890942933
 30
0.0
 10
14.1077129482
 20
13.3960389767
 30
0.0
 10
14.1012734047
 20
13.4095447717
 30
0.0
 10
14.0880225629
 20
13.427851749
 30
0.0
 10
14.0714197219
 20
13.4438649959
 30
0.0
 10
14.0517931189
 20
13.4573006502
 30
0.0
 10
14.0295013129
 20
13.4679603689
 30
0.0
 10
14.0049224571
 20
13.4756711199
 30
0.0
 10
13.9784895486
 20
13.4803133981
 30
0.0
 10
13.9602529097
 20
13.4813117109
 30
0.0
 10
13.9509686394
 20
13.4813117109
 30
0.0
  0
SPLINE
  5
535
100
AcDbEntity
  8
0
100
AcDbSpline
 62
7
  6
CONTINUOUS
 70
0
 71
3
 72
9
 73
5
 74
0
 42
0.0000001
 43
0.0000001
 44
0.0000000001
 40
0.0
 40
0.0
 40
0.0
 40
0.0
 40
0.5038314287
 40
1.0
 40
1.0
 40
1.0
 40
1.0
 10
14.1175571671
 20
13.3571405519
 30
0.0
 10
14.1170209132
 20
13.3626295829
 30
0.0
 10
14.1152820182
 20
13.3734700484
 30
0.0
 10
14.1121653981
 20
13.3840002414
 30
0.0
 10
14.1102813954
 20
13.3890942933
 30
0.0
  0
SPLINE
  5
536
100
AcDbEntity
  8
0
100
AcDbSpline
 62
7
  6
CONTINUOUS
 70
0
 71
3
 72
11
 73
7
 74
0
 42
0.0000001
 43
0.0000001
 44
0.0000000001
 40
0.0
 40
0.0
 40
0.0
 40
0.0
 40
0.2408950114
 40
0.4908410034
 40
0.7454887491
 40
1.0
 40
1.0
 40
1.0
 40
1.0
 10
13.8369792898
 20
13.1124420404
 30
0.0
 10
13.8518253746
 20
13.1124420404
 30
0.0
 10
13.8821190093
 20
13.1150796921
 30
0.0
 10
13.9268860501
 20
13.1261136765
 30
0.0
 10
13.9703392329
 20
13.1438675465
 30
0.0
 10
13.9975003682
 20
13.1598392374
 30
0.0
 10
14.0103963275
 20
13.1687678949
 30
0.0
  0
SPLINE
  5
537
100
AcDbEntity
  8
0
100
AcDbSpline
 62
7
  6
CONTINUOUS
 70
0
 71
3
 72
15
 73
11
 74
0
 42
0.0000001
 43
0.0000001
 44
0.0000000001
 40
0.0
 40
0.0
 40
0.0
 40
0.0
 40
0.1133561023
 40
0.2275816101
 40
0.3442067196
 40
0.4647225938
 40
0.5901546602
 40
0.7211133369
 40
0.8578649508
 40
1.0
 40
1.0
 40
1.0
 40
1.0
 10
13.6776665339
 20
13.204659458
 30
0.0
 10
13.6802349811
 20
13.1977147746
 30
0.0
 10
13.6866745246
 20
13.1842089796
 30
0.0
 10
13.6999253664
 20
13.1659020023
 30
0.0
 10
13.7165282074
 20
13.1498887554
 30
0.0
 10
13.7361548104
 20
13.1364531011
 30
0.0
 10
13.7584466164
 20
13.1257933825
 30
0.0
 10
13.7830254722
 20
13.1180826314
 30
0.0
 10
13.8094583807
 20
13.1134403532
 30
0.0
 10
13.8276950196
 20
13.1124420404
 30
0.0
 10
13.8369792898
 20
13.1124420404
 30
0.0
  0
SPLINE
  5
538
100
AcDbEntity
  8
0
100
AcDbSpline
 62
7
  6
CONTINUOUS
 70
0
 71
3
 72
14
 73
10
 74
0
 42
0.0000001
 43
0.0000001
 44
0.0000000001
 40
0.0
 40
0.0
 40
0.0
 40
0.0
 40
0.1387516041
 40
0.2741173718
 40
0.5322800996
 40
0.6551254579
 40
0.7737930393
 40
0.8885630512
 40
1.0
 40
1.0
 40
1.0
 40
1.0
 10
13.7346612087
 20
13.3890942933
 30
0.0
 10
13.7292211729
 20
13.3835875733
 30
0.0
 10
13.7189152503
 20
13.3722565949
 30
0.0
 10
13.7008931517
 20
13.3486290141
 30
0.0
 10
13.6865688722
 20
13.323377185
 30
0.0
 10
13.6768206297
 20
13.2972121362
 30
0.0
 10
13.6719931843
 20
13.277882514
 30
0.0
 10
13.6696051499
 20
13.2587446038
 30
0.0
 10
13.6696579556
 20
13.2460812605
 30
0.0
 10
13.670111679
 20
13.2398809996
 30
0.0
  0
SPLINE
  5
539
100
AcDbEntity
  8
0
100
AcDbSpline
 62
7
  6
CONTINUOUS
 70
0
 71
3
 72
9
 73
5
 74
0
 42
0.0000001
 43
0.0000001
 44
0.0000000001
 40
0.0
 40
0.0
 40
0.0
 40
0.0
 40
0.5035874906
 40
1.0
 40
1.0
 40
1.0
 40
1.0
 10
13.6705543459
 20
13.2350354169
 30
0.0
 10
13.6711263786
 20
13.2298199635
 30
0.0
 10
13.672875185
 20
13.2195203935
 30
0.0
 10
13.6758724794
 20
13.2095103037
 30
0.0
 10
13.6776665339
 20
13.204659458
 30
0.0
  0
SPLINE
  5
53A
100
AcDbEntity
  8
0
100
AcDbSpline
 62
7
  6
CONTINUOUS
 70
0
 71
3
 72
13
 73
9
 74
0
 42
0.0000001
 43
0.0000001
 44
0.0000000001
 40
0.0
 40
0.0
 40
0.0
 40
0.0
 40
0.1196980358
 40
0.2428785337
 40
0.495546694
 40
0.7505515712
 40
0.8765483809
 40
1.0
 40
1.0
 40
1.0
 40
1.0
 10
13.9509686394
 20
13.4813117109
 30
0.0
 10
13.941359619
 20
13.4813117109
 30
0.0
 10
13.9218471982
 20
13.4802065428
 30
0.0
 10
13.8825220143
 20
13.473839931
 30
0.0
 10
13.8339748928
 20
13.4582830954
 30
0.0
 10
13.7889729082
 20
13.4338869145
 30
0.0
 10
13.7564598758
 20
13.4096590526
 30
0.0
 10
13.7416260649
 20
13.396144525
 30
0.0
 10
13.7346612087
 20
13.3890942933
 30
0.0
  0
SPLINE
  5
53B
100
AcDbEntity
  8
0
100
AcDbSpline
 62
7
  6
CONTINUOUS
 70
0
 71
3
 72
10
 73
6
 74
0
 42
0.0000001
 43
0.0000001
 44
0.0000000001
 40
0.0
 40
0.0
 40
0.0
 40
0.0
 40
0.4044535125
 40
0.6759104648
 40
1.0
 40
1.0
 40
1.0
 40
1.0
 10
14.087286318
 20
13.458669976
 30
0.0
 10
14.0898410732
 20
13.4491240904
 30
0.0
 10
14.0946890746
 20
13.4333263703
 30
0.0
 10
14.1025803171
 20
13.4102035735
 30
0.0
 10
14.1075346827
 20
13.3965209791
 30
0.0
 10
14.1102813954
 20
13.3890942933
 30
0.0
  0
SPLINE
  5
53C
100
AcDbEntity
  8
0
100
AcDbSpline
 62
7
  6
CONTINUOUS
 70
0
 71
3
 72
9
 73
5
 74
0
 42
0.0000001
 43
0.0000001
 44
0.0000000001
 40
0.0
 40
0.0
 40
0.0
 40
0.0
 40
0.4995067879
 40
1.0
 40
1.0
 40
1.0
 40
1.0
 10
14.0151431727
 20
13.1589647762
 30
0.0
 10
14.0073204203
 20
13.1480020027
 30
0.0
 10
13.9926467199
 20
13.1253426575
 30
0.0
 10
13.9795536557
 20
13.1017564252
 30
0.0
 10
13.9732969684
 20
13.0898003055
 30
0.0
  0
SPLINE
  5
53D
100
AcDbEntity
  8
0
100
AcDbSpline
 62
7
  6
CONTINUOUS
 70
0
 71
3
 72
12
 73
8
 74
0
 42
0.0000001
 43
0.0000001
 44
0.0000000001
 40
0.0
 40
0.0
 40
0.0
 40
0.0
 40
0.2719536395
 40
0.4021523688
 40
0.52840646
 40
0.7702030783
 40
1.0
 40
1.0
 40
1.0
 40
1.0
 10
13.8369792898
 20
13.1124420404
 30
0.0
 10
13.8263698493
 20
13.1124420404
 30
0.0
 10
13.8106626272
 20
13.1116524827
 30
0.0
 10
13.7902182699
 20
13.1089555835
 30
0.0
 10
13.7711008421
 20
13.1053967743
 30
0.0
 10
13.7485152661
 20
13.0994290745
 30
0.0
 10
13.7311944445
 20
13.093161327
 30
0.0
 10
13.7228835107
 20
13.0898003055
 30
0.0
  0
SPLINE
  5
53E
100
AcDbEntity
  8
0
100
AcDbSpline
 62
7
  6
CONTINUOUS
 70
0
 71
3
 72
11
 73
7
 74
0
 42
0.0000001
 43
0.0000001
 44
0.0000000001
 40
0.0
 40
0.0
 40
0.0
 40
0.0
 40
0.2555803364
 40
0.5093739105
 40
0.7587408605
 40
1.0
 40
1.0
 40
1.0
 40
1.0
 10
13.9732969684
 20
13.0898003055
 30
0.0
 10
13.9619539424
 20
13.0930841434
 30
0.0
 10
13.9392131319
 20
13.0991822979
 30
0.0
 10
13.9048975146
 20
13.1064576956
 30
0.0
 10
13.8708056945
 20
13.1112520177
 30
0.0
 10
13.8481263981
 20
13.1124420404
 30
0.0
 10
13.8369792898
 20
13.1124420404
 30
0.0
  0
SPLINE
  5
53F
100
AcDbEntity
  8
0
100
AcDbSpline
 62
7
  6
CONTINUOUS
 70
0
 71
3
 72
13
 73
9
 74
0
 42
0.0000001
 43
0.0000001
 44
0.0000000001
 40
0.0
 40
0.0
 40
0.0
 40
0.0
 40
0.1196980358
 40
0.2428785337
 40
0.495546694
 40
0.7505515712
 40
0.8765483809
 40
1.0
 40
1.0
 40
1.0
 40
1.0
 10
16.1001109588
 20
13.4813117109
 30
0.0
 10
16.0905019383
 20
13.4813117109
 30
0.0
 10
16.0709895176
 20
13.4802065428
 30
0.0
 10
16.0316643337
 20
13.473839931
 30
0.0
 10
15.9831172122
 20
13.4582830954
 30
0.0
 10
15.9381152276
 20
13.4338869145
 30
0.0
 10
15.9056021952
 20
13.4096590526
 30
0.0
 10
15.8907683843
 20
13.396144525
 30
0.0
 10
15.8838035281
 20
13.3890942933
 30
0.0
  0
SPLINE
  5
540
100
AcDbEntity
  8
0
100
AcDbSpline
 62
7
  6
CONTINUOUS
 70
0
 71
3
 72
20
 73
16
 74
0
 42
0.0000001
 43
0.0000001
 44
0.0000000001
 40
0.0
 40
0.0
 40
0.0
 40
0.0
 40
0.1759297331
 40
0.3345341336
 40
0.474323271
 40
0.536934107
 40
0.5946748049
 40
0.6478663908
 40
0.6971888685
 40
0.7437083692
 40
0.7889923342
 40
0.8350942191
 40
0.8842969628
 40
0.9386752315
 40
1.0
 40
1.0
 40
1.0
 40
1.0
 10
14.0921313773
 20
13.549425863
 30
0.0
 10
14.0948099343
 20
13.555020151
 30
0.0
 10
14.1003673133
 20
13.5654490436
 30
0.0
 10
14.1097939394
 20
13.5793027732
 30
0.0
 10
14.1183754403
 20
13.5887903699
 30
0.0
 10
14.1254653699
 20
13.5946330162
 30
0.0
 10
14.1306133867
 20
13.5979689566
 30
0.0
 10
14.1357538346
 20
13.600366042
 30
0.0
 10
14.1408514188
 20
13.6017583487
 30
0.0
 10
14.1458556279
 20
13.6020822195
 30
0.0
 10
14.150696545
 20
13.6012645301
 30
0.0
 10
14.155278034
 20
13.5992452429
 30
0.0
 10
14.1594995883
 20
13.5960035122
 30
0.0
 10
14.1632885699
 20
13.5915472722
 30
0.0
 10
14.1653467156
 20
13.5880011173
 30
0.0
 10
14.1662997192
 20
13.5860604573
 30
0.0
  0
SPLINE
  5
541
100
AcDbEntity
  8
0
100
AcDbSpline
 62
7
  6
CONTINUOUS
 70
0
 71
3
 72
10
 73
6
 74
0
 42
0.0000001
 43
0.0000001
 44
0.0000000001
 40
0.0
 40
0.0
 40
0.0
 40
0.0
 40
0.286319027
 40
0.5501407854
 40
1.0
 40
1.0
 40
1.0
 40
1.0
 10
14.7068734634
 20
11.2977318647
 30
0.0
 10
14.7017913763
 20
11.2977318647
 30
0.0
 10
14.6919963266
 20
11.2971378884
 30
0.0
 10
14.6746167396
 20
11.2935915916
 30
0.0
 10
14.6627117075
 20
11.2879318147
 30
0.0
 10
14.6567377822
 20
11.2826336492
 30
0.0
  0
SPLINE
  5
542
100
AcDbEntity
  8
0
100
AcDbSpline
 62
7
  6
CONTINUOUS
 70
0
 71
3
 72
9
 73
5
 74
0
 42
0.0000001
 43
0.0000001
 44
0.0000000001
 40
0.0
 40
0.0
 40
0.0
 40
0.0
 40
0.5101178277
 40
1.0
 40
1.0
 40
1.0
 40
1.0
 10
14.654894778
 20
11.2808913381
 30
0.0
 10
14.6530070498
 20
11.2789865782
 30
0.0
 10
14.6496879807
 20
11.2748423634
 30
0.0
 10
14.6474740203
 20
11.2700037834
 30
0.0
 10
14.6467136515
 20
11.2675432507
 30
0.0
  0
SPLINE
  5
543
100
AcDbEntity
  8
0
100
AcDbSpline
 62
7
  6
CONTINUOUS
 70
0
 71
3
 72
13
 73
9
 74
0
 42
0.0000001
 43
0.0000001
 44
0.0000000001
 40
0.0
 40
0.0
 40
0.0
 40
0.0
 40
0.1332484884
 40
0.2661299417
 40
0.5257906348
 40
0.6510884644
 40
0.7722388719
 40
1.0
 40
1.0
 40
1.0
 40
1.0
 10
16.0292761181
 20
12.5704212107
 30
0.0
 10
16.0401765975
 20
12.5750683652
 30
0.0
 10
16.0615233988
 20
12.585391861
 30
0.0
 10
16.1015606684
 20
12.6096301585
 30
0.0
 10
16.1374611449
 20
12.639043742
 30
0.0
 10
16.1674734588
 20
12.6726948567
 30
0.0
 10
16.1919509786
 20
12.7070913464
 30
0.0
 10
16.205497367
 20
12.7355042581
 30
0.0
 10
16.2114775218
 20
12.7548560459
 30
0.0
  0
SPLINE
  5
544
100
AcDbEntity
  8
0
100
AcDbSpline
 62
7
  6
CONTINUOUS
 70
0
 71
3
 72
11
 73
7
 74
0
 42
0.0000001
 43
0.0000001
 44
0.0000000001
 40
0.0
 40
0.0
 40
0.0
 40
0.0
 40
0.2207880398
 40
0.4503546522
 40
0.705206557
 40
1.0
 40
1.0
 40
1.0
 40
1.0
 10
14.0115710747
 20
13.166688276
 30
0.0
 10
14.0135483787
 20
13.1665702267
 30
0.0
 10
14.0175754739
 20
13.1657361756
 30
0.0
 10
14.0231648795
 20
13.162579433
 30
0.0
 10
14.0280994406
 20
13.1575187383
 30
0.0
 10
14.0306533185
 20
13.1532535007
 30
0.0
 10
14.0318182574
 20
13.1508791082
 30
0.0
  0
SPLINE
  5
545
100
AcDbEntity
  8
0
100
AcDbSpline
 62
7
  6
CONTINUOUS
 70
0
 71
3
 72
15
 73
11
 74
0
 42
0.0000001
 43
0.0000001
 44
0.0000000001
 40
0.0
 40
0.0
 40
0.0
 40
0.0
 40
0.1002313829
 40
0.2118978032
 40
0.3337742674
 40
0.4637217067
 40
0.5987484672
 40
0.7354307179
 40
0.8703684713
 40
1.0
 40
1.0
 40
1.0
 40
1.0
 10
14.820287978
 20
11.2402329426
 30
0.0
 10
14.8183357116
 20
11.2442112432
 30
0.0
 10
14.8131657078
 20
11.2521224889
 30
0.0
 10
14.8029274164
 20
11.2628334385
 30
0.0
 10
14.7901567914
 20
11.2726783142
 30
0.0
 10
14.775336382
 20
11.2813007909
 30
0.0
 10
14.7590088158
 20
11.2883816065
 30
0.0
 10
14.7417835509
 20
11.2936633519
 30
0.0
 10
14.7243115079
 20
11.2969386658
 30
0.0
 10
14.7126048271
 20
11.2977318647
 30
0.0
 10
14.7068734634
 20
11.2977318647
 30
0.0
  0
SPLINE
  5
546
100
AcDbEntity
  8
0
100
AcDbSpline
 62
7
  6
CONTINUOUS
 70
0
 71
3
 72
11
 73
7
 74
0
 42
0.0000001
 43
0.0000001
 44
0.0000000001
 40
0.0
 40
0.0
 40
0.0
 40
0.0
 40
0.2643564574
 40
0.5171071596
 40
0.760909464
 40
1.0
 40
1.0
 40
1.0
 40
1.0
 10
16.2114775218
 20
12.7548560459
 30
0.0
 10
16.2146700157
 20
12.7651869599
 30
0.0
 10
16.2193438007
 20
12.7859340829
 30
0.0
 10
16.2207571254
 20
12.8171989894
 30
0.0
 10
16.2163088499
 20
12.8471520251
 30
0.0
 10
16.2094407413
 20
12.8658480559
 30
0.0
 10
16.205134023
 20
12.8746281885
 30
0.0
  0
SPLINE
  5
547
100
AcDbEntity
  8
0
100
AcDbSpline
 62
7
  6
CONTINUOUS
 70
0
 71
3
 72
11
 73
7
 74
0
 42
0.0000001
 43
0.0000001
 44
0.0000000001
 40
0.0
 40
0.0
 40
0.0
 40
0.0
 40
0.3243501035
 40
0.5956228718
 40
0.8180414504
 40
1.0
 40
1.0
 40
1.0
 40
1.0
 10
16.1249424239
 20
12.9539126768
 30
0.0
 10
16.1221933977
 20
12.9613456181
 30
0.0
 10
16.1172361127
 20
12.975029239
 30
0.0
 10
16.1107801981
 20
12.9939470835
 30
0.0
 10
16.1058119353
 20
13.0096919362
 30
0.0
 10
16.1030967428
 20
13.0191936213
 30
0.0
 10
16.1019473466
 20
13.0234883595
 30
0.0
  0
SPLINE
  5
548
100
AcDbEntity
  8
0
100
AcDbSpline
 62
7
  6
CONTINUOUS
 70
0
 71
3
 72
14
 73
10
 74
0
 42
0.0000001
 43
0.0000001
 44
0.0000000001
 40
0.0
 40
0.0
 40
0.0
 40
0.0
 40
0.1164577145
 40
0.2338094116
 40
0.3529345271
 40
0.4746571828
 40
0.5997231098
 40
0.7287509591
 40
1.0
 40
1.0
 40
1.0
 40
1.0
 10
14.4045307741
 20
12.029048951
 30
0.0
 10
14.4027864923
 20
12.0234039332
 30
0.0
 10
14.39989522
 20
12.0118715459
 30
0.0
 10
14.3974262815
 20
11.9941042185
 30
0.0
 10
14.3968285354
 20
11.9759082951
 30
0.0
 10
14.3980963536
 20
11.9573576003
 30
0.0
 10
14.401227325
 20
11.9385199228
 30
0.0
 10
14.4079779016
 20
11.9127083065
 30
0.0
 10
14.4156455029
 20
11.8937802546
 30
0.0
 10
14.4217080494
 20
11.8814260836
 30
0.0
  0
SPLINE
  5
549
100
AcDbEntity
  8
0
100
AcDbSpline
 62
7
  6
CONTINUOUS
 70
0
 71
3
 72
12
 73
8
 74
0
 42
0.0000001
 43
0.0000001
 44
0.0000000001
 40
0.0
 40
0.0
 40
0.0
 40
0.0
 40
0.2297894597
 40
0.4715755312
 40
0.5978276416
 40
0.7280395053
 40
1.0
 40
1.0
 40
1.0
 40
1.0
 10
15.7375445392
 20
12.654618689
 30
0.0
 10
15.7458552017
 20
12.6579796008
 30
0.0
 10
15.7631754577
 20
12.6642467875
 30
0.0
 10
15.7857600209
 20
12.6702151702
 30
0.0
 10
15.8048774935
 20
12.6737740232
 30
0.0
 10
15.8253227175
 20
12.6764695526
 30
0.0
 10
15.8410306124
 20
12.677260424
 30
0.0
 10
15.8516403184
 20
12.677260424
 30
0.0
  0
SPLINE
  5
54A
100
AcDbEntity
  8
0
100
AcDbSpline
 62
7
  6
CONTINUOUS
 70
0
 71
3
 72
13
 73
9
 74
0
 42
0.0000001
 43
0.0000001
 44
0.0000000001
 40
0.0
 40
0.0
 40
0.0
 40
0.0
 40
0.1196980358
 40
0.2428785337
 40
0.495546694
 40
0.7505515712
 40
0.8765483809
 40
1.0
 40
1.0
 40
1.0
 40
1.0
 10
15.8516403184
 20
12.677260424
 30
0.0
 10
15.8612493389
 20
12.677260424
 30
0.0
 10
15.8807617596
 20
12.6783655921
 30
0.0
 10
15.9200869435
 20
12.6847322038
 30
0.0
 10
15.968634065
 20
12.7002890394
 30
0.0
 10
16.0136360496
 20
12.7246852204
 30
0.0
 10
16.046149082
 20
12.7489130822
 30
0.0
 10
16.0609828929
 20
12.7624276099
 30
0.0
 10
16.0679477491
 20
12.7694778416
 30
0.0
  0
SPLINE
  5
54B
100
AcDbEntity
  8
0
100
AcDbSpline
 62
7
  6
CONTINUOUS
 70
0
 71
3
 72
15
 73
11
 74
0
 42
0.0000001
 43
0.0000001
 44
0.0000000001
 40
0.0
 40
0.0
 40
0.0
 40
0.0
 40
0.1133561023
 40
0.2275816101
 40
0.3442067196
 40
0.4647225938
 40
0.5901546602
 40
0.7211133369
 40
0.8578649508
 40
1.0
 40
1.0
 40
1.0
 40
1.0
 10
15.6923275625
 20
12.7694778416
 30
0.0
 10
15.6948960096
 20
12.7625331581
 30
0.0
 10
15.7013355532
 20
12.7490273631
 30
0.0
 10
15.714586395
 20
12.7307203858
 30
0.0
 10
15.731189236
 20
12.7147071389
 30
0.0
 10
15.750815839
 20
12.7012714846
 30
0.0
 10
15.773107645
 20
12.690611766
 30
0.0
 10
15.7976865008
 20
12.6829010149
 30
0.0
 10
15.8241194093
 20
12.6782587368
 30
0.0
 10
15.8423560481
 20
12.677260424
 30
0.0
 10
15.8516403184
 20
12.677260424
 30
0.0
  0
SPLINE
  5
54C
100
AcDbEntity
  8
0
100
AcDbSpline
 62
7
  6
CONTINUOUS
 70
0
 71
3
 72
14
 73
10
 74
0
 42
0.0000001
 43
0.0000001
 44
0.0000000001
 40
0.0
 40
0.0
 40
0.0
 40
0.0
 40
0.1423036394
 40
0.2800271632
 40
0.5387645294
 40
0.66028788
 40
0.7769621289
 40
0.8898062407
 40
1.0
 40
1.0
 40
1.0
 40
1.0
 10
15.7493222373
 20
12.9539126768
 30
0.0
 10
15.7425430599
 20
12.9470504
 30
0.0
 10
15.7298807503
 20
12.9328442119
 30
0.0
 10
15.7086789063
 20
12.9030599266
 30
0.0
 10
15.693367785
 20
12.8709396174
 30
0.0
 10
15.6856259463
 20
12.8380479587
 30
0.0
 10
15.6837605131
 20
12.8142199676
 30
0.0
 10
15.6857839563
 20
12.791175434
 30
0.0
 10
15.689736524
 20
12.7764836085
 30
0.0
 10
15.6923275625
 20
12.7694778416
 30
0.0
  0
SPLINE
  5
54D
100
AcDbEntity
  8
0
100
AcDbSpline
 62
7
  6
CONTINUOUS
 70
0
 71
3
 72
13
 73
9
 74
0
 42
0.0000001
 43
0.0000001
 44
0.0000000001
 40
0.0
 40
0.0
 40
0.0
 40
0.0
 40
0.1196980358
 40
0.2428785337
 40
0.495546694
 40
0.7505515712
 40
0.8765483809
 40
1.0
 40
1.0
 40
1.0
 40
1.0
 10
15.965629668
 20
13.0461300944
 30
0.0
 10
15.9560206475
 20
13.0461300944
 30
0.0
 10
15.9365082268
 20
13.0450249263
 30
0.0
 10
15.8971830429
 20
13.0386583146
 30
0.0
 10
15.8486359214
 20
13.023101479
 30
0.0
 10
15.8036339368
 20
12.998705298
 30
0.0
 10
15.7711209044
 20
12.9744774362
 30
0.0
 10
15.7562870935
 20
12.9609629085
 30
0.0
 10
15.7493222373
 20
12.9539126768
 30
0.0
  0
SPLINE
  5
54E
100
AcDbEntity
  8
0
100
AcDbSpline
 62
7
  6
CONTINUOUS
 70
0
 71
3
 72
15
 73
11
 74
0
 42
0.0000001
 43
0.0000001
 44
0.0000000001
 40
0.0
 40
0.0
 40
0.0
 40
0.0
 40
0.1133561023
 40
0.2275816101
 40
0.3442067196
 40
0.4647225938
 40
0.5901546602
 40
0.7211133369
 40
0.8578649508
 40
1.0
 40
1.0
 40
1.0
 40
1.0
 10
16.1249424239
 20
12.9539126768
 30
0.0
 10
16.1223739768
 20
12.9608573603
 30
0.0
 10
16.1159344333
 20
12.9743631553
 30
0.0
 10
16.1026835914
 20
12.9926701326
 30
0.0
 10
16.0860807504
 20
13.0086833795
 30
0.0
 10
16.0664541475
 20
13.0221190338
 30
0.0
 10
16.0441623414
 20
13.0327787524
 30
0.0
 10
16.0195834857
 20
13.0404895035
 30
0.0
 10
15.9931505771
 20
13.0451317816
 30
0.0
 10
15.9749139383
 20
13.0461300944
 30
0.0
 10
15.965629668
 20
13.0461300944
 30
0.0
  0
SPLINE
  5
54F
100
AcDbEntity
  8
0
100
AcDbSpline
 62
7
  6
CONTINUOUS
 70
0
 71
3
 72
14
 73
10
 74
0
 42
0.0000001
 43
0.0000001
 44
0.0000000001
 40
0.0
 40
0.0
 40
0.0
 40
0.0
 40
0.1423036394
 40
0.2800271632
 40
0.5387645294
 40
0.66028788
 40
0.7769621289
 40
0.8898062407
 40
1.0
 40
1.0
 40
1.0
 40
1.0
 10
16.0679477491
 20
12.7694778416
 30
0.0
 10
16.0747269265
 20
12.7763401184
 30
0.0
 10
16.0873892361
 20
12.7905463065
 30
0.0
 10
16.1085910801
 20
12.8203305918
 30
0.0
 10
16.1239022014
 20
12.852450901
 30
0.0
 10
16.1316440401
 20
12.8853425597
 30
0.0
 10
16.1335094733
 20
12.9091705508
 30
0.0
 10
16.1314860301
 20
12.9322150844
 30
0.0
 10
16.1275334624
 20
12.9469069099
 30
0.0
 10
16.1249424239
 20
12.9539126768
 30
0.0
  0
SPLINE
  5
550
100
AcDbEntity
  8
0
100
AcDbSpline
 62
7
  6
CONTINUOUS
 70
0
 71
3
 72
11
 73
7
 74
0
 42
0.0000001
 43
0.0000001
 44
0.0000000001
 40
0.0
 40
0.0
 40
0.0
 40
0.0
 40
0.2525975354
 40
0.4420236846
 40
0.6305710379
 40
1.0
 40
1.0
 40
1.0
 40
1.0
 10
15.987957997
 20
12.654618689
 30
0.0
 10
15.9934404412
 20
12.6650952811
 30
0.0
 10
16.0034299405
 20
12.6832274088
 30
0.0
 10
16.0189722272
 20
12.7083374328
 30
0.0
 10
16.0389163563
 20
12.7370912322
 30
0.0
 10
16.0557941807
 20
12.7571752943
 30
0.0
 10
16.0679477491
 20
12.7694778416
 30
0.0
  0
SPLINE
  5
551
100
AcDbEntity
  8
0
100
AcDbSpline
 62
7
  6
CONTINUOUS
 70
0
 71
3
 72
11
 73
7
 74
0
 42
0.0000001
 43
0.0000001
 44
0.0000000001
 40
0.0
 40
0.0
 40
0.0
 40
0.0
 40
0.2412745809
 40
0.4906526273
 40
0.7444361578
 40
1.0
 40
1.0
 40
1.0
 40
1.0
 10
15.8516403184
 20
12.677260424
 30
0.0
 10
15.8627881431
 20
12.677260424
 30
0.0
 10
15.8854686154
 20
12.6760701442
 30
0.0
 10
15.9195615041
 20
12.6712773516
 30
0.0
 10
15.9538756574
 20
12.6639984423
 30
0.0
 10
15.9766156999
 20
12.6579023159
 30
0.0
 10
15.987957997
 20
12.654618689
 30
0.0
  0
SPLINE
  5
552
100
AcDbEntity
  8
0
100
AcDbSpline
 62
7
  6
CONTINUOUS
 70
0
 71
3
 72
10
 73
6
 74
0
 42
0.0000001
 43
0.0000001
 44
0.0000000001
 40
0.0
 40
0.0
 40
0.0
 40
0.0
 40
0.5324500913
 40
0.7778207214
 40
1.0
 40
1.0
 40
1.0
 40
1.0
 10
16.1701594006
 20
12.8390535243
 30
0.0
 10
16.1618858461
 20
12.8593404919
 30
0.0
 10
16.1499008295
 20
12.8890185156
 30
0.0
 10
16.13492736
 20
12.9273457531
 30
0.0
 10
16.1281136717
 20
12.9453381138
 30
0.0
 10
16.1249424239
 20
12.9539126768
 30
0.0
  0
SPLINE
  5
553
100
AcDbEntity
  8
0
100
AcDbSpline
 62
7
  6
CONTINUOUS
 70
0
 71
3
 72
12
 73
8
 74
0
 42
0.0000001
 43
0.0000001
 44
0.0000000001
 40
0.0
 40
0.0
 40
0.0
 40
0.0
 40
0.2668947516
 40
0.3960689454
 40
0.5221727975
 40
0.7659288543
 40
1.0
 40
1.0
 40
1.0
 40
1.0
 10
16.0679477491
 20
12.7694778416
 30
0.0
 10
16.0757226459
 20
12.7773480433
 30
0.0
 10
16.0878752729
 20
12.7884456399
 30
0.0
 10
16.1049724852
 20
12.8017299206
 30
0.0
 10
16.1219477918
 20
12.8135649332
 30
0.0
 10
16.1434850727
 20
12.8263957007
 30
0.0
 10
16.161300994
 20
12.835095594
 30
0.0
 10
16.1701594006
 20
12.8390535243
 30
0.0
  0
SPLINE
  5
554
100
AcDbEntity
  8
0
100
AcDbSpline
 62
7
  6
CONTINUOUS
 70
0
 71
3
 72
9
 73
5
 74
0
 42
0.0000001
 43
0.0000001
 44
0.0000000001
 40
0.0
 40
0.0
 40
0.0
 40
0.0
 40
0.4852604126
 40
1.0
 40
1.0
 40
1.0
 40
1.0
 10
14.5205326169
 20
12.5374007427
 30
0.0
 10
14.5188663976
 20
12.532035739
 30
0.0
 10
14.5162702025
 20
12.5207166253
 30
0.0
 10
14.5148287893
 20
12.5092185218
 30
0.0
 10
14.514275143
 20
12.5032852317
 30
0.0
  0
SPLINE
  5
555
100
AcDbEntity
  8
0
100
AcDbSpline
 62
7
  6
CONTINUOUS
 70
0
 71
3
 72
10
 73
6
 74
0
 42
0.0000001
 43
0.0000001
 44
0.0000000001
 40
0.0
 40
0.0
 40
0.0
 40
0.0
 40
0.2354494017
 40
0.4796534875
 40
1.0
 40
1.0
 40
1.0
 40
1.0
 10
14.5332123596
 20
12.5642605391
 30
0.0
 10
14.5319358698
 20
12.562302295
 30
0.0
 10
14.5294466393
 20
12.55823818
 30
0.0
 10
14.524833303
 20
12.5494410035
 30
0.0
 10
14.5220648435
 20
12.5423343074
 30
0.0
 10
14.5205326169
 20
12.5374007427
 30
0.0
  0
SPLINE
  5
556
100
AcDbEntity
  8
0
100
AcDbSpline
 62
7
  6
CONTINUOUS
 70
0
 71
3
 72
9
 73
5
 74
0
 42
0.0000001
 43
0.0000001
 44
0.0000000001
 40
0.0
 40
0.0
 40
0.0
 40
0.0
 40
0.5061212231
 40
1.0
 40
1.0
 40
1.0
 40
1.0
 10
14.4789677103
 20
12.4862394026
 30
0.0
 10
14.4736041921
 20
12.4827846836
 30
0.0
 10
14.4634825677
 20
12.4751968008
 30
0.0
 10
14.4543732267
 20
12.4664486467
 30
0.0
 10
14.4500825463
 20
12.4619378589
 30
0.0
  0
SPLINE
  5
557
100
AcDbEntity
  8
0
100
AcDbSpline
 62
7
  6
CONTINUOUS
 70
0
 71
3
 72
9
 73
5
 74
0
 42
0.0000001
 43
0.0000001
 44
0.0000000001
 40
0.0
 40
0.0
 40
0.0
 40
0.0
 40
0.5024620752
 40
1.0
 40
1.0
 40
1.0
 40
1.0
 10
14.514275143
 20
12.5032852317
 30
0.0
 10
14.5080969649
 20
12.5010299108
 30
0.0
 10
14.4959595458
 20
12.4960771577
 30
0.0
 10
14.4844427537
 20
12.4897659566
 30
0.0
 10
14.4789677103
 20
12.4862394026
 30
0.0
  0
SPLINE
  5
558
100
AcDbEntity
  8
0
100
AcDbSpline
 62
7
  6
CONTINUOUS
 70
0
 71
3
 72
9
 73
5
 74
0
 42
0.0000001
 43
0.0000001
 44
0.0000000001
 40
0.0
 40
0.0
 40
0.0
 40
0.0
 40
0.2914781963
 40
1.0
 40
1.0
 40
1.0
 40
1.0
 10
14.4242437219
 20
12.4753796835
 30
0.0
 10
14.4224250827
 20
12.4761684545
 30
0.0
 10
14.4161290629
 20
12.4787349528
 30
0.0
 10
14.4095670639
 20
12.4806984
 30
0.0
 10
14.4048271662
 20
12.4815657935
 30
0.0
  0
SPLINE
  5
559
100
AcDbEntity
  8
0
100
AcDbSpline
 62
7
  6
CONTINUOUS
 70
0
 71
3
 72
9
 73
5
 74
0
 42
0.0000001
 43
0.0000001
 44
0.0000000001
 40
0.0
 40
0.0
 40
0.0
 40
0.0
 40
0.5311387701
 40
1.0
 40
1.0
 40
1.0
 40
1.0
 10
14.4500825463
 20
12.4619378589
 30
0.0
 10
14.445619037
 20
12.4645242282
 30
0.0
 10
14.4371447245
 20
12.4692730694
 30
0.0
 10
14.428421533
 20
12.4735677044
 30
0.0
 10
14.4242437219
 20
12.4753796835
 30
0.0
  0
SPLINE
  5
55A
100
AcDbEntity
  8
0
100
AcDbSpline
 62
7
  6
CONTINUOUS
 70
0
 71
3
 72
13
 73
9
 74
0
 42
0.0000001
 43
0.0000001
 44
0.0000000001
 40
0.0
 40
0.0
 40
0.0
 40
0.0
 40
0.1332484884
 40
0.2661299417
 40
0.5257906348
 40
0.6510884644
 40
0.7722388719
 40
1.0
 40
1.0
 40
1.0
 40
1.0
 10
16.1637574089
 20
13.0056028271
 30
0.0
 10
16.1746578883
 20
13.0102499817
 30
0.0
 10
16.1960046896
 20
13.0205734775
 30
0.0
 10
16.2360419591
 20
13.0448117749
 30
0.0
 10
16.2719424357
 20
13.0742253585
 30
0.0
 10
16.3019547496
 20
13.1078764731
 30
0.0
 10
16.3264322694
 20
13.1422729629
 30
0.0
 10
16.3399786578
 20
13.1706858745
 30
0.0
 10
16.3459588126
 20
13.1900376624
 30
0.0
  0
SPLINE
  5
55B
100
AcDbEntity
  8
0
100
AcDbSpline
 62
7
  6
CONTINUOUS
 70
0
 71
3
 72
12
 73
8
 74
0
 42
0.0000001
 43
0.0000001
 44
0.0000000001
 40
0.0
 40
0.0
 40
0.0
 40
0.0
 40
0.2613470708
 40
0.522280082
 40
0.7715535997
 40
0.8889700104
 40
1.0
 40
1.0
 40
1.0
 40
1.0
 10
14.4789677103
 20
12.4862394026
 30
0.0
 10
14.4838822007
 20
12.4894048964
 30
0.0
 10
14.4932028418
 20
12.4965427529
 30
0.0
 10
14.5051866809
 20
12.5090463684
 30
0.0
 10
14.5132088906
 20
12.5206636289
 30
0.0
 10
14.5179869546
 20
12.530236919
 30
0.0
 10
14.5197960229
 20
12.5350290081
 30
0.0
 10
14.5205326169
 20
12.5374007427
 30
0.0
  0
SPLINE
  5
55C
100
AcDbEntity
  8
0
100
AcDbSpline
 62
7
  6
CONTINUOUS
 70
0
 71
3
 72
13
 73
9
 74
0
 42
0.0000001
 43
0.0000001
 44
0.0000000001
 40
0.0
 40
0.0
 40
0.0
 40
0.0
 40
0.2052621962
 40
0.3195520162
 40
0.4418458797
 40
0.5719339029
 40
0.7091636146
 40
1.0
 40
1.0
 40
1.0
 40
1.0
 10
14.4242437219
 20
12.4753796835
 30
0.0
 10
14.4278710075
 20
12.4738064755
 30
0.0
 10
14.4340528743
 20
12.4725279202
 30
0.0
 10
14.4425704317
 20
12.4726356368
 30
0.0
 10
14.4495845593
 20
12.4736288388
 30
0.0
 10
14.4568608096
 20
12.4755215293
 30
0.0
 10
14.4669531786
 20
12.4792655199
 30
0.0
 10
14.4742580532
 20
12.4832058449
 30
0.0
 10
14.4789677103
 20
12.4862394026
 30
0.0
  0
SPLINE
  5
55D
100
AcDbEntity
  8
0
100
AcDbSpline
 62
7
  6
CONTINUOUS
 70
0
 71
3
 72
12
 73
8
 74
0
 42
0.0000001
 43
0.0000001
 44
0.0000000001
 40
0.0
 40
0.0
 40
0.0
 40
0.0
 40
0.286634728
 40
0.5448517848
 40
0.7788577974
 40
0.890258068
 40
1.0
 40
1.0
 40
1.0
 40
1.0
 10
14.4110846401
 20
12.5156813045
 30
0.0
 10
14.4100647487
 20
12.5123973905
 30
0.0
 10
14.4086335217
 20
12.5059725303
 30
0.0
 10
14.4085460747
 20
12.4965494065
 30
0.0
 10
14.4104017785
 20
12.489431695
 30
0.0
 10
14.4129998171
 20
12.4846058519
 30
0.0
 10
14.4146287916
 20
12.4824935166
 30
0.0
 10
14.4155170847
 20
12.4815218231
 30
0.0
  0
SPLINE
  5
55E
100
AcDbEntity
  8
0
100
AcDbSpline
 62
7
  6
CONTINUOUS
 70
0
 71
3
 72
9
 73
5
 74
0
 42
0.0000001
 43
0.0000001
 44
0.0000000001
 40
0.0
 40
0.0
 40
0.0
 40
0.0
 40
0.2484635962
 40
1.0
 40
1.0
 40
1.0
 40
1.0
 10
14.4155170847
 20
12.4815218231
 30
0.0
 10
14.415853693
 20
12.4811536112
 30
0.0
 10
14.4172547645
 20
12.4797144698
 30
0.0
 10
14.4188369331
 20
12.4784532545
 30
0.0
 10
14.4200954972
 20
12.4776207459
 30
0.0
  0
SPLINE
  5
55F
100
AcDbEntity
  8
0
100
AcDbSpline
 62
7
  6
CONTINUOUS
 70
0
 71
3
 72
9
 73
5
 74
0
 42
0.0000001
 43
0.0000001
 44
0.0000000001
 40
0.0
 40
0.0
 40
0.0
 40
0.0
 40
0.2468336222
 40
1.0
 40
1.0
 40
1.0
 40
1.0
 10
14.4200954972
 20
12.4776207459
 30
0.0
 10
14.4204192831
 20
12.4774065697
 30
0.0
 10
14.4217505719
 20
12.4765686557
 30
0.0
 10
14.4231569765
 20
12.4758510212
 30
0.0
 10
14.4242437219
 20
12.4753796835
 30
0.0
  0
SPLINE
  5
560
100
AcDbEntity
  8
0
100
AcDbSpline
 62
7
  6
CONTINUOUS
 70
0
 71
3
 72
12
 73
8
 74
0
 42
0.0000001
 43
0.0000001
 44
0.0000000001
 40
0.0
 40
0.0
 40
0.0
 40
0.0
 40
0.2613470708
 40
0.522280082
 40
0.7715535997
 40
0.8889700104
 40
1.0
 40
1.0
 40
1.0
 40
1.0
 10
14.4526495468
 20
12.5668426446
 30
0.0
 10
14.4477350564
 20
12.5636771508
 30
0.0
 10
14.4384144153
 20
12.5565392943
 30
0.0
 10
14.4264305761
 20
12.5440356788
 30
0.0
 10
14.4184083665
 20
12.5324184183
 30
0.0
 10
14.4136303025
 20
12.5228451282
 30
0.0
 10
14.4118212342
 20
12.5180530391
 30
0.0
 10
14.4110846401
 20
12.5156813045
 30
0.0
  0
SPLINE
  5
561
100
AcDbEntity
  8
0
100
AcDbSpline
 62
7
  6
CONTINUOUS
 70
0
 71
3
 72
13
 73
9
 74
0
 42
0.0000001
 43
0.0000001
 44
0.0000000001
 40
0.0
 40
0.0
 40
0.0
 40
0.0
 40
0.2052621962
 40
0.3195520162
 40
0.4418458797
 40
0.5719339029
 40
0.7091636146
 40
1.0
 40
1.0
 40
1.0
 40
1.0
 10
14.5073735352
 20
12.5777023637
 30
0.0
 10
14.5037462496
 20
12.5792755717
 30
0.0
 10
14.4975643828
 20
12.580554127
 30
0.0
 10
14.4890468254
 20
12.5804464104
 30
0.0
 10
14.4820326977
 20
12.5794532084
 30
0.0
 10
14.4747564475
 20
12.5775605179
 30
0.0
 10
14.4646640785
 20
12.5738165273
 30
0.0
 10
14.4573592039
 20
12.5698762023
 30
0.0
 10
14.4526495468
 20
12.5668426446
 30
0.0
  0
SPLINE
  5
562
100
AcDbEntity
  8
0
100
AcDbSpline
 62
7
  6
CONTINUOUS
 70
0
 71
3
 72
15
 73
11
 74
0
 42
0.0000001
 43
0.0000001
 44
0.0000000001
 40
0.0
 40
0.0
 40
0.0
 40
0.0
 40
0.149630167
 40
0.2895733067
 40
0.419869772
 40
0.5418360226
 40
0.6576892542
 40
0.7704410042
 40
0.8835149407
 40
1.0
 40
1.0
 40
1.0
 40
1.0
 10
14.5205326169
 20
12.5374007427
 30
0.0
 10
14.5212242256
 20
12.5396276301
 30
0.0
 10
14.5223210523
 20
12.5440185333
 30
0.0
 10
14.5230682622
 20
12.5505401073
 30
0.0
 10
14.5228301515
 20
12.5566748975
 30
0.0
 10
14.5216069466
 20
12.5623138481
 30
0.0
 10
14.5194005706
 20
12.5673548015
 30
0.0
 10
14.5162434695
 20
12.5716973215
 30
0.0
 10
14.5121950878
 20
12.5752347656
 30
0.0
 10
14.5090389278
 20
12.576980058
 30
0.0
 10
14.5073735352
 20
12.5777023637
 30
0.0
  0
SPLINE
  5
563
100
AcDbEntity
  8
0
100
AcDbSpline
 62
7
  6
CONTINUOUS
 70
0
 71
3
 72
11
 73
7
 74
0
 42
0.0000001
 43
0.0000001
 44
0.0000000001
 40
0.0
 40
0.0
 40
0.0
 40
0.0
 40
0.2707731213
 40
0.5275545119
 40
0.7699989877
 40
1.0
 40
1.0
 40
1.0
 40
1.0
 10
13.7613620564
 20
12.5108085439
 30
0.0
 10
13.747329848
 20
12.5108085439
 30
0.0
 10
13.7199363072
 20
12.5127643456
 30
0.0
 10
13.6809195031
 20
12.5219955128
 30
0.0
 10
13.646107832
 20
12.537254216
 30
0.0
 10
13.625944963
 20
12.5515309248
 30
0.0
 10
13.6170664563
 20
12.5594833763
 30
0.0
  0
SPLINE
  5
564
100
AcDbEntity
  8
0
100
AcDbSpline
 62
7
  6
CONTINUOUS
 70
0
 71
3
 72
10
 73
6
 74
0
 42
0.0000001
 43
0.0000001
 44
0.0000000001
 40
0.0
 40
0.0
 40
0.0
 40
0.0
 40
0.5041618166
 40
0.7526499902
 40
1.0
 40
1.0
 40
1.0
 40
1.0
 10
13.6170664563
 20
12.5594833763
 30
0.0
 10
13.6100199972
 20
12.5657948684
 30
0.0
 10
13.600323021
 20
12.5762148858
 30
0.0
 10
13.5896615756
 20
12.5916793604
 30
0.0
 10
13.5851486458
 20
12.5998369931
 30
0.0
 10
13.5831044367
 20
12.6040036759
 30
0.0
  0
SPLINE
  5
565
100
AcDbEntity
  8
0
100
AcDbSpline
 62
7
  6
CONTINUOUS
 70
0
 71
3
 72
10
 73
6
 74
0
 42
0.0000001
 43
0.0000001
 44
0.0000000001
 40
0.0
 40
0.0
 40
0.0
 40
0.0
 40
0.2220972914
 40
0.4674812509
 40
1.0
 40
1.0
 40
1.0
 40
1.0
 10
16.2594237147
 20
13.3890942933
 30
0.0
 10
16.2625937926
 20
13.3805228933
 30
0.0
 10
16.2694049626
 20
13.3625325981
 30
0.0
 10
16.2843800017
 20
13.3242059562
 30
0.0
 10
16.2963660691
 20
13.2945247268
 30
0.0
 10
16.3046406914
 20
13.2742351407
 30
0.0
  0
SPLINE
  5
566
100
AcDbEntity
  8
0
100
AcDbSpline
 62
7
  6
CONTINUOUS
 70
0
 71
3
 72
11
 73
7
 74
0
 42
0.0000001
 43
0.0000001
 44
0.0000000001
 40
0.0
 40
0.0
 40
0.0
 40
0.0
 40
0.2643564574
 40
0.5171071596
 40
0.760909464
 40
1.0
 40
1.0
 40
1.0
 40
1.0
 10
16.3459588126
 20
13.1900376624
 30
0.0
 10
16.3491513064
 20
13.2003685763
 30
0.0
 10
16.3538250915
 20
13.2211156993
 30
0.0
 10
16.3552384161
 20
13.2523806058
 30
0.0
 10
16.3507901407
 20
13.2823336416
 30
0.0
 10
16.3439220321
 20
13.3010296723
 30
0.0
 10
16.3396153138
 20
13.309809805
 30
0.0
  0
SPLINE
  5
567
100
AcDbEntity
  8
0
100
AcDbSpline
 62
7
  6
CONTINUOUS
 70
0
 71
3
 72
13
 73
9
 74
0
 42
0.0000001
 43
0.0000001
 44
0.0000000001
 40
0.0
 40
0.0
 40
0.0
 40
0.0
 40
0.2703878533
 40
0.4003158362
 40
0.5266562132
 40
0.7688767331
 40
0.8856437395
 40
1.0
 40
1.0
 40
1.0
 40
1.0
 10
15.8113559811
 20
13.2467805403
 30
0.0
 10
15.8009712682
 20
13.231525642
 30
0.0
 10
15.7871944557
 20
13.2077588561
 30
0.0
 10
15.7732038874
 20
13.1746078434
 30
0.0
 10
15.7627462312
 20
13.142200196
 30
0.0
 10
15.7569456621
 20
13.1093291868
 30
0.0
 10
15.7563616391
 20
13.0769807853
 30
0.0
 10
15.7577842166
 20
13.0612313033
 30
0.0
 10
15.7589233521
 20
13.0535100065
 30
0.0
  0
SPLINE
  5
568
100
AcDbEntity
  8
0
100
AcDbSpline
 62
7
  6
CONTINUOUS
 70
0
 71
3
 72
9
 73
5
 74
0
 42
0.0000001
 43
0.0000001
 44
0.0000000001
 40
0.0
 40
0.0
 40
0.0
 40
0.0
 40
0.5125021511
 40
1.0
 40
1.0
 40
1.0
 40
1.0
 10
15.871137638
 20
12.4327646935
 30
0.0
 10
15.8723390371
 20
12.4345137224
 30
0.0
 10
15.8744644927
 20
12.4380848394
 30
0.0
 10
15.8760239711
 20
12.4419420238
 30
0.0
 10
15.8766204958
 20
12.4438702352
 30
0.0
  0
SPLINE
  5
569
100
AcDbEntity
  8
0
100
AcDbSpline
 62
7
  6
CONTINUOUS
 70
0
 71
3
 72
11
 73
7
 74
0
 42
0.0000001
 43
0.0000001
 44
0.0000000001
 40
0.0
 40
0.0
 40
0.0
 40
0.0
 40
0.2651619567
 40
0.520142939
 40
0.7648868045
 40
1.0
 40
1.0
 40
1.0
 40
1.0
 10
15.6766840829
 20
12.811317936
 30
0.0
 10
15.6690348197
 20
12.800062618
 30
0.0
 10
15.6552027403
 20
12.7771532747
 30
0.0
 10
15.6389587287
 20
12.7413106293
 30
0.0
 10
15.627865413
 20
12.7051555814
 30
0.0
 10
15.6239504158
 20
12.6807381193
 30
0.0
 10
15.6229570518
 20
12.6687126548
 30
0.0
  0
ENDSEC
  0
SECTION
  2
OBJECTS
  0
DICTIONARY
  5
C
100
AcDbDictionary
280
0
281
1
  3
ACAD_GROUP
350
D
  3
ACAD_MLINESTYLE
350
17
  3
ACAD_LAYOUT
350
1A
  3
ACAD_PLOTSETTINGS
350
19
  3
ACAD_PLOTSTYLENAME
350
E
  0
DICTIONARY
  5
D
102
{ACAD_REACTORS
330
C
102
}
100
AcDbDictionary
280
0
281
1
  0
ACDBDICTIONARYWDFLT
  5
E
102
{ACAD_REACTORS
330
C
102
}
100
AcDbDictionary
281
1
  3
Normal
350
F
100
AcDbDictionaryWithDefault
340
F
  0
DICTIONARY
  5
17
102
{ACAD_REACTORS
330
C
102
}
100
AcDbDictionary
280
0
281
1
  3
Standard
350
18
  0
DICTIONARY
  5
19
102
{ACAD_REACTORS
330
C
102
}
100
AcDbDictionary
281
1
  0
DICTIONARY
  5
1A
102
{ACAD_REACTORS
330
C
102
}
100
AcDbDictionary
281
1
  3
Model
350
56A
  3
Layout1
350
56B
  0
ACDBPLACEHOLDER
  5
F
102
{ACAD_REACTORS
330
E
102
}
  0
MLINESTYLE
  5
18
102
{ACAD_REACTORS
330
17
102
}
100
AcDbMlineStyle
  2
STANDARD
 70
0
  3

 62
256
 51
90.0
 52
90.0
 71
2
 49
0.5
 62
256
  6
BYLAYER
 49
-0.5
 62
256
  6
BYLAYER
  0
LAYOUT
  5
56A
102
{ACAD_REACTORS
330
1A
102
}
100
AcDbPlotSettings
  1

  2
none_device
  4
ANSI_C_(22.00_x_17.00_Inches)
  6

 40
0.0
 41
0.0
 42
0.0
 43
0.0
 44
558.8
 45
431.8
 46
0.0
 47
0.0
 48
0.0
 49
0.0
140
0.0
141
0.0
142
1.0
143
1.0
 70
1024
 72
0
 73
0
 74
0
  7

 75
0
147
1.0
148
0.0
149
0.0
100
AcDbLayout
  1
Model
 70
0
 71
0
 10
0.0
 20
0.0
 11
22.0
 21
17.0
 12
0.0
 22
0.0
 32
0.0
 14
0.0
 24
0.0
 34
0.0
 15
0.0
 25
0.0
 35
0.0
146
0.0
 13
0.0
 23
0.0
 33
0.0
 16
1.0
 26
0.0
 36
0.0
 17
0.0
 27
1.0
 37
0.0
 76
0
330
228
345
0
346
0
  0
LAYOUT
  5
56B
102
{ACAD_REACTORS
330
1A
102
}
100
AcDbPlotSettings
  1

  2
none_device
  4
ANSI_C_(22.00_x_17.00_Inches)
  6

 40
0.0
 41
0.0
 42
0.0
 43
0.0
 44
558.8
 45
431.8
 46
0.0
 47
0.0
 48
0.0
 49
0.0
140
0.0
141
0.0
142
1.0
143
1.0
 70
0
 72
0
 73
0
 74
0
  7

 75
0
147
1.0
148
0.0
149
0.0
100
AcDbLayout
  1
Layout1
 70
0
 71
1
 10
0.0
 20
0.0
 11
22.0
 21
17.0
 12
0.0
 22
0.0
 32
0.0
 14
0.0
 24
0.0
 34
0.0
 15
0.0
 25
0.0
 35
0.0
146
0.0
 13
0.0
 23
0.0
 33
0.0
 16
1.0
 26
0.0
 36
0.0
 17
0.0
 27
1.0
 37
0.0
 76
0
330
229
345
0
346
0
  0
ENDSEC
  0
EOF