999
DXF file: _cgs_temp_output.dxf
999
Pro/ENGINEER 2016360 by Parametric Technology Corporation
  0
SECTION
  2
HEADER
  9
$ACADVER
  1
AC1021
  9
$DWGCODEPAGE
  3
ANSI_1252
  9
$EXTMAX
 10
22.0
 20
17.0
 30
0.0
  9
$EXTMIN
 10
0.0
 20
0.0
 30
0.0
  9
$LIMMIN
 10
0.0
 20
0.0
  9
$LIMMAX
 10
22.0
 20
17.0
  9
$VIEWCTR
 10
11.0
 20
8.5
  9
$VIEWSIZE
 40
17.0
  9
$CLAYER
  8
0
  9
$LTSCALE
 40
1.21
  9
$CELTYPE
  6
BYLAYER
  9
$DIMSCALE
 40
1.0
  9
$DIMASZ
 40
0.1875
  9
$DIMEXO
 40
0.0625
  9
$DIMDLI
 40
0.836
  9
$DIMEXE
 40
0.125
  9
$DIMCEN
 40
0.198
  9
$DIMLFAC
 40
1.0
  9
$DIMBLK
  1
_CLOSED
  9
$DIMALT
 70
0
  9
$DIMALTF
 40
25.4
  9
$DIMTXT
 40
0.15625
  9
$DIMTOL
 70
0
  9
$DIMLIM
 70
0
  9
$DIMTFAC
 40
1.0
  9
$DIMGAP
 40
0.09
  9
$DIMDSEP
 70
46
  9
$AUNITS
 70
0
  9
$PDMODE
 70
3
  9
$PDSIZE
 40
0.3125
  9
$HANDSEED
  5
65B
  9
$TILEMODE
 70
1
  9
$MEASUREMENT
 70
0
  9
$INSUNITS
 70
1
  0
ENDSEC
  0
SECTION
  2
CLASSES
  0
CLASS
  1
ACDBDICTIONARYWDFLT
  2
AcDbDictionaryWithDefault
  3
AutoCAD 2000
 90
0
 91
1
280
0
281
0
  0
CLASS
  1
ACDBPLACEHOLDER
  2
AcDbPlaceHolder
  3
AutoCAD 2000
 90
0
 91
1
280
0
281
0
  0
CLASS
  1
LAYOUT
  2
AcDbLayout
  3
AutoCAD 2000
 90
0
 91
0
280
0
281
0
  0
ENDSEC
  0
SECTION
  2
TABLES
  0
TABLE
  2
VPORT
  5
8
100
AcDbSymbolTable
 70
2
  0
VPORT
  5
1F4
100
AcDbSymbolTableRecord
100
AcDbViewportTableRecord
  2
*ACTIVE
 70
0
 10
0.0
 20
0.0
 11
1.0
 21
1.0
 12
11.0
 22
8.5
 13
0.0
 23
0.0
 14
1.0
 24
1.0
 15
0.0
 25
0.0
 16
0.0
 26
0.0
 36
1.0
 17
0.0
 27
0.0
 37
0.0
 40
17.0
 41
1.2941176471
 42
50.0
 43
0.0
 44
0.0
 50
0.0
 51
0.0
 71
0
 72
100
 73
1
 74
1
 75
0
 76
0
 77
0
 78
0
  0
ENDTAB
  0
TABLE
  2
LTYPE
  5
5
100
AcDbSymbolTable
 70
6
  0
LTYPE
  5
14
100
AcDbSymbolTableRecord
100
AcDbLinetypeTableRecord
  2
BYBLOCK
 70
0
  3

 72
65
 73
0
 40
0.0
  0
LTYPE
  5
15
100
AcDbSymbolTableRecord
100
AcDbLinetypeTableRecord
  2
BYLAYER
 70
0
  3

 72
65
 73
0
 40
0.0
  0
LTYPE
  5
16
100
AcDbSymbolTableRecord
100
AcDbLinetypeTableRecord
  2
CONTINUOUS
 70
64
  3
Solid line
 72
65
 73
0
 40
0.0
  0
LTYPE
  5
1F5
100
AcDbSymbolTableRecord
100
AcDbLinetypeTableRecord
  2
CENTER
 70
64
  3
____ _ ____ _ ____ _ ____ _ ____ _ ____ _ ____
 72
65
 73
4
 40
0.6
 49
0.375
 74
0
 49
-0.075
 74
0
 49
0.075
 74
0
 49
-0.075
 74
0
  0
LTYPE
  5
1F6
100
AcDbSymbolTableRecord
100
AcDbLinetypeTableRecord
  2
HIDDEN
 70
64
  3
- - - - - - - - - - - - - - - - - - - -
 72
65
 73
2
 40
0.2
 49
0.1
 74
0
 49
-0.1
 74
0
  0
LTYPE
  5
1F7
100
AcDbSymbolTableRecord
100
AcDbLinetypeTableRecord
  2
PHANTOM
 70
64
  3
_____ _ _ _____ _ _ _____ _ _ _____
 72
65
 73
6
 40
0.8
 49
0.45
 74
0
 49
-0.05
 74
0
 49
0.1
 74
0
 49
-0.05
 74
0
 49
0.1
 74
0
 49
-0.05
 74
0
  0
LTYPE
  5
1F8
100
AcDbSymbolTableRecord
100
AcDbLinetypeTableRecord
  2
DOT
 70
64
  3
. . . . . . . . . . . . . . . . . . . .
 72
65
 73
2
 40
0.2
 49
0.1
 74
0
 49
-0.1
 74
0
  0
LTYPE
  5
1F9
100
AcDbSymbolTableRecord
100
AcDbLinetypeTableRecord
  2
DASHED
 70
64
  3
- - - - - - - - - - - - - - - - - - - -
 72
65
 73
2
 40
0.2
 49
0.1
 74
0
 49
-0.1
 74
0
  0
ENDTAB
  0
TABLE
  2
LAYER
  5
2
100
AcDbSymbolTable
 70
36
  0
LAYER
  5
10
100
AcDbSymbolTableRecord
100
AcDbLayerTableRecord
  2
0
 70
0
 62
7
  6
CONTINUOUS
370
-3
390
F
  0
LAYER
  5
1FA
100
AcDbSymbolTableRecord
100
AcDbLayerTableRecord
  2
DEFAULT_1
 70
0
 62
7
  6
CENTER
370
-3
390
F
  0
LAYER
  5
1FB
100
AcDbSymbolTableRecord
100
AcDbLayerTableRecord
  2
DEFAULT_2
 70
0
 62
8
  6
HIDDEN
370
-3
390
F
  0
LAYER
  5
1FC
100
AcDbSymbolTableRecord
100
AcDbLayerTableRecord
  2
DEFAULT_3
 70
0
 62
7
  6
PHANTOM
370
-3
390
F
  0
LAYER
  5
1FD
100
AcDbSymbolTableRecord
100
AcDbLayerTableRecord
  2
01_ALL_DTM_PLN
 70
0
 62
7
  6
CONTINUOUS
370
-3
390
F
  0
LAYER
  5
1FE
100
AcDbSymbolTableRecord
100
AcDbLayerTableRecord
  2
01__ASM_ALL_DTM_PLN
 70
0
 62
7
  6
CONTINUOUS
370
-3
390
F
  0
LAYER
  5
1FF
100
AcDbSymbolTableRecord
100
AcDbLayerTableRecord
  2
01__ASM_DEF_DTM_PLN
 70
0
 62
7
  6
CONTINUOUS
370
-3
390
F
  0
LAYER
  5
200
100
AcDbSymbolTableRecord
100
AcDbLayerTableRecord
  2
01___PRT_ALL_DTM_PLN
 70
0
 62
7
  6
CONTINUOUS
370
-3
390
F
  0
LAYER
  5
201
100
AcDbSymbolTableRecord
100
AcDbLayerTableRecord
  2
01___PRT_DEF_DTM_PLN
 70
0
 62
7
  6
CONTINUOUS
370
-3
390
F
  0
LAYER
  5
202
100
AcDbSymbolTableRecord
100
AcDbLayerTableRecord
  2
02_ALL_AXES
 70
0
 62
7
  6
CONTINUOUS
370
-3
390
F
  0
LAYER
  5
203
100
AcDbSymbolTableRecord
100
AcDbLayerTableRecord
  2
02__ASM_ALL_AXES
 70
0
 62
7
  6
CONTINUOUS
370
-3
390
F
  0
LAYER
  5
204
100
AcDbSymbolTableRecord
100
AcDbLayerTableRecord
  2
02___PRT_ALL_AXES
 70
0
 62
7
  6
CONTINUOUS
370
-3
390
F
  0
LAYER
  5
205
100
AcDbSymbolTableRecord
100
AcDbLayerTableRecord
  2
03_ALL_CURVES
 70
0
 62
7
  6
CONTINUOUS
370
-3
390
F
  0
LAYER
  5
206
100
AcDbSymbolTableRecord
100
AcDbLayerTableRecord
  2
03__ASM_ALL_CURVES
 70
0
 62
7
  6
CONTINUOUS
370
-3
390
F
  0
LAYER
  5
207
100
AcDbSymbolTableRecord
100
AcDbLayerTableRecord
  2
03___PRT_ALL_CURVES
 70
0
 62
7
  6
CONTINUOUS
370
-3
390
F
  0
LAYER
  5
208
100
AcDbSymbolTableRecord
100
AcDbLayerTableRecord
  2
04_ALL_DTM_PNT
 70
0
 62
7
  6
CONTINUOUS
370
-3
390
F
  0
LAYER
  5
209
100
AcDbSymbolTableRecord
100
AcDbLayerTableRecord
  2
04__ASM_ALL_DTM_PNT
 70
0
 62
7
  6
CONTINUOUS
370
-3
390
F
  0
LAYER
  5
20A
100
AcDbSymbolTableRecord
100
AcDbLayerTableRecord
  2
04___PRT_ALL_DTM_PNT
 70
0
 62
7
  6
CONTINUOUS
370
-3
390
F
  0
LAYER
  5
20B
100
AcDbSymbolTableRecord
100
AcDbLayerTableRecord
  2
05_ALL_DTM_CSYS
 70
0
 62
7
  6
CONTINUOUS
370
-3
390
F
  0
LAYER
  5
20C
100
AcDbSymbolTableRecord
100
AcDbLayerTableRecord
  2
05__ASM_ALL_DTM_CSYS
 70
0
 62
7
  6
CONTINUOUS
370
-3
390
F
  0
LAYER
  5
20D
100
AcDbSymbolTableRecord
100
AcDbLayerTableRecord
  2
05__ASM_DEF_DTM_CSYS
 70
0
 62
7
  6
CONTINUOUS
370
-3
390
F
  0
LAYER
  5
20E
100
AcDbSymbolTableRecord
100
AcDbLayerTableRecord
  2
05___PRT_ALL_DTM_CSYS
 70
0
 62
7
  6
CONTINUOUS
370
-3
390
F
  0
LAYER
  5
20F
100
AcDbSymbolTableRecord
100
AcDbLayerTableRecord
  2
05___PRT_DEF_DTM_CSYS
 70
0
 62
7
  6
CONTINUOUS
370
-3
390
F
  0
LAYER
  5
210
100
AcDbSymbolTableRecord
100
AcDbLayerTableRecord
  2
06_ALL_SURFS
 70
0
 62
7
  6
CONTINUOUS
370
-3
390
F
  0
LAYER
  5
211
100
AcDbSymbolTableRecord
100
AcDbLayerTableRecord
  2
06__ASM_ALL_SURFS
 70
0
 62
7
  6
CONTINUOUS
370
-3
390
F
  0
LAYER
  5
212
100
AcDbSymbolTableRecord
100
AcDbLayerTableRecord
  2
06___PRT_ALL_SURFS
 70
0
 62
7
  6
CONTINUOUS
370
-3
390
F
  0
LAYER
  5
213
100
AcDbSymbolTableRecord
100
AcDbLayerTableRecord
  2
07__ASM_ALL_SKELETONS
 70
0
 62
7
  6
CONTINUOUS
370
-3
390
F
  0
LAYER
  5
214
100
AcDbSymbolTableRecord
100
AcDbLayerTableRecord
  2
NONE
 70
0
 62
7
  6
CONTINUOUS
370
-3
390
F
  0
LAYER
  5
215
100
AcDbSymbolTableRecord
100
AcDbLayerTableRecord
  2
_11572
 70
0
 62
7
  6
CONTINUOUS
370
-3
390
F
  0
LAYER
  5
216
100
AcDbSymbolTableRecord
100
AcDbLayerTableRecord
  2
_14102
 70
0
 62
7
  6
CONTINUOUS
370
-3
390
F
  0
LAYER
  5
217
100
AcDbSymbolTableRecord
100
AcDbLayerTableRecord
  2
_14605
 70
0
 62
7
  6
CONTINUOUS
370
-3
390
F
  0
LAYER
  5
218
100
AcDbSymbolTableRecord
100
AcDbLayerTableRecord
  2
_17287
 70
0
 62
7
  6
CONTINUOUS
370
-3
390
F
  0
LAYER
  5
219
100
AcDbSymbolTableRecord
100
AcDbLayerTableRecord
  2
_1852
 70
0
 62
7
  6
CONTINUOUS
370
-3
390
F
  0
LAYER
  5
21A
100
AcDbSymbolTableRecord
100
AcDbLayerTableRecord
  2
_19861
 70
0
 62
7
  6
CONTINUOUS
370
-3
390
F
  0
LAYER
  5
21B
100
AcDbSymbolTableRecord
100
AcDbLayerTableRecord
  2
_20118
 70
0
 62
7
  6
CONTINUOUS
370
-3
390
F
  0
LAYER
  5
21C
100
AcDbSymbolTableRecord
100
AcDbLayerTableRecord
  2
_21052
 70
0
 62
7
  6
CONTINUOUS
370
-3
390
F
  0
LAYER
  5
21D
100
AcDbSymbolTableRecord
100
AcDbLayerTableRecord
  2
_21561
 70
0
 62
7
  6
CONTINUOUS
370
-3
390
F
  0
LAYER
  5
21E
100
AcDbSymbolTableRecord
100
AcDbLayerTableRecord
  2
_2190
 70
0
 62
7
  6
CONTINUOUS
370
-3
390
F
  0
LAYER
  5
21F
100
AcDbSymbolTableRecord
100
AcDbLayerTableRecord
  2
_3235
 70
0
 62
7
  6
CONTINUOUS
370
-3
390
F
  0
LAYER
  5
220
100
AcDbSymbolTableRecord
100
AcDbLayerTableRecord
  2
_614
 70
0
 62
7
  6
CONTINUOUS
370
-3
390
F
  0
LAYER
  5
221
100
AcDbSymbolTableRecord
100
AcDbLayerTableRecord
  2
_7401
 70
0
 62
7
  6
CONTINUOUS
370
-3
390
F
  0
LAYER
  5
222
100
AcDbSymbolTableRecord
100
AcDbLayerTableRecord
  2
_7567
 70
0
 62
7
  6
CONTINUOUS
370
-3
390
F
  0
LAYER
  5
223
100
AcDbSymbolTableRecord
100
AcDbLayerTableRecord
  2
_8153
 70
0
 62
7
  6
CONTINUOUS
370
-3
390
F
  0
LAYER
  5
224
100
AcDbSymbolTableRecord
100
AcDbLayerTableRecord
  2
_903
 70
0
 62
7
  6
CONTINUOUS
370
-3
390
F
  0
LAYER
  5
225
100
AcDbSymbolTableRecord
100
AcDbLayerTableRecord
  2
_9520
 70
0
 62
7
  6
CONTINUOUS
370
-3
390
F
  0
ENDTAB
  0
TABLE
  2
STYLE
  5
3
100
AcDbSymbolTable
 70
1
  0
STYLE
  5
11
100
AcDbSymbolTableRecord
100
AcDbTextStyleTableRecord
  2
STANDARD
 70
0
 40
0.0
 41
0.8
 50
0.0
 71
0
 42
0.2
  3
txt
  4

  0
STYLE
  5
226
100
AcDbSymbolTableRecord
100
AcDbTextStyleTableRecord
  2
TEXTSTYLE_1
 70
0
 40
0.0
 41
0.8
 50
0.0
 71
0
 42
0.2
  3
gdt
  4

  0
ENDTAB
  0
TABLE
  2
VIEW
  5
6
100
AcDbSymbolTable
 70
0
  0
ENDTAB
  0
TABLE
  2
UCS
  5
7
100
AcDbSymbolTable
 70
0
  0
ENDTAB
  0
TABLE
  2
APPID
  5
9
100
AcDbSymbolTable
 70
1
  0
APPID
  5
227
100
AcDbSymbolTableRecord
100
AcDbRegAppTableRecord
  2
ACAD
 70
0
  0
ENDTAB
  0
TABLE
  2
BLOCK_RECORD
  5
1
100
AcDbSymbolTable
 70
0
  0
BLOCK_RECORD
  5
228
100
AcDbSymbolTableRecord
100
AcDbBlockTableRecord
  2
*Model_Space
  0
BLOCK_RECORD
  5
229
100
AcDbSymbolTableRecord
100
AcDbBlockTableRecord
  2
*Paper_Space
  0
BLOCK_RECORD
  5
22A
100
AcDbSymbolTableRecord
100
AcDbBlockTableRecord
  2
_NONE
  0
ENDTAB
  0
TABLE
  2
DIMSTYLE
  5
A
100
AcDbSymbolTable
 70
1
100
AcDbDimStyleTable
 71
0
  0
DIMSTYLE
105
22B
100
AcDbSymbolTableRecord
100
AcDbDimStyleTableRecord
  2
STANDARD
 70
0
  3

  4

 40
1.0
 41
0.1875
 42
0.0625
 43
0.38
 44
0.125
 45
0.0
 46
0.0
 47
0.0001
 48
0.0001
140
0.15625
141
0.09
142
0.0
143
25.4
144
1.0
145
0.0
146
1.0
147
0.09
 71
0.0
 72
0.0
 73
1
 74
1
 75
0
 76
0
 77
0
 78
4
 79
1
170
0
171
3
172
0
173
0
174
0
175
0
176
0
177
0
178
0
270
2
179
4
271
4
272
4
273
2
274
2
275
0
280
0
281
0
282
0
283
1
284
4
285
0
286
0
287
3
288
0
340
11
278
46
  0
ENDTAB
  0
ENDSEC
  0
SECTION
  2
BLOCKS
  0
BLOCK
  5
20
100
AcDbEntity
  8
0
100
AcDbBlockBegin
  2
*Model_Space
 70
0
 10
0.0
 20
0.0
 30
0.0
  3
*Model_Space
  1

  0
ENDBLK
  5
21
100
AcDbEntity
  8
0
100
AcDbBlockEnd
  0
BLOCK
  5
1C
100
AcDbEntity
  8
0
100
AcDbBlockBegin
  2
*Paper_Space
 70
0
 10
0.0
 20
0.0
 30
0.0
  3
*Paper_Space
  1

  0
ENDBLK
  5
1D
100
AcDbEntity
  8
0
100
AcDbBlockEnd
  0
BLOCK
  5
22C
100
AcDbEntity
  8
0
100
AcDbBlockBegin
  2
_NONE
 70
64
 10
0.0
 20
0.0
  3
_NONE
  1

  0
ENDBLK
  5
22D
100
AcDbEntity
  8
0
  6
BYBLOCK
 62
0
100
AcDbBlockEnd
  0
ENDSEC
  0
SECTION
  2
ENTITIES
  0
MTEXT
  5
22E
100
AcDbEntity
  8
0
100
AcDbMText
 62
7
  6
CONTINUOUS
  7
STANDARD
 71
1
 72
1
 10
15.9560215477
 20
0.9479130325
 30
0.0
 11
1.0
 21
0.0
 31
0.0
 44
0.9
  1
SCALE: 1:0.125
 40
0.3
 41
3.36
  0
LEADER
  5
22F
100
AcDbEntity
  8
0
100
AcDbLeader
 62
2
  6
CONTINUOUS
  3
STANDARD
 71
1
 72
0
 73
0
 75
0
 40
0.15625
 41
1.5
 76
3
 10
4.3218885154
 20
4.6946499735
 30
0.0
 10
6.7082495611
 20
4.1860341104
 30
0.0
 10
6.9582495611
 20
4.1860341104
 30
0.0
340
230
1001
ACAD
1000
DSTYLE
1002
{
1070
77
1070
0
1070
341
1005
22A
1002
}
  0
MTEXT
  5
230
102
{ACAD_REACTORS
330
22F
102
}
100
AcDbEntity
  8
0
100
AcDbMText
 62
2
  6
CONTINUOUS
  7
STANDARD
 71
1
 72
1
 10
6.9582495611
 20
4.2641591104
 30
0.0
 11
1.0
 21
0.0
 31
0.0
 44
0.9
  1
 0.375 BOLTS
 40
0.15625
 41
1.5
  0
LEADER
  5
231
100
AcDbEntity
  8
0
100
AcDbLeader
 62
2
  6
CONTINUOUS
  3
STANDARD
 71
1
 72
0
 73
0
 75
0
 40
0.15625
 41
1.5
 76
3
 10
5.6382070558
 20
4.4212397531
 30
0.0
 10
5.8641919589
 20
4.2968581854
 30
0.0
 10
6.1141919589
 20
4.2968581854
 30
0.0
340
232
1001
ACAD
1000
DSTYLE
1002
{
1070
77
1070
0
1070
341
1005
22A
1002
}
  0
MTEXT
  5
232
102
{ACAD_REACTORS
330
231
102
}
100
AcDbEntity
  8
0
100
AcDbMText
 62
2
  6
CONTINUOUS
  7
STANDARD
 71
2
 72
1
 10
6.8641919589
 20
4.3749831854
 30
0.0
 11
1.0
 21
0.0
 31
0.0
 44
0.9
  1
 Drain Plug 
 40
0.15625
 41
1.5
  0
LINE
  5
233
100
AcDbEntity
  8
0
100
AcDbLine
 62
7
  6
CONTINUOUS
 10
0.0
 20
0.0
 11
0.0
 21
17.0
  0
LINE
  5
234
100
AcDbEntity
  8
0
100
AcDbLine
 62
7
  6
CONTINUOUS
 10
0.0
 20
0.0
 11
22.0
 21
0.0
  0
LINE
  5
235
100
AcDbEntity
  8
0
100
AcDbLine
 62
7
  6
CONTINUOUS
 10
0.0
 20
17.0
 11
22.0
 21
17.0
  0
LINE
  5
236
100
AcDbEntity
  8
0
100
AcDbLine
 62
7
  6
CONTINUOUS
 10
22.0
 20
0.0
 11
22.0
 21
17.0
  0
LINE
  5
237
100
AcDbEntity
  8
0
100
AcDbLine
 62
7
  6
CONTINUOUS
 10
4.0834922762
 20
4.6821499735
 11
4.0834922762
 21
4.3508999735
  0
LINE
  5
238
100
AcDbEntity
  8
0
100
AcDbLine
 62
7
  6
CONTINUOUS
 10
4.6812092712
 20
4.6946499735
 11
4.6817803583
 21
4.8413290028
  0
LINE
  5
239
100
AcDbEntity
  8
0
100
AcDbLine
 62
7
  6
CONTINUOUS
 10
4.8230756095
 20
6.0008999735
 11
4.8230756095
 21
5.0085412492
  0
LINE
  5
23A
100
AcDbEntity
  8
0
100
AcDbLine
 62
7
  6
CONTINUOUS
 10
4.9564605637
 20
6.1563687235
 11
4.9347943595
 21
6.1347025192
  0
LINE
  5
23B
100
AcDbEntity
  8
0
100
AcDbLine
 62
7
  6
CONTINUOUS
 10
4.9347943595
 20
6.0071499735
 11
4.9347943595
 21
6.1347025192
  0
LINE
  5
23C
100
AcDbEntity
  8
0
100
AcDbLine
 62
7
  6
CONTINUOUS
 10
5.0156537345
 20
6.0196499735
 11
5.0156537345
 21
6.1347025192
  0
LINE
  5
23D
100
AcDbEntity
  8
0
100
AcDbLine
 62
7
  6
CONTINUOUS
 10
8.1772422762
 20
4.3508999735
 11
4.0834922762
 21
4.3508999735
  0
LINE
  5
23E
100
AcDbEntity
  8
0
100
AcDbLine
 62
7
  6
CONTINUOUS
 10
5.1288047762
 20
4.3633999735
 11
7.1319297762
 21
4.3633999735
  0
LINE
  5
23F
100
AcDbEntity
  8
0
100
AcDbLine
 62
7
  6
CONTINUOUS
 10
7.1319297762
 20
4.3758999735
 11
5.1288047762
 21
4.3758999735
  0
LINE
  5
240
100
AcDbEntity
  8
0
100
AcDbLine
 62
7
  6
CONTINUOUS
 10
5.6616172762
 20
4.3958999735
 11
5.6128672762
 21
4.4446499735
  0
LINE
  5
241
100
AcDbEntity
  8
0
100
AcDbLine
 62
7
  6
CONTINUOUS
 10
5.6147968355
 20
4.4446499735
 11
5.6616172762
 21
4.3978295328
  0
LINE
  5
242
100
AcDbEntity
  8
0
100
AcDbLine
 62
7
  6
CONTINUOUS
 10
5.1038047762
 20
5.5383999735
 11
5.1038047762
 21
4.3883999735
  0
LINE
  5
243
100
AcDbEntity
  8
0
100
AcDbLine
 62
7
  6
CONTINUOUS
 10
5.1163047762
 20
4.3883999735
 11
5.1163047762
 21
5.5383999735
  0
LINE
  5
244
100
AcDbEntity
  8
0
100
AcDbLine
 62
7
  6
CONTINUOUS
 10
5.7103672762
 20
4.4446499735
 11
5.7084377169
 21
4.4446499735
  0
LINE
  5
245
100
AcDbEntity
  8
0
100
AcDbLine
 62
7
  6
CONTINUOUS
 10
5.6128672762
 20
4.4446499735
 11
5.6147968355
 21
4.4446499735
  0
LINE
  5
246
100
AcDbEntity
  8
0
100
AcDbLine
 62
7
  6
CONTINUOUS
 10
5.7084377169
 20
4.4446499735
 11
5.6616172762
 21
4.4914704142
  0
LINE
  5
247
100
AcDbEntity
  8
0
100
AcDbLine
 62
7
  6
CONTINUOUS
 10
5.6616172762
 20
4.4933999735
 11
5.7103672762
 21
4.4446499735
  0
LINE
  5
248
100
AcDbEntity
  8
0
100
AcDbLine
 62
7
  6
CONTINUOUS
 10
4.0959922762
 20
4.6946499735
 11
5.1038047762
 21
4.6946499735
  0
LINE
  5
249
100
AcDbEntity
  8
0
100
AcDbLine
 62
7
  6
CONTINUOUS
 10
7.1569297762
 20
4.6946499735
 11
8.1647422762
 21
4.6946499735
  0
LINE
  5
24A
100
AcDbEntity
  8
0
100
AcDbLine
 62
7
  6
CONTINUOUS
 10
5.6616172762
 20
4.4933999735
 11
5.6616172762
 21
4.4914704142
  0
LINE
  5
24B
100
AcDbEntity
  8
0
100
AcDbLine
 62
7
  6
CONTINUOUS
 10
5.6616172762
 20
4.3958999735
 11
5.6616172762
 21
4.3978295328
  0
LINE
  5
24C
100
AcDbEntity
  8
0
100
AcDbLine
 62
7
  6
CONTINUOUS
 10
5.0913047764
 20
5.5383999735
 11
5.1038052674
 21
5.5383999735
  0
LINE
  5
24D
100
AcDbEntity
  8
0
100
AcDbLine
 62
7
  6
CONTINUOUS
 10
7.1569285744
 20
5.5383999735
 11
7.1694297759
 21
5.5383999735
  0
LINE
  5
24E
100
AcDbEntity
  8
0
100
AcDbLine
 62
7
  6
CONTINUOUS
 10
7.2630818303
 20
5.5383999735
 11
7.25068128
 21
5.5383999738
  0
LINE
  5
24F
100
AcDbEntity
  8
0
100
AcDbLine
 62
7
  6
CONTINUOUS
 10
5.0100524647
 20
5.5383999739
 11
4.9976539659
 21
5.5383999735
  0
LINE
  5
250
100
AcDbEntity
  8
0
100
AcDbLine
 62
7
  6
CONTINUOUS
 10
5.8006273064
 20
6.6331729748
 11
5.8032154968
 21
6.6235137165
  0
LINE
  5
251
100
AcDbEntity
  8
0
100
AcDbLine
 62
7
  6
CONTINUOUS
 10
5.8381560613
 20
6.5224950764
 11
5.8359471302
 21
6.5307389071
  0
LINE
  5
252
100
AcDbEntity
  8
0
100
AcDbLine
 62
7
  6
CONTINUOUS
 10
5.8641138513
 20
6.5318711228
 11
5.8631319439
 21
6.5355356457
  0
LINE
  5
253
100
AcDbEntity
  8
0
100
AcDbLine
 62
7
  6
CONTINUOUS
 10
5.8371738266
 20
6.6326128236
 11
5.8345856362
 21
6.6422720818
  0
LINE
  5
254
100
AcDbEntity
  8
0
100
AcDbLine
 62
7
  6
CONTINUOUS
 10
5.8890730452
 20
6.5449739748
 11
5.8912812631
 21
6.5367328061
  0
LINE
  5
255
100
AcDbEntity
  8
0
100
AcDbLine
 62
7
  6
CONTINUOUS
 10
5.8711321565
 20
6.6417119306
 11
5.868543966
 21
6.6513711889
  0
LINE
  5
256
100
AcDbEntity
  8
0
100
AcDbLine
 62
7
  6
CONTINUOUS
 10
5.6128672762
 20
4.4446499735
 11
5.6616172762
 21
4.4933999735
  0
LINE
  5
257
100
AcDbEntity
  8
0
100
AcDbLine
 62
7
  6
CONTINUOUS
 10
5.6616172762
 20
4.4914704142
 11
5.6147968355
 21
4.4446499735
  0
LINE
  5
258
100
AcDbEntity
  8
0
100
AcDbLine
 62
7
  6
CONTINUOUS
 10
5.6616172762
 20
4.3978295328
 11
5.7084377169
 21
4.4446499735
  0
LINE
  5
259
100
AcDbEntity
  8
0
100
AcDbLine
 62
7
  6
CONTINUOUS
 10
5.7103672762
 20
4.4446499735
 11
5.6616172762
 21
4.3958999735
  0
LINE
  5
25A
100
AcDbEntity
  8
0
100
AcDbLine
 62
7
  6
CONTINUOUS
 10
4.8293256095
 20
6.0071499735
 11
5.0990876838
 21
6.0071499735
  0
LINE
  5
25B
100
AcDbEntity
  8
0
100
AcDbLine
 62
7
  6
CONTINUOUS
 10
7.1616468685
 20
6.0071499735
 11
7.4314089428
 21
6.0071499735
  0
LINE
  5
25C
100
AcDbEntity
  8
0
100
AcDbLine
 62
7
  6
CONTINUOUS
 10
4.9347943595
 20
6.0196499735
 11
5.1057608726
 21
6.0196499735
  0
LINE
  5
25D
100
AcDbEntity
  8
0
100
AcDbLine
 62
7
  6
CONTINUOUS
 10
7.1549833697
 20
6.0196499735
 11
7.3259401928
 21
6.0196499735
  0
LINE
  5
25E
100
AcDbEntity
  8
0
100
AcDbLine
 62
7
  6
CONTINUOUS
 10
4.9564671603
 20
6.1563687235
 11
5.180979867
 21
6.1563687235
  0
LINE
  5
25F
100
AcDbEntity
  8
0
100
AcDbLine
 62
7
  6
CONTINUOUS
 10
7.0797539931
 20
6.1563687235
 11
7.304267392
 21
6.1563687235
  0
LINE
  5
260
100
AcDbEntity
  8
0
100
AcDbLine
 62
7
  6
CONTINUOUS
 10
7.1444297762
 20
5.5383999735
 11
7.1444297762
 21
4.3883999735
  0
LINE
  5
261
100
AcDbEntity
  8
0
100
AcDbLine
 62
7
  6
CONTINUOUS
 10
7.1569297762
 20
4.3883999735
 11
7.1569297762
 21
5.5383999735
  0
LINE
  5
262
100
AcDbEntity
  8
0
100
AcDbLine
 62
7
  6
CONTINUOUS
 10
7.2450808178
 20
6.0196499735
 11
7.2450808178
 21
6.1347025192
  0
LINE
  5
263
100
AcDbEntity
  8
0
100
AcDbLine
 62
7
  6
CONTINUOUS
 10
5.8906837365
 20
6.5389628021
 11
5.8375578215
 21
6.5247277344
  0
LINE
  5
264
100
AcDbEntity
  8
0
100
AcDbLine
 62
7
  6
CONTINUOUS
 10
7.3259401928
 20
6.0071499735
 11
7.3259401928
 21
6.1347025192
  0
LINE
  5
265
100
AcDbEntity
  8
0
100
AcDbLine
 62
7
  6
CONTINUOUS
 10
5.8032154968
 20
6.6235137165
 11
5.8711321565
 21
6.6417119306
  0
LINE
  5
266
100
AcDbEntity
  8
0
100
AcDbLine
 62
7
  6
CONTINUOUS
 10
5.8006273064
 20
6.6331729748
 11
5.868543966
 21
6.6513711889
  0
LINE
  5
267
100
AcDbEntity
  8
0
100
AcDbLine
 62
7
  6
CONTINUOUS
 10
5.811267045
 20
6.658023503
 11
5.846904418
 21
6.6675725083
  0
LINE
  5
268
100
AcDbEntity
  8
0
100
AcDbLine
 62
7
  6
CONTINUOUS
 10
5.8164771177
 20
6.685705847
 11
5.8285511906
 21
6.6889410851
  0
LINE
  5
269
100
AcDbEntity
  8
0
100
AcDbLine
 62
7
  6
CONTINUOUS
 10
7.4376589428
 20
6.0008999735
 11
7.4376589428
 21
5.0085412492
  0
LINE
  5
26A
100
AcDbEntity
  8
0
100
AcDbLine
 62
7
  6
CONTINUOUS
 10
7.3042739886
 20
6.1563687235
 11
7.3259401928
 21
6.1347025192
  0
LINE
  5
26B
100
AcDbEntity
  8
0
100
AcDbLine
 62
7
  6
CONTINUOUS
 10
7.578954194
 20
4.8413290028
 11
7.5795252812
 21
4.6946499735
  0
LINE
  5
26C
100
AcDbEntity
  8
0
100
AcDbLine
 62
7
  6
CONTINUOUS
 10
8.1772422762
 20
4.3508999735
 11
8.1772422762
 21
4.6821499735
  0
LINE
  5
26D
100
AcDbEntity
  8
0
100
AcDbLine
 62
7
  6
CONTINUOUS
 10
4.0239970839
 20
13.1219227814
 11
4.0239970839
 21
12.0781727814
  0
LINE
  5
26E
100
AcDbEntity
  8
0
100
AcDbLine
 62
7
  6
CONTINUOUS
 10
4.7635804172
 20
13.0719227814
 11
4.7635804172
 21
12.1281727814
  0
LINE
  5
26F
100
AcDbEntity
  8
0
100
AcDbLine
 62
7
  6
CONTINUOUS
 10
4.8752991672
 20
12.8517838925
 11
4.9561585422
 21
12.9918364382
  0
LINE
  5
270
100
AcDbEntity
  8
0
100
AcDbLine
 62
7
  6
CONTINUOUS
 10
5.0443095839
 20
13.2867665314
 11
5.0568095839
 21
13.2992665314
  0
LINE
  5
271
100
AcDbEntity
  8
0
100
AcDbLine
 62
7
  6
CONTINUOUS
 10
5.0443095839
 20
11.9133290314
 11
5.0568095839
 21
11.9008290314
  0
LINE
  5
272
100
AcDbEntity
  8
0
100
AcDbLine
 62
7
  6
CONTINUOUS
 10
4.8752991672
 20
12.3483116703
 11
4.9561585422
 21
12.2082591245
  0
LINE
  5
273
100
AcDbEntity
  8
0
100
AcDbLine
 62
7
  6
CONTINUOUS
 10
5.0395924915
 20
13.1281727814
 11
5.0395924915
 21
13.0384848919
  0
LINE
  5
274
100
AcDbEntity
  8
0
100
AcDbLine
 62
7
  6
CONTINUOUS
 10
5.0395924915
 20
12.6650828931
 11
5.0395924915
 21
12.5350126696
  0
LINE
  5
275
100
AcDbEntity
  8
0
100
AcDbLine
 62
7
  6
CONTINUOUS
 10
5.0395924915
 20
12.1616106709
 11
5.0395924915
 21
12.0719227814
  0
LINE
  5
276
100
AcDbEntity
  8
0
100
AcDbLine
 62
7
  6
CONTINUOUS
 10
5.0443095839
 20
11.9133290314
 11
5.0443095839
 21
12.0421872274
  0
LINE
  5
277
100
AcDbEntity
  8
0
100
AcDbLine
 62
7
  6
CONTINUOUS
 10
5.0443095839
 20
13.1577824174
 11
5.0443095839
 21
13.2867665314
  0
LINE
  5
278
100
AcDbEntity
  8
0
100
AcDbLine
 62
7
  6
CONTINUOUS
 10
4.9561585422
 20
12.488364216
 11
4.8752991672
 21
12.3483116703
  0
LINE
  5
279
100
AcDbEntity
  8
0
100
AcDbLine
 62
7
  6
CONTINUOUS
 10
5.1987366672
 20
12.8517838925
 11
5.1178772922
 21
12.7117313467
  0
LINE
  5
27A
100
AcDbEntity
  8
0
100
AcDbLine
 62
7
  6
CONTINUOUS
 10
4.9561585422
 20
12.7117313467
 11
4.8752991672
 21
12.8517838925
  0
LINE
  5
27B
100
AcDbEntity
  8
0
100
AcDbLine
 62
7
  6
CONTINUOUS
 10
5.1987366672
 20
12.3483116703
 11
5.1178772922
 21
12.488364216
  0
LINE
  5
27C
100
AcDbEntity
  8
0
100
AcDbLine
 62
7
  6
CONTINUOUS
 10
5.6489425246
 20
11.8633290314
 11
5.5553016432
 21
11.8633290314
  0
LINE
  5
27D
100
AcDbEntity
  8
0
100
AcDbLine
 62
7
  6
CONTINUOUS
 10
5.1178772922
 20
12.2082591245
 11
5.1987366672
 21
12.3483116703
  0
LINE
  5
27E
100
AcDbEntity
  8
0
100
AcDbLine
 62
7
  6
CONTINUOUS
 10
5.6508720839
 20
11.8945790314
 11
5.5533720839
 21
11.8945790314
  0
LINE
  5
27F
100
AcDbEntity
  8
0
100
AcDbLine
 62
7
  6
CONTINUOUS
 10
7.0849345839
 20
11.9008290314
 11
5.0568095839
 21
11.9008290314
  0
LINE
  5
280
100
AcDbEntity
  8
0
100
AcDbLine
 62
7
  6
CONTINUOUS
 10
7.0974345839
 20
11.9133290314
 11
5.0443095839
 21
11.9133290314
  0
LINE
  5
281
100
AcDbEntity
  8
0
100
AcDbLine
 62
7
  6
CONTINUOUS
 10
5.831202401
 20
12.032259497
 11
5.8302202851
 21
12.032259497
  0
LINE
  5
282
100
AcDbEntity
  8
0
100
AcDbLine
 62
7
  6
CONTINUOUS
 10
5.804618659
 20
11.9846249696
 11
5.8036367516
 21
11.9846313654
  0
LINE
  5
283
100
AcDbEntity
  8
0
100
AcDbLine
 62
7
  6
CONTINUOUS
 10
5.8311885442
 20
12.0005020794
 11
5.8302066368
 21
12.0005084752
  0
LINE
  5
284
100
AcDbEntity
  8
0
100
AcDbLine
 62
7
  6
CONTINUOUS
 10
5.8046463698
 20
12.0481334089
 11
5.8312023996
 21
12.0322562991
  0
LINE
  5
285
100
AcDbEntity
  8
0
100
AcDbLine
 62
7
  6
CONTINUOUS
 10
5.1178772922
 20
12.9918364382
 11
5.1987366672
 21
12.8517838925
  0
LINE
  5
286
100
AcDbEntity
  8
0
100
AcDbLine
 62
7
  6
CONTINUOUS
 10
5.5533720839
 20
11.8945790314
 11
5.5553016432
 21
11.8633290314
  0
LINE
  5
287
100
AcDbEntity
  8
0
100
AcDbLine
 62
7
  6
CONTINUOUS
 10
5.5533720839
 20
11.9008290314
 11
5.5533720839
 21
11.8945790314
  0
LINE
  5
288
100
AcDbEntity
  8
0
100
AcDbLine
 62
7
  6
CONTINUOUS
 10
5.5533720839
 20
13.2992665314
 11
5.5533720839
 21
13.3055165314
  0
LINE
  5
289
100
AcDbEntity
  8
0
100
AcDbLine
 62
7
  6
CONTINUOUS
 10
5.6021220839
 20
11.8945790314
 11
5.6021220839
 21
11.8633290314
  0
LINE
  5
28A
100
AcDbEntity
  8
0
100
AcDbLine
 62
7
  6
CONTINUOUS
 10
5.6021220839
 20
13.3055165314
 11
5.6021220839
 21
13.3367665314
  0
LINE
  5
28B
100
AcDbEntity
  8
0
100
AcDbLine
 62
7
  6
CONTINUOUS
 10
5.6508720839
 20
11.9008290314
 11
5.6508720839
 21
11.8945790314
  0
LINE
  5
28C
100
AcDbEntity
  8
0
100
AcDbLine
 62
7
  6
CONTINUOUS
 10
5.6508720839
 20
13.2992665314
 11
5.6508720839
 21
13.3055165314
  0
LINE
  5
28D
100
AcDbEntity
  8
0
100
AcDbLine
 62
7
  6
CONTINUOUS
 10
5.5533720839
 20
13.3055165314
 11
5.5553016432
 21
13.3367665314
  0
LINE
  5
28E
100
AcDbEntity
  8
0
100
AcDbLine
 62
7
  6
CONTINUOUS
 10
5.0375052805
 20
12.0531727814
 11
4.3715006386
 21
12.0531727814
  0
LINE
  5
28F
100
AcDbEntity
  8
0
100
AcDbLine
 62
7
  6
CONTINUOUS
 10
4.0489970839
 20
12.0531727814
 11
4.3522434425
 21
12.0531727814
  0
LINE
  5
290
100
AcDbEntity
  8
0
100
AcDbLine
 62
7
  6
CONTINUOUS
 10
7.1042405294
 20
12.0531727814
 11
8.0927470839
 21
12.0531727814
  0
LINE
  5
291
100
AcDbEntity
  8
0
100
AcDbLine
 62
7
  6
CONTINUOUS
 10
4.8260804172
 20
12.0656727814
 11
5.0370023633
 21
12.0656727814
  0
LINE
  5
292
100
AcDbEntity
  8
0
100
AcDbLine
 62
7
  6
CONTINUOUS
 10
7.1047418044
 20
12.0656727814
 11
7.3156637505
 21
12.0656727814
  0
LINE
  5
293
100
AcDbEntity
  8
0
100
AcDbLine
 62
7
  6
CONTINUOUS
 10
7.8130595839
 20
12.1781727814
 11
7.6177470839
 21
12.1781727814
  0
LINE
  5
294
100
AcDbEntity
  8
0
100
AcDbLine
 62
7
  6
CONTINUOUS
 10
4.5239970839
 20
12.1781727814
 11
4.3286845839
 21
12.1781727814
  0
LINE
  5
295
100
AcDbEntity
  8
0
100
AcDbLine
 62
7
  6
CONTINUOUS
 10
5.6508720839
 20
13.3055165314
 11
5.6489425246
 21
13.3367665314
  0
LINE
  5
296
100
AcDbEntity
  8
0
100
AcDbLine
 62
7
  6
CONTINUOUS
 10
5.741132114
 20
12.6203452518
 11
5.741132114
 21
12.579750311
  0
LINE
  5
297
100
AcDbEntity
  8
0
100
AcDbLine
 62
7
  6
CONTINUOUS
 10
5.6508720839
 20
11.8945790314
 11
5.6489425246
 21
11.8633290314
  0
LINE
  5
298
100
AcDbEntity
  8
0
100
AcDbLine
 62
7
  6
CONTINUOUS
 10
4.9561585422
 20
12.2082591245
 11
5.1178772922
 21
12.2082591245
  0
LINE
  5
299
100
AcDbEntity
  8
0
100
AcDbLine
 62
7
  6
CONTINUOUS
 10
7.0238668755
 20
12.2082591245
 11
7.1855856255
 21
12.2082591245
  0
LINE
  5
29A
100
AcDbEntity
  8
0
100
AcDbLine
 62
7
  6
CONTINUOUS
 10
5.8090487737
 20
12.579750311
 11
5.8090487737
 21
12.6203452518
  0
LINE
  5
29B
100
AcDbEntity
  8
0
100
AcDbLine
 62
7
  6
CONTINUOUS
 10
5.8116369642
 20
12.579750311
 11
5.8116369642
 21
12.6203452518
  0
LINE
  5
29C
100
AcDbEntity
  8
0
100
AcDbLine
 62
7
  6
CONTINUOUS
 10
5.8312023996
 20
12.0322562991
 11
5.8311885442
 21
12.0005020794
  0
LINE
  5
29D
100
AcDbEntity
  8
0
100
AcDbLine
 62
7
  6
CONTINUOUS
 10
5.7750904439
 20
12.6406427222
 11
5.741132114
 21
12.6203452518
  0
LINE
  5
29E
100
AcDbEntity
  8
0
100
AcDbLine
 62
7
  6
CONTINUOUS
 10
4.3286845839
 20
12.3656727814
 11
4.5239970839
 21
12.3656727814
  0
LINE
  5
29F
100
AcDbEntity
  8
0
100
AcDbLine
 62
7
  6
CONTINUOUS
 10
7.6177470839
 20
12.3656727814
 11
7.8130595839
 21
12.3656727814
  0
LINE
  5
2A0
100
AcDbEntity
  8
0
100
AcDbLine
 62
7
  6
CONTINUOUS
 10
5.741132114
 20
12.579750311
 11
5.7750904439
 21
12.5594528406
  0
LINE
  5
2A1
100
AcDbEntity
  8
0
100
AcDbLine
 62
7
  6
CONTINUOUS
 10
5.7750904439
 20
12.5594528406
 11
5.8090487737
 21
12.579750311
  0
LINE
  5
2A2
100
AcDbEntity
  8
0
100
AcDbLine
 62
7
  6
CONTINUOUS
 10
5.7776786343
 20
12.5594528406
 11
5.8116369642
 21
12.579750311
  0
LINE
  5
2A3
100
AcDbEntity
  8
0
100
AcDbLine
 62
7
  6
CONTINUOUS
 10
4.6217140789
 20
12.0531727814
 11
4.622285166
 21
12.0534287848
  0
LINE
  5
2A4
100
AcDbEntity
  8
0
100
AcDbLine
 62
7
  6
CONTINUOUS
 10
7.1855856255
 20
12.488364216
 11
7.0238668755
 21
12.488364216
  0
LINE
  5
2A5
100
AcDbEntity
  8
0
100
AcDbLine
 62
7
  6
CONTINUOUS
 10
5.1178772922
 20
12.488364216
 11
4.9561585422
 21
12.488364216
  0
LINE
  5
2A6
100
AcDbEntity
  8
0
100
AcDbLine
 62
7
  6
CONTINUOUS
 10
7.8130595839
 20
12.5115061147
 11
7.6177470839
 21
12.5115061147
  0
LINE
  5
2A7
100
AcDbEntity
  8
0
100
AcDbLine
 62
7
  6
CONTINUOUS
 10
4.5239970839
 20
12.5115061147
 11
4.3286845839
 21
12.5115061147
  0
LINE
  5
2A8
100
AcDbEntity
  8
0
100
AcDbLine
 62
7
  6
CONTINUOUS
 10
5.7776786343
 20
12.5594528406
 11
5.7750904439
 21
12.5594528406
  0
LINE
  5
2A9
100
AcDbEntity
  8
0
100
AcDbLine
 62
7
  6
CONTINUOUS
 10
5.8116369642
 20
12.579750311
 11
5.8090487737
 21
12.579750311
  0
LINE
  5
2AA
100
AcDbEntity
  8
0
100
AcDbLine
 62
7
  6
CONTINUOUS
 10
4.622285166
 20
13.1466667779
 11
4.6217140789
 21
13.1469227814
  0
LINE
  5
2AB
100
AcDbEntity
  8
0
100
AcDbLine
 62
7
  6
CONTINUOUS
 10
5.8090487737
 20
12.6203452518
 11
5.7750904439
 21
12.6406427222
  0
LINE
  5
2AC
100
AcDbEntity
  8
0
100
AcDbLine
 62
7
  6
CONTINUOUS
 10
5.8116369642
 20
12.6203452518
 11
5.7776786343
 21
12.6406427222
  0
LINE
  5
2AD
100
AcDbEntity
  8
0
100
AcDbLine
 62
7
  6
CONTINUOUS
 10
7.5200300889
 20
13.1469227814
 11
7.5194590017
 21
13.1466667779
  0
LINE
  5
2AE
100
AcDbEntity
  8
0
100
AcDbLine
 62
7
  6
CONTINUOUS
 10
5.8090487737
 20
12.6203452518
 11
5.8116369642
 21
12.6203452518
  0
LINE
  5
2AF
100
AcDbEntity
  8
0
100
AcDbLine
 62
7
  6
CONTINUOUS
 10
5.7776786343
 20
12.6406427222
 11
5.7750904439
 21
12.6406427222
  0
LINE
  5
2B0
100
AcDbEntity
  8
0
100
AcDbLine
 62
7
  6
CONTINUOUS
 10
4.3286845839
 20
12.688589448
 11
4.5239970839
 21
12.688589448
  0
LINE
  5
2B1
100
AcDbEntity
  8
0
100
AcDbLine
 62
7
  6
CONTINUOUS
 10
7.6177470839
 20
12.688589448
 11
7.8130595839
 21
12.688589448
  0
LINE
  5
2B2
100
AcDbEntity
  8
0
100
AcDbLine
 62
7
  6
CONTINUOUS
 10
7.1855856255
 20
12.7117313467
 11
7.0238668755
 21
12.7117313467
  0
LINE
  5
2B3
100
AcDbEntity
  8
0
100
AcDbLine
 62
7
  6
CONTINUOUS
 10
5.1178772922
 20
12.7117313467
 11
4.9561585422
 21
12.7117313467
  0
LINE
  5
2B4
100
AcDbEntity
  8
0
100
AcDbLine
 62
7
  6
CONTINUOUS
 10
7.5194590017
 20
12.0534287848
 11
7.5200300889
 21
12.0531727814
  0
LINE
  5
2B5
100
AcDbEntity
  8
0
100
AcDbLine
 62
7
  6
CONTINUOUS
 10
7.8130595839
 20
12.8344227814
 11
7.6177470839
 21
12.8344227814
  0
LINE
  5
2B6
100
AcDbEntity
  8
0
100
AcDbLine
 62
7
  6
CONTINUOUS
 10
4.5239970839
 20
12.8344227814
 11
4.3286845839
 21
12.8344227814
  0
LINE
  5
2B7
100
AcDbEntity
  8
0
100
AcDbLine
 62
7
  6
CONTINUOUS
 10
5.8311885442
 20
12.0005020794
 11
5.804618659
 21
11.9846249696
  0
LINE
  5
2B8
100
AcDbEntity
  8
0
100
AcDbLine
 62
7
  6
CONTINUOUS
 10
4.9561585422
 20
12.9918364382
 11
5.1178772922
 21
12.9918364382
  0
LINE
  5
2B9
100
AcDbEntity
  8
0
100
AcDbLine
 62
7
  6
CONTINUOUS
 10
7.0238668755
 20
12.9918364382
 11
7.1855856255
 21
12.9918364382
  0
LINE
  5
2BA
100
AcDbEntity
  8
0
100
AcDbLine
 62
7
  6
CONTINUOUS
 10
4.3286845839
 20
13.0219227814
 11
4.5239970839
 21
13.0219227814
  0
LINE
  5
2BB
100
AcDbEntity
  8
0
100
AcDbLine
 62
7
  6
CONTINUOUS
 10
7.6177470839
 20
13.0219227814
 11
7.8130595839
 21
13.0219227814
  0
LINE
  5
2BC
100
AcDbEntity
  8
0
100
AcDbLine
 62
7
  6
CONTINUOUS
 10
7.3156637505
 20
13.1344227814
 11
7.1047418044
 21
13.1344227814
  0
LINE
  5
2BD
100
AcDbEntity
  8
0
100
AcDbLine
 62
7
  6
CONTINUOUS
 10
5.0370023633
 20
13.1344227814
 11
4.8260804172
 21
13.1344227814
  0
LINE
  5
2BE
100
AcDbEntity
  8
0
100
AcDbLine
 62
7
  6
CONTINUOUS
 10
7.7702435291
 20
13.1469227814
 11
7.1043181573
 21
13.1469227814
  0
LINE
  5
2BF
100
AcDbEntity
  8
0
100
AcDbLine
 62
7
  6
CONTINUOUS
 10
4.0489970839
 20
13.1469227814
 11
5.0374260069
 21
13.1469227814
  0
LINE
  5
2C0
100
AcDbEntity
  8
0
100
AcDbLine
 62
7
  6
CONTINUOUS
 10
7.7895007252
 20
13.1469227814
 11
8.0927470839
 21
13.1469227814
  0
LINE
  5
2C1
100
AcDbEntity
  8
0
100
AcDbLine
 62
7
  6
CONTINUOUS
 10
6.9430075005
 20
12.8517838925
 11
7.0238668755
 21
12.9918364382
  0
LINE
  5
2C2
100
AcDbEntity
  8
0
100
AcDbLine
 62
7
  6
CONTINUOUS
 10
5.0443095839
 20
13.2867665314
 11
7.0974345839
 21
13.2867665314
  0
LINE
  5
2C3
100
AcDbEntity
  8
0
100
AcDbLine
 62
7
  6
CONTINUOUS
 10
5.0568095839
 20
13.2992665314
 11
7.0849345839
 21
13.2992665314
  0
LINE
  5
2C4
100
AcDbEntity
  8
0
100
AcDbLine
 62
7
  6
CONTINUOUS
 10
5.5533720839
 20
13.3055165314
 11
5.6508720839
 21
13.3055165314
  0
LINE
  5
2C5
100
AcDbEntity
  8
0
100
AcDbLine
 62
7
  6
CONTINUOUS
 10
5.5553016432
 20
13.3367665314
 11
5.6489425246
 21
13.3367665314
  0
LINE
  5
2C6
100
AcDbEntity
  8
0
100
AcDbLine
 62
7
  6
CONTINUOUS
 10
6.9430075005
 20
12.3483116703
 11
7.0238668755
 21
12.2082591245
  0
LINE
  5
2C7
100
AcDbEntity
  8
0
100
AcDbLine
 62
7
  6
CONTINUOUS
 10
7.0238668755
 20
12.488364216
 11
6.9430075005
 21
12.3483116703
  0
LINE
  5
2C8
100
AcDbEntity
  8
0
100
AcDbLine
 62
7
  6
CONTINUOUS
 10
7.0238668755
 20
12.7117313467
 11
6.9430075005
 21
12.8517838925
  0
LINE
  5
2C9
100
AcDbEntity
  8
0
100
AcDbLine
 62
7
  6
CONTINUOUS
 10
7.0974345839
 20
13.2867665314
 11
7.0974345839
 21
13.1577824174
  0
LINE
  5
2CA
100
AcDbEntity
  8
0
100
AcDbLine
 62
7
  6
CONTINUOUS
 10
7.0974345839
 20
11.9133290314
 11
7.0974345839
 21
12.0421863095
  0
LINE
  5
2CB
100
AcDbEntity
  8
0
100
AcDbLine
 62
7
  6
CONTINUOUS
 10
7.1021516762
 20
12.0719227814
 11
7.1021516762
 21
12.1616106709
  0
LINE
  5
2CC
100
AcDbEntity
  8
0
100
AcDbLine
 62
7
  6
CONTINUOUS
 10
7.1021516762
 20
12.5350126696
 11
7.1021516762
 21
12.6650828931
  0
LINE
  5
2CD
100
AcDbEntity
  8
0
100
AcDbLine
 62
7
  6
CONTINUOUS
 10
7.1021516762
 20
13.0384848919
 11
7.1021516762
 21
13.1281727814
  0
LINE
  5
2CE
100
AcDbEntity
  8
0
100
AcDbLine
 62
7
  6
CONTINUOUS
 10
7.2664450005
 20
12.8517838925
 11
7.1855856255
 21
12.7117313467
  0
LINE
  5
2CF
100
AcDbEntity
  8
0
100
AcDbLine
 62
7
  6
CONTINUOUS
 10
7.2664450005
 20
12.3483116703
 11
7.1855856255
 21
12.488364216
  0
LINE
  5
2D0
100
AcDbEntity
  8
0
100
AcDbLine
 62
7
  6
CONTINUOUS
 10
7.1855856255
 20
12.2082591245
 11
7.2664450005
 21
12.3483116703
  0
LINE
  5
2D1
100
AcDbEntity
  8
0
100
AcDbLine
 62
7
  6
CONTINUOUS
 10
7.1855856255
 20
12.9918364382
 11
7.2664450005
 21
12.8517838925
  0
LINE
  5
2D2
100
AcDbEntity
  8
0
100
AcDbLine
 62
7
  6
CONTINUOUS
 10
7.3781637505
 20
12.1281727814
 11
7.3781637505
 21
13.0719227814
  0
LINE
  5
2D3
100
AcDbEntity
  8
0
100
AcDbLine
 62
7
  6
CONTINUOUS
 10
7.0849345839
 20
11.9008290314
 11
7.0974345839
 21
11.9133290314
  0
LINE
  5
2D4
100
AcDbEntity
  8
0
100
AcDbLine
 62
7
  6
CONTINUOUS
 10
7.0849345839
 20
13.2992665314
 11
7.0974345839
 21
13.2867665314
  0
LINE
  5
2D5
100
AcDbEntity
  8
0
100
AcDbLine
 62
7
  6
CONTINUOUS
 10
8.1177470839
 20
12.0781727814
 11
8.1177470839
 21
13.1219227814
  0
LINE
  5
2D6
100
AcDbEntity
  8
0
100
AcDbLine
 62
7
  6
CONTINUOUS
 10
14.8611365069
 20
4.3164047812
 11
14.8736365069
 21
4.3039047812
  0
LINE
  5
2D7
100
AcDbEntity
  8
0
100
AcDbLine
 62
7
  6
CONTINUOUS
 10
14.8611365069
 20
6.4929672812
 11
14.8736365069
 21
6.5054672812
  0
LINE
  5
2D8
100
AcDbEntity
  8
0
100
AcDbLine
 62
7
  6
CONTINUOUS
 10
16.2658240069
 20
4.3364047812
 11
16.2970740069
 21
4.3383343405
  0
LINE
  5
2D9
100
AcDbEntity
  8
0
100
AcDbLine
 62
7
  6
CONTINUOUS
 10
16.1072302569
 20
4.2914047812
 11
15.0134802569
 21
4.2914047812
  0
LINE
  5
2DA
100
AcDbEntity
  8
0
100
AcDbLine
 62
7
  6
CONTINUOUS
 10
14.8736365069
 20
4.3039047812
 11
15.0134802569
 21
4.3039047812
  0
LINE
  5
2DB
100
AcDbEntity
  8
0
100
AcDbLine
 62
7
  6
CONTINUOUS
 10
16.1072302569
 20
4.3039047812
 11
16.2470740069
 21
4.3039047812
  0
LINE
  5
2DC
100
AcDbEntity
  8
0
100
AcDbLine
 62
7
  6
CONTINUOUS
 10
16.2658240069
 20
4.3364047812
 11
16.2595740069
 21
4.3364047812
  0
LINE
  5
2DD
100
AcDbEntity
  8
0
100
AcDbLine
 62
7
  6
CONTINUOUS
 10
14.8548865069
 20
4.3364047812
 11
14.8611365069
 21
4.3364047812
  0
LINE
  5
2DE
100
AcDbEntity
  8
0
100
AcDbLine
 62
7
  6
CONTINUOUS
 10
14.8548865069
 20
4.3364047812
 11
14.8236365069
 21
4.3383343405
  0
LINE
  5
2DF
100
AcDbEntity
  8
0
100
AcDbLine
 62
7
  6
CONTINUOUS
 10
14.8548865069
 20
4.3851547812
 11
14.8236365069
 21
4.3851547812
  0
LINE
  5
2E0
100
AcDbEntity
  8
0
100
AcDbLine
 62
7
  6
CONTINUOUS
 10
16.2658240069
 20
4.3851547812
 11
16.2970740069
 21
4.3851547812
  0
LINE
  5
2E1
100
AcDbEntity
  8
0
100
AcDbLine
 62
7
  6
CONTINUOUS
 10
16.2658240069
 20
4.4339047812
 11
16.2595740069
 21
4.4339047812
  0
LINE
  5
2E2
100
AcDbEntity
  8
0
100
AcDbLine
 62
7
  6
CONTINUOUS
 10
14.8548865069
 20
4.4339047812
 11
14.8611365069
 21
4.4339047812
  0
LINE
  5
2E3
100
AcDbEntity
  8
0
100
AcDbLine
 62
7
  6
CONTINUOUS
 10
14.8548865069
 20
4.4339047812
 11
14.8236365069
 21
4.4319752219
  0
LINE
  5
2E4
100
AcDbEntity
  8
0
100
AcDbLine
 62
7
  6
CONTINUOUS
 10
16.2658240069
 20
4.4339047812
 11
16.2970740069
 21
4.4319752219
  0
LINE
  5
2E5
100
AcDbEntity
  8
0
100
AcDbLine
 62
7
  6
CONTINUOUS
 10
15.0134802569
 20
4.6351547812
 11
16.1072302569
 21
4.6351547812
  0
LINE
  5
2E6
100
AcDbEntity
  8
0
100
AcDbLine
 62
7
  6
CONTINUOUS
 10
14.8236365069
 20
4.3383343405
 11
14.8236365069
 21
4.4319752219
  0
LINE
  5
2E7
100
AcDbEntity
  8
0
100
AcDbLine
 62
7
  6
CONTINUOUS
 10
14.8548865069
 20
4.3364047812
 11
14.8548865069
 21
4.4339047812
  0
LINE
  5
2E8
100
AcDbEntity
  8
0
100
AcDbLine
 62
7
  6
CONTINUOUS
 10
14.8611365069
 20
4.3164047812
 11
14.8611365069
 21
6.4929669792
  0
LINE
  5
2E9
100
AcDbEntity
  8
0
100
AcDbLine
 62
7
  6
CONTINUOUS
 10
14.8736365069
 20
4.3039047812
 11
14.8736365069
 21
6.5054672812
  0
LINE
  5
2EA
100
AcDbEntity
  8
0
100
AcDbLine
 62
7
  6
CONTINUOUS
 10
15.0134802569
 20
4.2914047812
 11
15.0134802569
 21
4.6351547812
  0
LINE
  5
2EB
100
AcDbEntity
  8
0
100
AcDbLine
 62
7
  6
CONTINUOUS
 10
15.0134802569
 20
4.6351547812
 11
15.0168191953
 21
6.5992349817
  0
LINE
  5
2EC
100
AcDbEntity
  8
0
100
AcDbLine
 62
7
  6
CONTINUOUS
 10
15.0259802569
 20
5.9414047812
 11
15.0259802569
 21
5.0462185392
  0
LINE
  5
2ED
100
AcDbEntity
  8
0
100
AcDbLine
 62
7
  6
CONTINUOUS
 10
15.0266586182
 20
5.0301066238
 11
15.0262854996
 21
4.8192807647
  0
LINE
  5
2EE
100
AcDbEntity
  8
0
100
AcDbLine
 62
7
  6
CONTINUOUS
 10
16.0322302569
 20
4.9490460569
 11
15.0884802569
 21
4.9490460569
  0
LINE
  5
2EF
100
AcDbEntity
  8
0
100
AcDbLine
 62
7
  6
CONTINUOUS
 10
15.1469003958
 20
5.9476547812
 11
15.1469003958
 21
5.9601547812
  0
LINE
  5
2F0
100
AcDbEntity
  8
0
100
AcDbLine
 62
7
  6
CONTINUOUS
 10
15.1685666001
 20
5.9601547812
 11
15.1685666001
 21
6.0968735312
  0
LINE
  5
2F1
100
AcDbEntity
  8
0
100
AcDbLine
 62
7
  6
CONTINUOUS
 10
15.3086191458
 20
5.9601547812
 11
15.3086191458
 21
6.0752073269
  0
LINE
  5
2F2
100
AcDbEntity
  8
0
100
AcDbLine
 62
7
  6
CONTINUOUS
 10
15.4486716916
 20
5.9601547812
 11
15.4486716916
 21
6.0968735312
  0
LINE
  5
2F3
100
AcDbEntity
  8
0
100
AcDbLine
 62
7
  6
CONTINUOUS
 10
15.4703378958
 20
5.9476547812
 11
15.4703378958
 21
5.9601547812
  0
LINE
  5
2F4
100
AcDbEntity
  8
0
100
AcDbLine
 62
7
  6
CONTINUOUS
 10
15.4718135903
 20
4.6372630388
 11
15.4718135903
 21
4.7258738229
  0
LINE
  5
2F5
100
AcDbEntity
  8
0
100
AcDbLine
 62
7
  6
CONTINUOUS
 10
15.6488969236
 20
4.7258738229
 11
15.6488969236
 21
4.6351547812
  0
LINE
  5
2F6
100
AcDbEntity
  8
0
100
AcDbLine
 62
7
  6
CONTINUOUS
 10
15.650372618
 20
5.9476547812
 11
15.650372618
 21
5.9601547812
  0
LINE
  5
2F7
100
AcDbEntity
  8
0
100
AcDbLine
 62
7
  6
CONTINUOUS
 10
15.0025347092
 20
5.4789047812
 11
15.0259802569
 21
5.4789047812
  0
LINE
  5
2F8
100
AcDbEntity
  8
0
100
AcDbLine
 62
7
  6
CONTINUOUS
 10
16.1179221331
 20
5.4789047812
 11
16.0947291884
 21
5.4789047779
  0
LINE
  5
2F9
100
AcDbEntity
  8
0
100
AcDbLine
 62
7
  6
CONTINUOUS
 10
15.6720388223
 20
5.9601547812
 11
15.6720388223
 21
6.0968735312
  0
LINE
  5
2FA
100
AcDbEntity
  8
0
100
AcDbLine
 62
7
  6
CONTINUOUS
 10
15.812091368
 20
5.9601547812
 11
15.812091368
 21
6.0752073269
  0
LINE
  5
2FB
100
AcDbEntity
  8
0
100
AcDbLine
 62
7
  6
CONTINUOUS
 10
15.9521439138
 20
5.9601547812
 11
15.9521439138
 21
6.0968735312
  0
LINE
  5
2FC
100
AcDbEntity
  8
0
100
AcDbLine
 62
7
  6
CONTINUOUS
 10
15.973810118
 20
5.9476547812
 11
15.973810118
 21
5.9601547812
  0
LINE
  5
2FD
100
AcDbEntity
  8
0
100
AcDbLine
 62
7
  6
CONTINUOUS
 10
16.0924509754
 20
5.9462313633
 11
16.0924485067
 21
5.9476616305
  0
LINE
  5
2FE
100
AcDbEntity
  8
0
100
AcDbLine
 62
7
  6
CONTINUOUS
 10
16.092383789
 20
5.9851566479
 11
16.0913023225
 21
6.6117172812
  0
LINE
  5
2FF
100
AcDbEntity
  8
0
100
AcDbLine
 62
7
  6
CONTINUOUS
 10
16.0947302569
 20
5.0462185392
 11
16.0947302569
 21
5.9414047812
  0
LINE
  5
300
100
AcDbEntity
  8
0
100
AcDbLine
 62
7
  6
CONTINUOUS
 10
16.1038023082
 20
6.599222731
 11
16.1072302569
 21
4.6226547812
  0
LINE
  5
301
100
AcDbEntity
  8
0
100
AcDbLine
 62
7
  6
CONTINUOUS
 10
16.1072302569
 20
4.2914047812
 11
16.1072302569
 21
4.6226547812
  0
LINE
  5
302
100
AcDbEntity
  8
0
100
AcDbLine
 62
7
  6
CONTINUOUS
 10
15.0322302569
 20
5.9476547812
 11
16.0884802569
 21
5.9476547812
  0
LINE
  5
303
100
AcDbEntity
  8
0
100
AcDbLine
 62
7
  6
CONTINUOUS
 10
15.1469003958
 20
5.9601547812
 11
15.4703378958
 21
5.9601547812
  0
LINE
  5
304
100
AcDbEntity
  8
0
100
AcDbLine
 62
7
  6
CONTINUOUS
 10
15.650372618
 20
5.9601547812
 11
15.973810118
 21
5.9601547812
  0
LINE
  5
305
100
AcDbEntity
  8
0
100
AcDbLine
 62
7
  6
CONTINUOUS
 10
15.1685666001
 20
6.0968735312
 11
15.4486716916
 21
6.0968735312
  0
LINE
  5
306
100
AcDbEntity
  8
0
100
AcDbLine
 62
7
  6
CONTINUOUS
 10
15.6720388223
 20
6.0968735312
 11
15.9521439138
 21
6.0968735312
  0
LINE
  5
307
100
AcDbEntity
  8
0
100
AcDbLine
 62
7
  6
CONTINUOUS
 10
16.2470740069
 20
6.5054672812
 11
16.2470740069
 21
4.3039047812
  0
LINE
  5
308
100
AcDbEntity
  8
0
100
AcDbLine
 62
7
  6
CONTINUOUS
 10
16.2595740069
 20
4.3164047812
 11
16.2595740069
 21
6.4929669792
  0
LINE
  5
309
100
AcDbEntity
  8
0
100
AcDbLine
 62
7
  6
CONTINUOUS
 10
16.2658240069
 20
4.4339047812
 11
16.2658240069
 21
4.3364047812
  0
LINE
  5
30A
100
AcDbEntity
  8
0
100
AcDbLine
 62
7
  6
CONTINUOUS
 10
16.2970740069
 20
4.4319752219
 11
16.2970740069
 21
4.3383343405
  0
LINE
  5
30B
100
AcDbEntity
  8
0
100
AcDbLine
 62
7
  6
CONTINUOUS
 10
14.8736365069
 20
6.5054672812
 11
15.0041831099
 21
6.5054672812
  0
LINE
  5
30C
100
AcDbEntity
  8
0
100
AcDbLine
 62
7
  6
CONTINUOUS
 10
16.1164835726
 20
6.5054672812
 11
16.2470740069
 21
6.5054672812
  0
LINE
  5
30D
100
AcDbEntity
  8
0
100
AcDbLine
 62
7
  6
CONTINUOUS
 10
15.0293188701
 20
6.6117172812
 11
16.0913916704
 21
6.6117172812
  0
LINE
  5
30E
100
AcDbEntity
  8
0
100
AcDbLine
 62
7
  6
CONTINUOUS
 10
16.2470740069
 20
4.3039047812
 11
16.2595740069
 21
4.3164047812
  0
LINE
  5
30F
100
AcDbEntity
  8
0
100
AcDbLine
 62
7
  6
CONTINUOUS
 10
16.2595740069
 20
6.4929672812
 11
16.2470740069
 21
6.5054672812
  0
LINE
  5
310
100
AcDbEntity
  8
0
100
AcDbLine
 62
7
  6
CONTINUOUS
 10
13.5110057207
 20
11.4068385353
 11
13.4099606024
 21
11.6127468373
  0
LINE
  5
311
100
AcDbEntity
  8
0
100
AcDbLine
 62
7
  6
CONTINUOUS
 10
13.950046497
 20
11.6119473569
 11
13.905891228
 21
11.7033250381
  0
LINE
  5
312
100
AcDbEntity
  8
0
100
AcDbLine
 62
7
  6
CONTINUOUS
 10
13.4089478707
 20
11.6274509972
 11
13.6616045958
 21
12.4450484591
  0
LINE
  5
313
100
AcDbEntity
  8
0
100
AcDbLine
 62
7
  6
CONTINUOUS
 10
13.7001933345
 20
12.4845201922
 11
13.9286434272
 21
13.2237849632
  0
LINE
  5
314
100
AcDbEntity
  8
0
100
AcDbLine
 62
7
  6
CONTINUOUS
 10
14.4070870391
 20
11.3020152225
 11
14.401828941
 21
11.3077693305
  0
LINE
  5
315
100
AcDbEntity
  8
0
100
AcDbLine
 62
7
  6
CONTINUOUS
 10
13.7018661673
 20
12.4551409768
 11
14.0000103957
 21
11.8475869175
  0
LINE
  5
316
100
AcDbEntity
  8
0
100
AcDbLine
 62
7
  6
CONTINUOUS
 10
13.9371172278
 20
12.4337169643
 11
13.9328829878
 21
12.4003555685
  0
LINE
  5
317
100
AcDbEntity
  8
0
100
AcDbLine
 62
7
  6
CONTINUOUS
 10
13.9487149502
 20
12.4825315134
 11
13.972257744
 21
12.5587160263
  0
LINE
  5
318
100
AcDbEntity
  8
0
100
AcDbLine
 62
7
  6
CONTINUOUS
 10
14.0626508603
 20
12.851228258
 11
14.0941314137
 21
12.9530993662
  0
LINE
  5
319
100
AcDbEntity
  8
0
100
AcDbLine
 62
7
  6
CONTINUOUS
 10
14.1845245301
 20
13.245611598
 11
14.2062425229
 21
13.3158910073
  0
LINE
  5
31A
100
AcDbEntity
  8
0
100
AcDbLine
 62
7
  6
CONTINUOUS
 10
14.4073377755
 20
11.3022443452
 11
14.4088330878
 21
11.3001122925
  0
LINE
  5
31B
100
AcDbEntity
  8
0
100
AcDbLine
 62
7
  6
CONTINUOUS
 10
14.3988503421
 20
11.3120359316
 11
14.401828941
 21
11.3077693305
  0
LINE
  5
31C
100
AcDbEntity
  8
0
100
AcDbLine
 62
7
  6
CONTINUOUS
 10
13.9877653859
 20
12.1418826263
 11
13.987733854
 21
12.1419462084
  0
LINE
  5
31D
100
AcDbEntity
  8
0
100
AcDbLine
 62
7
  6
CONTINUOUS
 10
14.0480521955
 20
12.0268873951
 11
14.3988503421
 21
11.3120359316
  0
LINE
  5
31E
100
AcDbEntity
  8
0
100
AcDbLine
 62
7
  6
CONTINUOUS
 10
14.4073377755
 20
11.3022443452
 11
14.0565396289
 21
12.0170958087
  0
LINE
  5
31F
100
AcDbEntity
  8
0
100
AcDbLine
 62
7
  6
CONTINUOUS
 10
14.0127796617
 20
12.3299772749
 11
14.0441714124
 21
12.4315610171
  0
LINE
  5
320
100
AcDbEntity
  8
0
100
AcDbLine
 62
7
  6
CONTINUOUS
 10
16.2709241603
 20
11.2948277395
 11
16.2810228081
 21
11.2972027202
  0
LINE
  5
321
100
AcDbEntity
  8
0
100
AcDbLine
 62
7
  6
CONTINUOUS
 10
16.2676643649
 20
11.2944742206
 11
16.2709209931
 21
11.2948310938
  0
LINE
  5
322
100
AcDbEntity
  8
0
100
AcDbLine
 62
7
  6
CONTINUOUS
 10
14.840243275
 20
11.3078351468
 11
14.8976499513
 21
11.2787310942
  0
LINE
  5
323
100
AcDbEntity
  8
0
100
AcDbLine
 62
7
  6
CONTINUOUS
 10
14.9264922383
 20
11.3078351468
 11
14.869085562
 21
11.3369391995
  0
LINE
  5
324
100
AcDbEntity
  8
0
100
AcDbLine
 62
7
  6
CONTINUOUS
 10
14.8760615383
 20
11.3626175987
 11
14.9358340527
 21
11.3323141127
  0
LINE
  5
325
100
AcDbEntity
  8
0
100
AcDbLine
 62
7
  6
CONTINUOUS
 10
13.8914509544
 20
12.5570638707
 11
13.8563551111
 21
12.62858168
  0
LINE
  5
326
100
AcDbEntity
  8
0
100
AcDbLine
 62
7
  6
CONTINUOUS
 10
14.0235471204
 20
11.9047032036
 11
14.0159145327
 21
11.8772602728
  0
LINE
  5
327
100
AcDbEntity
  8
0
100
AcDbLine
 62
7
  6
CONTINUOUS
 10
14.5238712948
 20
13.2509106423
 11
14.5172347969
 21
13.2294349271
  0
LINE
  5
328
100
AcDbEntity
  8
0
100
AcDbLine
 62
7
  6
CONTINUOUS
 10
14.5604768835
 20
13.2827896871
 11
14.5536197615
 21
13.2783662882
  0
LINE
  5
329
100
AcDbEntity
  8
0
100
AcDbLine
 62
7
  6
CONTINUOUS
 10
16.2676643649
 20
11.2944742206
 11
14.913251482
 21
11.2944742206
  0
LINE
  5
32A
100
AcDbEntity
  8
0
100
AcDbLine
 62
7
  6
CONTINUOUS
 10
14.8665972119
 20
11.2944742206
 11
14.4226640613
 21
11.2944742206
  0
LINE
  5
32B
100
AcDbEntity
  8
0
100
AcDbLine
 62
7
  6
CONTINUOUS
 10
17.2519377484
 20
11.3982689303
 11
16.3196916622
 21
11.3982689303
  0
LINE
  5
32C
100
AcDbEntity
  8
0
100
AcDbLine
 62
7
  6
CONTINUOUS
 10
14.3565333327
 20
11.3982689303
 11
13.5273973539
 21
11.3982689303
  0
LINE
  5
32D
100
AcDbEntity
  8
0
100
AcDbLine
 62
7
  6
CONTINUOUS
 10
14.0133246242
 20
12.9514472106
 11
13.9782287809
 21
13.02296502
  0
LINE
  5
32E
100
AcDbEntity
  8
0
100
AcDbLine
 62
7
  6
CONTINUOUS
 10
14.0852695434
 20
12.8232209721
 11
14.0731119534
 21
12.8479955358
  0
LINE
  5
32F
100
AcDbEntity
  8
0
100
AcDbLine
 62
7
  6
CONTINUOUS
 10
14.5542788755
 20
13.2667175749
 11
14.5547564203
 21
13.2687094172
  0
LINE
  5
330
100
AcDbEntity
  8
0
100
AcDbLine
 62
7
  6
CONTINUOUS
 10
14.5742389658
 20
13.2407471184
 11
14.5840656339
 21
13.272546228
  0
LINE
  5
331
100
AcDbEntity
  8
0
100
AcDbLine
 62
7
  6
CONTINUOUS
 10
14.5795693252
 20
13.2347428272
 11
14.5893959933
 21
13.2665419367
  0
LINE
  5
332
100
AcDbEntity
  8
0
100
AcDbLine
 62
7
  6
CONTINUOUS
 10
14.4964189815
 20
12.7419740095
 11
14.4887038192
 21
12.7171322176
  0
LINE
  5
333
100
AcDbEntity
  8
0
100
AcDbLine
 62
7
  6
CONTINUOUS
 10
14.5408235473
 20
13.219191468
 11
14.5742389658
 21
13.2407471184
  0
LINE
  5
334
100
AcDbEntity
  8
0
100
AcDbLine
 62
7
  6
CONTINUOUS
 10
14.5461539068
 20
13.2131871768
 11
14.5795693252
 21
13.2347428272
  0
LINE
  5
335
100
AcDbEntity
  8
0
100
AcDbLine
 62
7
  6
CONTINUOUS
 10
14.5321987873
 20
12.0373813113
 11
14.5325899672
 21
12.0365810656
  0
LINE
  5
336
100
AcDbEntity
  8
0
100
AcDbLine
 62
7
  6
CONTINUOUS
 10
14.5382504454
 20
12.056964484
 11
14.5386416253
 21
12.0561642383
  0
LINE
  5
337
100
AcDbEntity
  8
0
100
AcDbLine
 62
7
  6
CONTINUOUS
 10
14.5285646208
 20
12.0364725277
 11
14.5289239805
 21
12.0356681977
  0
LINE
  5
338
100
AcDbEntity
  8
0
100
AcDbLine
 62
7
  6
CONTINUOUS
 10
14.5346162789
 20
12.0560557004
 11
14.5349756386
 21
12.0552513705
  0
LINE
  5
339
100
AcDbEntity
  8
0
100
AcDbLine
 62
7
  6
CONTINUOUS
 10
14.5222169533
 20
12.0344744373
 11
14.5225468274
 21
12.0336689363
  0
LINE
  5
33A
100
AcDbEntity
  8
0
100
AcDbLine
 62
7
  6
CONTINUOUS
 10
14.5282686114
 20
12.0540576101
 11
14.5285984855
 21
12.053252109
  0
LINE
  5
33B
100
AcDbEntity
  8
0
100
AcDbLine
 62
7
  6
CONTINUOUS
 10
14.5239026362
 20
12.0344117773
 11
14.5241857258
 21
12.0336107899
  0
LINE
  5
33C
100
AcDbEntity
  8
0
100
AcDbLine
 62
7
  6
CONTINUOUS
 10
14.5296688125
 20
12.0364496928
 11
14.5299519021
 21
12.0356487054
  0
LINE
  5
33D
100
AcDbEntity
  8
0
100
AcDbLine
 62
7
  6
CONTINUOUS
 10
14.5299542942
 20
12.0539949501
 11
14.5302373839
 21
12.0531939626
  0
LINE
  5
33E
100
AcDbEntity
  8
0
100
AcDbLine
 62
7
  6
CONTINUOUS
 10
14.5357204706
 20
12.0560328655
 11
14.5360035602
 21
12.0552318781
  0
LINE
  5
33F
100
AcDbEntity
  8
0
100
AcDbLine
 62
7
  6
CONTINUOUS
 10
14.5323076969
 20
12.0373811226
 11
14.5325899672
 21
12.0365810656
  0
LINE
  5
340
100
AcDbEntity
  8
0
100
AcDbLine
 62
7
  6
CONTINUOUS
 10
14.5383593549
 20
12.0569642953
 11
14.5386416253
 21
12.0561642383
  0
LINE
  5
341
100
AcDbEntity
  8
0
100
AcDbLine
 62
7
  6
CONTINUOUS
 10
14.5172220644
 20
12.1748348879
 11
14.5171318386
 21
12.1743329072
  0
LINE
  5
342
100
AcDbEntity
  8
0
100
AcDbLine
 62
7
  6
CONTINUOUS
 10
14.5032282646
 20
12.1672668206
 11
14.5033055684
 21
12.1676666709
  0
LINE
  5
343
100
AcDbEntity
  8
0
100
AcDbLine
 62
7
  6
CONTINUOUS
 10
14.5181615902
 20
12.1745848582
 11
14.5180651289
 21
12.1740855532
  0
LINE
  5
344
100
AcDbEntity
  8
0
100
AcDbLine
 62
7
  6
CONTINUOUS
 10
14.5031710267
 20
12.1672844567
 11
14.5034402547
 21
12.1681550469
  0
LINE
  5
345
100
AcDbEntity
  8
0
100
AcDbLine
 62
7
  6
CONTINUOUS
 10
14.5033055684
 20
12.1676666709
 11
14.5034796373
 21
12.1681428353
  0
LINE
  5
346
100
AcDbEntity
  8
0
100
AcDbLine
 62
7
  6
CONTINUOUS
 10
14.5068549472
 20
12.1773759732
 11
14.5069938323
 21
12.1777558924
  0
LINE
  5
347
100
AcDbEntity
  8
0
100
AcDbLine
 62
7
  6
CONTINUOUS
 10
14.5066434675
 20
12.1774460415
 11
14.5067870573
 21
12.1778245841
  0
LINE
  5
348
100
AcDbEntity
  8
0
100
AcDbLine
 62
7
  6
CONTINUOUS
 10
14.251675191
 20
11.6119473569
 11
13.719584657
 21
11.6119473569
  0
LINE
  5
349
100
AcDbEntity
  8
0
100
AcDbLine
 62
7
  6
CONTINUOUS
 10
16.2303360862
 20
11.6119473569
 11
16.8500341621
 21
11.6119473569
  0
LINE
  5
34A
100
AcDbEntity
  8
0
100
AcDbLine
 62
7
  6
CONTINUOUS
 10
16.9197286505
 20
11.7098632206
 11
16.7398339251
 21
11.7098632206
  0
LINE
  5
34B
100
AcDbEntity
  8
0
100
AcDbLine
 62
7
  6
CONTINUOUS
 10
13.8903014749
 20
11.7098632206
 11
13.7104067495
 21
11.7098632206
  0
LINE
  5
34C
100
AcDbEntity
  8
0
100
AcDbLine
 62
7
  6
CONTINUOUS
 10
14.2070918871
 20
13.2177089035
 11
14.1949856232
 21
13.2423788757
  0
LINE
  5
34D
100
AcDbEntity
  8
0
100
AcDbLine
 62
7
  6
CONTINUOUS
 10
14.5169872923
 20
12.1951805617
 11
14.5172856269
 21
12.195843998
  0
LINE
  5
34E
100
AcDbEntity
  8
0
100
AcDbLine
 62
7
  6
CONTINUOUS
 10
14.5237975527
 20
12.191540277
 11
14.5234623261
 21
12.1908848563
  0
LINE
  5
34F
100
AcDbEntity
  8
0
100
AcDbLine
 62
7
  6
CONTINUOUS
 10
14.5185380987
 20
12.194828586
 11
14.5181955111
 21
12.1941706572
  0
LINE
  5
350
100
AcDbEntity
  8
0
100
AcDbLine
 62
7
  6
CONTINUOUS
 10
14.5150382801
 20
12.1961392258
 11
14.5153806983
 21
12.1967900675
  0
LINE
  5
351
100
AcDbEntity
  8
0
100
AcDbLine
 62
7
  6
CONTINUOUS
 10
14.5165427777
 20
12.1955727024
 11
14.5169369238
 21
12.1962015123
  0
LINE
  5
352
100
AcDbEntity
  8
0
100
AcDbLine
 62
7
  6
CONTINUOUS
 10
14.517402151
 20
12.1950340648
 11
14.5177962699
 21
12.1956628513
  0
LINE
  5
353
100
AcDbEntity
  8
0
100
AcDbLine
 62
7
  6
CONTINUOUS
 10
14.5251858386
 20
12.19102138
 11
14.5247897677
 21
12.19039092
  0
LINE
  5
354
100
AcDbEntity
  8
0
100
AcDbLine
 62
7
  6
CONTINUOUS
 10
14.5199856356
 20
12.1942834883
 11
14.5195854839
 21
12.1936495521
  0
LINE
  5
355
100
AcDbEntity
  8
0
100
AcDbLine
 62
7
  6
CONTINUOUS
 10
14.4887038192
 20
12.7171322176
 11
14.4625512798
 21
12.7002869916
  0
LINE
  5
356
100
AcDbEntity
  8
0
100
AcDbLine
 62
7
  6
CONTINUOUS
 10
13.7557941851
 20
11.8567370161
 11
13.9356889105
 21
11.8567370161
  0
LINE
  5
357
100
AcDbEntity
  8
0
100
AcDbLine
 62
7
  6
CONTINUOUS
 10
16.7852213607
 20
11.8567370161
 11
16.9651160861
 21
11.8567370161
  0
LINE
  5
358
100
AcDbEntity
  8
0
100
AcDbLine
 62
7
  6
CONTINUOUS
 10
14.4441146797
 20
12.7082860594
 11
14.4420928676
 21
12.7105634931
  0
LINE
  5
359
100
AcDbEntity
  8
0
100
AcDbLine
 62
7
  6
CONTINUOUS
 10
14.4625512798
 20
12.7002869916
 11
14.4605305985
 21
12.7025699056
  0
LINE
  5
35A
100
AcDbEntity
  8
0
100
AcDbLine
 62
7
  6
CONTINUOUS
 10
13.7910955239
 20
11.9709721905
 11
13.9394616981
 21
11.9709721905
  0
LINE
  5
35B
100
AcDbEntity
  8
0
100
AcDbLine
 62
7
  6
CONTINUOUS
 10
16.8205226995
 20
11.9709721905
 11
17.0004174249
 21
11.9709721905
  0
LINE
  5
35C
100
AcDbEntity
  8
0
100
AcDbLine
 62
7
  6
CONTINUOUS
 10
14.4964197585
 20
12.7419765112
 11
14.4943970997
 21
12.7442548988
  0
LINE
  5
35D
100
AcDbEntity
  8
0
100
AcDbLine
 62
7
  6
CONTINUOUS
 10
14.4887038192
 20
12.7171322176
 11
14.4866831379
 21
12.7194151316
  0
LINE
  5
35E
100
AcDbEntity
  8
0
100
AcDbLine
 62
7
  6
CONTINUOUS
 10
14.8460306058
 20
11.3323141127
 11
14.840243275
 21
11.3078351468
  0
LINE
  5
35F
100
AcDbEntity
  8
0
100
AcDbLine
 62
7
  6
CONTINUOUS
 10
14.8760615383
 20
11.3626175987
 11
14.869085562
 21
11.3369391995
  0
LINE
  5
360
100
AcDbEntity
  8
0
100
AcDbLine
 62
7
  6
CONTINUOUS
 10
17.0785846752
 20
12.223921505
 11
16.8986899498
 21
12.223921505
  0
LINE
  5
361
100
AcDbEntity
  8
0
100
AcDbLine
 62
7
  6
CONTINUOUS
 10
16.9440773854
 20
12.3707953006
 11
17.1239721108
 21
12.3707953006
  0
LINE
  5
362
100
AcDbEntity
  8
0
100
AcDbLine
 62
7
  6
CONTINUOUS
 10
14.4625512798
 20
12.7002869916
 11
14.4441139027
 21
12.7082835576
  0
LINE
  5
363
100
AcDbEntity
  8
0
100
AcDbLine
 62
7
  6
CONTINUOUS
 10
14.5172347969
 20
13.2294349271
 11
14.5225651564
 21
13.2234306359
  0
LINE
  5
364
100
AcDbEntity
  8
0
100
AcDbLine
 62
7
  6
CONTINUOUS
 10
14.5461539068
 20
13.2131871768
 11
14.5408235473
 21
13.219191468
  0
LINE
  5
365
100
AcDbEntity
  8
0
100
AcDbLine
 62
7
  6
CONTINUOUS
 10
14.5795693252
 20
13.2347428272
 11
14.5742389658
 21
13.2407471184
  0
LINE
  5
366
100
AcDbEntity
  8
0
100
AcDbLine
 62
7
  6
CONTINUOUS
 10
14.5840656339
 20
13.272546228
 11
14.5893959933
 21
13.2665419367
  0
LINE
  5
367
100
AcDbEntity
  8
0
100
AcDbLine
 62
7
  6
CONTINUOUS
 10
14.9358340527
 20
11.3323141127
 11
14.9264922383
 21
11.3078351468
  0
LINE
  5
368
100
AcDbEntity
  8
0
100
AcDbLine
 62
7
  6
CONTINUOUS
 10
17.4126268423
 20
12.4636494533
 11
17.1550175955
 21
12.4636494533
  0
LINE
  5
369
100
AcDbEntity
  8
0
100
AcDbLine
 62
7
  6
CONTINUOUS
 10
13.6990271498
 20
12.4636494533
 11
13.6880864478
 21
12.4636494533
  0
LINE
  5
36A
100
AcDbEntity
  8
0
100
AcDbLine
 62
7
  6
CONTINUOUS
 10
17.1147942033
 20
12.4687111643
 11
16.8843323633
 21
12.4687111643
  0
LINE
  5
36B
100
AcDbEntity
  8
0
100
AcDbLine
 62
7
  6
CONTINUOUS
 10
15.4841662354
 20
11.9132330758
 11
15.4841233618
 21
11.9127268602
  0
LINE
  5
36C
100
AcDbEntity
  8
0
100
AcDbLine
 62
7
  6
CONTINUOUS
 10
15.4836484325
 20
11.9079817403
 11
15.4835697438
 21
11.9073040018
  0
LINE
  5
36D
100
AcDbEntity
  8
0
100
AcDbLine
 62
7
  6
CONTINUOUS
 10
15.4842381362
 20
11.8971804645
 11
15.4841948325
 21
11.8968069951
  0
LINE
  5
36E
100
AcDbEntity
  8
0
100
AcDbLine
 62
7
  6
CONTINUOUS
 10
15.4805447726
 20
11.8975195495
 11
15.4805879961
 21
11.8978890526
  0
LINE
  5
36F
100
AcDbEntity
  8
0
100
AcDbLine
 62
7
  6
CONTINUOUS
 10
15.4828195929
 20
11.8873458038
 11
15.4827017754
 21
11.8866767573
  0
LINE
  5
370
100
AcDbEntity
  8
0
100
AcDbLine
 62
7
  6
CONTINUOUS
 10
15.4821295497
 20
11.8975446101
 11
15.4820637482
 21
11.8971761328
  0
LINE
  5
371
100
AcDbEntity
  8
0
100
AcDbLine
 62
7
  6
CONTINUOUS
 10
15.4700573286
 20
11.8788120395
 11
15.4701859877
 21
11.879478007
  0
LINE
  5
372
100
AcDbEntity
  8
0
100
AcDbLine
 62
7
  6
CONTINUOUS
 10
15.4841662354
 20
11.9132330758
 11
15.4840707384
 21
11.9127391082
  0
LINE
  5
373
100
AcDbEntity
  8
0
100
AcDbLine
 62
7
  6
CONTINUOUS
 10
15.4831733038
 20
11.9080970405
 11
15.4830447623
 21
11.907432147
  0
LINE
  5
374
100
AcDbEntity
  8
0
100
AcDbLine
 62
7
  6
CONTINUOUS
 10
15.4811817568
 20
11.8977955701
 11
15.4811109233
 21
11.897429177
  0
LINE
  5
375
100
AcDbEntity
  8
0
100
AcDbLine
 62
7
  6
CONTINUOUS
 10
15.4793057277
 20
11.8880916269
 11
15.4791771862
 21
11.8874267334
  0
LINE
  5
376
100
AcDbEntity
  8
0
100
AcDbLine
 62
7
  6
CONTINUOUS
 10
15.4837501261
 20
11.8972990212
 11
15.4836792931
 21
11.8969326411
  0
LINE
  5
377
100
AcDbEntity
  8
0
100
AcDbLine
 62
7
  6
CONTINUOUS
 10
15.4818740421
 20
11.8875950631
 11
15.4817455032
 21
11.8869302018
  0
LINE
  5
378
100
AcDbEntity
  8
0
100
AcDbLine
 62
7
  6
CONTINUOUS
 10
15.4798824445
 20
11.8772936163
 11
15.4798116115
 21
11.8769272362
  0
LINE
  5
379
100
AcDbEntity
  8
0
100
AcDbLine
 62
7
  6
CONTINUOUS
 10
15.4780063605
 20
11.8675896582
 11
15.4778005178
 21
11.8665249465
  0
LINE
  5
37A
100
AcDbEntity
  8
0
100
AcDbLine
 62
7
  6
CONTINUOUS
 10
15.4761649953
 20
11.8776340009
 11
15.4762927643
 21
11.8782893547
  0
LINE
  5
37B
100
AcDbEntity
  8
0
100
AcDbLine
 62
7
  6
CONTINUOUS
 10
15.4800647596
 20
11.8976367107
 11
15.4801354243
 21
11.8979991646
  0
LINE
  5
37C
100
AcDbEntity
  8
0
100
AcDbLine
 62
7
  6
CONTINUOUS
 10
15.4806990761
 20
11.877060302
 11
15.4806120998
 21
11.8766979026
  0
LINE
  5
37D
100
AcDbEntity
  8
0
100
AcDbLine
 62
7
  6
CONTINUOUS
 10
15.47693181
 20
11.8774137795
 11
15.4770881331
 21
11.878062064
  0
LINE
  5
37E
100
AcDbEntity
  8
0
100
AcDbLine
 62
7
  6
CONTINUOUS
 10
15.480115592
 20
11.8878602072
 11
15.4799570713
 21
11.8872027556
  0
LINE
  5
37F
100
AcDbEntity
  8
0
100
AcDbLine
 62
7
  6
CONTINUOUS
 10
15.4707953584
 20
11.8785992022
 11
15.4709562738
 21
11.8792569946
  0
LINE
  5
380
100
AcDbEntity
  8
0
100
AcDbLine
 62
7
  6
CONTINUOUS
 10
16.1751413708
 20
13.0611541385
 11
16.0667629496
 21
12.9514472106
  0
LINE
  5
381
100
AcDbEntity
  8
0
100
AcDbLine
 62
7
  6
CONTINUOUS
 10
13.8914509544
 20
12.5570638707
 11
13.9722539725
 21
12.5570638707
  0
LINE
  5
382
100
AcDbEntity
  8
0
100
AcDbLine
 62
7
  6
CONTINUOUS
 10
15.8105293313
 20
12.5570638707
 11
15.9448892799
 21
12.5570638707
  0
LINE
  5
383
100
AcDbEntity
  8
0
100
AcDbLine
 62
7
  6
CONTINUOUS
 10
15.7383346701
 20
12.6695402288
 11
15.7398525918
 21
12.6695402288
  0
LINE
  5
384
100
AcDbEntity
  8
0
100
AcDbLine
 62
7
  6
CONTINUOUS
 10
15.478130966
 20
11.8675514447
 11
15.4778160204
 21
11.8665201564
  0
LINE
  5
385
100
AcDbEntity
  8
0
100
AcDbLine
 62
7
  6
CONTINUOUS
 10
15.4778160204
 20
11.8665201564
 11
15.4776658315
 21
11.8660365705
  0
LINE
  5
386
100
AcDbEntity
  8
0
100
AcDbLine
 62
7
  6
CONTINUOUS
 10
15.4778005178
 20
11.8665249465
 11
15.4776264489
 21
11.8660487821
  0
LINE
  5
387
100
AcDbEntity
  8
0
100
AcDbLine
 62
7
  6
CONTINUOUS
 10
15.4682322669
 20
11.8725590144
 11
15.4684475461
 21
11.8730612414
  0
LINE
  5
388
100
AcDbEntity
  8
0
100
AcDbLine
 62
7
  6
CONTINUOUS
 10
15.4706660084
 20
11.8809923698
 11
15.4708037249
 21
11.8813053419
  0
LINE
  5
389
100
AcDbEntity
  8
0
100
AcDbLine
 62
7
  6
CONTINUOUS
 10
15.4695013091
 20
11.8819919053
 11
15.4697470763
 21
11.8824731066
  0
LINE
  5
38A
100
AcDbEntity
  8
0
100
AcDbLine
 62
7
  6
CONTINUOUS
 10
15.468128901
 20
11.8825042572
 11
15.4684196347
 21
11.8829670429
  0
LINE
  5
38B
100
AcDbEntity
  8
0
100
AcDbLine
 62
7
  6
CONTINUOUS
 10
15.4703699329
 20
11.8810963843
 11
15.4705558026
 21
11.881392249
  0
LINE
  5
38C
100
AcDbEntity
  8
0
100
AcDbLine
 62
7
  6
CONTINUOUS
 10
15.4681500154
 20
11.8725876363
 11
15.4684475461
 21
11.8730612414
  0
LINE
  5
38D
100
AcDbEntity
  8
0
100
AcDbLine
 62
7
  6
CONTINUOUS
 10
15.9448892799
 20
12.5570638707
 11
16.053267701
 21
12.6667707986
  0
LINE
  5
38E
100
AcDbEntity
  8
0
100
AcDbLine
 62
7
  6
CONTINUOUS
 10
17.1401431598
 20
12.4654325546
 11
17.1331823361
 21
12.4669271325
  0
LINE
  5
38F
100
AcDbEntity
  8
0
100
AcDbLine
 62
7
  6
CONTINUOUS
 10
14.5225651564
 20
13.2234306359
 11
14.5461539068
 21
13.2131871768
  0
LINE
  5
390
100
AcDbEntity
  8
0
100
AcDbLine
 62
7
  6
CONTINUOUS
 10
14.5172347969
 20
13.2294349271
 11
14.5408235473
 21
13.219191468
  0
LINE
  5
391
100
AcDbEntity
  8
0
100
AcDbLine
 62
7
  6
CONTINUOUS
 10
15.9245664573
 20
12.0170958087
 11
16.275364604
 21
11.3022443452
  0
LINE
  5
392
100
AcDbEntity
  8
0
100
AcDbLine
 62
7
  6
CONTINUOUS
 10
16.2899036954
 20
11.3120359316
 11
15.9391055488
 21
12.0268873951
  0
LINE
  5
393
100
AcDbEntity
  8
0
100
AcDbLine
 62
7
  6
CONTINUOUS
 10
16.3237551579
 20
11.4215793041
 11
16.2303360862
 21
11.6119473569
  0
LINE
  5
394
100
AcDbEntity
  8
0
100
AcDbLine
 62
7
  6
CONTINUOUS
 10
15.7298691888
 20
12.689884265
 11
15.7398525918
 21
12.6695402288
  0
LINE
  5
395
100
AcDbEntity
  8
0
100
AcDbLine
 62
7
  6
CONTINUOUS
 10
15.7833700883
 20
12.5826714179
 11
15.7608406039
 21
12.62858168
  0
LINE
  5
396
100
AcDbEntity
  8
0
100
AcDbLine
 62
7
  6
CONTINUOUS
 10
16.2303360862
 20
11.6119473569
 11
15.9750331938
 21
12.1340673335
  0
LINE
  5
397
100
AcDbEntity
  8
0
100
AcDbLine
 62
7
  6
CONTINUOUS
 10
15.8388521096
 20
12.4424978198
 11
15.8605625273
 21
12.5127527571
  0
LINE
  5
398
100
AcDbEntity
  8
0
100
AcDbLine
 62
7
  6
CONTINUOUS
 10
15.9651407785
 20
12.8511681021
 11
15.982436197
 21
12.907136097
  0
LINE
  5
399
100
AcDbEntity
  8
0
100
AcDbLine
 62
7
  6
CONTINUOUS
 10
16.0870102177
 20
13.2455377518
 11
16.0945346637
 21
13.2698868681
  0
LINE
  5
39A
100
AcDbEntity
  8
0
100
AcDbLine
 62
7
  6
CONTINUOUS
 10
14.8460306058
 20
11.3323141127
 11
14.8760615383
 21
11.3626175987
  0
LINE
  5
39B
100
AcDbEntity
  8
0
100
AcDbLine
 62
7
  6
CONTINUOUS
 10
14.869085562
 20
11.3369391995
 11
14.840243275
 21
11.3078351468
  0
LINE
  5
39C
100
AcDbEntity
  8
0
100
AcDbLine
 62
7
  6
CONTINUOUS
 10
14.8976499513
 20
11.2787310942
 11
14.9264922383
 21
11.3078351468
  0
LINE
  5
39D
100
AcDbEntity
  8
0
100
AcDbLine
 62
7
  6
CONTINUOUS
 10
16.0667629496
 20
12.9514472106
 11
15.9323896395
 21
12.9514472106
  0
LINE
  5
39E
100
AcDbEntity
  8
0
100
AcDbLine
 62
7
  6
CONTINUOUS
 10
14.0941325532
 20
12.9514472106
 11
14.0133246242
 21
12.9514472106
  0
LINE
  5
39F
100
AcDbEntity
  8
0
100
AcDbLine
 62
7
  6
CONTINUOUS
 10
17.1331805888
 20
12.4669242159
 11
17.1399536172
 21
12.4649043592
  0
LINE
  5
3A0
100
AcDbEntity
  8
0
100
AcDbLine
 62
7
  6
CONTINUOUS
 10
14.5840656339
 20
13.272546228
 11
14.5604768835
 21
13.2827896871
  0
LINE
  5
3A1
100
AcDbEntity
  8
0
100
AcDbLine
 62
7
  6
CONTINUOUS
 10
15.9448892799
 20
12.5570638707
 11
15.9097934365
 21
12.62858168
  0
LINE
  5
3A2
100
AcDbEntity
  8
0
100
AcDbLine
 62
7
  6
CONTINUOUS
 10
16.0973907649
 20
13.2722518058
 11
16.0965248688
 21
13.272112428
  0
LINE
  5
3A3
100
AcDbEntity
  8
0
100
AcDbLine
 62
7
  6
CONTINUOUS
 10
16.5743650409
 20
11.7033250381
 11
16.6195723221
 21
11.6119473569
  0
LINE
  5
3A4
100
AcDbEntity
  8
0
100
AcDbLine
 62
7
  6
CONTINUOUS
 10
15.855212324
 20
13.0428444591
 11
15.8452289211
 21
13.0631884954
  0
LINE
  5
3A5
100
AcDbEntity
  8
0
100
AcDbLine
 62
7
  6
CONTINUOUS
 10
16.053267701
 20
12.6667707986
 11
16.0181718577
 21
12.7382886079
  0
LINE
  5
3A6
100
AcDbEntity
  8
0
100
AcDbLine
 62
7
  6
CONTINUOUS
 10
15.9052303093
 20
12.9770821634
 11
15.8827142737
 21
13.02296502
  0
LINE
  5
3A7
100
AcDbEntity
  8
0
100
AcDbLine
 62
7
  6
CONTINUOUS
 10
16.0126932895
 20
12.7764777264
 11
15.9775974462
 21
12.8479955358
  0
LINE
  5
3A8
100
AcDbEntity
  8
0
100
AcDbLine
 62
7
  6
CONTINUOUS
 10
16.053267701
 20
12.6667707986
 11
16.0126932895
 21
12.7764777264
  0
LINE
  5
3A9
100
AcDbEntity
  8
0
100
AcDbLine
 62
7
  6
CONTINUOUS
 10
14.0000407191
 20
13.2722518058
 11
14.192756977
 21
13.2722518058
  0
LINE
  5
3AA
100
AcDbEntity
  8
0
100
AcDbLine
 62
7
  6
CONTINUOUS
 10
16.0973912558
 20
13.2722518058
 11
16.2930988187
 21
13.2722518058
  0
LINE
  5
3AB
100
AcDbEntity
  8
0
100
AcDbLine
 62
7
  6
CONTINUOUS
 10
16.0667629496
 20
12.9514472106
 11
16.0316671063
 21
13.02296502
  0
LINE
  5
3AC
100
AcDbEntity
  8
0
100
AcDbLine
 62
7
  6
CONTINUOUS
 10
16.1751413708
 20
13.0611541385
 11
16.1400455275
 21
13.1326719478
  0
LINE
  5
3AD
100
AcDbEntity
  8
0
100
AcDbLine
 62
7
  6
CONTINUOUS
 10
16.1345669593
 20
13.1708610664
 11
16.099471116
 21
13.2423788757
  0
LINE
  5
3AE
100
AcDbEntity
  8
0
100
AcDbLine
 62
7
  6
CONTINUOUS
 10
16.1345669593
 20
13.1708610664
 11
16.1751413708
 21
13.0611541385
  0
LINE
  5
3AF
100
AcDbEntity
  8
0
100
AcDbLine
 62
7
  6
CONTINUOUS
 10
16.6397598578
 20
12.605079592
 11
16.4113097651
 21
11.865814821
  0
LINE
  5
3B0
100
AcDbEntity
  8
0
100
AcDbLine
 62
7
  6
CONTINUOUS
 10
16.2907626917
 20
11.3046547473
 11
16.3246141541
 21
11.4141981198
  0
LINE
  5
3B1
100
AcDbEntity
  8
0
100
AcDbLine
 62
7
  6
CONTINUOUS
 10
16.1022936125
 20
13.2727192811
 11
16.0998495964
 21
13.2748411156
  0
LINE
  5
3B2
100
AcDbEntity
  8
0
100
AcDbLine
 62
7
  6
CONTINUOUS
 10
16.1009963411
 20
13.2722518058
 11
16.0986864691
 21
13.27441771
  0
LINE
  5
3B3
100
AcDbEntity
  8
0
100
AcDbLine
 62
7
  6
CONTINUOUS
 10
16.3355908164
 20
13.2494735864
 11
16.6337350448
 21
12.641919527
  0
LINE
  5
3B4
100
AcDbEntity
  8
0
100
AcDbLine
 62
7
  6
CONTINUOUS
 10
16.8843323633
 20
12.4687111643
 11
16.8390011425
 21
12.5596877767
  0
LINE
  5
3B5
100
AcDbEntity
  8
0
100
AcDbLine
 62
7
  6
CONTINUOUS
 10
17.5330894229
 20
12.2464631327
 11
17.4320443046
 21
12.4523714347
  0
LINE
  5
3B6
100
AcDbEntity
  8
0
100
AcDbLine
 62
7
  6
CONTINUOUS
 10
17.5336726564
 20
12.235449565
 11
17.2810159314
 21
11.417852103
  0
CIRCLE
  5
3B7
100
AcDbEntity
  8
0
100
AcDbCircle
 62
7
  6
CONTINUOUS
 10
5.6616172762
 20
4.4446499735
 40
0.04875
  0
ARC
  5
3B8
100
AcDbEntity
  8
0
100
AcDbCircle
 62
7
  6
CONTINUOUS
 10
4.3881797762
 20
4.7321499735
 40
0.0375
100
AcDbArc
 50
276.4344767624
 51
289.3036669336
  0
ARC
  5
3B9
100
AcDbEntity
  8
0
100
AcDbCircle
 62
7
  6
CONTINUOUS
 10
5.1288047762
 20
4.3883999735
 40
0.025
100
AcDbArc
 50
180.0
 51
270.0
  0
ARC
  5
3BA
100
AcDbEntity
  8
0
100
AcDbCircle
 62
7
  6
CONTINUOUS
 10
4.0959922762
 20
4.6821499735
 40
0.0125
100
AcDbArc
 50
90.0
 51
180.0
  0
ARC
  5
3BB
100
AcDbEntity
  8
0
100
AcDbCircle
 62
7
  6
CONTINUOUS
 10
5.1288047762
 20
4.3883999735
 40
0.0125
100
AcDbArc
 50
180.0
 51
270.0
  0
ARC
  5
3BC
100
AcDbEntity
  8
0
100
AcDbCircle
 62
7
  6
CONTINUOUS
 10
6.1303473571
 20
5.538106768
 40
1.1327423969
100
AcDbArc
 50
0.014830802
 51
24.1144067382
  0
ARC
  5
3BD
100
AcDbEntity
  8
0
100
AcDbCircle
 62
7
  6
CONTINUOUS
 10
4.1053957983
 20
5.5397245196
 40
0.8927742727
100
AcDbArc
 50
329.7227857334
 51
330.9129942319
  0
ARC
  5
3BE
100
AcDbEntity
  8
0
100
AcDbCircle
 62
7
  6
CONTINUOUS
 10
4.1055011583
 20
5.5386129835
 40
0.892142937
100
AcDbArc
 50
330.9720876291
 51
359.9863200085
  0
ARC
  5
3BF
100
AcDbEntity
  8
0
100
AcDbCircle
 62
7
  6
CONTINUOUS
 10
4.1057771122
 20
5.5383999735
 40
0.8917776639
100
AcDbArc
 50
289.3036669336
 51
329.7839263582
  0
ARC
  5
3C0
100
AcDbEntity
  8
0
100
AcDbCircle
 62
7
  6
CONTINUOUS
 10
5.7883451228
 20
6.6531345472
 40
0.0234375
100
AcDbArc
 50
301.6036277714
 51
12.0400545918
  0
ARC
  5
3C1
100
AcDbEntity
  8
0
100
AcDbCircle
 62
7
  6
CONTINUOUS
 10
5.8691998628
 20
6.6747995095
 40
0.0234375
100
AcDbArc
 50
197.9599454082
 51
268.3963722286
  0
ARC
  5
3C2
100
AcDbEntity
  8
0
100
AcDbCircle
 62
7
  6
CONTINUOUS
 10
5.8205211653
 20
6.670613256
 40
0.015625
100
AcDbArc
 50
105.0
 51
233.6821874535
  0
ARC
  5
3C3
100
AcDbEntity
  8
0
100
AcDbCircle
 62
7
  6
CONTINUOUS
 10
5.8325952382
 20
6.6738484941
 40
0.015625
100
AcDbArc
 50
336.3178125465
 51
105.0
  0
ARC
  5
3C4
100
AcDbEntity
  8
0
100
AcDbCircle
 62
7
  6
CONTINUOUS
 10
4.8293256095
 20
6.0008999735
 40
0.00625
100
AcDbArc
 50
90.0
 51
180.0
  0
ARC
  5
3C5
100
AcDbEntity
  8
0
100
AcDbCircle
 62
7
  6
CONTINUOUS
 10
7.8725547762
 20
4.7321499735
 40
0.0375
100
AcDbArc
 50
250.6963330664
 51
263.5655232377
  0
ARC
  5
3C6
100
AcDbEntity
  8
0
100
AcDbCircle
 62
7
  6
CONTINUOUS
 10
7.1319297762
 20
4.3883999735
 40
0.025
100
AcDbArc
 50
270.0
 51
360.0
  0
ARC
  5
3C7
100
AcDbEntity
  8
0
100
AcDbCircle
 62
7
  6
CONTINUOUS
 10
8.1647422762
 20
4.6821499735
 40
0.0125
100
AcDbArc
 50
0.0
 51
90.0
  0
ARC
  5
3C8
100
AcDbEntity
  8
0
100
AcDbCircle
 62
7
  6
CONTINUOUS
 10
7.1319297762
 20
4.3883999735
 40
0.0125
100
AcDbArc
 50
270.0
 51
360.0
  0
ARC
  5
3C9
100
AcDbEntity
  8
0
100
AcDbCircle
 62
7
  6
CONTINUOUS
 10
6.1303672762
 20
5.5383999735
 40
1.1328125
100
AcDbArc
 50
24.3642780135
 51
155.6357219865
  0
ARC
  5
3CA
100
AcDbEntity
  8
0
100
AcDbCircle
 62
7
  6
CONTINUOUS
 10
6.130434256
 20
5.5380982429
 40
1.1327888339
100
AcDbArc
 50
155.8861721938
 51
179.9847386061
  0
ARC
  5
3CB
100
AcDbEntity
  8
0
100
AcDbCircle
 62
7
  6
CONTINUOUS
 10
6.1303672762
 20
5.5383999735
 40
1.0265625
100
AcDbArc
 50
0.0
 51
180.0
  0
ARC
  5
3CC
100
AcDbEntity
  8
0
100
AcDbCircle
 62
7
  6
CONTINUOUS
 10
6.1303672762
 20
5.5383999735
 40
1.0140625
100
AcDbArc
 50
0.0
 51
180.0
  0
ARC
  5
3CD
100
AcDbEntity
  8
0
100
AcDbCircle
 62
7
  6
CONTINUOUS
 10
8.1553387666
 20
5.5397245268
 40
0.8927742872
100
AcDbArc
 50
209.0870057777
 51
210.277214257
  0
ARC
  5
3CE
100
AcDbEntity
  8
0
100
AcDbCircle
 62
7
  6
CONTINUOUS
 10
8.1552240978
 20
5.5386095889
 40
0.8921331206
100
AcDbArc
 50
180.0134621378
 51
209.0280114479
  0
ARC
  5
3CF
100
AcDbEntity
  8
0
100
AcDbCircle
 62
7
  6
CONTINUOUS
 10
8.1549574401
 20
5.5383999735
 40
0.8917776639
100
AcDbArc
 50
210.2160736418
 51
250.6963330664
  0
CIRCLE
  5
3D0
100
AcDbEntity
  8
0
100
AcDbCircle
 62
7
  6
CONTINUOUS
 10
6.1303672762
 20
5.5383999735
 40
0.51
  0
CIRCLE
  5
3D1
100
AcDbEntity
  8
0
100
AcDbCircle
 62
7
  6
CONTINUOUS
 10
6.1303672762
 20
5.5383999735
 40
0.50625
  0
CIRCLE
  5
3D2
100
AcDbEntity
  8
0
100
AcDbCircle
 62
7
  6
CONTINUOUS
 10
6.1303672762
 20
5.5383999735
 40
0.5
  0
ARC
  5
3D3
100
AcDbEntity
  8
0
100
AcDbCircle
 62
7
  6
CONTINUOUS
 10
7.2047744509
 20
6.0190105266
 40
0.044399069
100
AcDbArc
 50
201.533425797
 51
204.0732284714
  0
ARC
  5
3D4
100
AcDbEntity
  8
0
100
AcDbCircle
 62
7
  6
CONTINUOUS
 10
7.4314089428
 20
6.0008999735
 40
0.00625
100
AcDbArc
 50
0.0
 51
90.0
  0
ARC
  5
3D5
100
AcDbEntity
  8
0
100
AcDbCircle
 62
7
  6
CONTINUOUS
 10
4.5239970839
 20
12.2719227814
 40
0.2395833333
100
AcDbArc
 50
294.2202832914
 51
90.0
  0
ARC
  5
3D6
100
AcDbEntity
  8
0
100
AcDbCircle
 62
7
  6
CONTINUOUS
 10
5.0370179172
 20
12.3483116703
 40
0.18671875
100
AcDbArc
 50
270.790048752
 51
89.209951248
  0
CIRCLE
  5
3D7
100
AcDbEntity
  8
0
100
AcDbCircle
 62
7
  6
CONTINUOUS
 10
5.0370179172
 20
12.3483116703
 40
0.16171875
  0
CIRCLE
  5
3D8
100
AcDbEntity
  8
0
100
AcDbCircle
 62
7
  6
CONTINUOUS
 10
5.0370179172
 20
12.3483116703
 40
0.1400525458
  0
ARC
  5
3D9
100
AcDbEntity
  8
0
100
AcDbCircle
 62
7
  6
CONTINUOUS
 10
4.5239970839
 20
12.2719227814
 40
0.09375
100
AcDbArc
 50
270.0
 51
90.0
  0
ARC
  5
3DA
100
AcDbEntity
  8
0
100
AcDbCircle
 62
7
  6
CONTINUOUS
 10
4.3286845839
 20
12.2719227814
 40
0.09375
100
AcDbArc
 50
90.0
 51
270.0
  0
ARC
  5
3DB
100
AcDbEntity
  8
0
100
AcDbCircle
 62
7
  6
CONTINUOUS
 10
4.8260804172
 20
12.1281727814
 40
0.0625
100
AcDbArc
 50
180.0
 51
270.0
  0
ARC
  5
3DC
100
AcDbEntity
  8
0
100
AcDbCircle
 62
7
  6
CONTINUOUS
 10
4.0489970839
 20
12.0781727814
 40
0.025
100
AcDbArc
 50
180.0
 51
270.0
  0
ARC
  5
3DD
100
AcDbEntity
  8
0
100
AcDbCircle
 62
7
  6
CONTINUOUS
 10
5.0260962301
 20
12.0719171438
 40
0.0134962626
100
AcDbArc
 50
354.0527847965
 51
0.0239330889
  0
ARC
  5
3DE
100
AcDbEntity
  8
0
100
AcDbCircle
 62
7
  6
CONTINUOUS
 10
4.9505605729
 20
12.0672341348
 40
0.0124996981
100
AcDbArc
 50
187.1756327986
 51
269.9848714191
  0
ARC
  5
3DF
100
AcDbEntity
  8
0
100
AcDbCircle
 62
7
  6
CONTINUOUS
 10
6.0296602816
 20
11.6347130641
 40
0.4711636878
100
AcDbArc
 50
118.7407387322
 51
119.9941727487
  0
ARC
  5
3E0
100
AcDbEntity
  8
0
100
AcDbCircle
 62
7
  6
CONTINUOUS
 10
6.0190221346
 20
11.656746197
 40
0.3923003274
100
AcDbArc
 50
122.8043348522
 51
123.3006206514
  0
ARC
  5
3E1
100
AcDbEntity
  8
0
100
AcDbCircle
 62
7
  6
CONTINUOUS
 10
5.9718855599
 20
11.7360897717
 40
0.3544882613
100
AcDbArc
 50
120.9183496853
 51
123.3326563429
  0
ARC
  5
3E2
100
AcDbEntity
  8
0
100
AcDbCircle
 62
7
  6
CONTINUOUS
 10
5.9688000029
 20
11.7404831385
 40
0.3491339991
100
AcDbArc
 50
120.021427647
 51
120.8543936785
  0
ARC
  5
3E3
100
AcDbEntity
  8
0
100
AcDbCircle
 62
7
  6
CONTINUOUS
 10
5.9886983053
 20
11.7041375478
 40
0.3360381395
100
AcDbArc
 50
120.8687833566
 51
122.8362774281
  0
ARC
  5
3E4
100
AcDbEntity
  8
0
100
AcDbCircle
 62
7
  6
CONTINUOUS
 10
6.0229579473
 20
12.3824173078
 40
0.3997887962
100
AcDbArc
 50
236.7342333576
 51
237.4511192945
  0
ARC
  5
3E5
100
AcDbEntity
  8
0
100
AcDbCircle
 62
7
  6
CONTINUOUS
 10
5.9692171747
 20
12.2926101863
 40
0.3496281256
100
AcDbArc
 50
236.6641836341
 51
239.1103728431
  0
ARC
  5
3E6
100
AcDbEntity
  8
0
100
AcDbCircle
 62
7
  6
CONTINUOUS
 10
5.991915403
 20
12.3338443757
 40
0.3421436059
100
AcDbArc
 50
237.4567493663
 51
239.1187762931
  0
ARC
  5
3E7
100
AcDbEntity
  8
0
100
AcDbCircle
 62
7
  6
CONTINUOUS
 10
5.80097517
 20
12.016368374
 40
0.0286026909
100
AcDbArc
 50
340.7132240442
 51
19.2408674291
  0
ARC
  5
3E8
100
AcDbEntity
  8
0
100
AcDbCircle
 62
7
  6
CONTINUOUS
 10
5.8036224544
 20
12.0163849087
 40
0.028163618
100
AcDbArc
 50
352.8365823859
 51
8.3074610141
  0
ARC
  5
3E9
100
AcDbEntity
  8
0
100
AcDbCircle
 62
7
  6
CONTINUOUS
 10
5.8023759988
 20
12.0157235148
 40
0.0270089653
100
AcDbArc
 50
303.5436838726
 51
320.9622131921
  0
ARC
  5
3EA
100
AcDbEntity
  8
0
100
AcDbCircle
 62
7
  6
CONTINUOUS
 10
5.8048456655
 20
12.0173605374
 40
0.0265679292
100
AcDbArc
 50
50.8180678399
 51
68.1635218768
  0
ARC
  5
3EB
100
AcDbEntity
  8
0
100
AcDbCircle
 62
7
  6
CONTINUOUS
 10
5.8049262436
 20
12.0152377706
 40
0.026395294
100
AcDbArc
 50
297.4383030044
 51
304.1779927832
  0
ARC
  5
3EC
100
AcDbEntity
  8
0
100
AcDbCircle
 62
7
  6
CONTINUOUS
 10
5.8029326758
 20
12.0149167969
 40
0.0260289962
100
AcDbArc
 50
300.8649728442
 51
303.5036206414
  0
ARC
  5
3ED
100
AcDbEntity
  8
0
100
AcDbCircle
 62
7
  6
CONTINUOUS
 10
5.8029626722
 20
12.0178897878
 40
0.02600098
100
AcDbArc
 50
56.4507705361
 51
59.1217811101
  0
ARC
  5
3EE
100
AcDbEntity
  8
0
100
AcDbCircle
 62
7
  6
CONTINUOUS
 10
5.8030341386
 20
12.0183317456
 40
0.0255582108
100
AcDbArc
 50
79.6171464841
 51
86.329657943
  0
ARC
  5
3EF
100
AcDbEntity
  8
0
100
AcDbCircle
 62
7
  6
CONTINUOUS
 10
4.5239970839
 20
12.9281727814
 40
0.2395833333
100
AcDbArc
 50
270.0
 51
65.7797167086
  0
ARC
  5
3F0
100
AcDbEntity
  8
0
100
AcDbCircle
 62
7
  6
CONTINUOUS
 10
5.0370179172
 20
12.8517838925
 40
0.18671875
100
AcDbArc
 50
270.790048752
 51
89.209951248
  0
CIRCLE
  5
3F1
100
AcDbEntity
  8
0
100
AcDbCircle
 62
7
  6
CONTINUOUS
 10
5.0370179172
 20
12.8517838925
 40
0.16171875
  0
CIRCLE
  5
3F2
100
AcDbEntity
  8
0
100
AcDbCircle
 62
7
  6
CONTINUOUS
 10
5.0370179172
 20
12.8517838925
 40
0.1400525458
  0
ARC
  5
3F3
100
AcDbEntity
  8
0
100
AcDbCircle
 62
7
  6
CONTINUOUS
 10
4.5239970839
 20
12.9281727814
 40
0.09375
100
AcDbArc
 50
270.0
 51
90.0
  0
ARC
  5
3F4
100
AcDbEntity
  8
0
100
AcDbCircle
 62
7
  6
CONTINUOUS
 10
4.3286845839
 20
12.9281727814
 40
0.09375
100
AcDbArc
 50
90.0
 51
270.0
  0
ARC
  5
3F5
100
AcDbEntity
  8
0
100
AcDbCircle
 62
7
  6
CONTINUOUS
 10
4.8260804172
 20
13.0719227814
 40
0.0625
100
AcDbArc
 50
90.0
 51
180.0
  0
ARC
  5
3F6
100
AcDbEntity
  8
0
100
AcDbCircle
 62
7
  6
CONTINUOUS
 10
5.772475072
 20
12.6000041151
 40
0.0365737278
100
AcDbArc
 50
340.7361991274
 51
19.2638008726
  0
ARC
  5
3F7
100
AcDbEntity
  8
0
100
AcDbCircle
 62
7
  6
CONTINUOUS
 10
5.7768475239
 20
12.6000481747
 40
0.0357154099
100
AcDbArc
 50
178.861888903
 51
181.1381110969
  0
ARC
  5
3F8
100
AcDbEntity
  8
0
100
AcDbCircle
 62
7
  6
CONTINUOUS
 10
4.0489970839
 20
13.1219227814
 40
0.025
100
AcDbArc
 50
90.0
 51
180.0
  0
ARC
  5
3F9
100
AcDbEntity
  8
0
100
AcDbCircle
 62
7
  6
CONTINUOUS
 10
4.9505611564
 20
13.132860204
 40
0.0125002971
100
AcDbArc
 50
90.0071438921
 51
172.8190585299
  0
ARC
  5
3FA
100
AcDbEntity
  8
0
100
AcDbCircle
 62
7
  6
CONTINUOUS
 10
7.6177470839
 20
12.2719227814
 40
0.2395833333
100
AcDbArc
 50
90.0
 51
245.7797167086
  0
ARC
  5
3FB
100
AcDbEntity
  8
0
100
AcDbCircle
 62
7
  6
CONTINUOUS
 10
7.1047262505
 20
12.3483116703
 40
0.18671875
100
AcDbArc
 50
90.790048752
 51
269.209951248
  0
CIRCLE
  5
3FC
100
AcDbEntity
  8
0
100
AcDbCircle
 62
7
  6
CONTINUOUS
 10
7.1047262505
 20
12.3483116703
 40
0.16171875
  0
CIRCLE
  5
3FD
100
AcDbEntity
  8
0
100
AcDbCircle
 62
7
  6
CONTINUOUS
 10
7.1047262505
 20
12.3483116703
 40
0.1400525458
  0
ARC
  5
3FE
100
AcDbEntity
  8
0
100
AcDbCircle
 62
7
  6
CONTINUOUS
 10
7.8130595839
 20
12.2719227814
 40
0.09375
100
AcDbArc
 50
270.0
 51
90.0
  0
ARC
  5
3FF
100
AcDbEntity
  8
0
100
AcDbCircle
 62
7
  6
CONTINUOUS
 10
7.6177470839
 20
12.2719227814
 40
0.09375
100
AcDbArc
 50
90.0
 51
270.0
  0
ARC
  5
400
100
AcDbEntity
  8
0
100
AcDbCircle
 62
7
  6
CONTINUOUS
 10
7.3156637505
 20
12.1281727814
 40
0.0625
100
AcDbArc
 50
270.0
 51
360.0
  0
ARC
  5
401
100
AcDbEntity
  8
0
100
AcDbCircle
 62
7
  6
CONTINUOUS
 10
8.0927470839
 20
12.0781727814
 40
0.025
100
AcDbArc
 50
270.0
 51
360.0
  0
ARC
  5
402
100
AcDbEntity
  8
0
100
AcDbCircle
 62
7
  6
CONTINUOUS
 10
7.1911850826
 20
12.0672360713
 40
0.0124996981
100
AcDbArc
 50
270.0046072919
 51
352.8154204521
  0
ARC
  5
403
100
AcDbEntity
  8
0
100
AcDbCircle
 62
7
  6
CONTINUOUS
 10
7.6177470839
 20
12.9281727814
 40
0.2395833333
100
AcDbArc
 50
114.2202832914
 51
270.0
  0
ARC
  5
404
100
AcDbEntity
  8
0
100
AcDbCircle
 62
7
  6
CONTINUOUS
 10
7.1047262505
 20
12.8517838925
 40
0.18671875
100
AcDbArc
 50
90.790048752
 51
269.209951248
  0
CIRCLE
  5
405
100
AcDbEntity
  8
0
100
AcDbCircle
 62
7
  6
CONTINUOUS
 10
7.1047262505
 20
12.8517838925
 40
0.16171875
  0
CIRCLE
  5
406
100
AcDbEntity
  8
0
100
AcDbCircle
 62
7
  6
CONTINUOUS
 10
7.1047262505
 20
12.8517838925
 40
0.1400525458
  0
ARC
  5
407
100
AcDbEntity
  8
0
100
AcDbCircle
 62
7
  6
CONTINUOUS
 10
7.8130595839
 20
12.9281727814
 40
0.09375
100
AcDbArc
 50
270.0
 51
90.0
  0
ARC
  5
408
100
AcDbEntity
  8
0
100
AcDbCircle
 62
7
  6
CONTINUOUS
 10
7.6177470839
 20
12.9281727814
 40
0.09375
100
AcDbArc
 50
90.0
 51
270.0
  0
ARC
  5
409
100
AcDbEntity
  8
0
100
AcDbCircle
 62
7
  6
CONTINUOUS
 10
7.3156637505
 20
13.0719227814
 40
0.0625
100
AcDbArc
 50
0.0
 51
90.0
  0
ARC
  5
40A
100
AcDbEntity
  8
0
100
AcDbCircle
 62
7
  6
CONTINUOUS
 10
8.0927470839
 20
13.1219227814
 40
0.025
100
AcDbArc
 50
0.0
 51
90.0
  0
ARC
  5
40B
100
AcDbEntity
  8
0
100
AcDbCircle
 62
7
  6
CONTINUOUS
 10
7.1156479376
 20
13.1281784189
 40
0.0134962626
100
AcDbArc
 50
174.0527847966
 51
180.0239330888
  0
ARC
  5
40C
100
AcDbEntity
  8
0
100
AcDbCircle
 62
7
  6
CONTINUOUS
 10
7.1911830112
 20
13.1328602042
 40
0.0125002971
100
AcDbArc
 50
7.1760041905
 51
89.9928557781
  0
ARC
  5
40D
100
AcDbEntity
  8
0
100
AcDbCircle
 62
7
  6
CONTINUOUS
 10
16.1164835726
 20
6.517969618
 40
0.0125023543
100
AcDbArc
 50
180.1
 51
270.0
  0
ARC
  5
40E
100
AcDbEntity
  8
0
100
AcDbCircle
 62
7
  6
CONTINUOUS
 10
15.0041831099
 20
6.517967302
 40
0.0125007042
100
AcDbArc
 50
270.0
 51
359.9
  0
ARC
  5
40F
100
AcDbEntity
  8
0
100
AcDbCircle
 62
7
  6
CONTINUOUS
 10
16.0913916704
 20
6.5992149702
 40
0.0125002894
100
AcDbArc
 50
0.1
 51
90.0
  0
ARC
  5
410
100
AcDbEntity
  8
0
100
AcDbCircle
 62
7
  6
CONTINUOUS
 10
16.0947302569
 20
4.6226547812
 40
0.0125
100
AcDbArc
 50
0.0
 51
90.0
  0
ARC
  5
411
100
AcDbEntity
  8
0
100
AcDbCircle
 62
7
  6
CONTINUOUS
 10
15.0259802569
 20
4.6226547812
 40
0.0125
100
AcDbArc
 50
90.0
 51
180.0
  0
ARC
  5
412
100
AcDbEntity
  8
0
100
AcDbCircle
 62
7
  6
CONTINUOUS
 10
15.0293188701
 20
6.5992151632
 40
0.0124996905
100
AcDbArc
 50
90.0
 51
179.9
  0
ARC
  5
413
100
AcDbEntity
  8
0
100
AcDbCircle
 62
7
  6
CONTINUOUS
 10
15.0322302569
 20
5.9414047812
 40
0.00625
100
AcDbArc
 50
90.0
 51
180.0
  0
ARC
  5
414
100
AcDbEntity
  8
0
100
AcDbCircle
 62
7
  6
CONTINUOUS
 10
16.0884802569
 20
5.9414047812
 40
0.00625
100
AcDbArc
 50
0.0
 51
90.0
  0
ARC
  5
415
100
AcDbEntity
  8
0
100
AcDbCircle
 62
7
  6
CONTINUOUS
 10
13.533099738
 20
11.919513314
 40
0.5060607945
100
AcDbArc
 50
25.2483124053
 51
26.0624728697
  0
ARC
  5
416
100
AcDbEntity
  8
0
100
AcDbCircle
 62
7
  6
CONTINUOUS
 10
13.7997365256
 20
11.9489479534
 40
0.2277543727
100
AcDbArc
 50
339.1207363239
 51
341.6537499299
  0
ARC
  5
417
100
AcDbEntity
  8
0
100
AcDbCircle
 62
7
  6
CONTINUOUS
 10
13.1804500714
 20
12.2350257721
 40
0.8942123931
100
AcDbArc
 50
334.6934674322
 51
335.3370645853
  0
ARC
  5
418
100
AcDbEntity
  8
0
100
AcDbCircle
 62
7
  6
CONTINUOUS
 10
13.9375811396
 20
12.3804019731
 40
0.4868391329
100
AcDbArc
 50
73.8359023754
 51
75.1615947925
  0
ARC
  5
419
100
AcDbEntity
  8
0
100
AcDbCircle
 62
7
  6
CONTINUOUS
 10
13.6887028028
 20
12.4339366469
 40
0.0297849284
100
AcDbArc
 50
107.7887796832
 51
124.7779509851
  0
ARC
  5
41A
100
AcDbEntity
  8
0
100
AcDbCircle
 62
7
  6
CONTINUOUS
 10
14.993303
 20
11.692179914
 40
1.2289448215
100
AcDbArc
 50
52.6821007997
 51
53.3632178762
  0
ARC
  5
41B
100
AcDbEntity
  8
0
100
AcDbCircle
 62
7
  6
CONTINUOUS
 10
15.1731993247
 20
11.875439282
 40
0.3201519526
100
AcDbArc
 50
28.8665745338
 51
29.4008412172
  0
ARC
  5
41C
100
AcDbEntity
  8
0
100
AcDbCircle
 62
7
  6
CONTINUOUS
 10
15.1790798125
 20
11.8786718635
 40
0.3134415387
100
AcDbArc
 50
27.9160950902
 51
28.8680389121
  0
ARC
  5
41D
100
AcDbEntity
  8
0
100
AcDbCircle
 62
7
  6
CONTINUOUS
 10
15.1789474108
 20
11.8803770819
 40
0.309707074
100
AcDbArc
 50
27.5996748937
 51
29.1113695341
  0
ARC
  5
41E
100
AcDbEntity
  8
0
100
AcDbCircle
 62
7
  6
CONTINUOUS
 10
15.1837154779
 20
11.8811403826
 40
0.3081896002
100
AcDbArc
 50
27.6832772007
 51
27.9140591855
  0
ARC
  5
41F
100
AcDbEntity
  8
0
100
AcDbCircle
 62
7
  6
CONTINUOUS
 10
15.187110014
 20
11.8829160541
 40
0.3043586913
100
AcDbArc
 50
27.033525675
 51
27.6841500791
  0
ARC
  5
420
100
AcDbEntity
  8
0
100
AcDbCircle
 62
7
  6
CONTINUOUS
 10
15.1847262196
 20
11.8834136062
 40
0.3031790636
100
AcDbArc
 50
27.3634127459
 51
27.5970827167
  0
ARC
  5
421
100
AcDbEntity
  8
0
100
AcDbCircle
 62
7
  6
CONTINUOUS
 10
15.191714371
 20
11.8852670909
 40
0.299188829
100
AcDbArc
 50
26.476102627
 51
27.033251871
  0
ARC
  5
422
100
AcDbEntity
  8
0
100
AcDbCircle
 62
7
  6
CONTINUOUS
 10
15.1902212402
 20
11.886237717
 40
0.2970008327
100
AcDbArc
 50
26.1420676558
 51
27.3668028404
  0
ARC
  5
423
100
AcDbEntity
  8
0
100
AcDbCircle
 62
7
  6
CONTINUOUS
 10
15.195079991
 20
11.8869460671
 40
0.2954276653
100
AcDbArc
 50
26.1387805975
 51
26.4756352323
  0
ARC
  5
424
100
AcDbEntity
  8
0
100
AcDbCircle
 62
7
  6
CONTINUOUS
 10
15.1955468673
 20
11.8888710636
 40
0.2910597465
100
AcDbArc
 50
25.9011561654
 51
26.1386219792
  0
ARC
  5
425
100
AcDbEntity
  8
0
100
AcDbCircle
 62
7
  6
CONTINUOUS
 10
15.1942122995
 20
11.8910372705
 40
0.2861356135
100
AcDbArc
 50
25.4950737648
 51
26.1393117278
  0
ARC
  5
426
100
AcDbEntity
  8
0
100
AcDbCircle
 62
7
  6
CONTINUOUS
 10
15.3079701994
 20
11.9172760758
 40
0.1774127557
100
AcDbArc
 50
356.5325374175
 51
357.2399886884
  0
ARC
  5
427
100
AcDbEntity
  8
0
100
AcDbCircle
 62
7
  6
CONTINUOUS
 10
15.3070074876
 20
11.9179278854
 40
0.1747344298
100
AcDbArc
 50
355.0770901422
 51
356.905116277
  0
ARC
  5
428
100
AcDbEntity
  8
0
100
AcDbCircle
 62
7
  6
CONTINUOUS
 10
14.8614570076
 20
11.3467624337
 40
0.0163225442
100
AcDbArc
 50
149.2771762415
 51
162.7486073936
  0
ARC
  5
429
100
AcDbEntity
  8
0
100
AcDbCircle
 62
7
  6
CONTINUOUS
 10
14.9219433215
 20
11.3227528438
 40
0.0162982753
100
AcDbArc
 50
329.540649638
 51
342.7542221073
  0
ARC
  5
42A
100
AcDbEntity
  8
0
100
AcDbCircle
 62
7
  6
CONTINUOUS
 10
14.4181288156
 20
11.3086191137
 40
0.0126048668
100
AcDbArc
 50
222.4513763435
 51
228.0271990592
  0
ARC
  5
42B
100
AcDbEntity
  8
0
100
AcDbCircle
 62
7
  6
CONTINUOUS
 10
14.5732622687
 20
12.2707179318
 40
0.5756096488
100
AcDbArc
 50
204.8868962129
 51
206.1431135746
  0
ARC
  5
42C
100
AcDbEntity
  8
0
100
AcDbCircle
 62
7
  6
CONTINUOUS
 10
14.6723853091
 20
12.1136125477
 40
0.1776789927
100
AcDbArc
 50
148.6256628118
 51
149.1439663543
  0
ARC
  5
42D
100
AcDbEntity
  8
0
100
AcDbCircle
 62
7
  6
CONTINUOUS
 10
14.6702471365
 20
12.1148709797
 40
0.1751980326
100
AcDbArc
 50
149.1386292385
 51
152.1226796544
  0
ARC
  5
42E
100
AcDbEntity
  8
0
100
AcDbCircle
 62
7
  6
CONTINUOUS
 10
14.6729572911
 20
12.1139552323
 40
0.1743151925
100
AcDbArc
 50
148.834121898
 51
152.357777705
  0
ARC
  5
42F
100
AcDbEntity
  8
0
100
AcDbCircle
 62
7
  6
CONTINUOUS
 10
14.6778853702
 20
12.1121602
 40
0.1733352605
100
AcDbArc
 50
149.2038206522
 51
149.736097045
  0
ARC
  5
430
100
AcDbEntity
  8
0
100
AcDbCircle
 62
7
  6
CONTINUOUS
 10
14.6736542257
 20
12.1250075964
 40
0.1716671835
100
AcDbArc
 50
152.0855107536
 51
152.6162516325
  0
ARC
  5
431
100
AcDbEntity
  8
0
100
AcDbCircle
 62
7
  6
CONTINUOUS
 10
14.6669099687
 20
12.1166363782
 40
0.1714226139
100
AcDbArc
 50
152.3685292731
 51
155.1042852568
  0
ARC
  5
432
100
AcDbEntity
  8
0
100
AcDbCircle
 62
7
  6
CONTINUOUS
 10
14.6758192963
 20
12.1133473395
 40
0.1709524671
100
AcDbArc
 50
149.7307615942
 51
152.7808105969
  0
ARC
  5
433
100
AcDbEntity
  8
0
100
AcDbCircle
 62
7
  6
CONTINUOUS
 10
14.6849558346
 20
12.1445921497
 40
0.1704428389
100
AcDbArc
 50
173.3935444649
 51
175.2364861244
  0
ARC
  5
434
100
AcDbEntity
  8
0
100
AcDbCircle
 62
7
  6
CONTINUOUS
 10
14.6879816636
 20
12.1543837361
 40
0.1704428389
100
AcDbArc
 50
173.393544465
 51
175.2364861243
  0
ARC
  5
435
100
AcDbEntity
  8
0
100
AcDbCircle
 62
7
  6
CONTINUOUS
 10
14.6690353524
 20
12.1160296517
 40
0.1698784108
100
AcDbArc
 50
152.6140561314
 51
155.3612244095
  0
ARC
  5
436
100
AcDbEntity
  8
0
100
AcDbCircle
 62
7
  6
CONTINUOUS
 10
14.6719560197
 20
12.1258732267
 40
0.1697611241
100
AcDbArc
 50
152.6120484545
 51
155.6586542913
  0
ARC
  5
437
100
AcDbEntity
  8
0
100
AcDbCircle
 62
7
  6
CONTINUOUS
 10
14.6654077249
 20
12.117346422
 40
0.1697610601
100
AcDbArc
 50
155.1082228978
 51
155.6399783373
  0
ARC
  5
438
100
AcDbEntity
  8
0
100
AcDbCircle
 62
7
  6
CONTINUOUS
 10
14.6647063321
 20
12.1176623654
 40
0.1689917943
100
AcDbArc
 50
155.6394741059
 51
156.9042696511
  0
ARC
  5
439
100
AcDbEntity
  8
0
100
AcDbCircle
 62
7
  6
CONTINUOUS
 10
14.6638559116
 20
12.1180247366
 40
0.1680673876
100
AcDbArc
 50
156.9041790376
 51
159.1569809162
  0
ARC
  5
43A
100
AcDbEntity
  8
0
100
AcDbCircle
 62
7
  6
CONTINUOUS
 10
14.6825363688
 20
12.1448803999
 40
0.168006276
100
AcDbArc
 50
169.9035344128
 51
173.3962655272
  0
ARC
  5
43B
100
AcDbEntity
  8
0
100
AcDbCircle
 62
7
  6
CONTINUOUS
 10
14.6855621978
 20
12.1546719863
 40
0.168006276
100
AcDbArc
 50
169.9035344128
 51
173.3962655272
  0
ARC
  5
43C
100
AcDbEntity
  8
0
100
AcDbCircle
 62
7
  6
CONTINUOUS
 10
14.6672579731
 20
12.116855486
 40
0.1679185677
100
AcDbArc
 50
155.3645215965
 51
156.705668179
  0
ARC
  5
43D
100
AcDbEntity
  8
0
100
AcDbCircle
 62
7
  6
CONTINUOUS
 10
14.6700232123
 20
12.1267596815
 40
0.1676347507
100
AcDbArc
 50
155.9110431174
 51
156.9052670385
  0
ARC
  5
43E
100
AcDbEntity
  8
0
100
AcDbCircle
 62
7
  6
CONTINUOUS
 10
14.6632933672
 20
12.1182409131
 40
0.1674647376
100
AcDbArc
 50
159.296138951
 51
162.6590260576
  0
ARC
  5
43F
100
AcDbEntity
  8
0
100
AcDbCircle
 62
7
  6
CONTINUOUS
 10
14.6726267647
 20
12.1149900049
 40
0.1673620573
100
AcDbArc
 50
153.0330125271
 51
155.8256115728
  0
ARC
  5
440
100
AcDbEntity
  8
0
100
AcDbCircle
 62
7
  6
CONTINUOUS
 10
14.6663192437
 20
12.1172591229
 40
0.1668967383
100
AcDbArc
 50
156.7054998644
 51
159.1921463211
  0
ARC
  5
441
100
AcDbEntity
  8
0
100
AcDbCircle
 62
7
  6
CONTINUOUS
 10
14.6692662526
 20
12.1270811188
 40
0.166812371
100
AcDbArc
 50
156.9048401541
 51
159.2957200377
  0
ARC
  5
442
100
AcDbEntity
  8
0
100
AcDbCircle
 62
7
  6
CONTINUOUS
 10
14.665727551
 20
12.1174873428
 40
0.1662625658
100
AcDbArc
 50
159.193230008
 51
162.8318632607
  0
ARC
  5
443
100
AcDbEntity
  8
0
100
AcDbCircle
 62
7
  6
CONTINUOUS
 10
14.6687260481
 20
12.1272883413
 40
0.1662337919
100
AcDbArc
 50
159.2967034288
 51
162.8321818818
  0
ARC
  5
444
100
AcDbEntity
  8
0
100
AcDbCircle
 62
7
  6
CONTINUOUS
 10
14.6712084068
 20
12.1156390206
 40
0.1658023033
100
AcDbArc
 50
155.8295026386
 51
156.3746767616
  0
ARC
  5
445
100
AcDbEntity
  8
0
100
AcDbCircle
 62
7
  6
CONTINUOUS
 10
14.6772198296
 20
12.1354891612
 40
0.1656808567
100
AcDbArc
 50
166.3750617782
 51
169.9009658991
  0
ARC
  5
446
100
AcDbEntity
  8
0
100
AcDbCircle
 62
7
  6
CONTINUOUS
 10
14.6708173386
 20
12.1158101468
 40
0.1653754327
100
AcDbArc
 50
156.37469799
 51
156.8922852371
  0
ARC
  5
447
100
AcDbEntity
  8
0
100
AcDbCircle
 62
7
  6
CONTINUOUS
 10
14.6702467077
 20
12.1160513867
 40
0.164755907
100
AcDbArc
 50
156.8915669506
 51
159.2603146086
  0
ARC
  5
448
100
AcDbEntity
  8
0
100
AcDbCircle
 62
7
  6
CONTINUOUS
 10
14.6697091392
 20
12.1162578877
 40
0.1641800469
100
AcDbArc
 50
159.2612758072
 51
162.8322337307
  0
ARC
  5
449
100
AcDbEntity
  8
0
100
AcDbCircle
 62
7
  6
CONTINUOUS
 10
14.3183011987
 20
12.368812496
 40
0.3867019519
100
AcDbArc
 50
168.9993972645
 51
169.8967749038
  0
ARC
  5
44A
100
AcDbEntity
  8
0
100
AcDbCircle
 62
7
  6
CONTINUOUS
 10
14.3147304464
 20
12.3695358055
 40
0.3830587912
100
AcDbArc
 50
162.8429586895
 51
169.0036826139
  0
ARC
  5
44B
100
AcDbEntity
  8
0
100
AcDbCircle
 62
7
  6
CONTINUOUS
 10
14.3977631219
 20
12.5775044677
 40
0.192729705
100
AcDbArc
 50
59.9071602133
 51
60.2326386204
  0
ARC
  5
44C
100
AcDbEntity
  8
0
100
AcDbCircle
 62
7
  6
CONTINUOUS
 10
14.4092522143
 20
12.5976157571
 40
0.169568033
100
AcDbArc
 50
60.2286664833
 51
60.7626493922
  0
ARC
  5
44D
100
AcDbEntity
  8
0
100
AcDbCircle
 62
7
  6
CONTINUOUS
 10
15.0831371178
 20
12.15730571
 40
1.1823974728
100
AcDbArc
 50
155.938707326
 51
156.4076115677
  0
ARC
  5
44E
100
AcDbEntity
  8
0
100
AcDbCircle
 62
7
  6
CONTINUOUS
 10
14.9037320145
 20
12.2512209937
 40
0.4147473967
100
AcDbArc
 50
217.5586796997
 51
220.0579711855
  0
ARC
  5
44F
100
AcDbEntity
  8
0
100
AcDbCircle
 62
7
  6
CONTINUOUS
 10
14.8096021766
 20
12.1728964142
 40
0.3087394051
100
AcDbArc
 50
207.6942973687
 51
208.892466345
  0
ARC
  5
450
100
AcDbEntity
  8
0
100
AcDbCircle
 62
7
  6
CONTINUOUS
 10
14.8156538347
 20
12.192479587
 40
0.3087394052
100
AcDbArc
 50
207.6942973687
 51
208.892466345
  0
ARC
  5
451
100
AcDbEntity
  8
0
100
AcDbCircle
 62
7
  6
CONTINUOUS
 10
14.8036498863
 20
12.16975344
 40
0.3020083007
100
AcDbArc
 50
207.3452192592
 51
207.6911548314
  0
ARC
  5
452
100
AcDbEntity
  8
0
100
AcDbCircle
 62
7
  6
CONTINUOUS
 10
14.8097015443
 20
12.1893366127
 40
0.3020083006
100
AcDbArc
 50
207.3452192593
 51
207.6911548315
  0
ARC
  5
453
100
AcDbEntity
  8
0
100
AcDbCircle
 62
7
  6
CONTINUOUS
 10
14.7990400594
 20
12.1673784393
 40
0.2968226408
100
AcDbArc
 50
206.4687871281
 51
207.3467482695
  0
ARC
  5
454
100
AcDbEntity
  8
0
100
AcDbCircle
 62
7
  6
CONTINUOUS
 10
14.8050917175
 20
12.186961612
 40
0.2968226408
100
AcDbArc
 50
206.4687871281
 51
207.3467482695
  0
ARC
  5
455
100
AcDbEntity
  8
0
100
AcDbCircle
 62
7
  6
CONTINUOUS
 10
14.7860260948
 20
12.1472455501
 40
0.2954276648
100
AcDbArc
 50
206.1387805972
 51
206.4756352326
  0
ARC
  5
456
100
AcDbEntity
  8
0
100
AcDbCircle
 62
7
  6
CONTINUOUS
 10
14.802480327
 20
12.1757396208
 40
0.293393366
100
AcDbArc
 50
206.1421558155
 51
207.3818116305
  0
ARC
  5
457
100
AcDbEntity
  8
0
100
AcDbCircle
 62
7
  6
CONTINUOUS
 10
14.796428669
 20
12.156156448
 40
0.293393366
100
AcDbArc
 50
206.1421558155
 51
207.3818116305
  0
ARC
  5
458
100
AcDbEntity
  8
0
100
AcDbCircle
 62
7
  6
CONTINUOUS
 10
14.8055061561
 20
12.1855312072
 40
0.293393366
100
AcDbArc
 50
206.1421558155
 51
207.3818116305
  0
ARC
  5
459
100
AcDbEntity
  8
0
100
AcDbCircle
 62
7
  6
CONTINUOUS
 10
14.799454498
 20
12.1659480344
 40
0.293393366
100
AcDbArc
 50
206.1421558155
 51
207.3818116305
  0
ARC
  5
45A
100
AcDbEntity
  8
0
100
AcDbCircle
 62
7
  6
CONTINUOUS
 10
14.7945405777
 20
12.1651291956
 40
0.2917922961
100
AcDbArc
 50
206.138767256
 51
206.4672148988
  0
ARC
  5
45B
100
AcDbEntity
  8
0
100
AcDbCircle
 62
7
  6
CONTINUOUS
 10
14.8005922354
 20
12.1847123681
 40
0.2917922957
100
AcDbArc
 50
206.1387672559
 51
206.4672148991
  0
ARC
  5
45C
100
AcDbEntity
  8
0
100
AcDbCircle
 62
7
  6
CONTINUOUS
 10
14.7855592201
 20
12.1453205544
 40
0.2910597478
100
AcDbArc
 50
205.9011561659
 51
206.1386219786
  0
ARC
  5
45D
100
AcDbEntity
  8
0
100
AcDbCircle
 62
7
  6
CONTINUOUS
 10
14.8002494784
 20
12.1829313659
 40
0.2875289384
100
AcDbArc
 50
205.9150906112
 51
206.1386096344
  0
ARC
  5
45E
100
AcDbEntity
  8
0
100
AcDbCircle
 62
7
  6
CONTINUOUS
 10
14.7941978193
 20
12.1633481927
 40
0.2875289372
100
AcDbArc
 50
205.9150906107
 51
206.1386096348
  0
ARC
  5
45F
100
AcDbEntity
  8
0
100
AcDbCircle
 62
7
  6
CONTINUOUS
 10
14.7971206488
 20
12.1730894128
 40
0.2874142828
100
AcDbArc
 50
205.8806468796
 51
206.1386416376
  0
ARC
  5
460
100
AcDbEntity
  8
0
100
AcDbCircle
 62
7
  6
CONTINUOUS
 10
14.7910689899
 20
12.1535062397
 40
0.2874142819
100
AcDbArc
 50
205.8806468791
 51
206.1386416379
  0
ARC
  5
461
100
AcDbEntity
  8
0
100
AcDbCircle
 62
7
  6
CONTINUOUS
 10
14.7890958902
 20
12.1525500001
 40
0.2852216771
100
AcDbArc
 50
205.4772247725
 51
205.8808317119
  0
ARC
  5
462
100
AcDbEntity
  8
0
100
AcDbCircle
 62
7
  6
CONTINUOUS
 10
14.7951475481
 20
12.1721331727
 40
0.2852216769
100
AcDbArc
 50
205.4772247722
 51
205.880831712
  0
ARC
  5
463
100
AcDbEntity
  8
0
100
AcDbCircle
 62
7
  6
CONTINUOUS
 10
14.7787777083
 20
12.1420750777
 40
0.2835417601
100
AcDbArc
 50
204.1577610943
 51
205.9098117709
  0
ARC
  5
464
100
AcDbEntity
  8
0
100
AcDbCircle
 62
7
  6
CONTINUOUS
 10
14.7867434079
 20
12.1613643882
 40
0.2831338327
100
AcDbArc
 50
204.3755251836
 51
205.9696929434
  0
ARC
  5
465
100
AcDbEntity
  8
0
100
AcDbCircle
 62
7
  6
CONTINUOUS
 10
14.7890550112
 20
12.1608728605
 40
0.2818214609
100
AcDbArc
 50
204.4006540498
 51
205.9193979779
  0
ARC
  5
466
100
AcDbEntity
  8
0
100
AcDbCircle
 62
7
  6
CONTINUOUS
 10
14.7828104382
 20
12.1411939416
 40
0.2816062233
100
AcDbArc
 50
204.3991284949
 51
206.14725374
  0
ARC
  5
467
100
AcDbEntity
  8
0
100
AcDbCircle
 62
7
  6
CONTINUOUS
 10
14.7847265209
 20
12.1504784425
 40
0.2803861162
100
AcDbArc
 50
204.3984394729
 51
205.4791420337
  0
ARC
  5
468
100
AcDbEntity
  8
0
100
AcDbCircle
 62
7
  6
CONTINUOUS
 10
14.790778179
 20
12.1700616153
 40
0.2803861162
100
AcDbArc
 50
204.3984394729
 51
205.4791420338
  0
ARC
  5
469
100
AcDbEntity
  8
0
100
AcDbCircle
 62
7
  6
CONTINUOUS
 10
14.7816310787
 20
12.1590366649
 40
0.2775165293
100
AcDbArc
 50
203.9630094029
 51
204.3734000562
  0
ARC
  5
46A
100
AcDbEntity
  8
0
100
AcDbCircle
 62
7
  6
CONTINUOUS
 10
14.786946528
 20
12.1683122222
 40
0.2761740127
100
AcDbArc
 50
204.1660603189
 51
204.3962846853
  0
ARC
  5
46B
100
AcDbEntity
  8
0
100
AcDbCircle
 62
7
  6
CONTINUOUS
 10
14.7808948686
 20
12.1487290489
 40
0.2761740113
100
AcDbArc
 50
204.1660603183
 51
204.3962846858
  0
ARC
  5
46C
100
AcDbEntity
  8
0
100
AcDbCircle
 62
7
  6
CONTINUOUS
 10
14.776105741
 20
12.1566018794
 40
0.2714785528
100
AcDbArc
 50
202.4444238172
 51
203.9670556378
  0
ARC
  5
46D
100
AcDbEntity
  8
0
100
AcDbCircle
 62
7
  6
CONTINUOUS
 10
14.7718012824
 20
12.1362455935
 40
0.2695361829
100
AcDbArc
 50
202.3688268965
 51
204.4079220943
  0
ARC
  5
46E
100
AcDbEntity
  8
0
100
AcDbCircle
 62
7
  6
CONTINUOUS
 10
14.7778529405
 20
12.1558287662
 40
0.269536183
100
AcDbArc
 50
202.3688268965
 51
204.4079220942
  0
ARC
  5
46F
100
AcDbEntity
  8
0
100
AcDbCircle
 62
7
  6
CONTINUOUS
 10
14.7737194563
 20
12.1455717254
 40
0.2683347319
100
AcDbArc
 50
202.3309266418
 51
203.9900971362
  0
ARC
  5
470
100
AcDbEntity
  8
0
100
AcDbCircle
 62
7
  6
CONTINUOUS
 10
14.7686671833
 20
12.1434851842
 40
0.2628685626
100
AcDbArc
 50
201.9007228508
 51
202.3286551197
  0
ARC
  5
471
100
AcDbEntity
  8
0
100
AcDbCircle
 62
7
  6
CONTINUOUS
 10
14.7632304924
 20
12.1413203414
 40
0.2570167447
100
AcDbArc
 50
200.3212379146
 51
201.9050194052
  0
ARC
  5
472
100
AcDbEntity
  8
0
100
AcDbCircle
 62
7
  6
CONTINUOUS
 10
15.211543644
 20
12.5487719231
 40
1.1895515404
100
AcDbArc
 50
156.0149982841
 51
156.4022265171
  0
ARC
  5
473
100
AcDbEntity
  8
0
100
AcDbCircle
 62
7
  6
CONTINUOUS
 10
14.9648835226
 20
12.7775164566
 40
0.9597927859
100
AcDbArc
 50
102.6353046899
 51
103.2323364605
  0
ARC
  5
474
100
AcDbEntity
  8
0
100
AcDbCircle
 62
7
  6
CONTINUOUS
 10
13.6468599387
 20
12.8511724825
 40
0.7661690635
100
AcDbArc
 50
284.9672713808
 51
286.7566121663
  0
ARC
  5
475
100
AcDbEntity
  8
0
100
AcDbCircle
 62
7
  6
CONTINUOUS
 10
14.6878558
 20
13.0929135914
 40
0.5430647209
100
AcDbArc
 50
126.4914227171
 51
128.6824058663
  0
ARC
  5
476
100
AcDbEntity
  8
0
100
AcDbCircle
 62
7
  6
CONTINUOUS
 10
14.0593203904
 20
12.774328077
 40
0.4873157144
100
AcDbArc
 50
73.8356889114
 51
75.1604650369
  0
ARC
  5
477
100
AcDbEntity
  8
0
100
AcDbCircle
 62
7
  6
CONTINUOUS
 10
14.6120742392
 20
13.1736437433
 40
0.432128598
100
AcDbArc
 50
138.2320920514
 51
143.2299259994
  0
ARC
  5
478
100
AcDbEntity
  8
0
100
AcDbCircle
 62
7
  6
CONTINUOUS
 10
14.5644170602
 20
13.2050390245
 40
0.3749327477
100
AcDbArc
 50
151.8898646106
 51
162.788098955
  0
ARC
  5
479
100
AcDbEntity
  8
0
100
AcDbCircle
 62
7
  6
CONTINUOUS
 10
14.2997058509
 20
12.7719693303
 40
0.2498856273
100
AcDbArc
 50
161.2684299356
 51
161.5422099759
  0
ARC
  5
47A
100
AcDbEntity
  8
0
100
AcDbCircle
 62
7
  6
CONTINUOUS
 10
14.4215188716
 20
13.1663672005
 40
0.2498232682
100
AcDbArc
 50
161.2610779374
 51
161.5403344874
  0
ARC
  5
47B
100
AcDbEntity
  8
0
100
AcDbCircle
 62
7
  6
CONTINUOUS
 10
14.0825387445
 20
13.1118411429
 40
0.177365654
100
AcDbArc
 50
270.0056975994
 51
271.9008484214
  0
ARC
  5
47C
100
AcDbEntity
  8
0
100
AcDbCircle
 62
7
  6
CONTINUOUS
 10
13.9606650748
 20
12.717457803
 40
0.177365654
100
AcDbArc
 50
270.0056975994
 51
271.9008484214
  0
ARC
  5
47D
100
AcDbEntity
  8
0
100
AcDbCircle
 62
7
  6
CONTINUOUS
 10
14.4218642136
 20
12.620166932
 40
0.1437297299
100
AcDbArc
 50
60.7589182893
 51
61.4663736798
  0
ARC
  5
47E
100
AcDbEntity
  8
0
100
AcDbCircle
 62
7
  6
CONTINUOUS
 10
14.0000469262
 20
13.2048887823
 40
0.0673630238
100
AcDbArc
 50
90.0052794803
 51
91.8107141889
  0
ARC
  5
47F
100
AcDbEntity
  8
0
100
AcDbCircle
 62
7
  6
CONTINUOUS
 10
14.4248667077
 20
12.6502096882
 40
0.0630629011
100
AcDbArc
 50
64.9540042755
 51
66.5092240659
  0
ARC
  5
480
100
AcDbEntity
  8
0
100
AcDbCircle
 62
7
  6
CONTINUOUS
 10
14.4938212404
 20
12.6951262915
 40
0.0596491601
100
AcDbArc
 50
117.843756528
 51
122.7227698874
  0
ARC
  5
481
100
AcDbEntity
  8
0
100
AcDbCircle
 62
7
  6
CONTINUOUS
 10
14.5259329534
 20
13.2788333792
 40
0.0581906493
100
AcDbArc
 50
302.8890116011
 51
320.5868978469
  0
ARC
  5
482
100
AcDbEntity
  8
0
100
AcDbCircle
 62
7
  6
CONTINUOUS
 10
13.9767075905
 20
13.2089095859
 40
0.0503134241
100
AcDbArc
 50
158.8123663617
 51
162.8032271811
  0
ARC
  5
483
100
AcDbEntity
  8
0
100
AcDbCircle
 62
7
  6
CONTINUOUS
 10
14.4475284342
 20
12.7508154265
 40
0.0456496796
100
AcDbArc
 50
302.861820941
 51
314.8459432903
  0
ARC
  5
484
100
AcDbEntity
  8
0
100
AcDbCircle
 62
7
  6
CONTINUOUS
 10
14.4530231279
 20
12.7453883137
 40
0.0446762595
100
AcDbArc
 50
314.2563119274
 51
317.2944787856
  0
ARC
  5
485
100
AcDbEntity
  8
0
100
AcDbCircle
 62
7
  6
CONTINUOUS
 10
14.5307136443
 20
12.7204844887
 40
0.0434198634
100
AcDbArc
 50
157.3939686034
 51
162.8138798589
  0
ARC
  5
486
100
AcDbEntity
  8
0
100
AcDbCircle
 62
7
  6
CONTINUOUS
 10
14.4580976991
 20
12.7338620426
 40
0.0321070387
100
AcDbArc
 50
286.2353102916
 51
289.1091399272
  0
ARC
  5
487
100
AcDbEntity
  8
0
100
AcDbCircle
 62
7
  6
CONTINUOUS
 10
14.4638125281
 20
12.741230829
 40
0.0266242259
100
AcDbArc
 50
338.7208540352
 51
342.7013303794
  0
ARC
  5
488
100
AcDbEntity
  8
0
100
AcDbCircle
 62
7
  6
CONTINUOUS
 10
14.5363948755
 20
13.2720383868
 40
0.0186312955
100
AcDbArc
 50
7.6452809769
 51
9.8574883002
  0
ARC
  5
489
100
AcDbEntity
  8
0
100
AcDbCircle
 62
7
  6
CONTINUOUS
 10
14.5313673015
 20
13.2673497622
 40
0.0183331569
100
AcDbArc
 50
247.9395983653
 51
253.8327348611
  0
ARC
  5
48A
100
AcDbEntity
  8
0
100
AcDbCircle
 62
7
  6
CONTINUOUS
 10
14.5366911961
 20
13.272091065
 40
0.0183303312
100
AcDbArc
 50
9.8538282827
 51
13.5898903999
  0
ARC
  5
48B
100
AcDbEntity
  8
0
100
AcDbCircle
 62
7
  6
CONTINUOUS
 10
14.4797624109
 20
12.7341207877
 40
0.014970816
100
AcDbArc
 50
0.810197964
 51
6.1812910792
  0
ARC
  5
48C
100
AcDbEntity
  8
0
100
AcDbCircle
 62
7
  6
CONTINUOUS
 10
14.5341730303
 20
13.2362697373
 40
0.0130652959
100
AcDbArc
 50
204.0939233117
 51
214.0428661947
  0
ARC
  5
48D
100
AcDbEntity
  8
0
100
AcDbCircle
 62
7
  6
CONTINUOUS
 10
14.5337962882
 20
13.2360455527
 40
0.0126276438
100
AcDbArc
 50
214.1569418595
 51
227.2139219411
  0
ARC
  5
48E
100
AcDbEntity
  8
0
100
AcDbCircle
 62
7
  6
CONTINUOUS
 10
14.4547971631
 20
12.7191235959
 40
0.0120700529
100
AcDbArc
 50
246.6005322968
 51
251.9133445357
  0
ARC
  5
48F
100
AcDbEntity
  8
0
100
AcDbCircle
 62
7
  6
CONTINUOUS
 10
14.4536647176
 20
12.7171574325
 40
0.00978327
100
AcDbArc
 50
214.1082422089
 51
220.0020498983
  0
ARC
  5
490
100
AcDbEntity
  8
0
100
AcDbCircle
 62
7
  6
CONTINUOUS
 10
16.433580873
 20
12.0407237299
 40
0.205542004
100
AcDbArc
 50
232.6817158935
 51
237.2905035809
  0
ARC
  5
491
100
AcDbEntity
  8
0
100
AcDbCircle
 62
7
  6
CONTINUOUS
 10
15.3095375758
 20
11.9171786539
 40
0.1758423565
100
AcDbArc
 50
355.2430317372
 51
356.5333343983
  0
ARC
  5
492
100
AcDbEntity
  8
0
100
AcDbCircle
 62
7
  6
CONTINUOUS
 10
15.3114903575
 20
11.9170149793
 40
0.1738827278
100
AcDbArc
 50
353.4501085171
 51
355.2434165186
  0
ARC
  5
493
100
AcDbEntity
  8
0
100
AcDbCircle
 62
7
  6
CONTINUOUS
 10
15.3153240322
 20
11.9611977628
 40
0.1733352604
100
AcDbArc
 50
329.2038206521
 51
329.736097045
  0
ARC
  5
494
100
AcDbEntity
  8
0
100
AcDbCircle
 62
7
  6
CONTINUOUS
 10
15.3122274793
 20
11.9275352402
 40
0.172532555
100
AcDbArc
 50
353.4925598306
 51
355.0762749406
  0
ARC
  5
495
100
AcDbEntity
  8
0
100
AcDbCircle
 62
7
  6
CONTINUOUS
 10
15.3092789035
 20
11.9177355147
 40
0.1724548847
100
AcDbArc
 50
353.3916422406
 51
355.0760066397
  0
ARC
  5
496
100
AcDbEntity
  8
0
100
AcDbCircle
 62
7
  6
CONTINUOUS
 10
15.3139358261
 20
11.916724593
 40
0.1714200687
100
AcDbArc
 50
350.1316576611
 51
353.3276318333
  0
ARC
  5
497
100
AcDbEntity
  8
0
100
AcDbCircle
 62
7
  6
CONTINUOUS
 10
15.317237814
 20
11.9600962677
 40
0.1711271669
100
AcDbArc
 50
329.7316980335
 51
332.4912226031
  0
ARC
  5
498
100
AcDbEntity
  8
0
100
AcDbCircle
 62
7
  6
CONTINUOUS
 10
15.3116328601
 20
11.9174525706
 40
0.1700839779
100
AcDbArc
 50
350.0450257328
 51
353.2697445187
  0
ARC
  5
499
100
AcDbEntity
  8
0
100
AcDbCircle
 62
7
  6
CONTINUOUS
 10
15.3146801713
 20
11.9272410868
 40
0.1700622682
100
AcDbArc
 50
349.9433851396
 51
353.267502693
  0
ARC
  5
49A
100
AcDbEntity
  8
0
100
AcDbCircle
 62
7
  6
CONTINUOUS
 10
15.3189634079
 20
11.9591812406
 40
0.1691740322
100
AcDbArc
 50
332.4961501175
 51
332.8532078875
  0
ARC
  5
49B
100
AcDbEntity
  8
0
100
AcDbCircle
 62
7
  6
CONTINUOUS
 10
15.316029187
 20
11.9493422588
 40
0.1690708901
100
AcDbArc
 50
332.4960597675
 51
333.0362326992
  0
ARC
  5
49C
100
AcDbEntity
  8
0
100
AcDbCircle
 62
7
  6
CONTINUOUS
 10
15.3162814593
 20
11.9163182765
 40
0.1690394667
100
AcDbArc
 50
346.5709274145
 51
349.9008189128
  0
ARC
  5
49D
100
AcDbEntity
  8
0
100
AcDbCircle
 62
7
  6
CONTINUOUS
 10
15.3164601617
 20
11.9491226535
 40
0.1685871902
100
AcDbArc
 50
333.0363405114
 51
333.3616994367
  0
ARC
  5
49E
100
AcDbEntity
  8
0
100
AcDbCircle
 62
7
  6
CONTINUOUS
 10
15.3202352659
 20
11.9260835741
 40
0.1681433457
100
AcDbArc
 50
336.7061126383
 51
339.1169576201
  0
ARC
  5
49F
100
AcDbEntity
  8
0
100
AcDbCircle
 62
7
  6
CONTINUOUS
 10
15.3138505344
 20
11.9170684982
 40
0.1678332969
100
AcDbArc
 50
346.5608953581
 51
350.0432884574
  0
ARC
  5
4A0
100
AcDbEntity
  8
0
100
AcDbCircle
 62
7
  6
CONTINUOUS
 10
15.3169398562
 20
11.9268453516
 40
0.1677681801
100
AcDbArc
 50
346.5630568932
 51
349.8138678971
  0
ARC
  5
4A1
100
AcDbEntity
  8
0
100
AcDbCircle
 62
7
  6
CONTINUOUS
 10
15.3175536347
 20
11.9160205589
 40
0.1677329256
100
AcDbArc
 50
343.2039373606
 51
346.4416136956
  0
ARC
  5
4A2
100
AcDbEntity
  8
0
100
AcDbCircle
 62
7
  6
CONTINUOUS
 10
15.3203499589
 20
11.9584823527
 40
0.1676213118
100
AcDbArc
 50
333.0342287932
 51
335.2646815888
  0
ARC
  5
4A3
100
AcDbEntity
  8
0
100
AcDbCircle
 62
7
  6
CONTINUOUS
 10
15.3177108599
 20
11.9485042093
 40
0.1671919643
100
AcDbArc
 50
333.3589716863
 51
335.8265531631
  0
ARC
  5
4A4
100
AcDbEntity
  8
0
100
AcDbCircle
 62
7
  6
CONTINUOUS
 10
15.3182081164
 20
11.9265469893
 40
0.1664652911
100
AcDbArc
 50
342.9626876395
 51
346.3287285458
  0
ARC
  5
4A5
100
AcDbEntity
  8
0
100
AcDbCircle
 62
7
  6
CONTINUOUS
 10
15.3151827607
 20
11.9167563651
 40
0.1664649933
100
AcDbArc
 50
342.8346232312
 51
346.3292874107
  0
ARC
  5
4A6
100
AcDbEntity
  8
0
100
AcDbCircle
 62
7
  6
CONTINUOUS
 10
15.3189060995
 20
11.9479581377
 40
0.165877919
100
AcDbArc
 50
335.8295705598
 51
336.1899902717
  0
ARC
  5
4A7
100
AcDbEntity
  8
0
100
AcDbCircle
 62
7
  6
CONTINUOUS
 10
15.3159493374
 20
11.9381357696
 40
0.1658023034
100
AcDbArc
 50
335.8295026387
 51
336.3746767613
  0
ARC
  5
4A8
100
AcDbEntity
  8
0
100
AcDbCircle
 62
7
  6
CONTINUOUS
 10
15.3099379147
 20
11.9182856289
 40
0.1656808567
100
AcDbArc
 50
346.3750617782
 51
349.900965899
  0
ARC
  5
4A9
100
AcDbEntity
  8
0
100
AcDbCircle
 62
7
  6
CONTINUOUS
 10
15.3192867041
 20
11.9477907365
 40
0.1654621264
100
AcDbArc
 50
336.3082209202
 51
336.7361809381
  0
ARC
  5
4AA
100
AcDbEntity
  8
0
100
AcDbCircle
 62
7
  6
CONTINUOUS
 10
15.3162733673
 20
11.9379937732
 40
0.1654485263
100
AcDbArc
 50
336.3747594608
 51
336.70288881
  0
ARC
  5
4AB
100
AcDbEntity
  8
0
100
AcDbCircle
 62
7
  6
CONTINUOUS
 10
15.3167208954
 20
11.9378026254
 40
0.1649618845
100
AcDbArc
 50
336.8921781369
 51
337.9608000504
  0
ARC
  5
4AC
100
AcDbEntity
  8
0
100
AcDbCircle
 62
7
  6
CONTINUOUS
 10
15.3138852076
 20
11.9279318171
 40
0.164755907
100
AcDbArc
 50
336.8915669506
 51
339.2603146085
  0
ARC
  5
4AD
100
AcDbEntity
  8
0
100
AcDbCircle
 62
7
  6
CONTINUOUS
 10
15.3112135088
 20
11.9179830525
 40
0.1643698707
100
AcDbArc
 50
342.8346809031
 51
346.1367690303
  0
ARC
  5
4AE
100
AcDbEntity
  8
0
100
AcDbCircle
 62
7
  6
CONTINUOUS
 10
15.8866650165
 20
12.6115999416
 40
0.1578330508
100
AcDbArc
 50
156.4734572844
 51
156.8067467104
  0
ARC
  5
4AF
100
AcDbEntity
  8
0
100
AcDbCircle
 62
7
  6
CONTINUOUS
 10
15.8837839847
 20
12.6128210209
 40
0.1547039573
100
AcDbArc
 50
156.8022084959
 51
158.4920316216
  0
ARC
  5
4B0
100
AcDbEntity
  8
0
100
AcDbCircle
 62
7
  6
CONTINUOUS
 10
16.6858984744
 20
11.7353222187
 40
0.1515425546
100
AcDbArc
 50
175.3996526707
 51
175.7831533606
  0
ARC
  5
4B1
100
AcDbEntity
  8
0
100
AcDbCircle
 62
7
  6
CONTINUOUS
 10
17.1566374199
 20
12.5364456216
 40
0.0729033633
100
AcDbArc
 50
256.9234336262
 51
258.3959911868
  0
ARC
  5
4B2
100
AcDbEntity
  8
0
100
AcDbCircle
 62
7
  6
CONTINUOUS
 10
17.1560519498
 20
12.5335006183
 40
0.0699007898
100
AcDbArc
 50
258.3805213463
 51
263.9442534063
  0
ARC
  5
4B3
100
AcDbEntity
  8
0
100
AcDbCircle
 62
7
  6
CONTINUOUS
 10
17.1553288145
 20
12.5273398279
 40
0.0636981279
100
AcDbArc
 50
264.0064629503
 51
266.5668175192
  0
ARC
  5
4B4
100
AcDbEntity
  8
0
100
AcDbCircle
 62
7
  6
CONTINUOUS
 10
17.1550682689
 20
12.5229541738
 40
0.0593047421
100
AcDbArc
 50
266.5643494098
 51
269.951043186
  0
ARC
  5
4B5
100
AcDbEntity
  8
0
100
AcDbCircle
 62
7
  6
CONTINUOUS
 10
17.3537037961
 20
13.6301270438
 40
1.5529812979
100
AcDbArc
 50
250.515949088
 51
258.0151403684
  0
ARC
  5
4B6
100
AcDbEntity
  8
0
100
AcDbCircle
 62
7
  6
CONTINUOUS
 10
17.3094206379
 20
13.4863825021
 40
1.5477662886
100
AcDbArc
 50
250.5032971252
 51
258.0277923312
  0
ARC
  5
4B7
100
AcDbEntity
  8
0
100
AcDbCircle
 62
7
  6
CONTINUOUS
 10
17.4378957696
 20
13.9281139893
 40
1.4914622008
100
AcDbArc
 50
244.8659835521
 51
245.9270917206
  0
ARC
  5
4B8
100
AcDbEntity
  8
0
100
AcDbCircle
 62
7
  6
CONTINUOUS
 10
15.4401819691
 20
12.6299666802
 40
0.9605492191
100
AcDbArc
 50
42.4216486102
 51
43.0370716529
  0
ARC
  5
4B9
100
AcDbEntity
  8
0
100
AcDbCircle
 62
7
  6
CONTINUOUS
 10
15.4515525319
 20
12.6403667712
 40
0.9451397563
100
AcDbArc
 50
41.9632729539
 51
42.4212253028
  0
ARC
  5
4BA
100
AcDbEntity
  8
0
100
AcDbCircle
 62
7
  6
CONTINUOUS
 10
15.9799237858
 20
13.014856907
 40
0.1278133474
100
AcDbArc
 50
167.3513356326
 51
173.4379665106
  0
SPLINE
  5
4BB
100
AcDbEntity
  8
0
100
AcDbSpline
 62
7
  6
CONTINUOUS
 70
0
 71
3
 72
13
 73
9
 74
0
 42
0.0000001
 43
0.0000001
 44
0.0000000001
 40
0.0
 40
0.0
 40
0.0
 40
0.0
 40
0.2421459167
 40
0.489888426
 40
0.6155709148
 40
0.7421703316
 40
0.8703158506
 40
1.0
 40
1.0
 40
1.0
 40
1.0
 10
4.7059133958
 20
4.878775957
 30
0.0
 10
4.7032135079
 20
4.8763143708
 30
0.0
 10
4.6981078242
 20
4.8709425586
 30
0.0
 10
4.6923672733
 20
4.8636237777
 30
0.0
 10
4.688165695
 20
4.8573556591
 30
0.0
 10
4.6852747169
 20
4.8523828704
 30
0.0
 10
4.6828452415
 20
4.8471303637
 30
0.0
 10
4.681788082
 20
4.8432857175
 30
0.0
 10
4.6817803583
 20
4.8413290028
 30
0.0
  0
SPLINE
  5
4BC
100
AcDbEntity
  8
0
100
AcDbSpline
 62
7
  6
CONTINUOUS
 70
0
 71
3
 72
13
 73
9
 74
0
 42
0.0000001
 43
0.0000001
 44
0.0000000001
 40
0.0
 40
0.0
 40
0.0
 40
0.0
 40
0.1296842544
 40
0.2578272191
 40
0.3844278126
 40
0.5101110987
 40
0.757853709
 40
1.0
 40
1.0
 40
1.0
 40
1.0
 10
7.578954194
 20
4.8413290028
 30
0.0
 10
7.5789464703
 20
4.8432857181
 30
0.0
 10
7.5778891878
 20
4.8471302966
 30
0.0
 10
7.5754598188
 20
4.8523828115
 30
0.0
 10
7.5725689139
 20
4.8573556368
 30
0.0
 10
7.5683672755
 20
4.8636237481
 30
0.0
 10
7.5626267322
 20
4.8709425507
 30
0.0
 10
7.5575210473
 20
4.8763143682
 30
0.0
 10
7.5548211565
 20
4.878775957
 30
0.0
  0
LINE
  5
4BD
100
AcDbEntity
  8
0
100
AcDbLine
 62
7
  6
CONTINUOUS
 10
5.8359471302
 20
6.5307389071
 11
5.8421548639
 21
6.5324331197
  0
LINE
  5
4BE
100
AcDbEntity
  8
0
100
AcDbLine
 62
7
  6
CONTINUOUS
 10
5.8421548639
 20
6.5324331197
 11
5.8492182174
 21
6.5343364558
  0
LINE
  5
4BF
100
AcDbEntity
  8
0
100
AcDbLine
 62
7
  6
CONTINUOUS
 10
5.8492182174
 20
6.5343364558
 11
5.8578846213
 21
6.5366643156
  0
LINE
  5
4C0
100
AcDbEntity
  8
0
100
AcDbLine
 62
7
  6
CONTINUOUS
 10
5.8578846213
 20
6.5366643156
 11
5.8671119208
 21
6.5391367668
  0
LINE
  5
4C1
100
AcDbEntity
  8
0
100
AcDbLine
 62
7
  6
CONTINUOUS
 10
5.8671119208
 20
6.5391367668
 11
5.8757811749
 21
6.5414539897
  0
LINE
  5
4C2
100
AcDbEntity
  8
0
100
AcDbLine
 62
7
  6
CONTINUOUS
 10
5.8757811749
 20
6.5414539897
 11
5.8828498851
 21
6.5433373343
  0
LINE
  5
4C3
100
AcDbEntity
  8
0
100
AcDbLine
 62
7
  6
CONTINUOUS
 10
5.8828498851
 20
6.5433373343
 11
5.8890730452
 21
6.5449739748
  0
SPLINE
  5
4C4
100
AcDbEntity
  8
0
100
AcDbSpline
 62
7
  6
CONTINUOUS
 70
0
 71
3
 72
11
 73
7
 74
0
 42
0.0000001
 43
0.0000001
 44
0.0000000001
 40
0.0
 40
0.0
 40
0.0
 40
0.0
 40
0.2499709813
 40
0.4999931989
 40
0.7500126787
 40
1.0
 40
1.0
 40
1.0
 40
1.0
 10
5.0156537345
 20
6.1347025192
 30
0.0
 10
5.0219466087
 20
6.1378489563
 30
0.0
 10
5.0347590708
 20
6.1437104084
 30
0.0
 10
5.0547193056
 20
6.1506989363
 30
0.0
 10
5.0753831965
 20
6.1552879611
 30
0.0
 10
5.0894770024
 20
6.1563687235
 30
0.0
 10
5.0965131095
 20
6.1563687235
 30
0.0
  0
SPLINE
  5
4C5
100
AcDbEntity
  8
0
100
AcDbSpline
 62
7
  6
CONTINUOUS
 70
0
 71
3
 72
11
 73
7
 74
0
 42
0.0000001
 43
0.0000001
 44
0.0000000001
 40
0.0
 40
0.0
 40
0.0
 40
0.0
 40
0.2264875614
 40
0.4659161968
 40
0.7239626899
 40
1.0
 40
1.0
 40
1.0
 40
1.0
 10
4.975224047
 20
6.1563687235
 30
0.0
 10
4.9787714342
 20
6.1563687235
 30
0.0
 10
4.9861022985
 20
6.1552055789
 30
0.0
 10
4.9965083172
 20
6.1504715881
 30
0.0
 10
5.0064309977
 20
6.1434374595
 30
0.0
 10
5.0125965825
 20
6.1377596712
 30
0.0
 10
5.0156537345
 20
6.1347025192
 30
0.0
  0
SPLINE
  5
4C6
100
AcDbEntity
  8
0
100
AcDbSpline
 62
7
  6
CONTINUOUS
 70
0
 71
3
 72
9
 73
5
 74
0
 42
0.0000001
 43
0.0000001
 44
0.0000000001
 40
0.0
 40
0.0
 40
0.0
 40
0.0
 40
0.2583502898
 40
1.0
 40
1.0
 40
1.0
 40
1.0
 10
4.9347943595
 20
6.1347025192
 30
0.0
 10
4.9359054171
 20
6.1358135768
 30
0.0
 10
4.9402707255
 20
6.1400467452
 30
0.0
 10
4.9449374396
 20
6.1439862616
 30
0.0
 10
4.9486152633
 20
6.146597735
 30
0.0
  0
SPLINE
  5
4C7
100
AcDbEntity
  8
0
100
AcDbSpline
 62
7
  6
CONTINUOUS
 70
0
 71
3
 72
10
 73
6
 74
0
 42
0.0000001
 43
0.0000001
 44
0.0000000001
 40
0.0
 40
0.0
 40
0.0
 40
0.0
 40
0.5194830588
 40
0.7629239091
 40
1.0
 40
1.0
 40
1.0
 40
1.0
 10
4.9486152633
 20
6.146597735
 30
0.0
 10
4.9526748405
 20
6.1494802761
 30
0.0
 10
4.9590946467
 20
6.1532108431
 30
0.0
 10
4.9683354989
 20
6.1559043791
 30
0.0
 10
4.9729518409
 20
6.1563687235
 30
0.0
 10
4.975224047
 20
6.1563687235
 30
0.0
  0
SPLINE
  5
4C8
100
AcDbEntity
  8
0
100
AcDbSpline
 62
7
  6
CONTINUOUS
 70
0
 71
3
 72
10
 73
6
 74
0
 42
0.0000001
 43
0.0000001
 44
0.0000000001
 40
0.0
 40
0.0
 40
0.0
 40
0.0
 40
0.250106085
 40
0.5002802682
 40
1.0
 40
1.0
 40
1.0
 40
1.0
 10
5.0965131095
 20
6.1563687235
 30
0.0
 10
5.1028368132
 20
6.1563687235
 30
0.0
 10
5.1155020764
 20
6.1554951551
 30
0.0
 10
5.1403453832
 20
6.15052321
 30
0.0
 10
5.1581975065
 20
6.1437253216
 30
0.0
 10
5.1696630798
 20
6.1384165782
 30
0.0
  0
LINE
  5
4C9
100
AcDbEntity
  8
0
100
AcDbLine
 62
7
  6
CONTINUOUS
 10
7.8489959175
 20
4.688048044
 11
7.8297387214
 21
4.6946499735
  0
LINE
  5
4CA
100
AcDbEntity
  8
0
100
AcDbLine
 62
7
  6
CONTINUOUS
 10
4.4309958309
 20
4.6946499735
 11
4.4117386348
 21
4.688048044
  0
LINE
  5
4CB
100
AcDbEntity
  8
0
100
AcDbLine
 62
7
  6
CONTINUOUS
 10
5.0964975556
 20
6.0008999735
 11
5.0984418788
 21
6.0057265556
  0
SPLINE
  5
4CC
100
AcDbEntity
  8
0
100
AcDbSpline
 62
7
  6
CONTINUOUS
 70
0
 71
3
 72
10
 73
6
 74
0
 42
0.0000001
 43
0.0000001
 44
0.0000000001
 40
0.0
 40
0.0
 40
0.0
 40
0.0
 40
0.4997351066
 40
0.7498987887
 40
1.0
 40
1.0
 40
1.0
 40
1.0
 10
7.0910614374
 20
6.1384124403
 30
0.0
 10
7.1025283106
 20
6.1437236812
 30
0.0
 10
7.1203832641
 20
6.1505228225
 30
0.0
 10
7.145230205
 20
6.1554953193
 30
0.0
 10
7.1578969413
 20
6.1563687235
 30
0.0
 10
7.1642214428
 20
6.1563687235
 30
0.0
  0
SPLINE
  5
4CD
100
AcDbEntity
  8
0
100
AcDbSpline
 62
7
  6
CONTINUOUS
 70
0
 71
3
 72
11
 73
7
 74
0
 42
0.0000001
 43
0.0000001
 44
0.0000000001
 40
0.0
 40
0.0
 40
0.0
 40
0.0
 40
0.2264875614
 40
0.4659161968
 40
0.7239626899
 40
1.0
 40
1.0
 40
1.0
 40
1.0
 10
7.2855105053
 20
6.1563687235
 30
0.0
 10
7.2890578926
 20
6.1563687235
 30
0.0
 10
7.2963887569
 20
6.1552055789
 30
0.0
 10
7.3067947756
 20
6.1504715881
 30
0.0
 10
7.3167174561
 20
6.1434374595
 30
0.0
 10
7.3228830408
 20
6.1377596712
 30
0.0
 10
7.3259401928
 20
6.1347025192
 30
0.0
  0
LINE
  5
4CE
100
AcDbEntity
  8
0
100
AcDbLine
 62
7
  6
CONTINUOUS
 10
5.8773987939
 20
6.5354169624
 11
5.8844675041
 21
6.5373003071
  0
LINE
  5
4CF
100
AcDbEntity
  8
0
100
AcDbLine
 62
7
  6
CONTINUOUS
 10
5.8508358364
 20
6.5282994286
 11
5.8595022403
 21
6.5306272884
  0
LINE
  5
4D0
100
AcDbEntity
  8
0
100
AcDbLine
 62
7
  6
CONTINUOUS
 10
5.8437724829
 20
6.5263960924
 11
5.8508358364
 21
6.5282994286
  0
SPLINE
  5
4D1
100
AcDbEntity
  8
0
100
AcDbSpline
 62
7
  6
CONTINUOUS
 70
0
 71
3
 72
11
 73
7
 74
0
 42
0.0000001
 43
0.0000001
 44
0.0000000001
 40
0.0
 40
0.0
 40
0.0
 40
0.0
 40
0.2499949124
 40
0.5000222352
 40
0.7500414113
 40
1.0
 40
1.0
 40
1.0
 40
1.0
 10
7.1642214428
 20
6.1563687235
 30
0.0
 10
7.1712577313
 20
6.1563687235
 30
0.0
 10
7.1853519024
 20
6.1552875936
 30
0.0
 10
7.2060158678
 20
6.1506974436
 30
0.0
 10
7.2259751329
 20
6.1437074967
 30
0.0
 10
7.2387882846
 20
6.1378487859
 30
0.0
 10
7.2450808178
 20
6.1347025192
 30
0.0
  0
SPLINE
  5
4D2
100
AcDbEntity
  8
0
100
AcDbSpline
 62
7
  6
CONTINUOUS
 70
0
 71
3
 72
11
 73
7
 74
0
 42
0.0000001
 43
0.0000001
 44
0.0000000001
 40
0.0
 40
0.0
 40
0.0
 40
0.0
 40
0.2760220605
 40
0.5340743589
 40
0.773512805
 40
1.0
 40
1.0
 40
1.0
 40
1.0
 10
7.2450808178
 20
6.1347025192
 30
0.0
 10
7.2481377775
 20
6.1377594789
 30
0.0
 10
7.2543040982
 20
6.143436219
 30
0.0
 10
7.2642266674
 20
6.1504700016
 30
0.0
 10
7.2746320258
 20
6.1552060051
 30
0.0
 10
7.281963151
 20
6.1563687235
 30
0.0
 10
7.2855105053
 20
6.1563687235
 30
0.0
  0
SPLINE
  5
4D3
100
AcDbEntity
  8
0
100
AcDbSpline
 62
7
  6
CONTINUOUS
 70
0
 71
3
 72
9
 73
5
 74
0
 42
0.0000001
 43
0.0000001
 44
0.0000000001
 40
0.0
 40
0.0
 40
0.0
 40
0.0
 40
0.5018141619
 40
1.0
 40
1.0
 40
1.0
 40
1.0
 10
5.8631319439
 20
6.5355356457
 30
0.0
 10
5.8607922579
 20
6.5356740216
 30
0.0
 10
5.8561065281
 20
6.5356992857
 30
0.0
 10
5.8514651731
 20
6.5349408714
 30
0.0
 10
5.8492182174
 20
6.5343364558
 30
0.0
  0
SPLINE
  5
4D4
100
AcDbEntity
  8
0
100
AcDbSpline
 62
7
  6
CONTINUOUS
 70
0
 71
3
 72
9
 73
5
 74
0
 42
0.0000001
 43
0.0000001
 44
0.0000000001
 40
0.0
 40
0.0
 40
0.0
 40
0.0
 40
0.7481125847
 40
1.0
 40
1.0
 40
1.0
 40
1.0
 10
5.8492182174
 20
6.5343364558
 30
0.0
 10
5.8458466239
 20
6.5334295205
 30
0.0
 10
5.841515749
 20
6.5315062762
 30
0.0
 10
5.8375563646
 20
6.5290408373
 30
0.0
 10
5.8365759141
 20
6.5283922573
 30
0.0
  0
LINE
  5
4D5
100
AcDbEntity
  8
0
100
AcDbLine
 62
7
  6
CONTINUOUS
 10
7.1622926736
 20
6.0057265556
 11
7.1634742772
 21
6.0027141164
  0
SPLINE
  5
4D6
100
AcDbEntity
  8
0
100
AcDbSpline
 62
7
  6
CONTINUOUS
 70
0
 71
3
 72
9
 73
5
 74
0
 42
0.0000001
 43
0.0000001
 44
0.0000000001
 40
0.0
 40
0.0
 40
0.0
 40
0.0
 40
0.5018882351
 40
1.0
 40
1.0
 40
1.0
 40
1.0
 10
5.8897018291
 20
6.542627325
 30
0.0
 10
5.8873612656
 20
6.5427698682
 30
0.0
 10
5.8826740692
 20
6.5428037034
 30
0.0
 10
5.8780297162
 20
6.5420541403
 30
0.0
 10
5.8757811749
 20
6.5414539897
 30
0.0
  0
SPLINE
  5
4D7
100
AcDbEntity
  8
0
100
AcDbSpline
 62
7
  6
CONTINUOUS
 70
0
 71
3
 72
9
 73
5
 74
0
 42
0.0000001
 43
0.0000001
 44
0.0000000001
 40
0.0
 40
0.0
 40
0.0
 40
0.0
 40
0.7481635307
 40
1.0
 40
1.0
 40
1.0
 40
1.0
 10
5.8757811749
 20
6.5414539897
 30
0.0
 10
5.8724087181
 20
6.5405538585
 30
0.0
 10
5.8680754639
 20
6.5386397199
 30
0.0
 10
5.8641130032
 20
6.5361821603
 30
0.0
 10
5.8631319439
 20
6.5355356457
 30
0.0
  0
SPLINE
  5
4D8
100
AcDbEntity
  8
0
100
AcDbSpline
 62
7
  6
CONTINUOUS
 70
0
 71
3
 72
15
 73
11
 74
0
 42
0.0000001
 43
0.0000001
 44
0.0000000001
 40
0.0
 40
0.0
 40
0.0
 40
0.0
 40
0.1251644445
 40
0.2502204975
 40
0.3751376101
 40
0.4999697513
 40
0.6248112664
 40
0.7497490114
 40
0.8748280359
 40
1.0
 40
1.0
 40
1.0
 40
1.0
 10
5.7887250458
 20
12.6000477814
 30
0.0
 10
5.7887250458
 20
12.5972127809
 30
0.0
 10
5.7876075523
 20
12.5914844712
 30
0.0
 10
5.7828152821
 20
12.5842148984
 30
0.0
 10
5.7756040516
 20
12.5793219811
 30
0.0
 10
5.7670649451
 20
12.5775987462
 30
0.0
 10
5.7585250727
 20
12.5793206082
 30
0.0
 10
5.7513119987
 20
12.5842131721
 30
0.0
 10
5.7465187442
 20
12.5914836317
 30
0.0
 10
5.745400973
 20
12.5972126106
 30
0.0
 10
5.745400973
 20
12.6000477814
 30
0.0
  0
SPLINE
  5
4D9
100
AcDbEntity
  8
0
100
AcDbSpline
 62
7
  6
CONTINUOUS
 70
0
 71
3
 72
15
 73
11
 74
0
 42
0.0000001
 43
0.0000001
 44
0.0000000001
 40
0.0
 40
0.0
 40
0.0
 40
0.0
 40
0.1251644445
 40
0.2502204975
 40
0.3751376101
 40
0.4999697513
 40
0.6248112664
 40
0.7497490114
 40
0.8748280359
 40
1.0
 40
1.0
 40
1.0
 40
1.0
 10
5.745400973
 20
12.6000477814
 30
0.0
 10
5.745400973
 20
12.6028827819
 30
0.0
 10
5.7465184666
 20
12.6086110915
 30
0.0
 10
5.7513107368
 20
12.6158806643
 30
0.0
 10
5.7585219673
 20
12.6207735816
 30
0.0
 10
5.7670610737
 20
12.6224968165
 30
0.0
 10
5.7756009461
 20
12.6207749545
 30
0.0
 10
5.7828140201
 20
12.6158823907
 30
0.0
 10
5.7876072747
 20
12.608611931
 30
0.0
 10
5.7887250458
 20
12.6028829522
 30
0.0
 10
5.7887250458
 20
12.6000477814
 30
0.0
  0
SPLINE
  5
4DA
100
AcDbEntity
  8
0
100
AcDbSpline
 62
7
  6
CONTINUOUS
 70
0
 71
3
 72
11
 73
7
 74
0
 42
0.0000001
 43
0.0000001
 44
0.0000000001
 40
0.0
 40
0.0
 40
0.0
 40
0.0
 40
0.2500105127
 40
0.5000068239
 40
0.7500009334
 40
1.0
 40
1.0
 40
1.0
 40
1.0
 10
5.0318095841
 20
12.0546454044
 30
0.0
 10
5.0334341904
 20
12.0546456235
 30
0.0
 10
5.0367411153
 20
12.0541118342
 30
0.0
 10
5.0408828276
 20
12.0512808959
 30
0.0
 10
5.043656915
 20
12.0471411864
 30
0.0
 10
5.044320716
 20
12.0438535666
 30
0.0
 10
5.0443100751
 20
12.0422290694
 30
0.0
  0
SPLINE
  5
4DB
100
AcDbEntity
  8
0
100
AcDbSpline
 62
7
  6
CONTINUOUS
 70
0
 71
3
 72
11
 73
7
 74
0
 42
0.0000001
 43
0.0000001
 44
0.0000000001
 40
0.0
 40
0.0
 40
0.0
 40
0.0
 40
0.2499992984
 40
0.4999934308
 40
0.7499897179
 40
1.0
 40
1.0
 40
1.0
 40
1.0
 10
7.0974333821
 20
12.0422272337
 30
0.0
 10
7.097422743
 20
12.0438518653
 30
0.0
 10
7.0980856845
 20
12.0471398954
 30
0.0
 10
7.1008606257
 20
12.0512800065
 30
0.0
 10
7.1050030305
 20
12.0541097271
 30
0.0
 10
7.1083098459
 20
12.0546459094
 30
0.0
 10
7.1099345836
 20
12.0546454044
 30
0.0
  0
SPLINE
  5
4DC
100
AcDbEntity
  8
0
100
AcDbSpline
 62
7
  6
CONTINUOUS
 70
0
 71
3
 72
11
 73
7
 74
0
 42
0.0000001
 43
0.0000001
 44
0.0000000001
 40
0.0
 40
0.0
 40
0.0
 40
0.0
 40
0.2500121818
 40
0.5000123464
 40
0.7500040073
 40
1.0
 40
1.0
 40
1.0
 40
1.0
 10
7.1099333202
 20
13.1454315969
 30
0.0
 10
7.1083320703
 20
13.1454314349
 30
0.0
 10
7.1050921561
 20
13.146036669
 30
0.0
 10
7.1009742481
 20
13.1487483071
 30
0.0
 10
7.0982010206
 20
13.152793447
 30
0.0
 10
7.0974301302
 20
13.1560135175
 30
0.0
 10
7.0974345839
 20
13.1576146575
 30
0.0
  0
SPLINE
  5
4DD
100
AcDbEntity
  8
0
100
AcDbSpline
 62
7
  6
CONTINUOUS
 70
0
 71
3
 72
11
 73
7
 74
0
 42
0.0000001
 43
0.0000001
 44
0.0000000001
 40
0.0
 40
0.0
 40
0.0
 40
0.0
 40
0.2499959801
 40
0.4999876438
 40
0.7499878232
 40
1.0
 40
1.0
 40
1.0
 40
1.0
 10
5.0443095839
 20
13.1576146575
 30
0.0
 10
5.0443140378
 20
13.1560135176
 30
0.0
 10
5.0435431467
 20
13.1527934472
 30
0.0
 10
5.0407699198
 20
13.1487483071
 30
0.0
 10
5.0366520116
 20
13.146036669
 30
0.0
 10
5.0334120974
 20
13.1454314349
 30
0.0
 10
5.0318108476
 20
13.1454315969
 30
0.0
  0
LINE
  5
4DE
100
AcDbEntity
  8
0
100
AcDbLine
 62
7
  6
CONTINUOUS
 10
5.8036367516
 20
11.9846313654
 11
5.8028454688
 21
11.9850668094
  0
LINE
  5
4DF
100
AcDbEntity
  8
0
100
AcDbLine
 62
7
  6
CONTINUOUS
 10
5.8028454688
 20
11.9850668094
 11
5.7897230251
 21
11.9925740611
  0
SPLINE
  5
4E0
100
AcDbEntity
  8
0
100
AcDbSpline
 62
7
  6
CONTINUOUS
 70
0
 71
3
 72
9
 73
5
 74
0
 42
0.0000001
 43
0.0000001
 44
0.0000000001
 40
0.0
 40
0.0
 40
0.0
 40
0.0
 40
0.2533484787
 40
1.0
 40
1.0
 40
1.0
 40
1.0
 10
5.7764519379
 20
12.0163897259
 30
0.0
 10
5.7764525232
 20
12.0177312083
 30
0.0
 10
5.7765148099
 20
12.0230262135
 30
0.0
 10
5.7767979509
 20
12.0283170982
 30
0.0
 10
5.7770943706
 20
12.032259497
 30
0.0
  0
SPLINE
  5
4E1
100
AcDbEntity
  8
0
100
AcDbSpline
 62
7
  6
CONTINUOUS
 70
0
 71
3
 72
9
 73
5
 74
0
 42
0.0000001
 43
0.0000001
 44
0.0000000001
 40
0.0
 40
0.0
 40
0.0
 40
0.0
 40
0.2459434441
 40
1.0
 40
1.0
 40
1.0
 40
1.0
 10
5.7770809258
 20
12.0005052773
 30
0.0
 10
5.7769844238
 20
12.0018051038
 30
0.0
 10
5.776627571
 20
12.007092575
 30
0.0
 10
5.7764501942
 20
12.012393522
 30
0.0
 10
5.7764519379
 20
12.0163897259
 30
0.0
  0
LINE
  5
4E2
100
AcDbEntity
  8
0
100
AcDbLine
 62
7
  6
CONTINUOUS
 10
5.8031026128
 20
12.0478315016
 11
5.8036644624
 21
12.0481398048
  0
SPLINE
  5
4E3
100
AcDbEntity
  8
0
100
AcDbSpline
 62
7
  6
CONTINUOUS
 70
0
 71
3
 72
8
 73
4
 74
0
 42
0.0000001
 43
0.0000001
 44
0.0000000001
 40
0.0
 40
0.0
 40
0.0
 40
0.0
 40
1.0
 40
1.0
 40
1.0
 40
1.0
 10
7.7988364299
 20
12.0580325724
 30
0.0
 10
7.7957474512
 20
12.0567031507
 30
0.0
 10
7.7924767395
 20
12.0557874016
 30
0.0
 10
7.789188251
 20
12.0550838431
 30
0.0
  0
SPLINE
  5
4E4
100
AcDbEntity
  8
0
100
AcDbSpline
 62
7
  6
CONTINUOUS
 70
0
 71
3
 72
8
 73
4
 74
0
 42
0.0000001
 43
0.0000001
 44
0.0000000001
 40
0.0
 40
0.0
 40
0.0
 40
0.0
 40
1.0
 40
1.0
 40
1.0
 40
1.0
 10
7.789188251
 20
12.0550838431
 30
0.0
 10
7.7829817504
 20
12.0537559879
 30
0.0
 10
7.776590485
 20
12.0531727814
 30
0.0
 10
7.7702435291
 20
12.0531727814
 30
0.0
  0
SPLINE
  5
4E5
100
AcDbEntity
  8
0
100
AcDbSpline
 62
7
  6
CONTINUOUS
 70
0
 71
3
 72
9
 73
5
 74
0
 42
0.0000001
 43
0.0000001
 44
0.0000000001
 40
0.0
 40
0.0
 40
0.0
 40
0.0
 40
0.5000193334
 40
1.0
 40
1.0
 40
1.0
 40
1.0
 10
7.7702435291
 20
13.1469227814
 30
0.0
 10
7.7735913369
 20
13.1469227814
 30
0.0
 10
7.7802899998
 20
13.14658149
 30
0.0
 10
7.7869221264
 20
13.145536413
 30
0.0
 10
7.7901856729
 20
13.1447911961
 30
0.0
  0
SPLINE
  5
4E6
100
AcDbEntity
  8
0
100
AcDbSpline
 62
7
  6
CONTINUOUS
 70
0
 71
3
 72
8
 73
4
 74
0
 42
0.0000001
 43
0.0000001
 44
0.0000000001
 40
0.0
 40
0.0
 40
0.0
 40
0.0
 40
1.0
 40
1.0
 40
1.0
 40
1.0
 10
7.7901856729
 20
13.1447911961
 30
0.0
 10
7.7931333868
 20
13.1441180981
 30
0.0
 10
7.7960591326
 20
13.1432582719
 30
0.0
 10
7.7988364299
 20
13.1420629904
 30
0.0
  0
LINE
  5
4E7
100
AcDbEntity
  8
0
100
AcDbLine
 62
7
  6
CONTINUOUS
 10
7.7988364299
 20
13.1420629904
 11
7.8035545623
 21
13.1397370249
  0
LINE
  5
4E8
100
AcDbEntity
  8
0
100
AcDbLine
 62
7
  6
CONTINUOUS
 10
7.8035545623
 20
13.1397370249
 11
7.8130595839
 21
13.1344227814
  0
SPLINE
  5
4E9
100
AcDbEntity
  8
0
100
AcDbSpline
 62
7
  6
CONTINUOUS
 70
0
 71
3
 72
11
 73
7
 74
0
 42
0.0000001
 43
0.0000001
 44
0.0000000001
 40
0.0
 40
0.0
 40
0.0
 40
0.0
 40
0.3339469535
 40
0.6025393299
 40
0.8142820764
 40
1.0
 40
1.0
 40
1.0
 40
1.0
 10
5.0389466864
 20
13.1321434999
 30
0.0
 10
5.0388238786
 20
13.1324743717
 30
0.0
 10
5.0385843653
 20
13.1330656052
 30
0.0
 10
5.0381509671
 20
13.1338143529
 30
0.0
 10
5.0376260477
 20
13.1343111552
 30
0.0
 10
5.037198637
 20
13.1344227814
 30
0.0
 10
5.0370023633
 20
13.1344227814
 30
0.0
  0
SPLINE
  5
4EA
100
AcDbEntity
  8
0
100
AcDbSpline
 62
7
  6
CONTINUOUS
 70
0
 71
3
 72
9
 73
5
 74
0
 42
0.0000001
 43
0.0000001
 44
0.0000000001
 40
0.0
 40
0.0
 40
0.0
 40
0.0
 40
0.269070488
 40
1.0
 40
1.0
 40
1.0
 40
1.0
 10
5.0395924915
 20
13.1281727814
 30
0.0
 10
5.0395924915
 20
13.1285345745
 30
0.0
 10
5.0395382856
 20
13.1298772179
 30
0.0
 10
5.039289807
 20
13.1312225306
 30
0.0
 10
5.0389466864
 20
13.1321434999
 30
0.0
  0
SPLINE
  5
4EB
100
AcDbEntity
  8
0
100
AcDbSpline
 62
7
  6
CONTINUOUS
 70
0
 71
3
 72
8
 73
4
 74
0
 42
0.0000001
 43
0.0000001
 44
0.0000000001
 40
0.0
 40
0.0
 40
0.0
 40
0.0
 40
1.0
 40
1.0
 40
1.0
 40
1.0
 10
4.3429077378
 20
13.1420629904
 30
0.0
 10
4.3459967165
 20
13.143392412
 30
0.0
 10
4.3492674282
 20
13.1443081611
 30
0.0
 10
4.3525559167
 20
13.1450117196
 30
0.0
  0
SPLINE
  5
4EC
100
AcDbEntity
  8
0
100
AcDbSpline
 62
7
  6
CONTINUOUS
 70
0
 71
3
 72
8
 73
4
 74
0
 42
0.0000001
 43
0.0000001
 44
0.0000000001
 40
0.0
 40
0.0
 40
0.0
 40
0.0
 40
1.0
 40
1.0
 40
1.0
 40
1.0
 10
4.3525559167
 20
13.1450117196
 30
0.0
 10
4.3587624173
 20
13.1463395749
 30
0.0
 10
4.3651536827
 20
13.1469227814
 30
0.0
 10
4.3715006386
 20
13.1469227814
 30
0.0
  0
LINE
  5
4ED
100
AcDbEntity
  8
0
100
AcDbLine
 62
7
  6
CONTINUOUS
 10
5.0389466864
 20
12.0679520629
 11
5.0395198527
 21
12.0705187664
  0
SPLINE
  5
4EE
100
AcDbEntity
  8
0
100
AcDbSpline
 62
7
  6
CONTINUOUS
 70
0
 71
3
 72
11
 73
7
 74
0
 42
0.0000001
 43
0.0000001
 44
0.0000000001
 40
0.0
 40
0.0
 40
0.0
 40
0.0
 40
0.1855043059
 40
0.397392488
 40
0.666095006
 40
1.0
 40
1.0
 40
1.0
 40
1.0
 10
5.0370023633
 20
12.0656727814
 30
0.0
 10
5.0371984038
 20
12.0656727814
 30
0.0
 10
5.0376255328
 20
12.0657849396
 30
0.0
 10
5.038150808
 20
12.0662810823
 30
0.0
 10
5.0385854409
 20
12.0670295118
 30
0.0
 10
5.0388238725
 20
12.0676212548
 30
0.0
 10
5.0389466864
 20
12.0679520629
 30
0.0
  0
LINE
  5
4EF
100
AcDbEntity
  8
0
100
AcDbLine
 62
7
  6
CONTINUOUS
 10
4.3286845839
 20
13.1344227814
 11
4.3381953102
 21
13.1397400055
  0
LINE
  5
4F0
100
AcDbEntity
  8
0
100
AcDbLine
 62
7
  6
CONTINUOUS
 10
4.3381953102
 20
13.1397400055
 11
4.3429077378
 21
13.1420629904
  0
LINE
  5
4F1
100
AcDbEntity
  8
0
100
AcDbLine
 62
7
  6
CONTINUOUS
 10
7.1027974813
 20
13.1321434999
 11
7.102224315
 21
13.1295767963
  0
SPLINE
  5
4F2
100
AcDbEntity
  8
0
100
AcDbSpline
 62
7
  6
CONTINUOUS
 70
0
 71
3
 72
11
 73
7
 74
0
 42
0.0000001
 43
0.0000001
 44
0.0000000001
 40
0.0
 40
0.0
 40
0.0
 40
0.0
 40
0.1855045956
 40
0.3973915933
 40
0.6660955904
 40
1.0
 40
1.0
 40
1.0
 40
1.0
 10
7.1047418044
 20
13.1344227814
 30
0.0
 10
7.1045457635
 20
13.1344227814
 30
0.0
 10
7.1041186336
 20
13.134310626
 30
0.0
 10
7.1035933664
 20
13.1338144737
 30
0.0
 10
7.1031587188
 20
13.133066057
 30
0.0
 10
7.1029202688
 20
13.1324743171
 30
0.0
 10
7.1027974813
 20
13.1321434999
 30
0.0
  0
SPLINE
  5
4F3
100
AcDbEntity
  8
0
100
AcDbSpline
 62
7
  6
CONTINUOUS
 70
0
 71
3
 72
11
 73
7
 74
0
 42
0.0000001
 43
0.0000001
 44
0.0000000001
 40
0.0
 40
0.0
 40
0.0
 40
0.0
 40
0.2504539542
 40
0.5
 40
0.7495460458
 40
1.0
 40
1.0
 40
1.0
 40
1.0
 10
5.7920696088
 20
12.5696015758
 30
0.0
 10
5.7895212409
 20
12.568078373
 30
0.0
 10
5.7839981397
 20
12.5657077448
 30
0.0
 10
5.7750904439
 20
12.5644830538
 30
0.0
 10
5.7661827481
 20
12.5657077448
 30
0.0
 10
5.7606596469
 20
12.568078373
 30
0.0
 10
5.758111279
 20
12.5696015758
 30
0.0
  0
LINE
  5
4F4
100
AcDbEntity
  8
0
100
AcDbLine
 62
7
  6
CONTINUOUS
 10
7.3248471585
 20
12.0663511426
 11
7.4953259642
 21
12.065978024
  0
LINE
  5
4F5
100
AcDbEntity
  8
0
100
AcDbLine
 62
7
  6
CONTINUOUS
 10
4.3429077378
 20
12.0580325724
 11
4.3381896054
 21
12.0603585378
  0
LINE
  5
4F6
100
AcDbEntity
  8
0
100
AcDbLine
 62
7
  6
CONTINUOUS
 10
4.3381896054
 20
12.0603585378
 11
4.3286845839
 21
12.0656727814
  0
SPLINE
  5
4F7
100
AcDbEntity
  8
0
100
AcDbSpline
 62
7
  6
CONTINUOUS
 70
0
 71
3
 72
9
 73
5
 74
0
 42
0.0000001
 43
0.0000001
 44
0.0000000001
 40
0.0
 40
0.0
 40
0.0
 40
0.0
 40
0.5000193334
 40
1.0
 40
1.0
 40
1.0
 40
1.0
 10
4.3715006386
 20
12.0531727814
 30
0.0
 10
4.3681528308
 20
12.0531727814
 30
0.0
 10
4.3614541679
 20
12.0535140728
 30
0.0
 10
4.3548220413
 20
12.0545591497
 30
0.0
 10
4.3515584948
 20
12.0553043667
 30
0.0
  0
SPLINE
  5
4F8
100
AcDbEntity
  8
0
100
AcDbSpline
 62
7
  6
CONTINUOUS
 70
0
 71
3
 72
8
 73
4
 74
0
 42
0.0000001
 43
0.0000001
 44
0.0000000001
 40
0.0
 40
0.0
 40
0.0
 40
0.0
 40
1.0
 40
1.0
 40
1.0
 40
1.0
 10
4.3515584948
 20
12.0553043667
 30
0.0
 10
4.3486107809
 20
12.0559774646
 30
0.0
 10
4.3456850351
 20
12.0568372908
 30
0.0
 10
4.3429077378
 20
12.0580325724
 30
0.0
  0
SPLINE
  5
4F9
100
AcDbEntity
  8
0
100
AcDbSpline
 62
7
  6
CONTINUOUS
 70
0
 71
3
 72
9
 73
5
 74
0
 42
0.0000001
 43
0.0000001
 44
0.0000000001
 40
0.0
 40
0.0
 40
0.0
 40
0.0
 40
0.5037147512
 40
1.0
 40
1.0
 40
1.0
 40
1.0
 10
5.7411391599
 20
12.6007567846
 30
0.0
 10
5.74125703
 20
12.6066930693
 30
0.0
 10
5.7444474096
 20
12.6186200509
 30
0.0
 10
5.7530899972
 20
12.6274926816
 30
0.0
 10
5.758111279
 20
12.630493987
 30
0.0
  0
SPLINE
  5
4FA
100
AcDbEntity
  8
0
100
AcDbSpline
 62
7
  6
CONTINUOUS
 70
0
 71
3
 72
11
 73
7
 74
0
 42
0.0000001
 43
0.0000001
 44
0.0000000001
 40
0.0
 40
0.0
 40
0.0
 40
0.0
 40
0.3339475573
 40
0.602538416
 40
0.8142823771
 40
1.0
 40
1.0
 40
1.0
 40
1.0
 10
7.1027974813
 20
12.0679520629
 30
0.0
 10
7.102920316
 20
12.0676212004
 30
0.0
 10
7.1031598108
 20
12.0670299638
 30
0.0
 10
7.1035931937
 20
12.0662812029
 30
0.0
 10
7.1041181213
 20
12.0657844104
 30
0.0
 10
7.104545531
 20
12.0656727814
 30
0.0
 10
7.1047418044
 20
12.0656727814
 30
0.0
  0
SPLINE
  5
4FB
100
AcDbEntity
  8
0
100
AcDbSpline
 62
7
  6
CONTINUOUS
 70
0
 71
3
 72
9
 73
5
 74
0
 42
0.0000001
 43
0.0000001
 44
0.0000000001
 40
0.0
 40
0.0
 40
0.0
 40
0.0
 40
0.269070488
 40
1.0
 40
1.0
 40
1.0
 40
1.0
 10
7.1021516762
 20
12.0719227814
 30
0.0
 10
7.1021516762
 20
12.0715609883
 30
0.0
 10
7.1022058822
 20
12.0702183449
 30
0.0
 10
7.1024543607
 20
12.0688730321
 30
0.0
 10
7.1027974813
 20
12.0679520629
 30
0.0
  0
LINE
  5
4FC
100
AcDbEntity
  8
0
100
AcDbLine
 62
7
  6
CONTINUOUS
 10
7.8130595839
 20
12.0656727814
 11
7.8035488575
 21
12.0603555572
  0
LINE
  5
4FD
100
AcDbEntity
  8
0
100
AcDbLine
 62
7
  6
CONTINUOUS
 10
7.8035488575
 20
12.0603555572
 11
7.7988364299
 21
12.0580325724
  0
SPLINE
  5
4FE
100
AcDbEntity
  8
0
100
AcDbSpline
 62
7
  6
CONTINUOUS
 70
0
 71
3
 72
9
 73
5
 74
0
 42
0.0000001
 43
0.0000001
 44
0.0000000001
 40
0.0
 40
0.0
 40
0.0
 40
0.0
 40
0.4962852488
 40
1.0
 40
1.0
 40
1.0
 40
1.0
 10
5.758111279
 20
12.5696015758
 30
0.0
 10
5.7530899972
 20
12.5726028812
 30
0.0
 10
5.7444474096
 20
12.5814755118
 30
0.0
 10
5.74125703
 20
12.5934024934
 30
0.0
 10
5.7411391599
 20
12.5993387781
 30
0.0
  0
SPLINE
  5
4FF
100
AcDbEntity
  8
0
100
AcDbSpline
 62
7
  6
CONTINUOUS
 70
0
 71
3
 72
9
 73
5
 74
0
 42
0.0000001
 43
0.0000001
 44
0.0000000001
 40
0.0
 40
0.0
 40
0.0
 40
0.0
 40
0.2532608144
 40
1.0
 40
1.0
 40
1.0
 40
1.0
 10
5.8295778529
 20
12.0163897259
 30
0.0
 10
5.8295772672
 20
12.0150475151
 30
0.0
 10
5.8296350135
 20
12.0097477475
 30
0.0
 10
5.8299138325
 20
12.0044519227
 30
0.0
 10
5.8302068404
 20
12.0005052773
 30
0.0
  0
SPLINE
  5
500
100
AcDbEntity
  8
0
100
AcDbSpline
 62
7
  6
CONTINUOUS
 70
0
 71
3
 72
9
 73
5
 74
0
 42
0.0000001
 43
0.0000001
 44
0.0000000001
 40
0.0
 40
0.0
 40
0.0
 40
0.0
 40
0.2458622722
 40
1.0
 40
1.0
 40
1.0
 40
1.0
 10
5.8302202851
 20
12.032259497
 30
0.0
 10
5.8301226801
 20
12.0309613451
 30
0.0
 10
5.8297612893
 20
12.0256788996
 30
0.0
 10
5.8295795952
 20
12.0203828092
 30
0.0
 10
5.8295778529
 20
12.0163897259
 30
0.0
  0
LINE
  5
501
100
AcDbEntity
  8
0
100
AcDbLine
 62
7
  6
CONTINUOUS
 10
5.8302066368
 20
12.0005084752
 11
5.8162859826
 21
11.9925740611
  0
LINE
  5
502
100
AcDbEntity
  8
0
100
AcDbLine
 62
7
  6
CONTINUOUS
 10
5.8163067657
 20
12.0402053906
 11
5.8302204922
 21
12.0322626949
  0
SPLINE
  5
503
100
AcDbEntity
  8
0
100
AcDbSpline
 62
7
  6
CONTINUOUS
 70
0
 71
3
 72
9
 73
5
 74
0
 42
0.0000001
 43
0.0000001
 44
0.0000000001
 40
0.0
 40
0.0
 40
0.0
 40
0.0
 40
0.4963314793
 40
1.0
 40
1.0
 40
1.0
 40
1.0
 10
5.7897438082
 20
12.0402053906
 30
0.0
 10
5.7857385004
 20
12.0378119775
 30
0.0
 10
5.7788679347
 20
12.0306893184
 30
0.0
 10
5.7764540039
 20
12.0211246313
 30
0.0
 10
5.7764519379
 20
12.0163897259
 30
0.0
  0
SPLINE
  5
504
100
AcDbEntity
  8
0
100
AcDbSpline
 62
7
  6
CONTINUOUS
 70
0
 71
3
 72
8
 73
4
 74
0
 42
0.0000001
 43
0.0000001
 44
0.0000000001
 40
0.0
 40
0.0
 40
0.0
 40
0.0
 40
1.0
 40
1.0
 40
1.0
 40
1.0
 10
5.8163067657
 20
12.0402053906
 30
0.0
 10
5.8136570837
 20
12.0417895617
 30
0.0
 10
5.8106769128
 20
12.0429148816
 30
0.0
 10
5.8076403618
 20
12.0434714522
 30
0.0
  0
SPLINE
  5
505
100
AcDbEntity
  8
0
100
AcDbSpline
 62
7
  6
CONTINUOUS
 70
0
 71
3
 72
9
 73
5
 74
0
 42
0.0000001
 43
0.0000001
 44
0.0000000001
 40
0.0
 40
0.0
 40
0.0
 40
0.0
 40
0.4989341898
 40
1.0
 40
1.0
 40
1.0
 40
1.0
 10
5.8046684482
 20
12.0438376778
 30
0.0
 10
5.8020898994
 20
12.0440030883
 30
0.0
 10
5.796841322
 20
12.0435412385
 30
0.0
 10
5.7919713001
 20
12.0415364515
 30
0.0
 10
5.7897438082
 20
12.0402053906
 30
0.0
  0
SPLINE
  5
506
100
AcDbEntity
  8
0
100
AcDbSpline
 62
7
  6
CONTINUOUS
 70
0
 71
3
 72
9
 73
5
 74
0
 42
0.0000001
 43
0.0000001
 44
0.0000000001
 40
0.0
 40
0.0
 40
0.0
 40
0.0
 40
0.2514781953
 40
1.0
 40
1.0
 40
1.0
 40
1.0
 10
5.8279801591
 20
12.0257941093
 30
0.0
 10
5.8277169106
 20
12.02654542
 30
0.0
 10
5.8265431659
 20
12.0294869295
 30
0.0
 10
5.8248629064
 20
12.0322268412
 30
0.0
 10
5.8233701192
 20
12.0340670688
 30
0.0
  0
SPLINE
  5
507
100
AcDbEntity
  8
0
100
AcDbSpline
 62
7
  6
CONTINUOUS
 70
0
 71
3
 72
9
 73
5
 74
0
 42
0.0000001
 43
0.0000001
 44
0.0000000001
 40
0.0
 40
0.0
 40
0.0
 40
0.0
 40
0.2515440214
 40
1.0
 40
1.0
 40
1.0
 40
1.0
 10
5.8233701192
 20
12.0340670688
 30
0.0
 10
5.8229380419
 20
12.0345997103
 30
0.0
 10
5.8211405831
 20
12.0366511458
 30
0.0
 10
5.819033039
 20
12.0384315971
 30
0.0
 10
5.8173321989
 20
12.0395592978
 30
0.0
  0
SPLINE
  5
508
100
AcDbEntity
  8
0
100
AcDbSpline
 62
7
  6
CONTINUOUS
 70
0
 71
3
 72
9
 73
5
 74
0
 42
0.0000001
 43
0.0000001
 44
0.0000000001
 40
0.0
 40
0.0
 40
0.0
 40
0.0
 40
0.7485385182
 40
1.0
 40
1.0
 40
1.0
 40
1.0
 10
5.8233546927
 20
11.998712383
 30
0.0
 10
5.8248490299
 20
12.0005525417
 30
0.0
 10
5.8265316411
 20
12.0032923087
 30
0.0
 10
5.8277080406
 20
12.0062340106
 30
0.0
 10
5.8279719523
 20
12.0069853425
 30
0.0
  0
SPLINE
  5
509
100
AcDbEntity
  8
0
100
AcDbSpline
 62
7
  6
CONTINUOUS
 70
0
 71
3
 72
9
 73
5
 74
0
 42
0.0000001
 43
0.0000001
 44
0.0000000001
 40
0.0
 40
0.0
 40
0.0
 40
0.0
 40
0.5010083957
 40
1.0
 40
1.0
 40
1.0
 40
1.0
 10
5.7897230251
 20
11.9925740611
 30
0.0
 10
5.7923731617
 20
11.9909896183
 30
0.0
 10
5.7982748773
 20
11.9887482827
 30
0.0
 10
5.8045918664
 20
11.9887536602
 30
0.0
 10
5.8076167285
 20
11.9893079996
 30
0.0
  0
SPLINE
  5
50A
100
AcDbEntity
  8
0
100
AcDbSpline
 62
7
  6
CONTINUOUS
 70
0
 71
3
 72
8
 73
4
 74
0
 42
0.0000001
 43
0.0000001
 44
0.0000000001
 40
0.0
 40
0.0
 40
0.0
 40
0.0
 40
1.0
 40
1.0
 40
1.0
 40
1.0
 10
5.8076167285
 20
11.9893079996
 30
0.0
 10
5.8106541698
 20
11.9898646443
 30
0.0
 10
5.8136351735
 20
11.9909900428
 30
0.0
 10
5.8162859826
 20
11.9925740611
 30
0.0
  0
SPLINE
  5
50B
100
AcDbEntity
  8
0
100
AcDbSpline
 62
7
  6
CONTINUOUS
 70
0
 71
3
 72
9
 73
5
 74
0
 42
0.0000001
 43
0.0000001
 44
0.0000000001
 40
0.0
 40
0.0
 40
0.0
 40
0.0
 40
0.5037246223
 40
1.0
 40
1.0
 40
1.0
 40
1.0
 10
5.7764519379
 20
12.0163897259
 30
0.0
 10
5.7764498723
 20
12.0116558225
 30
0.0
 10
5.7788543066
 20
12.002091573
 30
0.0
 10
5.7857200131
 20
11.9949673504
 30
0.0
 10
5.7897230251
 20
11.9925740611
 30
0.0
  0
SPLINE
  5
50C
100
AcDbEntity
  8
0
100
AcDbSpline
 62
7
  6
CONTINUOUS
 70
0
 71
3
 72
9
 73
5
 74
0
 42
0.0000001
 43
0.0000001
 44
0.0000000001
 40
0.0
 40
0.0
 40
0.0
 40
0.0
 40
0.2514698671
 40
1.0
 40
1.0
 40
1.0
 40
1.0
 10
5.8070010214
 20
12.5880251151
 30
0.0
 10
5.8066640581
 20
12.5870646178
 30
0.0
 10
5.8051618354
 20
12.5833040373
 30
0.0
 10
5.803012273
 20
12.5798013967
 30
0.0
 10
5.801102889
 20
12.5774488734
 30
0.0
  0
SPLINE
  5
50D
100
AcDbEntity
  8
0
100
AcDbSpline
 62
7
  6
CONTINUOUS
 70
0
 71
3
 72
9
 73
5
 74
0
 42
0.0000001
 43
0.0000001
 44
0.0000000001
 40
0.0
 40
0.0
 40
0.0
 40
0.0
 40
0.2519624166
 40
1.0
 40
1.0
 40
1.0
 40
1.0
 10
5.801102889
 20
12.5774488734
 30
0.0
 10
5.800467759
 20
12.5766663392
 30
0.0
 10
5.7978130391
 20
12.5736720796
 30
0.0
 10
5.7946379258
 20
12.5711367025
 30
0.0
 10
5.7920696088
 20
12.5696015758
 30
0.0
  0
SPLINE
  5
50E
100
AcDbEntity
  8
0
100
AcDbSpline
 62
7
  6
CONTINUOUS
 70
0
 71
3
 72
9
 73
5
 74
0
 42
0.0000001
 43
0.0000001
 44
0.0000000001
 40
0.0
 40
0.0
 40
0.0
 40
0.0
 40
0.2486203869
 40
1.0
 40
1.0
 40
1.0
 40
1.0
 10
5.7920696088
 20
12.630493987
 30
0.0
 10
5.7929232405
 20
12.6299837568
 30
0.0
 10
5.7962626721
 20
12.6277775744
 30
0.0
 10
5.799208824
 20
12.6249803383
 30
0.0
 10
5.801102889
 20
12.6226466893
 30
0.0
  0
SPLINE
  5
50F
100
AcDbEntity
  8
0
100
AcDbSpline
 62
7
  6
CONTINUOUS
 70
0
 71
3
 72
9
 73
5
 74
0
 42
0.0000001
 43
0.0000001
 44
0.0000000001
 40
0.0
 40
0.0
 40
0.0
 40
0.0
 40
0.7485301329
 40
1.0
 40
1.0
 40
1.0
 40
1.0
 10
5.801102889
 20
12.6226466893
 30
0.0
 10
5.803012273
 20
12.620294166
 30
0.0
 10
5.8051618354
 20
12.6167915254
 30
0.0
 10
5.8066640581
 20
12.613030945
 30
0.0
 10
5.8070010214
 20
12.6120704477
 30
0.0
  0
LINE
  5
510
100
AcDbEntity
  8
0
100
AcDbLine
 62
7
  6
CONTINUOUS
 10
4.8168970092
 20
13.1337444201
 11
4.6464182035
 21
13.1341175387
  0
SPLINE
  5
511
100
AcDbEntity
  8
0
100
AcDbSpline
 62
7
  6
CONTINUOUS
 70
0
 71
3
 72
11
 73
7
 74
0
 42
0.0000001
 43
0.0000001
 44
0.0000000001
 40
0.0
 40
0.0
 40
0.0
 40
0.0
 40
0.2504539542
 40
0.5
 40
0.7495460458
 40
1.0
 40
1.0
 40
1.0
 40
1.0
 10
5.758111279
 20
12.630493987
 30
0.0
 10
5.7606596469
 20
12.6320171897
 30
0.0
 10
5.7661827481
 20
12.634387818
 30
0.0
 10
5.7750904439
 20
12.6356125089
 30
0.0
 10
5.7839981397
 20
12.634387818
 30
0.0
 10
5.7895212409
 20
12.6320171897
 30
0.0
 10
5.7920696088
 20
12.630493987
 30
0.0
  0
SPLINE
  5
512
100
AcDbEntity
  8
0
100
AcDbSpline
 62
7
  6
CONTINUOUS
 70
0
 71
3
 72
11
 73
7
 74
0
 42
0.0000001
 43
0.0000001
 44
0.0000000001
 40
0.0
 40
0.0
 40
0.0
 40
0.0
 40
0.2025216317
 40
0.4999997309
 40
0.7974772199
 40
1.0
 40
1.0
 40
1.0
 40
1.0
 10
7.1027974813
 20
13.1321434999
 30
0.0
 10
6.9634733822
 20
13.1316611748
 30
0.0
 10
6.6194981183
 20
13.1311528662
 30
0.0
 10
6.070873059
 20
13.1309008008
 30
0.0
 10
5.5222472097
 20
13.1311528631
 30
0.0
 10
5.1782715756
 20
13.131661172
 30
0.0
 10
5.0389466864
 20
13.1321434999
 30
0.0
  0
SPLINE
  5
513
100
AcDbEntity
  8
0
100
AcDbSpline
 62
7
  6
CONTINUOUS
 70
0
 71
3
 72
12
 73
8
 74
0
 42
0.0000001
 43
0.0000001
 44
0.0000000001
 40
0.0
 40
0.0
 40
0.0
 40
0.0
 40
0.1273295904
 40
0.2506309594
 40
0.4944829432
 40
0.7462357685
 40
1.0
 40
1.0
 40
1.0
 40
1.0
 10
15.5603552569
 20
6.6299783018
 30
0.0
 10
15.5589933634
 20
6.6299783018
 30
0.0
 10
15.5563092715
 20
6.6298391103
 30
0.0
 10
15.5510834252
 20
6.6289994993
 30
0.0
 10
15.5448064079
 20
6.6263633954
 30
0.0
 10
15.5394113899
 20
6.6199882052
 30
0.0
 10
15.538339956
 20
6.6144002806
 30
0.0
 10
15.5385155666
 20
6.6116917527
 30
0.0
  0
SPLINE
  5
514
100
AcDbEntity
  8
0
100
AcDbSpline
 62
7
  6
CONTINUOUS
 70
0
 71
3
 72
12
 73
8
 74
0
 42
0.0000001
 43
0.0000001
 44
0.0000000001
 40
0.0
 40
0.0
 40
0.0
 40
0.0
 40
0.2537641053
 40
0.5055447625
 40
0.7493619901
 40
0.8727314274
 40
1.0
 40
1.0
 40
1.0
 40
1.0
 10
15.5821955335
 20
6.611695489
 30
0.0
 10
15.5823725896
 20
6.6144036045
 30
0.0
 10
15.5812975687
 20
6.6199915528
 30
0.0
 10
15.5759015078
 20
6.6263630148
 30
0.0
 10
15.5696253475
 20
6.6290006085
 30
0.0
 10
15.5644001531
 20
6.6298390535
 30
0.0
 10
15.5617163393
 20
6.6299783018
 30
0.0
 10
15.5603552569
 20
6.6299783018
 30
0.0
  0
SPLINE
  5
515
100
AcDbEntity
  8
0
100
AcDbSpline
 62
7
  6
CONTINUOUS
 70
0
 71
3
 72
11
 73
7
 74
0
 42
0.0000001
 43
0.0000001
 44
0.0000000001
 40
0.0
 40
0.0
 40
0.0
 40
0.0
 40
0.2535310263
 40
0.5045636088
 40
0.7531126929
 40
1.0
 40
1.0
 40
1.0
 40
1.0
 10
15.1685666001
 20
6.0752073269
 30
0.0
 10
15.1739907346
 20
6.0783389525
 30
0.0
 10
15.1850259241
 20
6.0841729762
 30
0.0
 10
15.2023091905
 20
6.091172797
 30
0.0
 10
15.2202309842
 20
6.0957830646
 30
0.0
 10
15.2324937488
 20
6.0968735312
 30
0.0
 10
15.2385928729
 20
6.0968735312
 30
0.0
  0
LINE
  5
516
100
AcDbEntity
  8
0
100
AcDbLine
 62
7
  6
CONTINUOUS
 10
16.0924486495
 20
5.947712565
 11
16.0923857037
 21
5.9862821132
  0
SPLINE
  5
517
100
AcDbEntity
  8
0
100
AcDbSpline
 62
7
  6
CONTINUOUS
 70
0
 71
3
 72
27
 73
23
 74
0
 42
0.0000001
 43
0.0000001
 44
0.0000000001
 40
0.0
 40
0.0
 40
0.0
 40
0.0
 40
0.0631033321
 40
0.1247973084
 40
0.1851596781
 40
0.2445998899
 40
0.3040887322
 40
0.3344359187
 40
0.3655354782
 40
0.3976403323
 40
0.4309060414
 40
0.5000088101
 40
0.5691090069
 40
0.6023703139
 40
0.6344744502
 40
0.6655713982
 40
0.6959163072
 40
0.7554030744
 40
0.8148425551
 40
0.8752041497
 40
0.9368971298
 40
1.0
 40
1.0
 40
1.0
 40
1.0
 10
15.6253903687
 20
5.9476547812
 30
0.0
 10
15.625490629
 20
5.9636505563
 30
0.0
 10
15.6265329239
 20
5.9952926023
 30
0.0
 10
15.6316224594
 20
6.0420109899
 30
0.0
 10
15.6413782602
 20
6.0870902812
 30
0.0
 10
15.6572743894
 20
6.129874843
 30
0.0
 10
15.6771997978
 20
6.1624483254
 30
0.0
 10
15.697790964
 20
6.1852676011
 30
0.0
 10
15.715985862
 20
6.2006019723
 30
0.0
 10
15.7368775454
 20
6.2134969332
 30
0.0
 10
15.7683939964
 20
6.226793061
 30
0.0
 10
15.8120973812
 20
6.23381145
 30
0.0
 10
15.8557998672
 20
6.226791724
 30
0.0
 10
15.8873129347
 20
6.2134927923
 30
0.0
 10
15.9082026672
 20
6.2005984593
 30
0.0
 10
15.9263952878
 20
6.1852635483
 30
0.0
 10
15.9469842416
 20
6.1624447179
 30
0.0
 10
15.9669081062
 20
6.1298719916
 30
0.0
 10
15.9828054536
 20
6.0870888627
 30
0.0
 10
15.9925602408
 20
6.0420099099
 30
0.0
 10
15.9976493082
 20
5.9952921041
 30
0.0
 10
15.9986921079
 20
5.9636504392
 30
0.0
 10
15.9987923674
 20
5.9476547812
 30
0.0
  0
SPLINE
  5
518
100
AcDbEntity
  8
0
100
AcDbSpline
 62
7
  6
CONTINUOUS
 70
0
 71
3
 72
27
 73
23
 74
0
 42
0.0000001
 43
0.0000001
 44
0.0000000001
 40
0.0
 40
0.0
 40
0.0
 40
0.0
 40
0.0631035745
 40
0.1247979628
 40
0.1851606006
 40
0.2446007
 40
0.3040900466
 40
0.3344369019
 40
0.3655355136
 40
0.3976397341
 40
0.4309053285
 40
0.5000074278
 40
0.5691072552
 40
0.6023692919
 40
0.6344729956
 40
0.6655694756
 40
0.695914749
 40
0.7554022646
 40
0.8148412552
 40
0.8752032622
 40
0.9368968757
 40
1.0
 40
1.0
 40
1.0
 40
1.0
 10
15.4953201452
 20
5.9476547812
 30
0.0
 10
15.4952198847
 20
5.963650598
 30
0.0
 10
15.4941777284
 20
5.995292813
 30
0.0
 10
15.4890857257
 20
6.0420111234
 30
0.0
 10
15.4793302212
 20
6.0870903934
 30
0.0
 10
15.4634358935
 20
6.1298758865
 30
0.0
 10
15.4435092894
 20
6.1624486448
 30
0.0
 10
15.422918687
 20
6.1852680398
 30
0.0
 10
15.404724378
 20
6.2006023349
 30
0.0
 10
15.3838331272
 20
6.2134971446
 30
0.0
 10
15.352316974
 20
6.2267929262
 30
0.0
 10
15.3086140258
 20
6.2338116303
 30
0.0
 10
15.2649116642
 20
6.2267920052
 30
0.0
 10
15.2333985117
 20
6.2134934432
 30
0.0
 10
15.212508761
 20
6.2005992591
 30
0.0
 10
15.1943163277
 20
6.1852643675
 30
0.0
 10
15.1737272481
 20
6.1624455621
 30
0.0
 10
15.1538019117
 20
6.1298734454
 30
0.0
 10
15.137907367
 20
6.0870890171
 30
0.0
 10
15.1281526526
 20
6.0420101958
 30
0.0
 10
15.1230606135
 20
5.9952923947
 30
0.0
 10
15.1220184063
 20
5.9636504839
 30
0.0
 10
15.1219181464
 20
5.9476547812
 30
0.0
  0
SPLINE
  5
519
100
AcDbEntity
  8
0
100
AcDbSpline
 62
7
  6
CONTINUOUS
 70
0
 71
3
 72
11
 73
7
 74
0
 42
0.0000001
 43
0.0000001
 44
0.0000000001
 40
0.0
 40
0.0
 40
0.0
 40
0.0
 40
0.253539249
 40
0.5045775996
 40
0.7531209894
 40
1.0
 40
1.0
 40
1.0
 40
1.0
 10
15.812091368
 20
6.0752073269
 30
0.0
 10
15.8066670657
 20
6.0783390494
 30
0.0
 10
15.7956317574
 20
6.0841736593
 30
0.0
 10
15.7783476623
 20
6.0911718021
 30
0.0
 10
15.7604264841
 20
6.0957833012
 30
0.0
 10
15.7481640052
 20
6.0968735312
 30
0.0
 10
15.7420650952
 20
6.0968735312
 30
0.0
  0
SPLINE
  5
51A
100
AcDbEntity
  8
0
100
AcDbSpline
 62
7
  6
CONTINUOUS
 70
0
 71
3
 72
14
 73
10
 74
0
 42
0.0000001
 43
0.0000001
 44
0.0000000001
 40
0.0
 40
0.0
 40
0.0
 40
0.0
 40
0.2189614732
 40
0.3369956619
 40
0.4603264121
 40
0.5887807948
 40
0.7221055676
 40
0.8597263405
 40
1.0
 40
1.0
 40
1.0
 40
1.0
 10
16.0944250143
 20
4.8192807647
 30
0.0
 10
16.0843311296
 20
4.8347299706
 30
0.0
 10
16.0665995759
 20
4.8571454284
 30
0.0
 10
16.0389576841
 20
4.8844124886
 30
0.0
 10
16.0148005032
 20
4.90419489
 30
0.0
 10
15.9875729985
 20
4.9219946461
 30
0.0
 10
15.9571517323
 20
4.9366773552
 30
0.0
 10
15.9237872426
 20
4.9466602084
 30
0.0
 10
15.9003027234
 20
4.9490460569
 30
0.0
 10
15.8884802569
 20
4.9490460569
 30
0.0
  0
SPLINE
  5
51B
100
AcDbEntity
  8
0
100
AcDbSpline
 62
7
  6
CONTINUOUS
 70
0
 71
3
 72
17
 73
13
 74
0
 42
0.0000001
 43
0.0000001
 44
0.0000000001
 40
0.0
 40
0.0
 40
0.0
 40
0.0
 40
0.0783055363
 40
0.1556586767
 40
0.3048890849
 40
0.4457973569
 40
0.5776825492
 40
0.6998211934
 40
0.8112569893
 40
0.8627314163
 40
0.9112916993
 40
1.0
 40
1.0
 40
1.0
 40
1.0
 10
15.8884802569
 20
4.9490460569
 30
0.0
 10
15.8792599284
 20
4.9490460569
 30
0.0
 10
15.8608992116
 20
4.9475976124
 30
0.0
 10
15.8258340168
 20
4.9394051733
 30
0.0
 10
15.7860816742
 20
4.9212197116
 30
0.0
 10
15.745627842
 20
4.8919994696
 30
0.0
 10
15.7122704187
 20
4.8593875142
 30
0.0
 10
15.6855902481
 20
4.8254838558
 30
0.0
 10
15.6684341489
 20
4.7964861485
 30
0.0
 10
15.6584687439
 20
4.7736261853
 30
0.0
 10
15.6515123475
 20
4.7525127709
 30
0.0
 10
15.6488969236
 20
4.7363190573
 30
0.0
 10
15.6488969236
 20
4.7258738229
 30
0.0
  0
SPLINE
  5
51C
100
AcDbEntity
  8
0
100
AcDbSpline
 62
7
  6
CONTINUOUS
 70
0
 71
3
 72
9
 73
5
 74
0
 42
0.0000001
 43
0.0000001
 44
0.0000000001
 40
0.0
 40
0.0
 40
0.0
 40
0.0
 40
0.2511348642
 40
1.0
 40
1.0
 40
1.0
 40
1.0
 10
16.0947302569
 20
5.0462185392
 30
0.0
 10
16.0947302569
 20
5.0448683587
 30
0.0
 10
16.0946767217
 20
5.0394922513
 30
0.0
 10
16.0943989556
 20
5.0341177733
 30
0.0
 10
16.0940518957
 20
5.0301066238
 30
0.0
  0
SPLINE
  5
51D
100
AcDbEntity
  8
0
100
AcDbSpline
 62
7
  6
CONTINUOUS
 70
0
 71
3
 72
13
 73
9
 74
0
 42
0.0000001
 43
0.0000001
 44
0.0000000001
 40
0.0
 40
0.0
 40
0.0
 40
0.0
 40
0.2257842531
 40
0.4652663373
 40
0.5903233914
 40
0.7195887863
 40
0.8552455481
 40
1.0
 40
1.0
 40
1.0
 40
1.0
 10
16.0944250143
 20
4.8192807647
 30
0.0
 10
16.0960632493
 20
4.8167680689
 30
0.0
 10
16.0989910863
 20
4.8112985999
 30
0.0
 10
16.1019557993
 20
4.8040277303
 30
0.0
 10
16.1040161333
 20
4.7977974082
 30
0.0
 10
16.105397932
 20
4.792800303
 30
0.0
 10
16.1065239817
 20
4.7874759081
 30
0.0
 10
16.1069708387
 20
4.7837568908
 30
0.0
 10
16.1069742535
 20
4.7818338105
 30
0.0
  0
SPLINE
  5
51E
100
AcDbEntity
  8
0
100
AcDbSpline
 62
7
  6
CONTINUOUS
 70
0
 71
3
 72
11
 73
7
 74
0
 42
0.0000001
 43
0.0000001
 44
0.0000000001
 40
0.0
 40
0.0
 40
0.0
 40
0.0
 40
0.253539249
 40
0.5045775996
 40
0.7531209894
 40
1.0
 40
1.0
 40
1.0
 40
1.0
 10
15.9521439138
 20
6.0752073269
 30
0.0
 10
15.9467196115
 20
6.0783390494
 30
0.0
 10
15.9356843032
 20
6.0841736593
 30
0.0
 10
15.918400208
 20
6.0911718021
 30
0.0
 10
15.9004790298
 20
6.0957833012
 30
0.0
 10
15.8882165509
 20
6.0968735312
 30
0.0
 10
15.8821176409
 20
6.0968735312
 30
0.0
  0
SPLINE
  5
51F
100
AcDbEntity
  8
0
100
AcDbSpline
 62
7
  6
CONTINUOUS
 70
0
 71
3
 72
11
 73
7
 74
0
 42
0.0000001
 43
0.0000001
 44
0.0000000001
 40
0.0
 40
0.0
 40
0.0
 40
0.0
 40
0.2468814888
 40
0.4954235426
 40
0.7464546229
 40
1.0
 40
1.0
 40
1.0
 40
1.0
 10
15.8821176409
 20
6.0968735312
 30
0.0
 10
15.8760186139
 20
6.0968735312
 30
0.0
 10
15.8637562032
 20
6.0957825963
 30
0.0
 10
15.8458339546
 20
6.0911754437
 30
0.0
 10
15.8285497288
 20
6.084176503
 30
0.0
 10
15.8175158511
 20
6.0783391537
 30
0.0
 10
15.812091368
 20
6.0752073269
 30
0.0
  0
SPLINE
  5
520
100
AcDbEntity
  8
0
100
AcDbSpline
 62
7
  6
CONTINUOUS
 70
0
 71
3
 72
11
 73
7
 74
0
 42
0.0000001
 43
0.0000001
 44
0.0000000001
 40
0.0
 40
0.0
 40
0.0
 40
0.0
 40
0.2468814888
 40
0.4954235426
 40
0.7464546229
 40
1.0
 40
1.0
 40
1.0
 40
1.0
 10
15.7420650952
 20
6.0968735312
 30
0.0
 10
15.7359660681
 20
6.0968735312
 30
0.0
 10
15.7237036574
 20
6.0957825963
 30
0.0
 10
15.7057814088
 20
6.0911754437
 30
0.0
 10
15.6884971831
 20
6.084176503
 30
0.0
 10
15.6774633053
 20
6.0783391537
 30
0.0
 10
15.6720388223
 20
6.0752073269
 30
0.0
  0
SPLINE
  5
521
100
AcDbEntity
  8
0
100
AcDbSpline
 62
7
  6
CONTINUOUS
 70
0
 71
3
 72
13
 73
9
 74
0
 42
0.0000001
 43
0.0000001
 44
0.0000000001
 40
0.0
 40
0.0
 40
0.0
 40
0.0
 40
0.1447541596
 40
0.2804085434
 40
0.4096757064
 40
0.534733344
 40
0.7742154177
 40
1.0
 40
1.0
 40
1.0
 40
1.0
 10
15.0137362604
 20
4.7818338105
 30
0.0
 10
15.0137396751
 20
4.7837568866
 30
0.0
 10
15.01418659
 20
4.7874758618
 30
0.0
 10
15.0153125929
 20
4.7928002497
 30
0.0
 10
15.0166943496
 20
4.7977973671
 30
0.0
 10
15.0187547159
 20
4.8040277105
 30
0.0
 10
15.0217194273
 20
4.8112985913
 30
0.0
 10
15.0246472625
 20
4.8167680656
 30
0.0
 10
15.0262854996
 20
4.8192807647
 30
0.0
  0
SPLINE
  5
522
100
AcDbEntity
  8
0
100
AcDbSpline
 62
7
  6
CONTINUOUS
 70
0
 71
3
 72
11
 73
7
 74
0
 42
0.0000001
 43
0.0000001
 44
0.0000000001
 40
0.0
 40
0.0
 40
0.0
 40
0.0
 40
0.2468885381
 40
0.4954357676
 40
0.746463269
 40
1.0
 40
1.0
 40
1.0
 40
1.0
 10
15.3786454187
 20
6.0968735312
 30
0.0
 10
15.3847445972
 20
6.0968735312
 30
0.0
 10
15.3970072837
 20
6.0957825488
 30
0.0
 10
15.4149294982
 20
6.0911744127
 30
0.0
 10
15.4322129347
 20
6.0841744807
 30
0.0
 10
15.4432474136
 20
6.0783390353
 30
0.0
 10
15.4486716916
 20
6.0752073269
 30
0.0
  0
SPLINE
  5
523
100
AcDbEntity
  8
0
100
AcDbSpline
 62
7
  6
CONTINUOUS
 70
0
 71
3
 72
9
 73
5
 74
0
 42
0.0000001
 43
0.0000001
 44
0.0000000001
 40
0.0
 40
0.0
 40
0.0
 40
0.0
 40
0.2490610454
 40
1.0
 40
1.0
 40
1.0
 40
1.0
 10
15.0266586182
 20
5.0301066238
 30
0.0
 10
15.0265431905
 20
5.031440681
 30
0.0
 10
15.026141203
 20
5.0368022513
 30
0.0
 10
15.0259802569
 20
5.0421812222
 30
0.0
 10
15.0259802569
 20
5.0462185392
 30
0.0
  0
SPLINE
  5
524
100
AcDbEntity
  8
0
100
AcDbSpline
 62
7
  6
CONTINUOUS
 70
0
 71
3
 72
13
 73
9
 74
0
 42
0.0000001
 43
0.0000001
 44
0.0000000001
 40
0.0
 40
0.0
 40
0.0
 40
0.0
 40
0.1386725754
 40
0.2714179246
 40
0.3978503494
 40
0.5201853725
 40
0.7596780061
 40
1.0
 40
1.0
 40
1.0
 40
1.0
 10
16.0322302569
 20
4.9490460569
 30
0.0
 10
16.037392023
 20
4.9490460569
 30
0.0
 10
16.0475723067
 20
4.9507872944
 30
0.0
 10
16.0608434327
 20
4.9577884997
 30
0.0
 10
16.0713806408
 20
4.9674991858
 30
0.0
 10
16.0819955315
 20
4.9823698454
 30
0.0
 10
16.0903791837
 20
5.0034773726
 30
0.0
 10
16.0932808874
 20
5.0211944817
 30
0.0
 10
16.0940518957
 20
5.0301066238
 30
0.0
  0
SPLINE
  5
525
100
AcDbEntity
  8
0
100
AcDbSpline
 62
7
  6
CONTINUOUS
 70
0
 71
3
 72
17
 73
13
 74
0
 42
0.0000001
 43
0.0000001
 44
0.0000000001
 40
0.0
 40
0.0
 40
0.0
 40
0.0
 40
0.088708298
 40
0.1372685813
 40
0.1887430074
 40
0.3001787996
 40
0.4223174422
 40
0.5542026354
 40
0.6951109082
 40
0.8443413169
 40
0.9216944529
 40
1.0
 40
1.0
 40
1.0
 40
1.0
 10
15.4718135903
 20
4.7258738229
 30
0.0
 10
15.4718135903
 20
4.736319057
 30
0.0
 10
15.4691981664
 20
4.7525127703
 30
0.0
 10
15.4622417703
 20
4.7736261844
 30
0.0
 10
15.4522763658
 20
4.7964861471
 30
0.0
 10
15.4351202667
 20
4.8254838537
 30
0.0
 10
15.4084400974
 20
4.8593875125
 30
0.0
 10
15.3750826738
 20
4.8919994675
 30
0.0
 10
15.3346288418
 20
4.9212197104
 30
0.0
 10
15.2948764997
 20
4.9394051722
 30
0.0
 10
15.2598113043
 20
4.9475976122
 30
0.0
 10
15.2414505867
 20
4.9490460569
 30
0.0
 10
15.2322302569
 20
4.9490460569
 30
0.0
  0
SPLINE
  5
526
100
AcDbEntity
  8
0
100
AcDbSpline
 62
7
  6
CONTINUOUS
 70
0
 71
3
 72
14
 73
10
 74
0
 42
0.0000001
 43
0.0000001
 44
0.0000000001
 40
0.0
 40
0.0
 40
0.0
 40
0.0
 40
0.1402808854
 40
0.2779036837
 40
0.4112280895
 40
0.5396831832
 40
0.6630140022
 40
0.7810451397
 40
1.0
 40
1.0
 40
1.0
 40
1.0
 10
15.2322302569
 20
4.9490460569
 30
0.0
 10
15.2204071753
 20
4.9490460569
 30
0.0
 10
15.1969218187
 20
4.9466595149
 30
0.0
 10
15.1635571411
 20
4.9366753765
 30
0.0
 10
15.1331341193
 20
4.9219958752
 30
0.0
 10
15.1059070087
 20
4.9041949644
 30
0.0
 10
15.0817523138
 20
4.8844099539
 30
0.0
 10
15.0541099454
 20
4.8571446141
 30
0.0
 10
15.0363790847
 20
4.834729512
 30
0.0
 10
15.0262854996
 20
4.8192807647
 30
0.0
  0
SPLINE
  5
527
100
AcDbEntity
  8
0
100
AcDbSpline
 62
7
  6
CONTINUOUS
 70
0
 71
3
 72
11
 73
7
 74
0
 42
0.0000001
 43
0.0000001
 44
0.0000000001
 40
0.0
 40
0.0
 40
0.0
 40
0.0
 40
0.2468885381
 40
0.4954357676
 40
0.746463269
 40
1.0
 40
1.0
 40
1.0
 40
1.0
 10
15.2385928729
 20
6.0968735312
 30
0.0
 10
15.2446920515
 20
6.0968735312
 30
0.0
 10
15.256954738
 20
6.0957825488
 30
0.0
 10
15.2748769524
 20
6.0911744127
 30
0.0
 10
15.2921603889
 20
6.0841744807
 30
0.0
 10
15.3031948679
 20
6.0783390353
 30
0.0
 10
15.3086191458
 20
6.0752073269
 30
0.0
  0
SPLINE
  5
528
100
AcDbEntity
  8
0
100
AcDbSpline
 62
7
  6
CONTINUOUS
 70
0
 71
3
 72
11
 73
7
 74
0
 42
0.0000001
 43
0.0000001
 44
0.0000000001
 40
0.0
 40
0.0
 40
0.0
 40
0.0
 40
0.2535310263
 40
0.5045636088
 40
0.7531126929
 40
1.0
 40
1.0
 40
1.0
 40
1.0
 10
15.3086191458
 20
6.0752073269
 30
0.0
 10
15.3140432804
 20
6.0783389525
 30
0.0
 10
15.3250784699
 20
6.0841729762
 30
0.0
 10
15.3423617363
 20
6.091172797
 30
0.0
 10
15.36028353
 20
6.0957830646
 30
0.0
 10
15.3725462946
 20
6.0968735312
 30
0.0
 10
15.3786454187
 20
6.0968735312
 30
0.0
  0
SPLINE
  5
529
100
AcDbEntity
  8
0
100
AcDbSpline
 62
7
  6
CONTINUOUS
 70
0
 71
3
 72
13
 73
9
 74
0
 42
0.0000001
 43
0.0000001
 44
0.0000000001
 40
0.0
 40
0.0
 40
0.0
 40
0.0
 40
0.2403220381
 40
0.47981441
 40
0.6021435931
 40
0.7285768942
 40
0.8613235193
 40
1.0
 40
1.0
 40
1.0
 40
1.0
 10
15.0266586182
 20
5.0301066238
 30
0.0
 10
15.0274296226
 20
5.0211945258
 30
0.0
 10
15.0303317781
 20
5.0034778829
 30
0.0
 10
15.0387132208
 20
4.9823692391
 30
0.0
 10
15.0493309473
 20
4.9675012062
 30
0.0
 10
15.0598660733
 20
4.9577885068
 30
0.0
 10
15.0731384781
 20
4.950789407
 30
0.0
 10
15.083318372
 20
4.9490460569
 30
0.0
 10
15.0884802569
 20
4.9490460569
 30
0.0
  0
SPLINE
  5
52A
100
AcDbEntity
  8
0
100
AcDbSpline
 62
7
  6
CONTINUOUS
 70
0
 71
3
 72
11
 73
7
 74
0
 42
0.0000001
 43
0.0000001
 44
0.0000000001
 40
0.0
 40
0.0
 40
0.0
 40
0.0
 40
0.2341570331
 40
0.4764381037
 40
0.7308495487
 40
1.0
 40
1.0
 40
1.0
 40
1.0
 10
15.4730517348
 20
11.8892334693
 30
0.0
 10
15.4748122744
 20
11.8991152707
 30
0.0
 10
15.4765632504
 20
11.9195890282
 30
0.0
 10
15.4738479733
 20
11.9509357527
 30
0.0
 10
15.4658941969
 20
11.9829094531
 30
0.0
 10
15.4574506373
 20
12.003785604
 30
0.0
 10
15.4524846839
 20
12.0141996218
 30
0.0
  0
SPLINE
  5
52B
100
AcDbEntity
  8
0
100
AcDbSpline
 62
7
  6
CONTINUOUS
 70
0
 71
3
 72
9
 73
5
 74
0
 42
0.0000001
 43
0.0000001
 44
0.0000000001
 40
0.0
 40
0.0
 40
0.0
 40
0.0
 40
0.5956062987
 40
1.0
 40
1.0
 40
1.0
 40
1.0
 10
15.8558179686
 20
13.0912864124
 30
0.0
 10
15.8528154378
 20
13.0994047908
 30
0.0
 10
15.8479276143
 20
13.1130940084
 30
0.0
 10
15.8436592374
 20
13.126994777
 30
0.0
 10
15.8421398622
 20
13.1326719478
 30
0.0
  0
SPLINE
  5
52C
100
AcDbEntity
  8
0
100
AcDbSpline
 62
7
  6
CONTINUOUS
 70
0
 71
3
 72
9
 73
5
 74
0
 42
0.0000001
 43
0.0000001
 44
0.0000000001
 40
0.0
 40
0.0
 40
0.0
 40
0.0
 40
0.5324876603
 40
1.0
 40
1.0
 40
1.0
 40
1.0
 10
15.8827142737
 20
13.02296502
 30
0.0
 10
15.8777926211
 20
13.0350330383
 30
0.0
 10
15.8686315378
 20
13.0577297112
 30
0.0
 10
15.8597872133
 20
13.080554189
 30
0.0
 10
15.8558179686
 20
13.0912864124
 30
0.0
  0
SPLINE
  5
52D
100
AcDbEntity
  8
0
100
AcDbSpline
 62
7
  6
CONTINUOUS
 70
0
 71
3
 72
9
 73
5
 74
0
 42
0.0000001
 43
0.0000001
 44
0.0000000001
 40
0.0
 40
0.0
 40
0.0
 40
0.0
 40
0.2530008655
 40
1.0
 40
1.0
 40
1.0
 40
1.0
 10
15.8421398622
 20
13.1326719478
 30
0.0
 10
15.8454011018
 20
13.1389039632
 30
0.0
 10
15.858804817
 20
13.1632301272
 30
0.0
 10
15.8751248236
 20
13.1862192826
 30
0.0
 10
15.8897199734
 20
13.2009933403
 30
0.0
  0
SPLINE
  5
52E
100
AcDbEntity
  8
0
100
AcDbSpline
 62
7
  6
CONTINUOUS
 70
0
 71
3
 72
9
 73
5
 74
0
 42
0.0000001
 43
0.0000001
 44
0.0000000001
 40
0.0
 40
0.0
 40
0.0
 40
0.0
 40
0.490483346
 40
1.0
 40
1.0
 40
1.0
 40
1.0
 10
16.0183856003
 20
13.2558468042
 30
0.0
 10
16.0318569869
 20
13.2558468042
 30
0.0
 10
16.0593345286
 20
13.2529049667
 30
0.0
 10
16.0860289435
 20
13.2462704224
 30
0.0
 10
16.099471116
 20
13.2423788757
 30
0.0
  0
SPLINE
  5
52F
100
AcDbEntity
  8
0
100
AcDbSpline
 62
7
  6
CONTINUOUS
 70
0
 71
3
 72
10
 73
6
 74
0
 42
0.0000001
 43
0.0000001
 44
0.0000000001
 40
0.0
 40
0.0
 40
0.0
 40
0.0
 40
0.4713862461
 40
0.7278988685
 40
1.0
 40
1.0
 40
1.0
 40
1.0
 10
15.9505182834
 20
13.2423788757
 30
0.0
 10
15.9606536062
 20
13.2464776976
 30
0.0
 10
15.976860033
 20
13.2516031056
 30
0.0
 10
15.9998019992
 20
13.2552305425
 30
0.0
 10
16.0120748206
 20
13.2558468042
 30
0.0
 10
16.0183856003
 20
13.2558468042
 30
0.0
  0
SPLINE
  5
530
100
AcDbEntity
  8
0
100
AcDbSpline
 62
7
  6
CONTINUOUS
 70
0
 71
3
 72
9
 73
5
 74
0
 42
0.0000001
 43
0.0000001
 44
0.0000000001
 40
0.0
 40
0.0
 40
0.0
 40
0.0
 40
0.2550768056
 40
1.0
 40
1.0
 40
1.0
 40
1.0
 10
15.8733394045
 20
13.0442086478
 30
0.0
 10
15.8730589837
 20
13.0423442153
 30
0.0
 10
15.8721488936
 20
13.0350082802
 30
0.0
 10
15.8720268379
 20
13.0275700569
 30
0.0
 10
15.8724237963
 20
13.0220782769
 30
0.0
  0
SPLINE
  5
531
100
AcDbEntity
  8
0
100
AcDbSpline
 62
7
  6
CONTINUOUS
 70
0
 71
3
 72
9
 73
5
 74
0
 42
0.0000001
 43
0.0000001
 44
0.0000000001
 40
0.0
 40
0.0
 40
0.0
 40
0.0
 40
0.2524364077
 40
1.0
 40
1.0
 40
1.0
 40
1.0
 10
15.8724237963
 20
13.0220782769
 30
0.0
 10
15.8725153178
 20
13.0208121088
 30
0.0
 10
15.8729797325
 20
13.0158043141
 30
0.0
 10
15.8738587319
 20
13.0108340791
 30
0.0
 10
15.8747529513
 20
13.0071825733
 30
0.0
  0
SPLINE
  5
532
100
AcDbEntity
  8
0
100
AcDbSpline
 62
7
  6
CONTINUOUS
 70
0
 71
3
 72
11
 73
7
 74
0
 42
0.0000001
 43
0.0000001
 44
0.0000000001
 40
0.0
 40
0.0
 40
0.0
 40
0.0
 40
0.2378035816
 40
0.4813600397
 40
0.7344301312
 40
1.0
 40
1.0
 40
1.0
 40
1.0
 10
14.5131756415
 20
12.1647262092
 30
0.0
 10
14.5110349048
 20
12.1558967191
 30
0.0
 10
14.5081839391
 20
12.1376304726
 30
0.0
 10
14.5083599735
 20
12.1094630594
 30
0.0
 10
14.5129158103
 20
12.0806015801
 30
0.0
 10
14.518687609
 20
12.0615776341
 30
0.0
 10
14.5222104002
 20
12.0520627242
 30
0.0
  0
SPLINE
  5
533
100
AcDbEntity
  8
0
100
AcDbSpline
 62
7
  6
CONTINUOUS
 70
0
 71
3
 72
9
 73
5
 74
0
 42
0.0000001
 43
0.0000001
 44
0.0000000001
 40
0.0
 40
0.0
 40
0.0
 40
0.0
 40
0.2394931832
 40
1.0
 40
1.0
 40
1.0
 40
1.0
 10
14.5419583344
 20
12.040802752
 30
0.0
 10
14.5446287326
 20
12.0356462317
 30
0.0
 10
14.556406461
 20
12.014441863
 30
0.0
 10
14.5705177682
 20
11.9945692958
 30
0.0
 10
14.5821567092
 20
11.9802666823
 30
0.0
  0
SPLINE
  5
534
100
AcDbEntity
  8
0
100
AcDbSpline
 62
7
  6
CONTINUOUS
 70
0
 71
3
 72
23
 73
19
 74
0
 42
0.0000001
 43
0.0000001
 44
0.0000000001
 40
0.0
 40
0.0
 40
0.0
 40
0.0
 40
0.0593659512
 40
0.1229155628
 40
0.190075253
 40
0.2600751217
 40
0.3320130016
 40
0.4048980558
 40
0.477698773
 40
0.5493876857
 40
0.6189855493
 40
0.6856070169
 40
0.7485114285
 40
0.8071636877
 40
0.861305285
 40
0.9110382226
 40
0.9569151407
 40
1.0
 40
1.0
 40
1.0
 40
1.0
 10
14.5821567092
 20
11.9802666823
 30
0.0
 10
14.5945976469
 20
11.9649785281
 30
0.0
 10
14.6225946563
 20
11.9351087675
 30
0.0
 10
14.6708900479
 20
11.8943085444
 30
0.0
 10
14.7260247019
 20
11.8566867659
 30
0.0
 10
14.7868504577
 20
11.8230295358
 30
0.0
 10
14.8521074835
 20
11.7940274974
 30
0.0
 10
14.9204387007
 20
11.7702867842
 30
0.0
 10
14.9904200823
 20
11.7523013782
 30
0.0
 10
15.0605935047
 20
11.7404449638
 30
0.0
 10
15.12950019
 20
11.7349642736
 30
0.0
 10
15.1957133135
 20
11.7359752795
 30
0.0
 10
15.2578703615
 20
11.7434651169
 30
0.0
 10
15.3147044082
 20
11.7572984552
 30
0.0
 10
15.3650648174
 20
11.7772317941
 30
0.0
 10
15.4079254375
 20
11.8029565737
 30
0.0
 10
15.4423279987
 20
11.834048927
 30
0.0
 10
15.4593854169
 20
11.8585755165
 30
0.0
 10
15.465991529
 20
11.8712636967
 30
0.0
  0
SPLINE
  5
535
100
AcDbEntity
  8
0
100
AcDbSpline
 62
7
  6
CONTINUOUS
 70
0
 71
3
 72
10
 73
6
 74
0
 42
0.0000001
 43
0.0000001
 44
0.0000000001
 40
0.0
 40
0.0
 40
0.0
 40
0.0
 40
0.2361980045
 40
0.4802124818
 40
1.0
 40
1.0
 40
1.0
 40
1.0
 10
14.5151017149
 20
12.1587462782
 30
0.0
 10
14.5144118307
 20
12.1504704051
 30
0.0
 10
14.5142374523
 20
12.1335188827
 30
0.0
 10
14.5186569023
 20
12.0985598385
 30
0.0
 10
14.5271881503
 20
12.0727534132
 30
0.0
 10
14.5346162789
 20
12.0560557004
 30
0.0
  0
SPLINE
  5
536
100
AcDbEntity
  8
0
100
AcDbSpline
 62
7
  6
CONTINUOUS
 70
0
 71
3
 72
25
 73
21
 74
0
 42
0.0000001
 43
0.0000001
 44
0.0000000001
 40
0.0
 40
0.0
 40
0.0
 40
0.0
 40
0.054340403
 40
0.1139494041
 40
0.1785194863
 40
0.2473425435
 40
0.3194017883
 40
0.3934834944
 40
0.4682548154
 40
0.5423468977
 40
0.6144278848
 40
0.6832810275
 40
0.7478893646
 40
0.8075347331
 40
0.8619188376
 40
0.9113100172
 40
0.9344539531
 40
0.9567827206
 40
0.9785392364
 40
1.0
 40
1.0
 40
1.0
 40
1.0
 10
14.5242659149
 20
12.0170958087
 30
0.0
 10
14.5331929175
 20
11.9989044901
 30
0.0
 10
14.5558682235
 20
11.962644838
 30
0.0
 10
14.5999231283
 20
11.9124479448
 30
0.0
 10
14.6544110448
 20
11.8651300562
 30
0.0
 10
14.7178691454
 20
11.8219281922
 30
0.0
 10
14.7886270012
 20
11.78396711
 30
0.0
 10
14.8647938759
 20
11.7522559058
 30
0.0
 10
14.9443324718
 20
11.7276440892
 30
0.0
 10
15.0251097298
 20
11.7107910981
 30
0.0
 10
15.1049635481
 20
11.7021484343
 30
0.0
 10
15.1817669092
 20
11.7019498525
 30
0.0
 10
15.2534899121
 20
11.7102087912
 30
0.0
 10
15.3182692189
 20
11.7267506299
 30
0.0
 10
15.3744140849
 20
11.7512052343
 30
0.0
 10
15.4136294632
 20
11.7784444173
 30
0.0
 10
15.4386167728
 20
11.8036033958
 30
0.0
 10
15.4538929866
 20
11.8235778369
 30
0.0
 10
15.4659856021
 20
11.8449069793
 30
0.0
 10
15.4718707973
 20
11.8599812044
 30
0.0
 10
15.474232884
 20
11.8676274298
 30
0.0
  0
SPLINE
  5
537
100
AcDbEntity
  8
0
100
AcDbSpline
 62
7
  6
CONTINUOUS
 70
0
 71
3
 72
24
 73
20
 74
0
 42
0.0000001
 43
0.0000001
 44
0.0000000001
 40
0.0
 40
0.0
 40
0.0
 40
0.0
 40
0.0532968761
 40
0.1115117579
 40
0.1743974766
 40
0.2413762199
 40
0.3115864588
 40
0.3839899471
 40
0.4574317259
 40
0.5307053362
 40
0.6026126997
 40
0.6720246629
 40
0.7379449352
 40
0.7995819692
 40
0.8564344796
 40
0.9083961774
 40
0.9558779274
 40
0.9782775264
 40
1.0
 40
1.0
 40
1.0
 40
1.0
 10
15.4510835401
 20
12.0170958087
 30
0.0
 10
15.442746191
 20
12.0340855399
 30
0.0
 10
15.4218135103
 20
12.0679694163
 30
0.0
 10
15.3814166343
 20
12.1151531523
 30
0.0
 10
15.3316143194
 20
12.1599034118
 30
0.0
 10
15.2736175071
 20
12.2011682366
 30
0.0
 10
15.2087982457
 20
12.237980141
 30
0.0
 10
15.1387162941
 20
12.2694590815
 30
0.0
 10
15.0650579398
 20
12.2948464945
 30
0.0
 10
14.9896014238
 20
12.3135297726
 30
0.0
 10
14.9141672014
 20
12.3250585185
 30
0.0
 10
14.8405701595
 20
12.3291548788
 30
0.0
 10
14.7705701264
 20
12.325716013
 30
0.0
 10
14.7058272154
 20
12.3148119645
 30
0.0
 10
14.6478533187
 20
12.296653763
 30
0.0
 10
14.5980189259
 20
12.271602931
 30
0.0
 10
14.563605075
 20
12.2447620895
 30
0.0
 10
14.5418710571
 20
12.2204679054
 30
0.0
 10
14.5329405564
 20
12.2075311581
 30
0.0
 10
14.5289914146
 20
12.2009053549
 30
0.0
  0
SPLINE
  5
538
100
AcDbEntity
  8
0
100
AcDbSpline
 62
7
  6
CONTINUOUS
 70
0
 71
3
 72
24
 73
20
 74
0
 42
0.0000001
 43
0.0000001
 44
0.0000000001
 40
0.0
 40
0.0
 40
0.0
 40
0.0
 40
0.0543962576
 40
0.1138499398
 40
0.1780554341
 40
0.2463372361
 40
0.3542126976
 40
0.4651801093
 40
0.5749626323
 40
0.6281352769
 40
0.6795032644
 40
0.7286591685
 40
0.7752769685
 40
0.8191311424
 40
0.8601290264
 40
0.8983409879
 40
0.9340300751
 40
0.9676817773
 40
1.0
 40
1.0
 40
1.0
 40
1.0
 10
14.5359066763
 20
12.0212195793
 30
0.0
 10
14.5449243796
 20
12.0038064573
 30
0.0
 10
14.5673782102
 20
11.9691643296
 30
0.0
 10
14.6102965021
 20
11.9211749102
 30
0.0
 10
14.6628709182
 20
11.8759175676
 30
0.0
 10
14.7346603477
 20
11.8271200196
 30
0.0
 10
14.8273700798
 20
11.7802074286
 30
0.0
 10
14.9397638905
 20
11.7416936253
 30
0.0
 10
15.037012237
 20
11.722576689
 30
0.0
 10
15.1140642411
 20
11.7160856471
 30
0.0
 10
15.1695317778
 20
11.7157312241
 30
0.0
 10
15.2224838172
 20
11.7198422582
 30
0.0
 10
15.2721737711
 20
11.7283620482
 30
0.0
 10
15.3178996913
 20
11.7411857671
 30
0.0
 10
15.3590192017
 20
11.7581502269
 30
0.0
 10
15.3949502311
 20
11.7790467701
 30
0.0
 10
15.4251593747
 20
11.8036439684
 30
0.0
 10
15.449149827
 20
11.8316210099
 30
0.0
 10
15.4608493466
 20
11.8525538259
 30
0.0
 10
15.465421717
 20
11.8632696551
 30
0.0
  0
SPLINE
  5
539
100
AcDbEntity
  8
0
100
AcDbSpline
 62
7
  6
CONTINUOUS
 70
0
 71
3
 72
9
 73
5
 74
0
 42
0.0000001
 43
0.0000001
 44
0.0000000001
 40
0.0
 40
0.0
 40
0.0
 40
0.0
 40
0.2477422649
 40
1.0
 40
1.0
 40
1.0
 40
1.0
 10
14.844355803
 20
11.3467073509
 30
0.0
 10
14.844232335
 20
11.3463078398
 30
0.0
 10
14.843796908
 20
11.3446762158
 30
0.0
 10
14.8436224573
 20
11.3429768084
 30
0.0
 10
14.8436328806
 20
11.3417071435
 30
0.0
  0
SPLINE
  5
53A
100
AcDbEntity
  8
0
100
AcDbSpline
 62
7
  6
CONTINUOUS
 70
0
 71
3
 72
9
 73
5
 74
0
 42
0.0000001
 43
0.0000001
 44
0.0000000001
 40
0.0
 40
0.0
 40
0.0
 40
0.0
 40
0.2432259005
 40
1.0
 40
1.0
 40
1.0
 40
1.0
 10
14.8436328806
 20
11.3417071435
 30
0.0
 10
14.8436363215
 20
11.3412879955
 30
0.0
 10
14.8437125728
 20
11.3395654106
 30
0.0
 10
14.8440312264
 20
11.3378565861
 30
0.0
 10
14.8443813124
 20
11.3366002691
 30
0.0
  0
SPLINE
  5
53B
100
AcDbEntity
  8
0
100
AcDbSpline
 62
7
  6
CONTINUOUS
 70
0
 71
3
 72
9
 73
5
 74
0
 42
0.0000001
 43
0.0000001
 44
0.0000000001
 40
0.0
 40
0.0
 40
0.0
 40
0.0
 40
0.2430713235
 40
1.0
 40
1.0
 40
1.0
 40
1.0
 10
14.8443813124
 20
11.3366002691
 30
0.0
 10
14.8444812783
 20
11.3362415315
 30
0.0
 10
14.8449293456
 20
11.3347760478
 30
0.0
 10
14.8455197183
 20
11.333355192
 30
0.0
 10
14.8460306058
 20
11.3323141127
 30
0.0
  0
SPLINE
  5
53C
100
AcDbEntity
  8
0
100
AcDbSpline
 62
7
  6
CONTINUOUS
 70
0
 71
3
 72
9
 73
5
 74
0
 42
0.0000001
 43
0.0000001
 44
0.0000000001
 40
0.0
 40
0.0
 40
0.0
 40
0.0
 40
0.4893972399
 40
1.0
 40
1.0
 40
1.0
 40
1.0
 10
16.049494448
 20
12.7380145891
 30
0.0
 10
16.045627511
 20
12.7458981061
 30
0.0
 10
16.0350899254
 20
12.7608268932
 30
0.0
 10
16.0206220761
 20
12.7718881867
 30
0.0
 10
16.0126932895
 20
12.7764777264
 30
0.0
  0
SPLINE
  5
53D
100
AcDbEntity
  8
0
100
AcDbSpline
 62
7
  6
CONTINUOUS
 70
0
 71
3
 72
9
 73
5
 74
0
 42
0.0000001
 43
0.0000001
 44
0.0000000001
 40
0.0
 40
0.0
 40
0.0
 40
0.0
 40
0.2550768056
 40
1.0
 40
1.0
 40
1.0
 40
1.0
 10
13.9688539117
 20
13.0442086478
 30
0.0
 10
13.9685734909
 20
13.0423442153
 30
0.0
 10
13.9676634008
 20
13.0350082802
 30
0.0
 10
13.9675413451
 20
13.0275700569
 30
0.0
 10
13.9679383035
 20
13.0220782769
 30
0.0
  0
SPLINE
  5
53E
100
AcDbEntity
  8
0
100
AcDbSpline
 62
7
  6
CONTINUOUS
 70
0
 71
3
 72
9
 73
5
 74
0
 42
0.0000001
 43
0.0000001
 44
0.0000000001
 40
0.0
 40
0.0
 40
0.0
 40
0.0
 40
0.50441665
 40
1.0
 40
1.0
 40
1.0
 40
1.0
 10
13.9679383035
 20
13.0220782769
 30
0.0
 10
13.9683437673
 20
13.0164688268
 30
0.0
 10
13.9701611445
 20
13.0053926672
 30
0.0
 10
13.9740900825
 20
12.9948712815
 30
0.0
 10
13.9765234657
 20
12.9899103479
 30
0.0
  0
SPLINE
  5
53F
100
AcDbEntity
  8
0
100
AcDbSpline
 62
7
  6
CONTINUOUS
 70
0
 71
3
 72
9
 73
5
 74
0
 42
0.0000001
 43
0.0000001
 44
0.0000000001
 40
0.0
 40
0.0
 40
0.0
 40
0.0
 40
0.2550762689
 40
1.0
 40
1.0
 40
1.0
 40
1.0
 10
13.846979927
 20
12.6498232137
 30
0.0
 10
13.8466995698
 20
12.6479589572
 30
0.0
 10
13.845789694
 20
12.6406237052
 30
0.0
 10
13.8456677128
 20
12.6331861978
 30
0.0
 10
13.8460646337
 20
12.6276949369
 30
0.0
  0
SPLINE
  5
540
100
AcDbEntity
  8
0
100
AcDbSpline
 62
7
  6
CONTINUOUS
 70
0
 71
3
 72
9
 73
5
 74
0
 42
0.0000001
 43
0.0000001
 44
0.0000000001
 40
0.0
 40
0.0
 40
0.0
 40
0.0
 40
0.50441665
 40
1.0
 40
1.0
 40
1.0
 40
1.0
 10
13.8460646337
 20
12.6276949369
 30
0.0
 10
13.8464700975
 20
12.6220854869
 30
0.0
 10
13.8482874747
 20
12.6110093273
 30
0.0
 10
13.8522164128
 20
12.6004879416
 30
0.0
 10
13.8546497959
 20
12.595527008
 30
0.0
  0
SPLINE
  5
541
100
AcDbEntity
  8
0
100
AcDbSpline
 62
7
  6
CONTINUOUS
 70
0
 71
3
 72
9
 73
5
 74
0
 42
0.0000001
 43
0.0000001
 44
0.0000000001
 40
0.0
 40
0.0
 40
0.0
 40
0.0
 40
0.2542612786
 40
1.0
 40
1.0
 40
1.0
 40
1.0
 10
13.906297558
 20
11.7110775743
 30
0.0
 10
13.9049521078
 20
11.7108770185
 30
0.0
 10
13.8996472141
 20
11.7101816499
 30
0.0
 10
13.8942912294
 20
11.7098632206
 30
0.0
 10
13.8903014749
 20
11.7098632206
 30
0.0
  0
SPLINE
  5
542
100
AcDbEntity
  8
0
100
AcDbSpline
 62
7
  6
CONTINUOUS
 70
0
 71
3
 72
16
 73
12
 74
0
 42
0.0000001
 43
0.0000001
 44
0.0000000001
 40
0.0
 40
0.0
 40
0.0
 40
0.0
 40
0.0505246301
 40
0.1018802056
 40
0.2094849472
 40
0.3268928457
 40
0.4544716487
 40
0.5898992017
 40
0.7291211367
 40
0.8673660992
 40
1.0
 40
1.0
 40
1.0
 40
1.0
 10
17.0265835352
 20
11.8246004278
 30
0.0
 10
17.027930931
 20
11.8218538745
 30
0.0
 10
17.0301308317
 20
11.8160440625
 30
0.0
 10
17.0323600409
 20
11.803494382
 30
0.0
 10
17.0307554294
 20
11.7864969926
 30
0.0
 10
17.0224053274
 20
11.7665705291
 30
0.0
 10
17.008426048
 20
11.7480060222
 30
0.0
 10
16.9898285591
 20
11.7320200627
 30
0.0
 10
16.9679091028
 20
11.7196684259
 30
0.0
 10
16.9441991596
 20
11.7118035676
 30
0.0
 10
16.9277595989
 20
11.7098632206
 30
0.0
 10
16.9197286505
 20
11.7098632206
 30
0.0
  0
SPLINE
  5
543
100
AcDbEntity
  8
0
100
AcDbSpline
 62
7
  6
CONTINUOUS
 70
0
 71
3
 72
9
 73
5
 74
0
 42
0.0000001
 43
0.0000001
 44
0.0000000001
 40
0.0
 40
0.0
 40
0.0
 40
0.0
 40
0.2442444928
 40
1.0
 40
1.0
 40
1.0
 40
1.0
 10
15.982436197
 20
12.907136097
 30
0.0
 10
15.9776878687
 20
12.9112554791
 30
0.0
 10
15.9582693211
 20
12.928146482
 30
0.0
 10
15.9390200625
 20
12.9452364725
 30
0.0
 10
15.9247028297
 20
12.9584030778
 30
0.0
  0
SPLINE
  5
544
100
AcDbEntity
  8
0
100
AcDbSpline
 62
7
  6
CONTINUOUS
 70
0
 71
3
 72
9
 73
5
 74
0
 42
0.0000001
 43
0.0000001
 44
0.0000000001
 40
0.0
 40
0.0
 40
0.0
 40
0.0
 40
0.2453311331
 40
1.0
 40
1.0
 40
1.0
 40
1.0
 10
15.9247028297
 20
12.9584030778
 30
0.0
 10
15.9201521483
 20
12.9625880363
 30
0.0
 10
15.9017022941
 20
12.9797525861
 30
0.0
 10
15.8837212153
 20
12.9974332209
 30
0.0
 10
15.8706147927
 20
13.0112137945
 30
0.0
  0
SPLINE
  5
545
100
AcDbEntity
  8
0
100
AcDbSpline
 62
7
  6
CONTINUOUS
 70
0
 71
3
 72
10
 73
6
 74
0
 42
0.0000001
 43
0.0000001
 44
0.0000000001
 40
0.0
 40
0.0
 40
0.0
 40
0.0
 40
0.4971052545
 40
0.7491495867
 40
1.0
 40
1.0
 40
1.0
 40
1.0
 10
15.8706147927
 20
13.0112137945
 30
0.0
 10
15.854605806
 20
13.0280462304
 30
0.0
 10
15.8314519379
 20
13.0544332961
 30
0.0
 10
15.8044463926
 20
13.0926190633
 30
0.0
 10
15.7927277876
 20
13.1130584386
 30
0.0
 10
15.7875640057
 20
13.1235820226
 30
0.0
  0
SPLINE
  5
546
100
AcDbEntity
  8
0
100
AcDbSpline
 62
7
  6
CONTINUOUS
 70
0
 71
3
 72
16
 73
12
 74
0
 42
0.0000001
 43
0.0000001
 44
0.0000000001
 40
0.0
 40
0.0
 40
0.0
 40
0.0
 40
0.0505246301
 40
0.1018802056
 40
0.2094849472
 40
0.3268928457
 40
0.4544716487
 40
0.5898992017
 40
0.7291211367
 40
0.8673660992
 40
1.0
 40
1.0
 40
1.0
 40
1.0
 10
17.1854395599
 20
12.3386587122
 30
0.0
 10
17.1867869558
 20
12.3359121589
 30
0.0
 10
17.1889868564
 20
12.3301023469
 30
0.0
 10
17.1912160657
 20
12.3175526665
 30
0.0
 10
17.1896114541
 20
12.3005552771
 30
0.0
 10
17.1812613522
 20
12.2806288135
 30
0.0
 10
17.1672820727
 20
12.2620643067
 30
0.0
 10
17.1486845839
 20
12.2460783472
 30
0.0
 10
17.1267651275
 20
12.2337267104
 30
0.0
 10
17.1030551844
 20
12.225861852
 30
0.0
 10
17.0866156236
 20
12.223921505
 30
0.0
 10
17.0785846752
 20
12.223921505
 30
0.0
  0
SPLINE
  5
547
100
AcDbEntity
  8
0
100
AcDbSpline
 62
7
  6
CONTINUOUS
 70
0
 71
3
 72
9
 73
5
 74
0
 42
0.0000001
 43
0.0000001
 44
0.0000000001
 40
0.0
 40
0.0
 40
0.0
 40
0.0
 40
0.5171404944
 40
1.0
 40
1.0
 40
1.0
 40
1.0
 10
15.8452289211
 20
13.0631884954
 30
0.0
 10
15.8460477424
 20
13.0682767381
 30
0.0
 10
15.8484995735
 20
13.0780092556
 30
0.0
 10
15.8529639661
 20
13.0870260638
 30
0.0
 10
15.8555956156
 20
13.0910547646
 30
0.0
  0
SPLINE
  5
548
100
AcDbEntity
  8
0
100
AcDbSpline
 62
7
  6
CONTINUOUS
 70
0
 71
3
 72
9
 73
5
 74
0
 42
0.0000001
 43
0.0000001
 44
0.0000000001
 40
0.0
 40
0.0
 40
0.0
 40
0.0
 40
0.2479731544
 40
1.0
 40
1.0
 40
1.0
 40
1.0
 10
13.6616045958
 20
12.4450484591
 30
0.0
 10
13.6618275876
 20
12.4457700609
 30
0.0
 10
13.6628772394
 20
12.4486325776
 30
0.0
 10
13.6644955016
 20
12.4512773042
 30
0.0
 10
13.6659363908
 20
12.4530578265
 30
0.0
  0
SPLINE
  5
549
100
AcDbEntity
  8
0
100
AcDbSpline
 62
7
  6
CONTINUOUS
 70
0
 71
3
 72
9
 73
5
 74
0
 42
0.0000001
 43
0.0000001
 44
0.0000000001
 40
0.0
 40
0.0
 40
0.0
 40
0.0
 40
0.2486132293
 40
1.0
 40
1.0
 40
1.0
 40
1.0
 10
13.6659363908
 20
12.4530578265
 30
0.0
 10
13.6663474089
 20
12.453565726
 30
0.0
 10
13.6680765443
 20
12.4555464642
 30
0.0
 10
13.6700923627
 20
12.4572735896
 30
0.0
 10
13.6717135533
 20
12.458401057
 30
0.0
  0
SPLINE
  5
54A
100
AcDbEntity
  8
0
100
AcDbSpline
 62
7
  6
CONTINUOUS
 70
0
 71
3
 72
9
 73
5
 74
0
 42
0.0000001
 43
0.0000001
 44
0.0000000001
 40
0.0
 40
0.0
 40
0.0
 40
0.0
 40
0.25268962
 40
1.0
 40
1.0
 40
1.0
 40
1.0
 10
13.6796032438
 20
12.4622975352
 30
0.0
 10
13.680293935
 20
12.462518406
 30
0.0
 10
13.6830584783
 20
12.4632902332
 30
0.0
 10
13.6859418802
 20
12.4636494533
 30
0.0
 10
13.6880864478
 20
12.4636494533
 30
0.0
  0
SPLINE
  5
54B
100
AcDbEntity
  8
0
100
AcDbSpline
 62
7
  6
CONTINUOUS
 70
0
 71
3
 72
9
 73
5
 74
0
 42
0.0000001
 43
0.0000001
 44
0.0000000001
 40
0.0
 40
0.0
 40
0.0
 40
0.0
 40
0.4989909083
 40
1.0
 40
1.0
 40
1.0
 40
1.0
 10
13.4099606024
 20
11.6127468373
 30
0.0
 10
13.4088608109
 20
11.6149879767
 30
0.0
 10
13.4075477023
 20
11.6199705724
 30
0.0
 10
13.4082078202
 20
11.6250561929
 30
0.0
 10
13.4089478707
 20
11.6274509972
 30
0.0
  0
SPLINE
  5
54C
100
AcDbEntity
  8
0
100
AcDbSpline
 62
7
  6
CONTINUOUS
 70
0
 71
3
 72
9
 73
5
 74
0
 42
0.0000001
 43
0.0000001
 44
0.0000000001
 40
0.0
 40
0.0
 40
0.0
 40
0.0
 40
0.2379018864
 40
1.0
 40
1.0
 40
1.0
 40
1.0
 10
14.8474253516
 20
11.3551013832
 30
0.0
 10
14.8478052364
 20
11.3557413711
 30
0.0
 10
14.8495804525
 20
11.3583257758
 30
0.0
 10
14.85200945
 20
11.3604244928
 30
0.0
 10
14.8540116083
 20
11.3617188554
 30
0.0
  0
SPLINE
  5
54D
100
AcDbEntity
  8
0
100
AcDbSpline
 62
7
  6
CONTINUOUS
 70
0
 71
3
 72
9
 73
5
 74
0
 42
0.0000001
 43
0.0000001
 44
0.0000000001
 40
0.0
 40
0.0
 40
0.0
 40
0.0
 40
0.2337993706
 40
1.0
 40
1.0
 40
1.0
 40
1.0
 10
14.8540116083
 20
11.3617188554
 30
0.0
 10
14.8547427216
 20
11.3621915082
 30
0.0
 10
14.8579722679
 20
11.3640544284
 30
0.0
 10
14.8615300309
 20
11.3653091296
 30
0.0
 10
14.8642986547
 20
11.3659981509
 30
0.0
  0
SPLINE
  5
54E
100
AcDbEntity
  8
0
100
AcDbSpline
 62
7
  6
CONTINUOUS
 70
0
 71
3
 72
9
 73
5
 74
0
 42
0.0000001
 43
0.0000001
 44
0.0000000001
 40
0.0
 40
0.0
 40
0.0
 40
0.0
 40
0.2372239474
 40
1.0
 40
1.0
 40
1.0
 40
1.0
 10
14.8642986547
 20
11.3659981509
 30
0.0
 10
14.8653118764
 20
11.3662503091
 30
0.0
 10
14.8696207221
 20
11.3671603957
 30
0.0
 10
14.8740400521
 20
11.3675038394
 30
0.0
 10
14.8773973546
 20
11.3675128023
 30
0.0
  0
SPLINE
  5
54F
100
AcDbEntity
  8
0
100
AcDbSpline
 62
7
  6
CONTINUOUS
 70
0
 71
3
 72
12
 73
8
 74
0
 42
0.0000001
 43
0.0000001
 44
0.0000000001
 40
0.0
 40
0.0
 40
0.0
 40
0.0
 40
0.2643497574
 40
0.5361597069
 40
0.666389448
 40
0.7885647406
 40
1.0
 40
1.0
 40
1.0
 40
1.0
 10
14.8773973546
 20
11.3675128023
 30
0.0
 10
14.883561178
 20
11.3675292577
 30
0.0
 10
14.896090443
 20
11.3658610156
 30
0.0
 10
14.9108072702
 20
11.3604962153
 30
0.0
 10
14.9214154409
 20
11.3543458769
 30
0.0
 10
14.9299848644
 20
11.3477516352
 30
0.0
 10
14.9351750751
 20
11.3416357567
 30
0.0
 10
14.9373469673
 20
11.3372099059
 30
0.0
  0
SPLINE
  5
550
100
AcDbEntity
  8
0
100
AcDbSpline
 62
7
  6
CONTINUOUS
 70
0
 71
3
 72
9
 73
5
 74
0
 42
0.0000001
 43
0.0000001
 44
0.0000000001
 40
0.0
 40
0.0
 40
0.0
 40
0.0
 40
0.4907404513
 40
1.0
 40
1.0
 40
1.0
 40
1.0
 10
14.4096989612
 20
11.2992478693
 30
0.0
 10
14.4114027358
 20
11.2977117084
 30
0.0
 10
14.4156056525
 20
11.2954022994
 30
0.0
 10
14.4202834467
 20
11.2944742206
 30
0.0
 10
14.4226640613
 20
11.2944742206
 30
0.0
  0
SPLINE
  5
551
100
AcDbEntity
  8
0
100
AcDbSpline
 62
7
  6
CONTINUOUS
 70
0
 71
3
 72
11
 73
7
 74
0
 42
0.0000001
 43
0.0000001
 44
0.0000000001
 40
0.0
 40
0.0
 40
0.0
 40
0.0
 40
0.2901937269
 40
0.5492569289
 40
0.7822144889
 40
1.0
 40
1.0
 40
1.0
 40
1.0
 10
16.2810216417
 20
11.2972039452
 30
0.0
 10
16.2822271355
 20
11.2974863675
 30
0.0
 10
16.2844741025
 20
11.2982046306
 30
0.0
 10
16.2874014513
 20
11.2998674389
 30
0.0
 10
16.2895915099
 20
11.3020179166
 30
0.0
 10
16.2904877762
 20
11.3037671478
 30
0.0
 10
16.2907626332
 20
11.3046547654
 30
0.0
  0
SPLINE
  5
552
100
AcDbEntity
  8
0
100
AcDbSpline
 62
7
  6
CONTINUOUS
 70
0
 71
3
 72
10
 73
6
 74
0
 42
0.0000001
 43
0.0000001
 44
0.0000000001
 40
0.0
 40
0.0
 40
0.0
 40
0.0
 40
0.2277726025
 40
0.6044558081
 40
1.0
 40
1.0
 40
1.0
 40
1.0
 10
15.9703063559
 20
12.1278568255
 30
0.0
 10
15.9706091931
 20
12.1288618501
 30
0.0
 10
15.9718823614
 20
12.1313924042
 30
0.0
 10
15.975215932
 20
12.1346968325
 30
0.0
 10
15.9784437255
 20
12.136359398
 30
0.0
 10
15.9801856788
 20
12.1368962803
 30
0.0
  0
SPLINE
  5
553
100
AcDbEntity
  8
0
100
AcDbSpline
 62
7
  6
CONTINUOUS
 70
0
 71
3
 72
9
 73
5
 74
0
 42
0.0000001
 43
0.0000001
 44
0.0000000001
 40
0.0
 40
0.0
 40
0.0
 40
0.0
 40
0.2567944239
 40
1.0
 40
1.0
 40
1.0
 40
1.0
 10
15.9801856788
 20
12.1368962803
 30
0.0
 10
15.9805702967
 20
12.1370148222
 30
0.0
 10
15.9820865454
 20
12.1374149474
 30
0.0
 10
15.9836619275
 20
12.1375846208
 30
0.0
 10
15.9848267459
 20
12.1375843129
 30
0.0
  0
SPLINE
  5
554
100
AcDbEntity
  8
0
100
AcDbSpline
 62
7
  6
CONTINUOUS
 70
0
 71
3
 72
9
 73
5
 74
0
 42
0.0000001
 43
0.0000001
 44
0.0000000001
 40
0.0
 40
0.0
 40
0.0
 40
0.0
 40
0.2536917946
 40
1.0
 40
1.0
 40
1.0
 40
1.0
 10
14.9397451183
 20
11.3277639942
 30
0.0
 10
14.939747061
 20
11.3273893954
 30
0.0
 10
14.9397072377
 20
11.3259130037
 30
0.0
 10
14.9394707036
 20
11.3244414262
 30
0.0
 10
14.939183879
 20
11.3233774014
 30
0.0
  0
SPLINE
  5
555
100
AcDbEntity
  8
0
100
AcDbSpline
 62
7
  6
CONTINUOUS
 70
0
 71
3
 72
10
 73
6
 74
0
 42
0.0000001
 43
0.0000001
 44
0.0000000001
 40
0.0
 40
0.0
 40
0.0
 40
0.0
 40
0.5213129992
 40
0.7650108262
 40
1.0
 40
1.0
 40
1.0
 40
1.0
 10
15.4602941501
 20
12.0170958087
 30
0.0
 10
15.4688836272
 20
11.9995922945
 30
0.0
 10
15.4790220318
 20
11.9724673423
 30
0.0
 10
15.4851320108
 20
11.9354835761
 30
0.0
 10
15.4856004151
 20
11.9175117506
 30
0.0
 10
15.4851771542
 20
11.9087331802
 30
0.0
  0
SPLINE
  5
556
100
AcDbEntity
  8
0
100
AcDbSpline
 62
7
  6
CONTINUOUS
 70
0
 71
3
 72
11
 73
7
 74
0
 42
0.0000001
 43
0.0000001
 44
0.0000000001
 40
0.0
 40
0.0
 40
0.0
 40
0.0
 40
0.2327709454
 40
0.4739757533
 40
0.7285637582
 40
1.0
 40
1.0
 40
1.0
 40
1.0
 10
14.0235544566
 20
11.9047034445
 30
0.0
 10
14.0276209153
 20
11.9226443822
 30
0.0
 10
14.032364177
 20
11.9600663434
 30
0.0
 10
14.0290014299
 20
12.0178335729
 30
0.0
 10
14.0153230503
 20
12.0771642834
 30
0.0
 10
13.9999650092
 20
12.1159669165
 30
0.0
 10
13.9908153855
 20
12.135369548
 30
0.0
  0
SPLINE
  5
557
100
AcDbEntity
  8
0
100
AcDbSpline
 62
7
  6
CONTINUOUS
 70
0
 71
3
 72
11
 73
7
 74
0
 42
0.0000001
 43
0.0000001
 44
0.0000000001
 40
0.0
 40
0.0
 40
0.0
 40
0.0
 40
0.2483566613
 40
0.4986253224
 40
0.749401797
 40
1.0
 40
1.0
 40
1.0
 40
1.0
 10
16.6264083318
 20
12.3546180332
 30
0.0
 10
16.6369139089
 20
12.3332110369
 30
0.0
 10
16.6626209825
 20
12.2923996924
 30
0.0
 10
16.7114978003
 20
12.2391150333
 30
0.0
 10
16.7693362159
 20
12.1952882108
 30
0.0
 10
16.8130322649
 20
12.1741036415
 30
0.0
 10
16.8357155051
 20
12.1660781914
 30
0.0
  0
SPLINE
  5
558
100
AcDbEntity
  8
0
100
AcDbSpline
 62
7
  6
CONTINUOUS
 70
0
 71
3
 72
23
 73
19
 74
0
 42
0.0000001
 43
0.0000001
 44
0.0000000001
 40
0.0
 40
0.0
 40
0.0
 40
0.0
 40
0.0534747984
 40
0.1114451085
 40
0.1736633264
 40
0.2395967936
 40
0.3084963351
 40
0.3794717342
 40
0.4515319059
 40
0.5236398059
 40
0.5947571763
 40
0.663889078
 40
0.7301307654
 40
0.7927196043
 40
0.8510963282
 40
0.9049761995
 40
0.9544346739
 40
1.0
 40
1.0
 40
1.0
 40
1.0
 10
14.5392921627
 20
12.0237236397
 30
0.0
 10
14.5481058014
 20
12.0077505621
 30
0.0
 10
14.5693728306
 20
11.9760186961
 30
0.0
 10
14.6090144777
 20
11.93178549
 30
0.0
 10
14.6568517596
 20
11.8898229117
 30
0.0
 10
14.7118708404
 20
11.8510014699
 30
0.0
 10
14.7729235646
 20
11.8161255581
 30
0.0
 10
14.8387182551
 20
11.7859283487
 30
0.0
 10
14.9078633766
 20
11.7610509426
 30
0.0
 10
14.9788903968
 20
11.7420199561
 30
0.0
 10
15.050292415
 20
11.7292385008
 30
0.0
 10
15.120557532
 20
11.7229777314
 30
0.0
 10
15.1882032702
 20
11.7233720637
 30
0.0
 10
15.2518122022
 20
11.7304212844
 30
0.0
 10
15.3100615608
 20
11.7439918557
 30
0.0
 10
15.3617585161
 20
11.7638531365
 30
0.0
 10
15.4058075737
 20
11.7896511183
 30
0.0
 10
15.4302892365
 20
11.8113412089
 30
0.0
 10
15.4406374732
 20
11.8229412022
 30
0.0
  0
SPLINE
  5
559
100
AcDbEntity
  8
0
100
AcDbSpline
 62
7
  6
CONTINUOUS
 70
0
 71
3
 72
10
 73
6
 74
0
 42
0.0000001
 43
0.0000001
 44
0.0000000001
 40
0.0
 40
0.0
 40
0.0
 40
0.0
 40
0.5201936201
 40
0.7701742487
 40
1.0
 40
1.0
 40
1.0
 40
1.0
 10
16.8295503683
 20
12.5663886233
 30
0.0
 10
16.8314098197
 20
12.5655602731
 30
0.0
 10
16.834112112
 20
12.564183397
 30
0.0
 10
16.8373078059
 20
12.5619292092
 30
0.0
 10
16.8385999815
 20
12.5604926999
 30
0.0
 10
16.8390011425
 20
12.5596877767
 30
0.0
  0
SPLINE
  5
55A
100
AcDbEntity
  8
0
100
AcDbSpline
 62
7
  6
CONTINUOUS
 70
0
 71
3
 72
9
 73
5
 74
0
 42
0.0000001
 43
0.0000001
 44
0.0000000001
 40
0.0
 40
0.0
 40
0.0
 40
0.0
 40
0.5084544745
 40
1.0
 40
1.0
 40
1.0
 40
1.0
 10
16.8044166138
 20
12.5778682132
 30
0.0
 10
16.7700511825
 20
12.5939922062
 30
0.0
 10
16.7036489891
 20
12.6283065498
 30
0.0
 10
16.6402639769
 20
12.6679504773
 30
0.0
 10
16.6100621284
 20
12.6887967636
 30
0.0
  0
SPLINE
  5
55B
100
AcDbEntity
  8
0
100
AcDbSpline
 62
7
  6
CONTINUOUS
 70
0
 71
3
 72
9
 73
5
 74
0
 42
0.0000001
 43
0.0000001
 44
0.0000000001
 40
0.0
 40
0.0
 40
0.0
 40
0.0
 40
0.4829992465
 40
1.0
 40
1.0
 40
1.0
 40
1.0
 10
17.5330884146
 20
12.2464626349
 30
0.0
 10
17.5338853834
 20
12.2448394056
 30
0.0
 10
17.5348117439
 20
12.2410876965
 30
0.0
 10
17.534244144
 20
12.2372988995
 30
0.0
 10
17.5336726564
 20
12.235449565
 30
0.0
  0
SPLINE
  5
55C
100
AcDbEntity
  8
0
100
AcDbSpline
 62
7
  6
CONTINUOUS
 70
0
 71
3
 72
9
 73
5
 74
0
 42
0.0000001
 43
0.0000001
 44
0.0000000001
 40
0.0
 40
0.0
 40
0.0
 40
0.0
 40
0.2422257659
 40
1.0
 40
1.0
 40
1.0
 40
1.0
 10
14.5453438208
 20
12.0433068125
 30
0.0
 10
14.547443035
 20
12.039502378
 30
0.0
 10
14.5564350307
 20
12.0239768474
 30
0.0
 10
14.5666649614
 20
12.0091789328
 30
0.0
 10
14.5749495351
 20
11.9984019194
 30
0.0
  0
SPLINE
  5
55D
100
AcDbEntity
  8
0
100
AcDbSpline
 62
7
  6
CONTINUOUS
 70
0
 71
3
 72
21
 73
17
 74
0
 42
0.0000001
 43
0.0000001
 44
0.0000000001
 40
0.0
 40
0.0
 40
0.0
 40
0.0
 40
0.0584184895
 40
0.1206181396
 40
0.1861111451
 40
0.2542590193
 40
0.3953519545
 40
0.5373330804
 40
0.6065604984
 40
0.6735034445
 40
0.7374639478
 40
0.7978738808
 40
0.8543399099
 40
0.906701139
 40
0.9550909166
 40
1.0
 40
1.0
 40
1.0
 40
1.0
 10
14.5862869756
 20
11.9843051823
 30
0.0
 10
14.5982050516
 20
11.9701188246
 30
0.0
 10
14.6246940178
 20
11.9423766087
 30
0.0
 10
14.6698674547
 20
11.9042391132
 30
0.0
 10
14.7210116947
 20
11.8688331247
 30
0.0
 10
14.7967947423
 20
11.8256438036
 30
0.0
 10
14.9000629261
 20
11.7825922788
 30
0.0
 10
15.0089591151
 20
11.7555275621
 30
0.0
 10
15.0965871127
 20
11.7446113493
 30
0.0
 10
15.160094394
 20
11.7420934663
 30
0.0
 10
15.22078309
 20
11.745217066
 30
0.0
 10
15.2775823214
 20
11.7539356793
 30
0.0
 10
15.3294898123
 20
11.7681118607
 30
0.0
 10
15.375602046
 20
11.7875351185
 30
0.0
 10
15.4150846683
 20
11.8119045134
 30
0.0
 10
15.4372072785
 20
11.8318955663
 30
0.0
 10
15.4466891313
 20
11.8425243749
 30
0.0
  0
SPLINE
  5
55E
100
AcDbEntity
  8
0
100
AcDbSpline
 62
7
  6
CONTINUOUS
 70
0
 71
3
 72
9
 73
5
 74
0
 42
0.0000001
 43
0.0000001
 44
0.0000000001
 40
0.0
 40
0.0
 40
0.0
 40
0.0
 40
0.4981094916
 40
1.0
 40
1.0
 40
1.0
 40
1.0
 10
16.4675507174
 20
11.8405596933
 30
0.0
 10
16.4770244284
 20
11.8212597085
 30
0.0
 10
16.4997914023
 20
11.7842879052
 30
0.0
 10
16.5282621874
 20
11.7515770168
 30
0.0
 10
16.5437519008
 20
11.7364325948
 30
0.0
  0
SPLINE
  5
55F
100
AcDbEntity
  8
0
100
AcDbSpline
 62
7
  6
CONTINUOUS
 70
0
 71
3
 72
9
 73
5
 74
0
 42
0.0000001
 43
0.0000001
 44
0.0000000001
 40
0.0
 40
0.0
 40
0.0
 40
0.0
 40
0.5029951633
 40
1.0
 40
1.0
 40
1.0
 40
1.0
 10
17.4126268423
 20
12.4636494533
 30
0.0
 10
17.4146464365
 20
12.4636494533
 30
0.0
 10
17.4186796228
 20
12.4631815291
 30
0.0
 10
17.4224649918
 20
12.4616757525
 30
0.0
 10
17.4241945362
 20
12.4606803307
 30
0.0
  0
SPLINE
  5
560
100
AcDbEntity
  8
0
100
AcDbSpline
 62
7
  6
CONTINUOUS
 70
0
 71
3
 72
8
 73
4
 74
0
 42
0.0000001
 43
0.0000001
 44
0.0000000001
 40
0.0
 40
0.0
 40
0.0
 40
0.0
 40
1.0
 40
1.0
 40
1.0
 40
1.0
 10
17.4241945362
 20
12.4606803307
 30
0.0
 10
17.4256915344
 20
12.4598187486
 30
0.0
 10
17.4270935465
 20
12.4587611643
 30
0.0
 10
17.4283199901
 20
12.4575449557
 30
0.0
  0
SPLINE
  5
561
100
AcDbEntity
  8
0
100
AcDbSpline
 62
7
  6
CONTINUOUS
 70
0
 71
3
 72
8
 73
4
 74
0
 42
0.0000001
 43
0.0000001
 44
0.0000000001
 40
0.0
 40
0.0
 40
0.0
 40
0.0
 40
1.0
 40
1.0
 40
1.0
 40
1.0
 10
17.4283199901
 20
12.4575449557
 30
0.0
 10
17.429828786
 20
12.4560487512
 30
0.0
 10
17.4311082065
 20
12.4542790021
 30
0.0
 10
17.4320443046
 20
12.4523714347
 30
0.0
  0
SPLINE
  5
562
100
AcDbEntity
  8
0
100
AcDbSpline
 62
7
  6
CONTINUOUS
 70
0
 71
3
 72
10
 73
6
 74
0
 42
0.0000001
 43
0.0000001
 44
0.0000000001
 40
0.0
 40
0.0
 40
0.0
 40
0.0
 40
0.2508505061
 40
0.5028919798
 40
1.0
 40
1.0
 40
1.0
 40
1.0
 10
15.6656904032
 20
12.7291987417
 30
0.0
 10
15.6708557249
 20
12.7186739923
 30
0.0
 10
15.6825766301
 20
12.6982321656
 30
0.0
 10
15.7095864563
 20
12.6600410198
 30
0.0
 10
15.7327443304
 20
12.6336505455
 30
0.0
 10
15.7487565672
 20
12.6168163181
 30
0.0
  0
SPLINE
  5
563
100
AcDbEntity
  8
0
100
AcDbSpline
 62
7
  6
CONTINUOUS
 70
0
 71
3
 72
9
 73
5
 74
0
 42
0.0000001
 43
0.0000001
 44
0.0000000001
 40
0.0
 40
0.0
 40
0.0
 40
0.0
 40
0.2545828444
 40
1.0
 40
1.0
 40
1.0
 40
1.0
 10
15.7487565672
 20
12.6168163181
 30
0.0
 10
15.7531769545
 20
12.6121690094
 30
0.0
 10
15.770751927
 20
12.5941156222
 30
0.0
 10
15.7890062043
 20
12.5767341934
 30
0.0
 10
15.8028287644
 20
12.5640214769
 30
0.0
  0
SPLINE
  5
564
100
AcDbEntity
  8
0
100
AcDbSpline
 62
7
  6
CONTINUOUS
 70
0
 71
3
 72
9
 73
5
 74
0
 42
0.0000001
 43
0.0000001
 44
0.0000000001
 40
0.0
 40
0.0
 40
0.0
 40
0.0
 40
0.2557358713
 40
1.0
 40
1.0
 40
1.0
 40
1.0
 10
15.8028287644
 20
12.5640214769
 30
0.0
 10
15.8076734447
 20
12.5595657864
 30
0.0
 10
15.8267219788
 20
12.5422561344
 30
0.0
 10
15.8460929824
 20
12.5253057189
 30
0.0
 10
15.8605625273
 20
12.5127527571
 30
0.0
  0
SPLINE
  5
565
100
AcDbEntity
  8
0
100
AcDbSpline
 62
7
  6
CONTINUOUS
 70
0
 71
3
 72
17
 73
13
 74
0
 42
0.0000001
 43
0.0000001
 44
0.0000000001
 40
0.0
 40
0.0
 40
0.0
 40
0.0
 40
0.1137014564
 40
0.236772099
 40
0.3665882997
 40
0.4999220521
 40
0.6332559189
 40
0.7630732105
 40
0.8256664728
 40
0.8862123458
 40
0.9444061675
 40
1.0
 40
1.0
 40
1.0
 40
1.0
 10
14.7552852882
 20
13.7142016285
 30
0.0
 10
14.8109667704
 20
13.7272959088
 30
0.0
 10
14.9294894533
 20
13.7441152337
 30
0.0
 10
15.1144034347
 20
13.7437406313
 30
0.0
 10
15.3076034864
 20
13.719010514
 30
0.0
 10
15.5016108013
 20
13.6708612978
 30
0.0
 10
15.6889424191
 20
13.6011652871
 30
0.0
 10
15.8352891873
 20
13.5264478342
 30
0.0
 10
15.9426501759
 20
13.4579816977
 30
0.0
 10
16.0161579649
 20
13.4038282476
 30
0.0
 10
16.082882683
 20
13.346792732
 30
0.0
 10
16.1233954802
 20
13.3062397901
 30
0.0
 10
16.1422617614
 20
13.2855935659
 30
0.0
  0
SPLINE
  5
566
100
AcDbEntity
  8
0
100
AcDbSpline
 62
7
  6
CONTINUOUS
 70
0
 71
3
 72
10
 73
6
 74
0
 42
0.0000001
 43
0.0000001
 44
0.0000000001
 40
0.0
 40
0.0
 40
0.0
 40
0.0
 40
0.4747961551
 40
0.7311112684
 40
1.0
 40
1.0
 40
1.0
 40
1.0
 10
14.5041427738
 20
13.6104681326
 30
0.0
 10
14.5384129142
 20
13.6340136743
 30
0.0
 10
14.5955775171
 20
13.6641155779
 30
0.0
 10
14.6778475343
 20
13.6942352398
 30
0.0
 10
14.7222645828
 20
13.7064362429
 30
0.0
 10
14.745186666
 20
13.7118266209
 30
0.0
  0
SPLINE
  5
567
100
AcDbEntity
  8
0
100
AcDbSpline
 62
7
  6
CONTINUOUS
 70
0
 71
3
 72
9
 73
5
 74
0
 42
0.0000001
 43
0.0000001
 44
0.0000000001
 40
0.0
 40
0.0
 40
0.0
 40
0.0
 40
0.2592996449
 40
1.0
 40
1.0
 40
1.0
 40
1.0
 10
15.7223120077
 20
12.6465253817
 30
0.0
 10
15.7221838125
 20
12.6489252143
 30
0.0
 10
15.721957609
 20
12.6581884531
 30
0.0
 10
15.7228713967
 20
12.667511827
 30
0.0
 10
15.7244029422
 20
12.6742038034
 30
0.0
  0
SPLINE
  5
568
100
AcDbEntity
  8
0
100
AcDbSpline
 62
7
  6
CONTINUOUS
 70
0
 71
3
 72
9
 73
5
 74
0
 42
0.0000001
 43
0.0000001
 44
0.0000000001
 40
0.0
 40
0.0
 40
0.0
 40
0.0
 40
0.2577099015
 40
1.0
 40
1.0
 40
1.0
 40
1.0
 10
15.7244029422
 20
12.6742038034
 30
0.0
 10
15.7247215731
 20
12.6755960378
 30
0.0
 10
15.7261005108
 20
12.6809639233
 30
0.0
 10
15.7280623259
 20
12.6861885355
 30
0.0
 10
15.7298691888
 20
12.689884265
 30
0.0
  0
SPLINE
  5
569
100
AcDbEntity
  8
0
100
AcDbSpline
 62
7
  6
CONTINUOUS
 70
0
 71
3
 72
9
 73
5
 74
0
 42
0.0000001
 43
0.0000001
 44
0.0000000001
 40
0.0
 40
0.0
 40
0.0
 40
0.0
 40
0.5956062987
 40
1.0
 40
1.0
 40
1.0
 40
1.0
 10
13.9513324758
 20
13.0912864124
 30
0.0
 10
13.948329945
 20
13.0994047908
 30
0.0
 10
13.9434421215
 20
13.1130940084
 30
0.0
 10
13.9391737446
 20
13.126994777
 30
0.0
 10
13.9376543694
 20
13.1326719478
 30
0.0
  0
SPLINE
  5
56A
100
AcDbEntity
  8
0
100
AcDbSpline
 62
7
  6
CONTINUOUS
 70
0
 71
3
 72
9
 73
5
 74
0
 42
0.0000001
 43
0.0000001
 44
0.0000000001
 40
0.0
 40
0.0
 40
0.0
 40
0.0
 40
0.5324876603
 40
1.0
 40
1.0
 40
1.0
 40
1.0
 10
13.9782287809
 20
13.02296502
 30
0.0
 10
13.9733071283
 20
13.0350330383
 30
0.0
 10
13.964146045
 20
13.0577297112
 30
0.0
 10
13.9553017205
 20
13.080554189
 30
0.0
 10
13.9513324758
 20
13.0912864124
 30
0.0
  0
SPLINE
  5
56B
100
AcDbEntity
  8
0
100
AcDbSpline
 62
7
  6
CONTINUOUS
 70
0
 71
3
 72
9
 73
5
 74
0
 42
0.0000001
 43
0.0000001
 44
0.0000000001
 40
0.0
 40
0.0
 40
0.0
 40
0.0
 40
0.2530008655
 40
1.0
 40
1.0
 40
1.0
 40
1.0
 10
13.9376543694
 20
13.1326719478
 30
0.0
 10
13.940915609
 20
13.1389039632
 30
0.0
 10
13.9543193242
 20
13.1632301272
 30
0.0
 10
13.9706393308
 20
13.1862192826
 30
0.0
 10
13.9852344806
 20
13.2009933403
 30
0.0
  0
SPLINE
  5
56C
100
AcDbEntity
  8
0
100
AcDbSpline
 62
7
  6
CONTINUOUS
 70
0
 71
3
 72
9
 73
5
 74
0
 42
0.0000001
 43
0.0000001
 44
0.0000000001
 40
0.0
 40
0.0
 40
0.0
 40
0.0
 40
0.2416777702
 40
1.0
 40
1.0
 40
1.0
 40
1.0
 10
14.1139001075
 20
13.2558468042
 30
0.0
 10
14.1196300161
 20
13.2558468042
 30
0.0
 10
14.1433434505
 20
13.254765204
 30
0.0
 10
14.1667473939
 20
13.2499893398
 30
0.0
 10
14.1841281922
 20
13.2453903002
 30
0.0
  0
SPLINE
  5
56D
100
AcDbEntity
  8
0
100
AcDbSpline
 62
7
  6
CONTINUOUS
 70
0
 71
3
 72
10
 73
6
 74
0
 42
0.0000001
 43
0.0000001
 44
0.0000000001
 40
0.0
 40
0.0
 40
0.0
 40
0.0
 40
0.4713862461
 40
0.7278988685
 40
1.0
 40
1.0
 40
1.0
 40
1.0
 10
14.0460327906
 20
13.2423788757
 30
0.0
 10
14.0561681134
 20
13.2464776976
 30
0.0
 10
14.0723745402
 20
13.2516031056
 30
0.0
 10
14.0953165064
 20
13.2552305425
 30
0.0
 10
14.1075893278
 20
13.2558468042
 30
0.0
 10
14.1139001075
 20
13.2558468042
 30
0.0
  0
SPLINE
  5
56E
100
AcDbEntity
  8
0
100
AcDbSpline
 62
7
  6
CONTINUOUS
 70
0
 71
3
 72
11
 73
7
 74
0
 42
0.0000001
 43
0.0000001
 44
0.0000000001
 40
0.0
 40
0.0
 40
0.0
 40
0.0
 40
0.2340543158
 40
0.475421792
 40
0.7298715142
 40
1.0
 40
1.0
 40
1.0
 40
1.0
 10
16.3355908164
 20
13.2494735864
 30
0.0
 10
16.3338493089
 20
13.2530224055
 30
0.0
 10
16.329046781
 20
13.2596743134
 30
0.0
 10
16.3188854117
 20
13.2669694869
 30
0.0
 10
16.306560766
 20
13.2713498798
 30
0.0
 10
16.2976611945
 20
13.2722518058
 30
0.0
 10
16.2930988187
 20
13.2722518058
 30
0.0
  0
SPLINE
  5
56F
100
AcDbEntity
  8
0
100
AcDbSpline
 62
7
  6
CONTINUOUS
 70
0
 71
3
 72
10
 73
6
 74
0
 42
0.0000001
 43
0.0000001
 44
0.0000000001
 40
0.0
 40
0.0
 40
0.0
 40
0.0
 40
0.5101765699
 40
0.7565244123
 40
1.0
 40
1.0
 40
1.0
 40
1.0
 10
13.7001933345
 20
12.4845201922
 30
0.0
 10
13.6986847918
 20
12.4796385462
 30
0.0
 10
13.6975789259
 20
12.4719266577
 30
0.0
 10
13.6990841469
 20
12.4619741485
 30
0.0
 10
13.7007919442
 20
12.4573300134
 30
0.0
 10
13.7018661673
 20
12.4551409768
 30
0.0
  0
SPLINE
  5
570
100
AcDbEntity
  8
0
100
AcDbSpline
 62
7
  6
CONTINUOUS
 70
0
 71
3
 72
9
 73
5
 74
0
 42
0.0000001
 43
0.0000001
 44
0.0000000001
 40
0.0
 40
0.0
 40
0.0
 40
0.0
 40
0.2662243964
 40
1.0
 40
1.0
 40
1.0
 40
1.0
 10
14.4446425626
 20
12.7244653834
 30
0.0
 10
14.4449616187
 20
12.7254927013
 30
0.0
 10
14.4462971354
 20
12.7293086607
 30
0.0
 10
14.4481880911
 20
12.7329224109
 30
0.0
 10
14.4498071842
 20
12.7354062376
 30
0.0
  0
SPLINE
  5
571
100
AcDbEntity
  8
0
100
AcDbSpline
 62
7
  6
CONTINUOUS
 70
0
 71
3
 72
9
 73
5
 74
0
 42
0.0000001
 43
0.0000001
 44
0.0000000001
 40
0.0
 40
0.0
 40
0.0
 40
0.0
 40
0.2604594632
 40
1.0
 40
1.0
 40
1.0
 40
1.0
 10
14.4420928676
 20
12.7105634931
 30
0.0
 10
14.4422069752
 20
12.7117863567
 30
0.0
 10
14.4427192668
 20
12.7164716388
 30
0.0
 10
14.4436082563
 20
12.7211350554
 30
0.0
 10
14.4446425626
 20
12.7244653834
 30
0.0
  0
SPLINE
  5
572
100
AcDbEntity
  8
0
100
AcDbSpline
 62
7
  6
CONTINUOUS
 70
0
 71
3
 72
9
 73
5
 74
0
 42
0.0000001
 43
0.0000001
 44
0.0000000001
 40
0.0
 40
0.0
 40
0.0
 40
0.0
 40
0.2491361616
 40
1.0
 40
1.0
 40
1.0
 40
1.0
 10
14.4659613811
 20
12.7478695426
 30
0.0
 10
14.4667630487
 20
12.7482940922
 30
0.0
 10
14.4700169053
 20
12.749930123
 30
0.0
 10
14.4733926755
 20
12.7513159602
 30
0.0
 10
14.4759609231
 20
12.7522534894
 30
0.0
  0
SPLINE
  5
573
100
AcDbEntity
  8
0
100
AcDbSpline
 62
7
  6
CONTINUOUS
 70
0
 71
3
 72
9
 73
5
 74
0
 42
0.0000001
 43
0.0000001
 44
0.0000000001
 40
0.0
 40
0.0
 40
0.0
 40
0.0
 40
0.4938341742
 40
1.0
 40
1.0
 40
1.0
 40
1.0
 10
14.4498083837
 20
12.7354082635
 30
0.0
 10
14.4515563289
 20
12.7372458764
 30
0.0
 10
14.4552629315
 20
12.7408152864
 30
0.0
 10
14.4593910237
 20
12.7439012514
 30
0.0
 10
14.4615764135
 20
12.7453088924
 30
0.0
  0
LINE
  5
574
100
AcDbEntity
  8
0
100
AcDbLine
 62
7
  6
CONTINUOUS
 10
14.4838713717
 20
12.7497332224
 11
14.4905202328
 21
12.7464388064
  0
SPLINE
  5
575
100
AcDbEntity
  8
0
100
AcDbSpline
 62
7
  6
CONTINUOUS
 70
0
 71
3
 72
9
 73
5
 74
0
 42
0.0000001
 43
0.0000001
 44
0.0000000001
 40
0.0
 40
0.0
 40
0.0
 40
0.0
 40
0.2230051981
 40
1.0
 40
1.0
 40
1.0
 40
1.0
 10
14.4759609231
 20
12.7522534894
 30
0.0
 10
14.4763677496
 20
12.7521790408
 30
0.0
 10
14.4781845862
 20
12.7518045959
 30
0.0
 10
14.4799636838
 20
12.7512561613
 30
0.0
 10
14.4813163969
 20
12.7507595126
 30
0.0
  0
LINE
  5
576
100
AcDbEntity
  8
0
100
AcDbLine
 62
7
  6
CONTINUOUS
 10
14.4813163969
 20
12.7507595126
 11
14.4838713717
 21
12.7497332224
  0
SPLINE
  5
577
100
AcDbEntity
  8
0
100
AcDbSpline
 62
7
  6
CONTINUOUS
 70
0
 71
3
 72
12
 73
8
 74
0
 42
0.0000001
 43
0.0000001
 44
0.0000000001
 40
0.0
 40
0.0
 40
0.0
 40
0.0
 40
0.252159765
 40
0.3820235499
 40
0.5119817188
 40
0.7646096467
 40
1.0
 40
1.0
 40
1.0
 40
1.0
 10
13.997918412
 20
13.2722181696
 30
0.0
 10
13.9907043721
 20
13.2719907602
 30
0.0
 10
13.9797684442
 20
13.2699373889
 30
0.0
 10
13.9661573599
 20
13.2644361828
 30
0.0
 10
13.9533684271
 20
13.2571737579
 30
0.0
 10
13.9398065296
 20
13.2454753402
 30
0.0
 10
13.9322278552
 20
13.2333771939
 30
0.0
 10
13.9297952618
 20
13.2270940314
 30
0.0
  0
SPLINE
  5
578
100
AcDbEntity
  8
0
100
AcDbSpline
 62
7
  6
CONTINUOUS
 70
0
 71
3
 72
10
 73
6
 74
0
 42
0.0000001
 43
0.0000001
 44
0.0000000001
 40
0.0
 40
0.0
 40
0.0
 40
0.0
 40
0.2353964778
 40
0.4793769369
 40
1.0
 40
1.0
 40
1.0
 40
1.0
 10
14.5139258168
 20
12.1595632349
 30
0.0
 10
14.5136956002
 20
12.1512240034
 30
0.0
 10
14.5144267624
 20
12.1341866055
 30
0.0
 10
14.5205656713
 20
12.099209639
 30
0.0
 10
14.5301730299
 20
12.0735532425
 30
0.0
 10
14.5382504454
 20
12.056964484
 30
0.0
  0
SPLINE
  5
579
100
AcDbEntity
  8
0
100
AcDbSpline
 62
7
  6
CONTINUOUS
 70
0
 71
3
 72
9
 73
5
 74
0
 42
0.0000001
 43
0.0000001
 44
0.0000000001
 40
0.0
 40
0.0
 40
0.0
 40
0.0
 40
0.4826206238
 40
1.0
 40
1.0
 40
1.0
 40
1.0
 10
14.5078741587
 20
12.1399800622
 30
0.0
 10
14.5074780545
 20
12.1256318144
 30
0.0
 10
14.5102945879
 20
12.0957310944
 30
0.0
 10
14.5193179676
 20
12.0671772085
 30
0.0
 10
14.5251916083
 20
12.0529548698
 30
0.0
  0
SPLINE
  5
57A
100
AcDbEntity
  8
0
100
AcDbSpline
 62
7
  6
CONTINUOUS
 70
0
 71
3
 72
24
 73
20
 74
0
 42
0.0000001
 43
0.0000001
 44
0.0000000001
 40
0.0
 40
0.0
 40
0.0
 40
0.0
 40
0.0216674676
 40
0.04400605
 40
0.0913102631
 40
0.1429750905
 40
0.1994004534
 40
0.2605010462
 40
0.3258186454
 40
0.3946185614
 40
0.4659686032
 40
0.5388054228
 40
0.6119934409
 40
0.6843810801
 40
0.7548529043
 40
0.8223913794
 40
0.886131914
 40
0.9454375515
 40
1.0
 40
1.0
 40
1.0
 40
1.0
 10
14.5206858152
 20
12.2061170773
 30
0.0
 10
14.5246990892
 20
12.2126985523
 30
0.0
 10
14.5337300483
 20
12.2255482615
 30
0.0
 10
14.5555603515
 20
12.249693888
 30
0.0
 10
14.5898955371
 20
12.2764304606
 30
0.0
 10
14.6394455974
 20
12.301543587
 30
0.0
 10
14.696985228
 20
12.3199442654
 30
0.0
 10
14.7612095681
 20
12.3312797673
 30
0.0
 10
14.8306816635
 20
12.335338345
 30
0.0
 10
14.9038243731
 20
12.3320394227
 30
0.0
 10
14.9789639897
 20
12.3214633751
 30
0.0
 10
15.0543702851
 20
12.3038539201
 30
0.0
 10
15.128302095
 20
12.27961791
 30
0.0
 10
15.1990503895
 20
12.24931559
 30
0.0
 10
15.2649842778
 20
12.2136470243
 30
0.0
 10
15.324584792
 20
12.1734298107
 30
0.0
 10
15.3764934082
 20
12.129571002
 30
0.0
 10
15.4195178949
 20
12.08306477
 30
0.0
 10
15.442588574
 20
12.0495187471
 30
0.0
 10
15.4521178199
 20
12.0326071724
 30
0.0
  0
SPLINE
  5
57B
100
AcDbEntity
  8
0
100
AcDbSpline
 62
7
  6
CONTINUOUS
 70
0
 71
3
 72
11
 73
7
 74
0
 42
0.0000001
 43
0.0000001
 44
0.0000000001
 40
0.0
 40
0.0
 40
0.0
 40
0.0
 40
0.242563436
 40
0.4882093252
 40
0.7398216565
 40
1.0
 40
1.0
 40
1.0
 40
1.0
 10
14.0127799077
 20
12.3299771989
 30
0.0
 10
14.0081813705
 20
12.3150985201
 30
0.0
 10
14.0010105686
 20
12.2844639665
 30
0.0
 10
13.9966118932
 20
12.2370303251
 30
0.0
 10
13.9985579039
 20
12.1883087631
 30
0.0
 10
14.0039600451
 20
12.1558042728
 30
0.0
 10
14.0076277049
 20
12.1395078741
 30
0.0
  0
SPLINE
  5
57C
100
AcDbEntity
  8
0
100
AcDbSpline
 62
7
  6
CONTINUOUS
 70
0
 71
3
 72
9
 73
5
 74
0
 42
0.0000001
 43
0.0000001
 44
0.0000000001
 40
0.0
 40
0.0
 40
0.0
 40
0.0
 40
0.2411237605
 40
1.0
 40
1.0
 40
1.0
 40
1.0
 10
14.0076277049
 20
12.1395078741
 30
0.0
 10
14.0097421432
 20
12.1301128563
 30
0.0
 10
14.0197860422
 20
12.0914395281
 30
0.0
 10
14.0347002062
 20
12.0540958885
 30
0.0
 10
14.0480521955
 20
12.0268873951
 30
0.0
  0
SPLINE
  5
57D
100
AcDbEntity
  8
0
100
AcDbSpline
 62
7
  6
CONTINUOUS
 70
0
 71
3
 72
11
 73
7
 74
0
 42
0.0000001
 43
0.0000001
 44
0.0000000001
 40
0.0
 40
0.0
 40
0.0
 40
0.0
 40
0.266824577
 40
0.5210209145
 40
0.7645096322
 40
1.0
 40
1.0
 40
1.0
 40
1.0
 10
13.987733854
 20
12.1419462084
 30
0.0
 10
13.9772915234
 20
12.1632942112
 30
0.0
 10
13.9591175229
 20
12.2061242241
 30
0.0
 10
13.9403267348
 20
12.2717648834
 30
0.0
 10
13.9309608745
 20
12.3366003588
 30
0.0
 10
13.9311305763
 20
12.379456341
 30
0.0
 10
13.9328704997
 20
12.400358315
 30
0.0
  0
SPLINE
  5
57E
100
AcDbEntity
  8
0
100
AcDbSpline
 62
7
  6
CONTINUOUS
 70
0
 71
3
 72
25
 73
21
 74
0
 42
0.0000001
 43
0.0000001
 44
0.0000000001
 40
0.0
 40
0.0
 40
0.0
 40
0.0
 40
0.0656784471
 40
0.1345443107
 40
0.2058558088
 40
0.2787606581
 40
0.3523395354
 40
0.425645533
 40
0.4977428464
 40
0.5677458031
 40
0.6348599841
 40
0.6984274403
 40
0.7579781236
 40
0.8132895829
 40
0.8644544589
 40
0.9119457505
 40
0.9346094612
 40
0.9567240841
 40
0.9784607003
 40
1.0
 40
1.0
 40
1.0
 40
1.0
 10
16.0998495964
 20
13.2748411156
 30
0.0
 10
16.0645383914
 20
13.3054192935
 30
0.0
 10
15.9887565952
 20
13.3641577557
 30
0.0
 10
15.8649261275
 20
13.4426118776
 30
0.0
 10
15.7301776802
 20
13.5123586846
 30
0.0
 10
15.5870744505
 20
13.572078852
 30
0.0
 10
15.4383235912
 20
13.620649891
 30
0.0
 10
15.2867492637
 20
13.6571496742
 30
0.0
 10
15.1352244317
 20
13.6808836995
 30
0.0
 10
14.9866109639
 20
13.6913954711
 30
0.0
 10
14.8436970457
 20
13.6884709135
 30
0.0
 10
14.709136425
 20
13.6721289975
 30
0.0
 10
14.5854002905
 20
13.6426050992
 30
0.0
 10
14.4747341535
 20
13.6002956869
 30
0.0
 10
14.3792125513
 20
13.5457747727
 30
0.0
 10
14.3127618829
 20
13.4897669544
 30
0.0
 10
14.2699159384
 20
13.4399082589
 30
0.0
 10
14.2432118146
 20
13.4007303916
 30
0.0
 10
14.2216506656
 20
13.3594069395
 30
0.0
 10
14.2107621096
 20
13.3305238366
 30
0.0
 10
14.2062426038
 20
13.3158868337
 30
0.0
  0
SPLINE
  5
57F
100
AcDbEntity
  8
0
100
AcDbSpline
 62
7
  6
CONTINUOUS
 70
0
 71
3
 72
14
 73
10
 74
0
 42
0.0000001
 43
0.0000001
 44
0.0000000001
 40
0.0
 40
0.0
 40
0.0
 40
0.0
 40
0.0509286885
 40
0.1207670477
 40
0.2122358293
 40
0.326838926
 40
0.464863568
 40
0.6250280476
 40
1.0
 40
1.0
 40
1.0
 40
1.0
 10
14.2183251615
 20
13.2880967544
 30
0.0
 10
14.2189753924
 20
13.2867711586
 30
0.0
 10
14.2199192873
 20
13.2833482258
 30
0.0
 10
14.220401523
 20
13.2772008166
 30
0.0
 10
14.2200299119
 20
13.2691924036
 30
0.0
 10
14.2186571535
 20
13.2593024493
 30
0.0
 10
14.2161944888
 20
13.2475829983
 30
0.0
 10
14.2111233174
 20
13.2287303223
 30
0.0
 10
14.2060594453
 20
13.2140442827
 30
0.0
 10
14.2022437272
 20
13.203865065
 30
0.0
  0
SPLINE
  5
580
100
AcDbEntity
  8
0
100
AcDbSpline
 62
7
  6
CONTINUOUS
 70
0
 71
3
 72
11
 73
7
 74
0
 42
0.0000001
 43
0.0000001
 44
0.0000000001
 40
0.0
 40
0.0
 40
0.0
 40
0.0
 40
0.2610839477
 40
0.5250604426
 40
0.7733221519
 40
1.0
 40
1.0
 40
1.0
 40
1.0
 10
14.2022437272
 20
13.203865065
 30
0.0
 10
14.1964920071
 20
13.1885211616
 30
0.0
 10
14.1836829388
 20
13.1581316655
 30
0.0
 10
14.1631325396
 20
13.1141606237
 30
0.0
 10
14.1430583653
 20
13.0723536795
 30
0.0
 10
14.1304904987
 20
13.0453203984
 30
0.0
 10
14.1247076219
 20
13.0323216395
 30
0.0
  0
SPLINE
  5
581
100
AcDbEntity
  8
0
100
AcDbSpline
 62
7
  6
CONTINUOUS
 70
0
 71
3
 72
9
 73
5
 74
0
 42
0.0000001
 43
0.0000001
 44
0.0000000001
 40
0.0
 40
0.0
 40
0.0
 40
0.0
 40
0.2696586756
 40
1.0
 40
1.0
 40
1.0
 40
1.0
 10
14.1214644418
 20
13.0249653713
 30
0.0
 10
14.1186975994
 20
13.0186300755
 30
0.0
 10
14.1086548577
 20
12.9950455552
 30
0.0
 10
14.0996599687
 20
12.9709871757
 30
0.0
 10
14.0941312805
 20
12.9530985791
 30
0.0
  0
SPLINE
  5
582
100
AcDbEntity
  8
0
100
AcDbSpline
 62
7
  6
CONTINUOUS
 70
0
 71
3
 72
11
 73
7
 74
0
 42
0.0000001
 43
0.0000001
 44
0.0000000001
 40
0.0
 40
0.0
 40
0.0
 40
0.0
 40
0.2779312983
 40
0.5349658967
 40
0.7731389953
 40
1.0
 40
1.0
 40
1.0
 40
1.0
 10
16.7398339251
 20
11.7098632206
 30
0.0
 10
16.7330824055
 20
11.7098632206
 30
0.0
 10
16.7200293474
 20
11.7111564261
 30
0.0
 10
16.7021066051
 20
11.7174197602
 30
0.0
 10
16.6875814133
 20
11.7277100195
 30
0.0
 10
16.6807955102
 20
11.7370531044
 30
0.0
 10
16.6783666564
 20
11.7419999097
 30
0.0
  0
SPLINE
  5
583
100
AcDbEntity
  8
0
100
AcDbSpline
 62
7
  6
CONTINUOUS
 70
0
 71
3
 72
11
 73
7
 74
0
 42
0.0000001
 43
0.0000001
 44
0.0000000001
 40
0.0
 40
0.0
 40
0.0
 40
0.0
 40
0.2779312983
 40
0.5349658967
 40
0.7731389953
 40
1.0
 40
1.0
 40
1.0
 40
1.0
 10
16.8986899498
 20
12.223921505
 30
0.0
 10
16.8919384303
 20
12.223921505
 30
0.0
 10
16.8788853722
 20
12.2252147105
 30
0.0
 10
16.8609626298
 20
12.2314780447
 30
0.0
 10
16.846437438
 20
12.2417683039
 30
0.0
 10
16.8396515349
 20
12.2511113888
 30
0.0
 10
16.8372226811
 20
12.2560581941
 30
0.0
  0
SPLINE
  5
584
100
AcDbEntity
  8
0
100
AcDbSpline
 62
7
  6
CONTINUOUS
 70
0
 71
3
 72
15
 73
11
 74
0
 42
0.0000001
 43
0.0000001
 44
0.0000000001
 40
0.0
 40
0.0
 40
0.0
 40
0.0
 40
0.0502501914
 40
0.1074789875
 40
0.2281412882
 40
0.3530730476
 40
0.4805231491
 40
0.6093096787
 40
0.7390685957
 40
1.0
 40
1.0
 40
1.0
 40
1.0
 10
16.5743650409
 20
11.7033250381
 30
0.0
 10
16.5740295038
 20
11.7040031936
 30
0.0
 10
16.5731527402
 20
11.7053723584
 30
0.0
 10
16.57105549
 20
11.7080923502
 30
0.0
 10
16.5680736796
 20
11.7115463052
 30
0.0
 10
16.5642641934
 20
11.715673825
 30
0.0
 10
16.560298137
 20
11.7198227804
 30
0.0
 10
16.5562382066
 20
11.723981682
 30
0.0
 10
16.5507347261
 20
11.7295398653
 30
0.0
 10
16.5465603478
 20
11.7336850998
 30
0.0
 10
16.5437519008
 20
11.7364325948
 30
0.0
  0
SPLINE
  5
585
100
AcDbEntity
  8
0
100
AcDbSpline
 62
7
  6
CONTINUOUS
 70
0
 71
3
 72
9
 73
5
 74
0
 42
0.0000001
 43
0.0000001
 44
0.0000000001
 40
0.0
 40
0.0
 40
0.0
 40
0.0
 40
0.2316591241
 40
1.0
 40
1.0
 40
1.0
 40
1.0
 10
13.9722575656
 20
12.5587158158
 30
0.0
 10
13.9740100302
 20
12.5643863065
 30
0.0
 10
13.9820295004
 20
12.5887244012
 30
0.0
 10
13.9916916245
 20
12.6124935237
 30
0.0
 10
13.9995692657
 20
12.6305334499
 30
0.0
  0
SPLINE
  5
586
100
AcDbEntity
  8
0
100
AcDbSpline
 62
7
  6
CONTINUOUS
 70
0
 71
3
 72
11
 73
7
 74
0
 42
0.0000001
 43
0.0000001
 44
0.0000000001
 40
0.0
 40
0.0
 40
0.0
 40
0.0
 40
0.2271225491
 40
0.4755514202
 40
0.739322922
 40
1.0
 40
1.0
 40
1.0
 40
1.0
 10
14.0034783685
 20
12.6393853391
 30
0.0
 10
14.0092399354
 20
12.6522934162
 30
0.0
 10
14.0217368593
 20
12.6791260028
 30
0.0
 10
14.0416527909
 20
12.7206060601
 30
0.0
 10
14.0620040545
 20
12.7641910347
 30
0.0
 10
14.0746777838
 20
12.7942960993
 30
0.0
 10
14.080371713
 20
12.8094880245
 30
0.0
  0
SPLINE
  5
587
100
AcDbEntity
  8
0
100
AcDbSpline
 62
7
  6
CONTINUOUS
 70
0
 71
3
 72
14
 73
10
 74
0
 42
0.0000001
 43
0.0000001
 44
0.0000000001
 40
0.0
 40
0.0
 40
0.0
 40
0.0
 40
0.3749999036
 40
0.5351962187
 40
0.6731800932
 40
0.7877921871
 40
0.879235338
 40
0.9490770205
 40
1.0
 40
1.0
 40
1.0
 40
1.0
 10
14.080371713
 20
12.8094880245
 30
0.0
 10
14.084186961
 20
12.8196674557
 30
0.0
 10
14.089249613
 20
12.834354447
 30
0.0
 10
14.0943228055
 20
12.8532057902
 30
0.0
 10
14.0967829116
 20
12.8649248694
 30
0.0
 10
14.0981572635
 20
12.8748121779
 30
0.0
 10
14.0985286623
 20
12.8828196884
 30
0.0
 10
14.0980463177
 20
12.8889658181
 30
0.0
 10
14.0971019535
 20
12.8923883853
 30
0.0
 10
14.0964513543
 20
12.8937134987
 30
0.0
  0
SPLINE
  5
588
100
AcDbEntity
  8
0
100
AcDbSpline
 62
7
  6
CONTINUOUS
 70
0
 71
3
 72
9
 73
5
 74
0
 42
0.0000001
 43
0.0000001
 44
0.0000000001
 40
0.0
 40
0.0
 40
0.0
 40
0.0
 40
0.2565214475
 40
1.0
 40
1.0
 40
1.0
 40
1.0
 10
17.0312222464
 20
12.1109968447
 30
0.0
 10
17.0322381164
 20
12.1107816649
 30
0.0
 10
17.0362176903
 20
12.1100397668
 30
0.0
 10
17.0402737043
 20
12.1096863307
 30
0.0
 10
17.0432833364
 20
12.1096863307
 30
0.0
  0
SPLINE
  5
589
100
AcDbEntity
  8
0
100
AcDbSpline
 62
7
  6
CONTINUOUS
 70
0
 71
3
 72
8
 73
4
 74
0
 42
0.0000001
 43
0.0000001
 44
0.0000000001
 40
0.0
 40
0.0
 40
0.0
 40
0.0
 40
1.0
 40
1.0
 40
1.0
 40
1.0
 10
14.5325696436
 20
13.2490129218
 30
0.0
 10
14.5304554933
 20
13.248912683
 30
0.0
 10
14.5282948492
 20
13.2491524283
 30
0.0
 10
14.5262620429
 20
13.2497418162
 30
0.0
  0
SPLINE
  5
58A
100
AcDbEntity
  8
0
100
AcDbSpline
 62
7
  6
CONTINUOUS
 70
0
 71
3
 72
11
 73
7
 74
0
 42
0.0000001
 43
0.0000001
 44
0.0000000001
 40
0.0
 40
0.0
 40
0.0
 40
0.0
 40
0.2500998395
 40
0.5003929204
 40
0.750320349
 40
1.0
 40
1.0
 40
1.0
 40
1.0
 10
14.5244816642
 20
13.2503588046
 30
0.0
 10
14.5223589241
 20
13.2512189881
 30
0.0
 10
14.5183924877
 20
13.2537700341
 30
0.0
 10
14.5143711128
 20
13.2595508447
 30
0.0
 10
14.5127980834
 20
13.2664000407
 30
0.0
 10
14.5134471855
 20
13.2710363528
 30
0.0
 10
14.5141222845
 20
13.2732209741
 30
0.0
  0
SPLINE
  5
58B
100
AcDbEntity
  8
0
100
AcDbSpline
 62
7
  6
CONTINUOUS
 70
0
 71
3
 72
9
 73
5
 74
0
 42
0.0000001
 43
0.0000001
 44
0.0000000001
 40
0.0
 40
0.0
 40
0.0
 40
0.0
 40
0.2481786332
 40
1.0
 40
1.0
 40
1.0
 40
1.0
 10
14.5141222845
 20
13.2732209741
 30
0.0
 10
14.5143319239
 20
13.2738993674
 30
0.0
 10
14.5153139843
 20
13.2765894688
 30
0.0
 10
14.5168108498
 20
13.2790837845
 30
0.0
 10
14.5181425864
 20
13.2807729289
 30
0.0
  0
SPLINE
  5
58C
100
AcDbEntity
  8
0
100
AcDbSpline
 62
7
  6
CONTINUOUS
 70
0
 71
3
 72
8
 73
4
 74
0
 42
0.0000001
 43
0.0000001
 44
0.0000000001
 40
0.0
 40
0.0
 40
0.0
 40
0.0
 40
1.0
 40
1.0
 40
1.0
 40
1.0
 10
14.5181425864
 20
13.2807729289
 30
0.0
 10
14.5198774558
 20
13.2829733979
 30
0.0
 10
14.5220054752
 20
13.2849094053
 30
0.0
 10
14.5243553855
 20
13.2864357596
 30
0.0
  0
SPLINE
  5
58D
100
AcDbEntity
  8
0
100
AcDbSpline
 62
7
  6
CONTINUOUS
 70
0
 71
3
 72
11
 73
7
 74
0
 42
0.0000001
 43
0.0000001
 44
0.0000000001
 40
0.0
 40
0.0
 40
0.0
 40
0.0
 40
0.2515342708
 40
0.5006038101
 40
0.7501257442
 40
1.0
 40
1.0
 40
1.0
 40
1.0
 10
14.5243553855
 20
13.2864357596
 30
0.0
 10
14.5269623021
 20
13.288129049
 30
0.0
 10
14.5328455459
 20
13.2905945474
 30
0.0
 10
14.5424560745
 20
13.2901741906
 30
0.0
 10
14.5507134726
 20
13.2851375219
 30
0.0
 10
14.553782354
 20
13.2793996681
 30
0.0
 10
14.5545083234
 20
13.2763981541
 30
0.0
  0
SPLINE
  5
58E
100
AcDbEntity
  8
0
100
AcDbSpline
 62
7
  6
CONTINUOUS
 70
0
 71
3
 72
8
 73
4
 74
0
 42
0.0000001
 43
0.0000001
 44
0.0000000001
 40
0.0
 40
0.0
 40
0.0
 40
0.0
 40
1.0
 40
1.0
 40
1.0
 40
1.0
 10
14.554860552
 20
13.2745170889
 30
0.0
 10
14.5551182149
 20
13.2725981082
 30
0.0
 10
14.5550766484
 20
13.2706189541
 30
0.0
 10
14.5547564203
 20
13.2687094172
 30
0.0
  0
SPLINE
  5
58F
100
AcDbEntity
  8
0
100
AcDbSpline
 62
7
  6
CONTINUOUS
 70
0
 71
3
 72
13
 73
9
 74
0
 42
0.0000001
 43
0.0000001
 44
0.0000000001
 40
0.0
 40
0.0
 40
0.0
 40
0.0
 40
0.3754184748
 40
0.4511209209
 40
0.5143002615
 40
0.6320354745
 40
0.7962134978
 40
1.0
 40
1.0
 40
1.0
 40
1.0
 10
14.5546891679
 20
13.2744672621
 30
0.0
 10
14.5549997196
 20
13.2744951392
 30
0.0
 10
14.5552039333
 20
13.2745258647
 30
0.0
 10
14.5559048172
 20
13.2744870445
 30
0.0
 10
14.5555746391
 20
13.2745500424
 30
0.0
 10
14.5553602618
 20
13.2746279764
 30
0.0
 10
14.5549586417
 20
13.2747826452
 30
0.0
 10
14.5546944548
 20
13.274921891
 30
0.0
 10
14.5545467211
 20
13.2750044824
 30
0.0
  0
LINE
  5
590
100
AcDbEntity
  8
0
100
AcDbLine
 62
7
  6
CONTINUOUS
 10
14.5264301667
 20
13.2497416687
 11
14.526692396
 21
13.2487003581
  0
SPLINE
  5
591
100
AcDbEntity
  8
0
100
AcDbSpline
 62
7
  6
CONTINUOUS
 70
0
 71
3
 72
13
 73
9
 74
0
 42
0.0000001
 43
0.0000001
 44
0.0000000001
 40
0.0
 40
0.0
 40
0.0
 40
0.0
 40
0.273257547
 40
0.5315391909
 40
0.6554437332
 40
0.7751675269
 40
0.8903240809
 40
1.0
 40
1.0
 40
1.0
 40
1.0
 10
13.9197340869
 20
11.7364325948
 30
0.0
 10
13.9177040679
 20
11.733769072
 30
0.0
 10
13.9140426094
 20
11.7283669176
 30
0.0
 10
13.9101512156
 20
11.7213220143
 30
0.0
 10
13.9076388724
 20
11.715707526
 30
0.0
 10
13.9061595423
 20
11.7115467567
 30
0.0
 10
13.9052272179
 20
11.7074586467
 30
0.0
 10
13.9053065212
 20
11.7045353421
 30
0.0
 10
13.905891228
 20
11.7033250381
 30
0.0
  0
SPLINE
  5
592
100
AcDbEntity
  8
0
100
AcDbSpline
 62
7
  6
CONTINUOUS
 70
0
 71
3
 72
9
 73
5
 74
0
 42
0.0000001
 43
0.0000001
 44
0.0000000001
 40
0.0
 40
0.0
 40
0.0
 40
0.0
 40
0.4847600541
 40
1.0
 40
1.0
 40
1.0
 40
1.0
 10
13.9197340869
 20
11.7364325948
 30
0.0
 10
13.9330236401
 20
11.7538362668
 30
0.0
 10
13.9579731444
 20
11.7916425134
 30
0.0
 10
13.9788987634
 20
11.8317444554
 30
0.0
 10
13.9888483159
 20
11.8527849025
 30
0.0
  0
SPLINE
  5
593
100
AcDbEntity
  8
0
100
AcDbSpline
 62
7
  6
CONTINUOUS
 70
0
 71
3
 72
11
 73
7
 74
0
 42
0.0000001
 43
0.0000001
 44
0.0000000001
 40
0.0
 40
0.0
 40
0.0
 40
0.0
 40
0.2779312983
 40
0.5349658967
 40
0.7731389953
 40
1.0
 40
1.0
 40
1.0
 40
1.0
 10
13.7104067495
 20
11.7098632206
 30
0.0
 10
13.70365523
 20
11.7098632206
 30
0.0
 10
13.6906021719
 20
11.7111564261
 30
0.0
 10
13.6726794295
 20
11.7174197602
 30
0.0
 10
13.6581542377
 20
11.7277100195
 30
0.0
 10
13.6513683346
 20
11.7370531044
 30
0.0
 10
13.6489394808
 20
11.7419999097
 30
0.0
  0
SPLINE
  5
594
100
AcDbEntity
  8
0
100
AcDbSpline
 62
7
  6
CONTINUOUS
 70
0
 71
3
 72
11
 73
7
 74
0
 42
0.0000001
 43
0.0000001
 44
0.0000000001
 40
0.0
 40
0.0
 40
0.0
 40
0.0
 40
0.2352213379
 40
0.4767767044
 40
0.7303400034
 40
1.0
 40
1.0
 40
1.0
 40
1.0
 10
14.5068732023
 20
12.1665641876
 30
0.0
 10
14.5035378427
 20
12.1557674157
 30
0.0
 10
14.499019382
 20
12.1331225992
 30
0.0
 10
14.4991470747
 20
12.097827211
 30
0.0
 10
14.5060515951
 20
12.0615545662
 30
0.0
 10
14.5147668506
 20
12.0378558771
 30
0.0
 10
14.5200679495
 20
12.0260354705
 30
0.0
  0
SPLINE
  5
595
100
AcDbEntity
  8
0
100
AcDbSpline
 62
7
  6
CONTINUOUS
 70
0
 71
3
 72
9
 73
5
 74
0
 42
0.0000001
 43
0.0000001
 44
0.0000000001
 40
0.0
 40
0.0
 40
0.0
 40
0.0
 40
0.2470331473
 40
1.0
 40
1.0
 40
1.0
 40
1.0
 10
14.5219609877
 20
12.2053741532
 30
0.0
 10
14.5232438999
 20
12.2077956883
 30
0.0
 10
14.5286705289
 20
12.2174733152
 30
0.0
 10
14.5350163666
 20
12.2266308286
 30
0.0
 10
14.5402156823
 20
12.2331681288
 30
0.0
  0
SPLINE
  5
596
100
AcDbEntity
  8
0
100
AcDbSpline
 62
7
  6
CONTINUOUS
 70
0
 71
3
 72
9
 73
5
 74
0
 42
0.0000001
 43
0.0000001
 44
0.0000000001
 40
0.0
 40
0.0
 40
0.0
 40
0.0
 40
0.4893972399
 40
1.0
 40
1.0
 40
1.0
 40
1.0
 10
16.1713681178
 20
13.132397929
 30
0.0
 10
16.1675011808
 20
13.140281446
 30
0.0
 10
16.1569635952
 20
13.1552102331
 30
0.0
 10
16.1424957459
 20
13.1662715266
 30
0.0
 10
16.1345669593
 20
13.1708610664
 30
0.0
  0
SPLINE
  5
597
100
AcDbEntity
  8
0
100
AcDbSpline
 62
7
  6
CONTINUOUS
 70
0
 71
3
 72
9
 73
5
 74
0
 42
0.0000001
 43
0.0000001
 44
0.0000000001
 40
0.0
 40
0.0
 40
0.0
 40
0.0
 40
0.2662334732
 40
1.0
 40
1.0
 40
1.0
 40
1.0
 10
14.9373469673
 20
11.3372099059
 30
0.0
 10
14.9377306698
 20
11.3364280024
 30
0.0
 10
14.9390337877
 20
11.33342932
 30
0.0
 10
14.9397360928
 20
11.3301398858
 30
0.0
 10
14.9397452069
 20
11.3277394022
 30
0.0
  0
SPLINE
  5
598
100
AcDbEntity
  8
0
100
AcDbSpline
 62
7
  6
CONTINUOUS
 70
0
 71
3
 72
9
 73
5
 74
0
 42
0.0000001
 43
0.0000001
 44
0.0000000001
 40
0.0
 40
0.0
 40
0.0
 40
0.0
 40
0.2539090107
 40
1.0
 40
1.0
 40
1.0
 40
1.0
 10
14.9397452069
 20
11.3277394022
 30
0.0
 10
14.9397468092
 20
11.3273173766
 30
0.0
 10
14.9396929589
 20
11.3256556553
 30
0.0
 10
14.939387928
 20
11.3240014773
 30
0.0
 10
14.939021747
 20
11.3228166768
 30
0.0
  0
SPLINE
  5
599
100
AcDbEntity
  8
0
100
AcDbSpline
 62
7
  6
CONTINUOUS
 70
0
 71
3
 72
9
 73
5
 74
0
 42
0.0000001
 43
0.0000001
 44
0.0000000001
 40
0.0
 40
0.0
 40
0.0
 40
0.0
 40
0.2636661385
 40
1.0
 40
1.0
 40
1.0
 40
1.0
 10
13.8339614354
 20
12.1096863307
 30
0.0
 10
13.8349168563
 20
12.1096863307
 30
0.0
 10
13.8385383474
 20
12.1097879568
 30
0.0
 10
13.8421587004
 20
12.1103075651
 30
0.0
 10
13.8447363117
 20
12.1109968447
 30
0.0
  0
SPLINE
  5
59A
100
AcDbEntity
  8
0
100
AcDbSpline
 62
7
  6
CONTINUOUS
 70
0
 71
3
 72
9
 73
5
 74
0
 42
0.0000001
 43
0.0000001
 44
0.0000000001
 40
0.0
 40
0.0
 40
0.0
 40
0.0
 40
0.5305545617
 40
1.0
 40
1.0
 40
1.0
 40
1.0
 10
14.9248540048
 20
11.3054338616
 30
0.0
 10
14.9272210481
 20
11.3064386204
 30
0.0
 10
14.931504002
 20
11.3088462974
 30
0.0
 10
14.9348398082
 20
11.3125289771
 30
0.0
 10
14.9359922559
 20
11.3144908091
 30
0.0
  0
SPLINE
  5
59B
100
AcDbEntity
  8
0
100
AcDbSpline
 62
7
  6
CONTINUOUS
 70
0
 71
3
 72
11
 73
7
 74
0
 42
0.0000001
 43
0.0000001
 44
0.0000000001
 40
0.0
 40
0.0
 40
0.0
 40
0.0
 40
0.4800514016
 40
0.6126272417
 40
0.7452527841
 40
1.0
 40
1.0
 40
1.0
 40
1.0
 10
17.2810159314
 20
11.417852103
 30
0.0
 10
17.2792740417
 20
11.4122153459
 30
0.0
 10
17.2737348174
 20
11.4059979937
 30
0.0
 10
17.2658060529
 20
11.4014726739
 30
0.0
 10
17.2598543747
 20
11.3990876524
 30
0.0
 10
17.2550685556
 20
11.3982689303
 30
0.0
 10
17.2519377484
 20
11.3982689303
 30
0.0
  0
SPLINE
  5
59C
100
AcDbEntity
  8
0
100
AcDbSpline
 62
7
  6
CONTINUOUS
 70
0
 71
3
 72
11
 73
7
 74
0
 42
0.0000001
 43
0.0000001
 44
0.0000000001
 40
0.0
 40
0.0
 40
0.0
 40
0.0
 40
0.2776159662
 40
0.5351314074
 40
0.7732761227
 40
1.0
 40
1.0
 40
1.0
 40
1.0
 10
13.5273973539
 20
11.3982689303
 30
0.0
 10
13.5255990843
 20
11.3982689303
 30
0.0
 10
13.5221182864
 20
11.3986185815
 30
0.0
 10
13.5173361047
 20
11.4002826836
 30
0.0
 10
13.5134623528
 20
11.4030302942
 30
0.0
 10
13.5116539802
 20
11.4055207415
 30
0.0
 10
13.511006729
 20
11.4068390331
 30
0.0
  0
SPLINE
  5
59D
100
AcDbEntity
  8
0
100
AcDbSpline
 62
7
  6
CONTINUOUS
 70
0
 71
3
 72
9
 73
5
 74
0
 42
0.0000001
 43
0.0000001
 44
0.0000000001
 40
0.0
 40
0.0
 40
0.0
 40
0.0
 40
0.5084612334
 40
1.0
 40
1.0
 40
1.0
 40
1.0
 10
17.1147942033
 20
12.4687111643
 30
0.0
 10
17.1179296475
 20
12.4687111643
 30
0.0
 10
17.124098507
 20
12.4684398003
 30
0.0
 10
17.1302199412
 20
12.467567205
 30
0.0
 10
17.1331828969
 20
12.4669281372
 30
0.0
  0
SPLINE
  5
59E
100
AcDbEntity
  8
0
100
AcDbSpline
 62
7
  6
CONTINUOUS
 70
0
 71
3
 72
9
 73
5
 74
0
 42
0.0000001
 43
0.0000001
 44
0.0000000001
 40
0.0
 40
0.0
 40
0.0
 40
0.0
 40
0.2562148546
 40
1.0
 40
1.0
 40
1.0
 40
1.0
 10
14.0622576035
 20
12.8510059687
 30
0.0
 10
14.0563871564
 20
12.8525592157
 30
0.0
 10
14.033373079
 20
12.8581545627
 30
0.0
 10
14.0096546224
 20
12.8614634643
 30
0.0
 10
13.9920264377
 20
12.8614634643
 30
0.0
  0
SPLINE
  5
59F
100
AcDbEntity
  8
0
100
AcDbSpline
 62
7
  6
CONTINUOUS
 70
0
 71
3
 72
10
 73
6
 74
0
 42
0.0000001
 43
0.0000001
 44
0.0000000001
 40
0.0
 40
0.0
 40
0.0
 40
0.0
 40
0.2721057391
 40
0.5286196051
 40
1.0
 40
1.0
 40
1.0
 40
1.0
 10
13.9920264377
 20
12.8614634643
 30
0.0
 10
13.9857155513
 20
12.8614634643
 30
0.0
 10
13.9734425821
 20
12.8608473089
 30
0.0
 10
13.9505006679
 20
12.8572195348
 30
0.0
 10
13.9342943176
 20
12.8520943067
 30
0.0
 10
13.9241591208
 20
12.8479955358
 30
0.0
  0
SPLINE
  5
5A0
100
AcDbEntity
  8
0
100
AcDbSpline
 62
7
  6
CONTINUOUS
 70
0
 71
3
 72
9
 73
5
 74
0
 42
0.0000001
 43
0.0000001
 44
0.0000000001
 40
0.0
 40
0.0
 40
0.0
 40
0.0
 40
0.4044280745
 40
1.0
 40
1.0
 40
1.0
 40
1.0
 10
13.8157806996
 20
12.7382886079
 30
0.0
 10
13.8173002036
 20
12.7326109559
 30
0.0
 10
13.8215690594
 20
12.7187103374
 30
0.0
 10
13.8264564492
 20
12.7050209805
 30
0.0
 10
13.829458806
 20
12.6969030725
 30
0.0
  0
SPLINE
  5
5A1
100
AcDbEntity
  8
0
100
AcDbSpline
 62
7
  6
CONTINUOUS
 70
0
 71
3
 72
9
 73
5
 74
0
 42
0.0000001
 43
0.0000001
 44
0.0000000001
 40
0.0
 40
0.0
 40
0.0
 40
0.0
 40
0.2451386098
 40
1.0
 40
1.0
 40
1.0
 40
1.0
 10
13.8633608108
 20
12.8066100004
 30
0.0
 10
13.8585683591
 20
12.8017588025
 30
0.0
 10
13.8400663441
 20
12.7809206451
 30
0.0
 10
13.8255168101
 20
12.7568936775
 30
0.0
 10
13.8157806996
 20
12.7382886079
 30
0.0
  0
SPLINE
  5
5A2
100
AcDbEntity
  8
0
100
AcDbSpline
 62
7
  6
CONTINUOUS
 70
0
 71
3
 72
9
 73
5
 74
0
 42
0.0000001
 43
0.0000001
 44
0.0000000001
 40
0.0
 40
0.0
 40
0.0
 40
0.0
 40
0.4675155292
 40
1.0
 40
1.0
 40
1.0
 40
1.0
 10
13.829458806
 20
12.6969030725
 30
0.0
 10
13.8334280779
 20
12.6861707756
 30
0.0
 10
13.8422721809
 20
12.6633462112
 30
0.0
 10
13.8514334878
 20
12.6406496264
 30
0.0
 10
13.8563551111
 20
12.62858168
 30
0.0
  0
SPLINE
  5
5A3
100
AcDbEntity
  8
0
100
AcDbSpline
 62
7
  6
CONTINUOUS
 70
0
 71
3
 72
9
 73
5
 74
0
 42
0.0000001
 43
0.0000001
 44
0.0000000001
 40
0.0
 40
0.0
 40
0.0
 40
0.0
 40
0.5094948139
 40
1.0
 40
1.0
 40
1.0
 40
1.0
 10
15.9775974462
 20
12.8479955358
 30
0.0
 10
15.9641558389
 20
12.8518869188
 30
0.0
 10
15.937461619
 20
12.8585224894
 30
0.0
 10
15.909983928
 20
12.8614634643
 30
0.0
 10
15.8965119305
 20
12.8614634643
 30
0.0
  0
SPLINE
  5
5A4
100
AcDbEntity
  8
0
100
AcDbSpline
 62
7
  6
CONTINUOUS
 70
0
 71
3
 72
10
 73
6
 74
0
 42
0.0000001
 43
0.0000001
 44
0.0000000001
 40
0.0
 40
0.0
 40
0.0
 40
0.0
 40
0.2721057391
 40
0.5286196051
 40
1.0
 40
1.0
 40
1.0
 40
1.0
 10
15.8965119305
 20
12.8614634643
 30
0.0
 10
15.8902010441
 20
12.8614634643
 30
0.0
 10
15.8779280749
 20
12.8608473089
 30
0.0
 10
15.8549861607
 20
12.8572195348
 30
0.0
 10
15.8387798104
 20
12.8520943067
 30
0.0
 10
15.8286446136
 20
12.8479955358
 30
0.0
  0
SPLINE
  5
5A5
100
AcDbEntity
  8
0
100
AcDbSpline
 62
7
  6
CONTINUOUS
 70
0
 71
3
 72
9
 73
5
 74
0
 42
0.0000001
 43
0.0000001
 44
0.0000000001
 40
0.0
 40
0.0
 40
0.0
 40
0.0
 40
0.4044280745
 40
1.0
 40
1.0
 40
1.0
 40
1.0
 10
15.7202661924
 20
12.7382886079
 30
0.0
 10
15.7217856964
 20
12.7326109559
 30
0.0
 10
15.7260545522
 20
12.7187103374
 30
0.0
 10
15.730941942
 20
12.7050209805
 30
0.0
 10
15.7339442988
 20
12.6969030725
 30
0.0
  0
SPLINE
  5
5A6
100
AcDbEntity
  8
0
100
AcDbSpline
 62
7
  6
CONTINUOUS
 70
0
 71
3
 72
9
 73
5
 74
0
 42
0.0000001
 43
0.0000001
 44
0.0000000001
 40
0.0
 40
0.0
 40
0.0
 40
0.0
 40
0.2451386098
 40
1.0
 40
1.0
 40
1.0
 40
1.0
 10
15.7678463036
 20
12.8066100004
 30
0.0
 10
15.7630538519
 20
12.8017588025
 30
0.0
 10
15.7445518369
 20
12.7809206451
 30
0.0
 10
15.7300023029
 20
12.7568936775
 30
0.0
 10
15.7202661924
 20
12.7382886079
 30
0.0
  0
SPLINE
  5
5A7
100
AcDbEntity
  8
0
100
AcDbSpline
 62
7
  6
CONTINUOUS
 70
0
 71
3
 72
9
 73
5
 74
0
 42
0.0000001
 43
0.0000001
 44
0.0000000001
 40
0.0
 40
0.0
 40
0.0
 40
0.0
 40
0.4675155292
 40
1.0
 40
1.0
 40
1.0
 40
1.0
 10
15.7339442988
 20
12.6969030725
 30
0.0
 10
15.7379135707
 20
12.6861707756
 30
0.0
 10
15.7467576737
 20
12.6633462112
 30
0.0
 10
15.7559189807
 20
12.6406496264
 30
0.0
 10
15.7608406039
 20
12.62858168
 30
0.0
  0
SPLINE
  5
5A8
100
AcDbEntity
  8
0
100
AcDbSpline
 62
7
  6
CONTINUOUS
 70
0
 71
3
 72
9
 73
5
 74
0
 42
0.0000001
 43
0.0000001
 44
0.0000000001
 40
0.0
 40
0.0
 40
0.0
 40
0.0
 40
0.2550762689
 40
1.0
 40
1.0
 40
1.0
 40
1.0
 10
15.7514654198
 20
12.6498232137
 30
0.0
 10
15.7511850626
 20
12.6479589572
 30
0.0
 10
15.7502751868
 20
12.6406237052
 30
0.0
 10
15.7501532056
 20
12.6331861978
 30
0.0
 10
15.7505501265
 20
12.6276949369
 30
0.0
  0
SPLINE
  5
5A9
100
AcDbEntity
  8
0
100
AcDbSpline
 62
7
  6
CONTINUOUS
 70
0
 71
3
 72
9
 73
5
 74
0
 42
0.0000001
 43
0.0000001
 44
0.0000000001
 40
0.0
 40
0.0
 40
0.0
 40
0.0
 40
0.2524358769
 40
1.0
 40
1.0
 40
1.0
 40
1.0
 10
15.7505501265
 20
12.6276949369
 30
0.0
 10
15.7506416247
 20
12.6264290909
 30
0.0
 10
15.7511058966
 20
12.6214225566
 30
0.0
 10
15.7519845407
 20
12.6164535611
 30
0.0
 10
15.7528783753
 20
12.6128029342
 30
0.0
  0
SPLINE
  5
5AA
100
AcDbEntity
  8
0
100
AcDbSpline
 62
7
  6
CONTINUOUS
 70
0
 71
3
 72
16
 73
12
 74
0
 42
0.0000001
 43
0.0000001
 44
0.0000000001
 40
0.0
 40
0.0
 40
0.0
 40
0.0
 40
0.2685255453
 40
0.3987663378
 40
0.5253447603
 40
0.6474327802
 40
0.7646014973
 40
0.8220299179
 40
0.8795011404
 40
0.9383898448
 40
1.0
 40
1.0
 40
1.0
 40
1.0
 10
16.3225101284
 20
11.8677763242
 30
0.0
 10
16.3301238827
 20
11.862886687
 30
0.0
 10
16.341980352
 20
11.8563799177
 30
0.0
 10
16.3586237347
 20
11.8502604531
 30
0.0
 10
16.3711088275
 20
11.8473741007
 30
0.0
 10
16.3834771126
 20
11.8466034085
 30
0.0
 10
16.3934886961
 20
11.8483497866
 30
0.0
 10
16.4006024257
 20
11.8517110895
 30
0.0
 10
16.4052917213
 20
11.8553095343
 30
0.0
 10
16.409035316
 20
11.8600740279
 30
0.0
 10
16.4106967999
 20
11.8638312648
 30
0.0
 10
16.4113097651
 20
11.865814821
 30
0.0
  0
SPLINE
  5
5AB
100
AcDbEntity
  8
0
100
AcDbSpline
 62
7
  6
CONTINUOUS
 70
0
 71
3
 72
9
 73
5
 74
0
 42
0.0000001
 43
0.0000001
 44
0.0000000001
 40
0.0
 40
0.0
 40
0.0
 40
0.0
 40
0.2418721281
 40
1.0
 40
1.0
 40
1.0
 40
1.0
 10
16.0965248688
 20
13.272112428
 30
0.0
 10
16.0963725544
 20
13.2720628918
 30
0.0
 10
16.0957603127
 20
13.2718035644
 30
0.0
 10
16.0952603135
 20
13.2713105194
 30
0.0
 10
16.0949901612
 20
13.2708873735
 30
0.0
  0
LINE
  5
5AC
100
AcDbEntity
  8
0
100
AcDbLine
 62
7
  6
CONTINUOUS
 10
16.0949901612
 20
13.2708873735
 11
16.0945346637
 21
13.2698868681
  0
SPLINE
  5
5AD
100
AcDbEntity
  8
0
100
AcDbSpline
 62
7
  6
CONTINUOUS
 70
0
 71
3
 72
18
 73
14
 74
0
 42
0.0000001
 43
0.0000001
 44
0.0000000001
 40
0.0
 40
0.0
 40
0.0
 40
0.0
 40
0.0696222115
 40
0.0994115333
 40
0.1317542721
 40
0.1694716506
 40
0.2138353091
 40
0.2652564916
 40
0.3236455681
 40
0.4599213751
 40
0.620062706
 40
0.8009781594
 40
1.0
 40
1.0
 40
1.0
 40
1.0
 10
14.0964513543
 20
12.8937134987
 30
0.0
 10
14.0958252632
 20
12.8949886947
 30
0.0
 10
14.0944414403
 20
12.8967978159
 30
0.0
 10
14.0917195382
 20
12.8973588497
 30
0.0
 10
14.0896845683
 20
12.8969544402
 30
0.0
 10
14.0875841342
 20
12.8958941549
 30
0.0
 10
14.0854096612
 20
12.8942360634
 30
0.0
 10
14.0831700665
 20
12.8920180395
 30
0.0
 10
14.0799532365
 20
12.8881551246
 30
0.0
 10
14.0759737684
 20
12.8820825871
 30
0.0
 10
14.0714337974
 20
12.8734557555
 30
0.0
 10
14.0670287782
 20
12.8633452784
 30
0.0
 10
14.0643599347
 20
12.8560621448
 30
0.0
 10
14.0630557967
 20
12.8522163153
 30
0.0
  0
SPLINE
  5
5AE
100
AcDbEntity
  8
0
100
AcDbSpline
 62
7
  6
CONTINUOUS
 70
0
 71
3
 72
9
 73
5
 74
0
 42
0.0000001
 43
0.0000001
 44
0.0000000001
 40
0.0
 40
0.0
 40
0.0
 40
0.0
 40
0.2451321373
 40
1.0
 40
1.0
 40
1.0
 40
1.0
 10
16.0792472175
 20
13.0912864124
 30
0.0
 10
16.0744548916
 20
13.086435342
 30
0.0
 10
16.0559526672
 20
13.0655973668
 30
0.0
 10
16.0414033015
 20
13.0415702516
 30
0.0
 10
16.0316671063
 20
13.02296502
 30
0.0
  0
SPLINE
  5
5AF
100
AcDbEntity
  8
0
100
AcDbSpline
 62
7
  6
CONTINUOUS
 70
0
 71
3
 72
9
 73
5
 74
0
 42
0.0000001
 43
0.0000001
 44
0.0000000001
 40
0.0
 40
0.0
 40
0.0
 40
0.0
 40
0.4788348212
 40
1.0
 40
1.0
 40
1.0
 40
1.0
 10
14.0133246242
 20
12.9514472106
 30
0.0
 10
14.023255643
 20
12.9456986884
 30
0.0
 10
14.0459954567
 20
12.9370156487
 30
0.0
 10
14.0700671958
 20
12.9344754898
 30
0.0
 10
14.0825563821
 20
12.9344754898
 30
0.0
  0
SPLINE
  5
5B0
100
AcDbEntity
  8
0
100
AcDbSpline
 62
7
  6
CONTINUOUS
 70
0
 71
3
 72
17
 73
13
 74
0
 42
0.0000001
 43
0.0000001
 44
0.0000000001
 40
0.0
 40
0.0
 40
0.0
 40
0.0
 40
0.1140176459
 40
0.2371465135
 40
0.3668189118
 40
0.4999006279
 40
0.6329855887
 40
0.762667866
 40
0.8252666019
 40
0.8858793855
 40
0.944205757
 40
1.0
 40
1.0
 40
1.0
 40
1.0
 10
14.7549340879
 20
13.7140651349
 30
0.0
 10
14.8108422947
 20
13.7265992467
 30
0.0
 10
14.9295209425
 20
13.7424872033
 30
0.0
 10
15.1143245223
 20
13.7412276884
 30
0.0
 10
15.3070625241
 20
13.7160566547
 30
0.0
 10
15.5004921018
 20
13.6678998459
 30
0.0
 10
15.6873708387
 20
13.5985748371
 30
0.0
 10
15.8335785978
 20
13.5244391896
 30
0.0
 10
15.941102232
 20
13.4565569777
 30
0.0
 10
16.0149281913
 20
13.4028401594
 30
0.0
 10
16.0821575738
 20
13.3462442992
 30
0.0
 10
16.1231246324
 20
13.3060074482
 30
0.0
 10
16.1422591892
 20
13.2855140692
 30
0.0
  0
SPLINE
  5
5B1
100
AcDbEntity
  8
0
100
AcDbSpline
 62
7
  6
CONTINUOUS
 70
0
 71
3
 72
24
 73
20
 74
0
 42
0.0000001
 43
0.0000001
 44
0.0000000001
 40
0.0
 40
0.0
 40
0.0
 40
0.0
 40
0.0537856627
 40
0.1124311348
 40
0.1756665347
 40
0.2428885553
 40
0.3132305577
 40
0.3856586568
 40
0.4590301504
 40
0.5321563126
 40
0.6038602648
 40
0.6730360581
 40
0.7387109605
 40
0.8001156046
 40
0.8567675262
 40
0.9085733541
 40
0.9559476362
 40
0.9783087154
 40
1.0
 40
1.0
 40
1.0
 40
1.0
 10
14.5449841634
 20
12.0505943384
 30
0.0
 10
14.5537147673
 20
12.0337356034
 30
0.0
 10
14.5753175508
 20
12.0001833226
 30
0.0
 10
14.6164532951
 20
11.9535467414
 30
0.0
 10
14.666746005
 20
11.9094130233
 30
0.0
 10
14.7249981795
 20
11.8688076636
 30
0.0
 10
14.7898475061
 20
11.8326708368
 30
0.0
 10
14.8597558068
 20
11.8018550215
 30
0.0
 10
14.9330643901
 20
11.7770923645
 30
0.0
 10
15.0080287369
 20
11.758972281
 30
0.0
 10
15.0828660895
 20
11.7479253536
 30
0.0
 10
15.1558018022
 20
11.7442139604
 30
0.0
 10
15.2251170824
 20
11.747930472
 30
0.0
 10
15.2891917852
 20
11.7589996219
 30
0.0
 10
15.3465507941
 20
11.7772097298
 30
0.0
 10
15.395856429
 20
11.8022031786
 30
0.0
 10
15.4299116089
 20
11.8289005819
 30
0.0
 10
15.4514412823
 20
11.8530322897
 30
0.0
 10
15.460297946
 20
11.8658756282
 30
0.0
 10
15.4642179878
 20
11.872452608
 30
0.0
  0
SPLINE
  5
5B2
100
AcDbEntity
  8
0
100
AcDbSpline
 62
7
  6
CONTINUOUS
 70
0
 71
3
 72
11
 73
7
 74
0
 42
0.0000001
 43
0.0000001
 44
0.0000000001
 40
0.0
 40
0.0
 40
0.0
 40
0.0
 40
0.2675015104
 40
0.5236118998
 40
0.7674719094
 40
1.0
 40
1.0
 40
1.0
 40
1.0
 10
14.0863694054
 20
12.9267053652
 30
0.0
 10
14.0792455547
 20
12.9267053652
 30
0.0
 10
14.0652822439
 20
12.9275601372
 30
0.0
 10
14.0451679745
 20
12.9315463779
 30
0.0
 10
14.0267357031
 20
12.9381587099
 30
0.0
 10
14.0155904836
 20
12.9443744564
 30
0.0
 10
14.010480906
 20
12.9478728727
 30
0.0
  0
SPLINE
  5
5B3
100
AcDbEntity
  8
0
100
AcDbSpline
 62
7
  6
CONTINUOUS
 70
0
 71
3
 72
9
 73
5
 74
0
 42
0.0000001
 43
0.0000001
 44
0.0000000001
 40
0.0
 40
0.0
 40
0.0
 40
0.0
 40
0.5080335385
 40
1.0
 40
1.0
 40
1.0
 40
1.0
 10
14.010480906
 20
12.9478728727
 30
0.0
 10
14.0040499042
 20
12.9522760393
 30
0.0
 10
13.9923372201
 20
12.9624586386
 30
0.0
 10
13.9836606529
 20
12.975364232
 30
0.0
 10
13.9803360535
 20
12.9821400103
 30
0.0
  0
SPLINE
  5
5B4
100
AcDbEntity
  8
0
100
AcDbSpline
 62
7
  6
CONTINUOUS
 70
0
 71
3
 72
20
 73
16
 74
0
 42
0.0000001
 43
0.0000001
 44
0.0000000001
 40
0.0
 40
0.0
 40
0.0
 40
0.0
 40
0.1272695213
 40
0.2522948504
 40
0.3737980912
 40
0.4330039965
 40
0.4910979999
 40
0.5483448172
 40
0.6054640147
 40
0.6636973398
 40
0.7244381787
 40
0.7886340396
 40
0.8564122257
 40
0.9271775829
 40
1.0
 40
1.0
 40
1.0
 40
1.0
 10
15.8721105998
 20
12.8605177134
 30
0.0
 10
15.858562312
 20
12.868002835
 30
0.0
 10
15.8307864525
 20
12.8812909453
 30
0.0
 10
15.7871432343
 20
12.8946667516
 30
0.0
 10
15.7497521096
 20
12.898431471
 30
0.0
 10
15.7207766256
 20
12.8952412554
 30
0.0
 10
15.7002462535
 20
12.8893826685
 30
0.0
 10
15.6815005199
 20
12.8795990545
 30
0.0
 10
15.6655461237
 20
12.8656110163
 30
0.0
 10
15.6535595695
 20
12.8475479565
 30
0.0
 10
15.6465066471
 20
12.8261565588
 30
0.0
 10
15.6446681589
 20
12.8025994982
 30
0.0
 10
15.6476840974
 20
12.7779945515
 30
0.0
 10
15.6548548089
 20
12.7532220055
 30
0.0
 10
15.6617883571
 20
12.7371494676
 30
0.0
 10
15.6656904032
 20
12.7291987417
 30
0.0
  0
SPLINE
  5
5B5
100
AcDbEntity
  8
0
100
AcDbSpline
 62
7
  6
CONTINUOUS
 70
0
 71
3
 72
11
 73
7
 74
0
 42
0.0000001
 43
0.0000001
 44
0.0000000001
 40
0.0
 40
0.0
 40
0.0
 40
0.0
 40
0.2675015104
 40
0.5236118998
 40
0.7674719094
 40
1.0
 40
1.0
 40
1.0
 40
1.0
 10
13.9644957357
 20
12.5323220253
 30
0.0
 10
13.957371885
 20
12.5323220253
 30
0.0
 10
13.9434085741
 20
12.5331767973
 30
0.0
 10
13.9232943048
 20
12.537163038
 30
0.0
 10
13.9048620333
 20
12.54377537
 30
0.0
 10
13.8937168138
 20
12.5499911165
 30
0.0
 10
13.8886072362
 20
12.5534895328
 30
0.0
  0
SPLINE
  5
5B6
100
AcDbEntity
  8
0
100
AcDbSpline
 62
7
  6
CONTINUOUS
 70
0
 71
3
 72
9
 73
5
 74
0
 42
0.0000001
 43
0.0000001
 44
0.0000000001
 40
0.0
 40
0.0
 40
0.0
 40
0.0
 40
0.5080335385
 40
1.0
 40
1.0
 40
1.0
 40
1.0
 10
13.8886072362
 20
12.5534895328
 30
0.0
 10
13.8821762345
 20
12.5578926994
 30
0.0
 10
13.8704635504
 20
12.5680752987
 30
0.0
 10
13.8617869831
 20
12.5809808921
 30
0.0
 10
13.8584623837
 20
12.5877566703
 30
0.0
  0
SPLINE
  5
5B7
100
AcDbEntity
  8
0
100
AcDbSpline
 62
7
  6
CONTINUOUS
 70
0
 71
3
 72
10
 73
6
 74
0
 42
0.0000001
 43
0.0000001
 44
0.0000000001
 40
0.0
 40
0.0
 40
0.0
 40
0.0
 40
0.4776932357
 40
0.7330002268
 40
1.0
 40
1.0
 40
1.0
 40
1.0
 10
16.1400455275
 20
13.1326719478
 30
0.0
 10
16.1292974144
 20
13.127869698
 30
0.0
 10
16.1132711806
 20
13.1192993539
 30
0.0
 10
16.0933976853
 20
13.1046676094
 30
0.0
 10
16.0838714631
 20
13.0959673422
 30
0.0
 10
16.0792472175
 20
13.0912864124
 30
0.0
  0
SPLINE
  5
5B8
100
AcDbEntity
  8
0
100
AcDbSpline
 62
7
  6
CONTINUOUS
 70
0
 71
3
 72
10
 73
6
 74
0
 42
0.0000001
 43
0.0000001
 44
0.0000000001
 40
0.0
 40
0.0
 40
0.0
 40
0.0
 40
0.2721011135
 40
0.5286137151
 40
1.0
 40
1.0
 40
1.0
 40
1.0
 10
14.0460960978
 20
13.0364329485
 30
0.0
 10
14.0397853186
 20
13.0364329485
 30
0.0
 10
14.027512498
 20
13.0358166879
 30
0.0
 10
14.0045705321
 20
13.032189249
 30
0.0
 10
13.9883641045
 20
13.0270638422
 30
0.0
 10
13.9782287809
 20
13.02296502
 30
0.0
  0
SPLINE
  5
5B9
100
AcDbEntity
  8
0
100
AcDbSpline
 62
7
  6
CONTINUOUS
 70
0
 71
3
 72
9
 73
5
 74
0
 42
0.0000001
 43
0.0000001
 44
0.0000000001
 40
0.0
 40
0.0
 40
0.0
 40
0.0
 40
0.5096033441
 40
1.0
 40
1.0
 40
1.0
 40
1.0
 10
14.1214396324
 20
13.0245913447
 30
0.0
 10
14.1089255022
 20
13.0280551834
 30
0.0
 10
14.0840848238
 20
13.0339020619
 30
0.0
 10
14.0585913814
 20
13.0364329485
 30
0.0
 10
14.0460960978
 20
13.0364329485
 30
0.0
  0
SPLINE
  5
5BA
100
AcDbEntity
  8
0
100
AcDbSpline
 62
7
  6
CONTINUOUS
 70
0
 71
3
 72
24
 73
20
 74
0
 42
0.0000001
 43
0.0000001
 44
0.0000000001
 40
0.0
 40
0.0
 40
0.0
 40
0.0
 40
0.0544563677
 40
0.1136769974
 40
0.1773592533
 40
0.2448691631
 40
0.3153406971
 40
0.3877522717
 40
0.4609823362
 40
0.5338719813
 40
0.6052779845
 40
0.6741298145
 40
0.7394890423
 40
0.800616373
 40
0.8570516258
 40
0.9087113998
 40
0.9560023598
 40
0.9783351744
 40
1.0
 40
1.0
 40
1.0
 40
1.0
 10
15.4495309552
 20
12.031052286
 30
0.0
 10
15.4401567972
 20
12.0478920326
 30
0.0
 10
15.4173905031
 20
12.0813113937
 30
0.0
 10
15.3748048683
 20
12.1276569143
 30
0.0
 10
15.3233254501
 20
12.1713842591
 30
0.0
 10
15.2641416389
 20
12.2114973636
 30
0.0
 10
15.1986091602
 20
12.2470869119
 30
0.0
 10
15.128245915
 20
12.277332698
 30
0.0
 10
15.0546828685
 20
12.3015320683
 30
0.0
 10
14.9796300842
 20
12.3191223717
 30
0.0
 10
14.9048303315
 20
12.3296951175
 30
0.0
 10
14.8320155125
 20
12.3330054117
 30
0.0
 10
14.7628608527
 20
12.3289722762
 30
0.0
 10
14.698944603
 20
12.3176762205
 30
0.0
 10
14.6417041581
 20
12.2993291884
 30
0.0
 10
14.5924442397
 20
12.2742843065
 30
0.0
 10
14.558348057
 20
12.247617808
 30
0.0
 10
14.5367065224
 20
12.2235393557
 30
0.0
 10
14.5277681744
 20
12.2107276201
 30
0.0
 10
14.5238005547
 20
12.2041663974
 30
0.0
  0
SPLINE
  5
5BB
100
AcDbEntity
  8
0
100
AcDbSpline
 62
7
  6
CONTINUOUS
 70
0
 71
3
 72
9
 73
5
 74
0
 42
0.0000001
 43
0.0000001
 44
0.0000000001
 40
0.0
 40
0.0
 40
0.0
 40
0.0
 40
0.4947268558
 40
1.0
 40
1.0
 40
1.0
 40
1.0
 10
16.1131492223
 20
13.2009933403
 30
0.0
 10
16.1108731656
 20
13.2071474453
 30
0.0
 10
16.1045495352
 20
13.2190173085
 30
0.0
 10
16.0952910396
 20
13.2287475379
 30
0.0
 10
16.0901162616
 20
13.2330055016
 30
0.0
  0
SPLINE
  5
5BC
100
AcDbEntity
  8
0
100
AcDbSpline
 62
7
  6
CONTINUOUS
 70
0
 71
3
 72
11
 73
7
 74
0
 42
0.0000001
 43
0.0000001
 44
0.0000000001
 40
0.0
 40
0.0
 40
0.0
 40
0.0
 40
0.2307439998
 40
0.473651612
 40
0.7301995559
 40
1.0
 40
1.0
 40
1.0
 40
1.0
 10
16.0901162616
 20
13.2330055016
 30
0.0
 10
16.0855622609
 20
13.2367526709
 30
0.0
 10
16.0753650145
 20
13.2434541951
 30
0.0
 10
16.0580237413
 20
13.2506056896
 30
0.0
 10
16.038757922
 20
13.2549288556
 30
0.0
 10
16.0252812991
 20
13.2558468042
 30
0.0
 10
16.0183856003
 20
13.2558468042
 30
0.0
  0
SPLINE
  5
5BD
100
AcDbEntity
  8
0
100
AcDbSpline
 62
7
  6
CONTINUOUS
 70
0
 71
3
 72
9
 73
5
 74
0
 42
0.0000001
 43
0.0000001
 44
0.0000000001
 40
0.0
 40
0.0
 40
0.0
 40
0.0
 40
0.4209602572
 40
1.0
 40
1.0
 40
1.0
 40
1.0
 10
14.1949856232
 20
13.2423788757
 30
0.0
 10
14.1961521169
 20
13.2380202525
 30
0.0
 10
14.1992172549
 20
13.2277450408
 30
0.0
 10
14.2026836351
 20
13.2176004887
 30
0.0
 10
14.2047603459
 20
13.2117518672
 30
0.0
  0
SPLINE
  5
5BE
100
AcDbEntity
  8
0
100
AcDbSpline
 62
7
  6
CONTINUOUS
 70
0
 71
3
 72
25
 73
21
 74
0
 42
0.0000001
 43
0.0000001
 44
0.0000000001
 40
0.0
 40
0.0
 40
0.0
 40
0.0
 40
0.0543404502
 40
0.1139492943
 40
0.1785190407
 40
0.247342908
 40
0.319402169
 40
0.3934826997
 40
0.4682531717
 40
0.5423447282
 40
0.6144256594
 40
0.6832790749
 40
0.7478878328
 40
0.8075336078
 40
0.8619179924
 40
0.9113091384
 40
0.9344531326
 40
0.9567822362
 40
0.9785391396
 40
1.0
 40
1.0
 40
1.0
 40
1.0
 10
14.5300225461
 20
12.0170958087
 30
0.0
 10
14.5388393525
 20
11.9991290464
 30
0.0
 10
14.5612347142
 20
11.9633170564
 30
0.0
 10
14.6047456092
 20
11.9137399411
 30
0.0
 10
14.6585608384
 20
11.8670059631
 30
0.0
 10
14.7212358107
 20
11.8243374891
 30
0.0
 10
14.7911199068
 20
11.7868448466
 30
0.0
 10
14.8663458539
 20
11.755525478
 30
0.0
 10
14.9449015756
 20
11.731217568
 30
0.0
 10
15.0246810858
 20
11.714572558
 30
0.0
 10
15.1035489632
 20
11.7060363362
 30
0.0
 10
15.1794044239
 20
11.7058399392
 30
0.0
 10
15.2502424306
 20
11.7139967618
 30
0.0
 10
15.3142224954
 20
11.73033429
 30
0.0
 10
15.3696744807
 20
11.7544870565
 30
0.0
 10
15.4084059978
 20
11.7813898059
 30
0.0
 10
15.4330849532
 20
11.8062382821
 30
0.0
 10
15.4481726909
 20
11.8259664239
 30
0.0
 10
15.4601161656
 20
11.8470325048
 30
0.0
 10
15.4659289817
 20
11.861920732
 30
0.0
 10
15.4682618816
 20
11.8694726104
 30
0.0
  0
SPLINE
  5
5BF
100
AcDbEntity
  8
0
100
AcDbSpline
 62
7
  6
CONTINUOUS
 70
0
 71
3
 72
9
 73
5
 74
0
 42
0.0000001
 43
0.0000001
 44
0.0000000001
 40
0.0
 40
0.0
 40
0.0
 40
0.0
 40
0.4946851928
 40
1.0
 40
1.0
 40
1.0
 40
1.0
 10
14.2048021404
 20
13.2096567635
 30
0.0
 10
14.2024712102
 20
13.2140877168
 30
0.0
 10
14.1968185496
 20
13.2225796046
 30
0.0
 10
14.1895799561
 20
13.229755991
 30
0.0
 10
14.1856307688
 20
13.2330055016
 30
0.0
  0
SPLINE
  5
5C0
100
AcDbEntity
  8
0
100
AcDbSpline
 62
7
  6
CONTINUOUS
 70
0
 71
3
 72
11
 73
7
 74
0
 42
0.0000001
 43
0.0000001
 44
0.0000000001
 40
0.0
 40
0.0
 40
0.0
 40
0.0
 40
0.2307439998
 40
0.473651612
 40
0.7301995559
 40
1.0
 40
1.0
 40
1.0
 40
1.0
 10
14.1856307688
 20
13.2330055016
 30
0.0
 10
14.1810767681
 20
13.2367526709
 30
0.0
 10
14.1708795217
 20
13.2434541951
 30
0.0
 10
14.1535382485
 20
13.2506056896
 30
0.0
 10
14.1342724292
 20
13.2549288556
 30
0.0
 10
14.1207958062
 20
13.2558468042
 30
0.0
 10
14.1139001075
 20
13.2558468042
 30
0.0
  0
SPLINE
  5
5C1
100
AcDbEntity
  8
0
100
AcDbSpline
 62
7
  6
CONTINUOUS
 70
0
 71
3
 72
9
 73
5
 74
0
 42
0.0000001
 43
0.0000001
 44
0.0000000001
 40
0.0
 40
0.0
 40
0.0
 40
0.0
 40
0.4899755761
 40
1.0
 40
1.0
 40
1.0
 40
1.0
 10
14.0460960978
 20
13.0364329485
 30
0.0
 10
14.0621728689
 20
13.0364329485
 30
0.0
 10
14.095078642
 20
13.0416052868
 30
0.0
 10
14.125434849
 20
13.0550739931
 30
0.0
 10
14.1397366277
 20
13.0637634125
 30
0.0
  0
SPLINE
  5
5C2
100
AcDbEntity
  8
0
100
AcDbSpline
 62
7
  6
CONTINUOUS
 70
0
 71
3
 72
13
 73
9
 74
0
 42
0.0000001
 43
0.0000001
 44
0.0000000001
 40
0.0
 40
0.0
 40
0.0
 40
0.0
 40
0.1134862894
 40
0.227842983
 40
0.344602034
 40
0.4652563183
 40
0.721293789
 40
1.0
 40
1.0
 40
1.0
 40
1.0
 10
13.9513324758
 20
13.0912864124
 30
0.0
 10
13.952860259
 20
13.0871555231
 30
0.0
 10
13.9566907376
 20
13.0791218971
 30
0.0
 10
13.9645724278
 20
13.0682324321
 30
0.0
 10
13.9744493018
 20
13.058707197
 30
0.0
 10
13.9903140661
 20
13.0478435542
 30
0.0
 10
14.0144261471
 20
13.0386356126
 30
0.0
 10
14.0352796204
 20
13.0364329485
 30
0.0
 10
14.0460960978
 20
13.0364329485
 30
0.0
  0
SPLINE
  5
5C3
100
AcDbEntity
  8
0
100
AcDbSpline
 62
7
  6
CONTINUOUS
 70
0
 71
3
 72
12
 73
8
 74
0
 42
0.0000001
 43
0.0000001
 44
0.0000000001
 40
0.0
 40
0.0
 40
0.0
 40
0.0
 40
0.279915554
 40
0.5389435661
 40
0.7767115851
 40
0.8896824574
 40
1.0
 40
1.0
 40
1.0
 40
1.0
 10
13.9852344806
 20
13.2009933403
 30
0.0
 10
13.9773114461
 20
13.1929731849
 30
0.0
 10
13.9635375464
 20
13.1759325366
 30
0.0
 10
13.9499185041
 20
13.1474233551
 30
0.0
 10
13.9458044636
 20
13.1227702855
 30
0.0
 10
13.9474409148
 20
13.1041937583
 30
0.0
 10
13.9497912546
 20
13.0954536358
 30
0.0
 10
13.9513324758
 20
13.0912864124
 30
0.0
  0
SPLINE
  5
5C4
100
AcDbEntity
  8
0
100
AcDbSpline
 62
7
  6
CONTINUOUS
 70
0
 71
3
 72
11
 73
7
 74
0
 42
0.0000001
 43
0.0000001
 44
0.0000000001
 40
0.0
 40
0.0
 40
0.0
 40
0.0
 40
0.2427017075
 40
0.4955310213
 40
0.7506985425
 40
1.0
 40
1.0
 40
1.0
 40
1.0
 10
14.1139001075
 20
13.2558468042
 30
0.0
 10
14.1023182259
 20
13.2558468042
 30
0.0
 10
14.0786193591
 20
13.2531476826
 30
0.0
 10
14.0443114088
 20
13.2421462553
 30
0.0
 10
14.0123604864
 20
13.2248328212
 30
0.0
 10
13.9935954065
 20
13.2094567547
 30
0.0
 10
13.9852344806
 20
13.2009933403
 30
0.0
  0
SPLINE
  5
5C5
100
AcDbEntity
  8
0
100
AcDbSpline
 62
7
  6
CONTINUOUS
 70
0
 71
3
 72
9
 73
5
 74
0
 42
0.0000001
 43
0.0000001
 44
0.0000000001
 40
0.0
 40
0.0
 40
0.0
 40
0.0
 40
0.4788348212
 40
1.0
 40
1.0
 40
1.0
 40
1.0
 10
13.8914509544
 20
12.5570638707
 30
0.0
 10
13.9013819733
 20
12.5513153485
 30
0.0
 10
13.9241217869
 20
12.5426323088
 30
0.0
 10
13.9481935261
 20
12.5400921499
 30
0.0
 10
13.9606827123
 20
12.5400921499
 30
0.0
  0
SPLINE
  5
5C6
100
AcDbEntity
  8
0
100
AcDbSpline
 62
7
  6
CONTINUOUS
 70
0
 71
3
 72
9
 73
5
 74
0
 42
0.0000001
 43
0.0000001
 44
0.0000000001
 40
0.0
 40
0.0
 40
0.0
 40
0.0
 40
0.2383091497
 40
1.0
 40
1.0
 40
1.0
 40
1.0
 10
14.4892324791
 20
12.7333140434
 30
0.0
 10
14.4888991061
 20
12.7322406268
 30
0.0
 10
14.4876702048
 20
12.727683047
 30
0.0
 10
14.4870165597
 20
12.7229891563
 30
0.0
 10
14.4866827831
 20
12.7194121543
 30
0.0
  0
SPLINE
  5
5C7
100
AcDbEntity
  8
0
100
AcDbSpline
 62
7
  6
CONTINUOUS
 70
0
 71
3
 72
9
 73
5
 74
0
 42
0.0000001
 43
0.0000001
 44
0.0000000001
 40
0.0
 40
0.0
 40
0.0
 40
0.0
 40
0.2407825274
 40
1.0
 40
1.0
 40
1.0
 40
1.0
 10
14.4943970997
 20
12.7442548988
 30
0.0
 10
14.4940453264
 20
12.7437152485
 30
0.0
 10
14.492627593
 20
12.7414463886
 30
0.0
 10
14.4914112914
 20
12.7390495546
 30
0.0
 10
14.4906297395
 20
12.7371747588
 30
0.0
  0
SPLINE
  5
5C8
100
AcDbEntity
  8
0
100
AcDbSpline
 62
7
  6
CONTINUOUS
 70
0
 71
3
 72
9
 73
5
 74
0
 42
0.0000001
 43
0.0000001
 44
0.0000000001
 40
0.0
 40
0.0
 40
0.0
 40
0.0
 40
0.2548346071
 40
1.0
 40
1.0
 40
1.0
 40
1.0
 10
14.4722986282
 20
12.7124705345
 30
0.0
 10
14.4711987781
 20
12.7117621053
 30
0.0
 10
14.4669805663
 20
12.7088298117
 30
0.0
 10
14.4631671627
 20
12.7053417229
 30
0.0
 10
14.4605305985
 20
12.7025699056
 30
0.0
  0
SPLINE
  5
5C9
100
AcDbEntity
  8
0
100
AcDbSpline
 62
7
  6
CONTINUOUS
 70
0
 71
3
 72
9
 73
5
 74
0
 42
0.0000001
 43
0.0000001
 44
0.0000000001
 40
0.0
 40
0.0
 40
0.0
 40
0.0
 40
0.251725432
 40
1.0
 40
1.0
 40
1.0
 40
1.0
 10
14.4866831379
 20
12.7194151316
 30
0.0
 10
14.485422788
 20
12.7189550455
 30
0.0
 10
14.4804522189
 20
12.7170353215
 30
0.0
 10
14.475651595
 20
12.7146302286
 30
0.0
 10
14.4722986282
 20
12.7124705345
 30
0.0
  0
LINE
  5
5CA
100
AcDbEntity
  8
0
100
AcDbLine
 62
7
  6
CONTINUOUS
 10
14.45000367
 20
12.7080462045
 11
14.4471658211
 21
12.7091735206
  0
SPLINE
  5
5CB
100
AcDbEntity
  8
0
100
AcDbSpline
 62
7
  6
CONTINUOUS
 70
0
 71
3
 72
9
 73
5
 74
0
 42
0.0000001
 43
0.0000001
 44
0.0000000001
 40
0.0
 40
0.0
 40
0.0
 40
0.0
 40
0.2777545442
 40
1.0
 40
1.0
 40
1.0
 40
1.0
 10
14.4471658211
 20
12.7091735206
 30
0.0
 10
14.4467070256
 20
12.7093378485
 30
0.0
 10
14.4450449124
 20
12.7098997221
 30
0.0
 10
14.443339743
 20
12.7103383601
 30
0.0
 10
14.4420932214
 20
12.7105664716
 30
0.0
  0
SPLINE
  5
5CC
100
AcDbEntity
  8
0
100
AcDbSpline
 62
7
  6
CONTINUOUS
 70
0
 71
3
 72
9
 73
5
 74
0
 42
0.0000001
 43
0.0000001
 44
0.0000000001
 40
0.0
 40
0.0
 40
0.0
 40
0.0
 40
0.2667122225
 40
1.0
 40
1.0
 40
1.0
 40
1.0
 10
14.4605305985
 20
12.7025699056
 30
0.0
 10
14.4597491233
 20
12.7030227294
 30
0.0
 10
14.4568080917
 20
12.7047006355
 30
0.0
 10
14.4538140594
 20
12.7062919554
 30
0.0
 10
14.451564115
 20
12.7073426729
 30
0.0
  0
SPLINE
  5
5CD
100
AcDbEntity
  8
0
100
AcDbSpline
 62
7
  6
CONTINUOUS
 70
0
 71
3
 72
10
 73
6
 74
0
 42
0.0000001
 43
0.0000001
 44
0.0000000001
 40
0.0
 40
0.0
 40
0.0
 40
0.0
 40
0.2395190056
 40
0.4838412488
 40
1.0
 40
1.0
 40
1.0
 40
1.0
 10
13.6489394808
 20
11.7419999097
 30
0.0
 10
13.6474535457
 20
11.7450262885
 30
0.0
 10
13.6450863796
 20
11.7514758843
 30
0.0
 10
13.6429988829
 20
11.7654701523
 30
0.0
 10
13.6446058783
 20
11.776358505
 30
0.0
 10
13.6467509991
 20
11.7833001184
 30
0.0
  0
SPLINE
  5
5CE
100
AcDbEntity
  8
0
100
AcDbSpline
 62
7
  6
CONTINUOUS
 70
0
 71
3
 72
11
 73
7
 74
0
 42
0.0000001
 43
0.0000001
 44
0.0000000001
 40
0.0
 40
0.0
 40
0.0
 40
0.0
 40
0.2345342584
 40
0.477692647
 40
0.7322772151
 40
1.0
 40
1.0
 40
1.0
 40
1.0
 10
14.518127544
 20
12.1685378645
 30
0.0
 10
14.5173805918
 20
12.1595774026
 30
0.0
 10
14.5173014726
 20
12.1411808565
 30
0.0
 10
14.52129633
 20
12.113303254
 30
0.0
 10
14.5293523811
 20
12.0850021908
 30
0.0
 10
14.5371479591
 20
12.0665019067
 30
0.0
 10
14.541633673
 20
12.0572700926
 30
0.0
  0
SPLINE
  5
5CF
100
AcDbEntity
  8
0
100
AcDbSpline
 62
7
  6
CONTINUOUS
 70
0
 71
3
 72
12
 73
8
 74
0
 42
0.0000001
 43
0.0000001
 44
0.0000000001
 40
0.0
 40
0.0
 40
0.0
 40
0.0
 40
0.279915554
 40
0.5389435661
 40
0.7767115851
 40
0.8896824574
 40
1.0
 40
1.0
 40
1.0
 40
1.0
 10
16.0792472175
 20
13.0912864124
 30
0.0
 10
16.087170252
 20
13.0993065678
 30
0.0
 10
16.1009441516
 20
13.1163472161
 30
0.0
 10
16.114563194
 20
13.1448563976
 30
0.0
 10
16.1186772345
 20
13.1695094672
 30
0.0
 10
16.1170407833
 20
13.1880859944
 30
0.0
 10
16.1146904435
 20
13.1968261169
 30
0.0
 10
16.1131492223
 20
13.2009933403
 30
0.0
  0
SPLINE
  5
5D0
100
AcDbEntity
  8
0
100
AcDbSpline
 62
7
  6
CONTINUOUS
 70
0
 71
3
 72
10
 73
6
 74
0
 42
0.0000001
 43
0.0000001
 44
0.0000000001
 40
0.0
 40
0.0
 40
0.0
 40
0.0
 40
0.2395190056
 40
0.4838412488
 40
1.0
 40
1.0
 40
1.0
 40
1.0
 10
16.6783666564
 20
11.7419999097
 30
0.0
 10
16.6768807213
 20
11.7450262885
 30
0.0
 10
16.6745135552
 20
11.7514758843
 30
0.0
 10
16.6724260585
 20
11.7654701523
 30
0.0
 10
16.6740330539
 20
11.776358505
 30
0.0
 10
16.6761781747
 20
11.7833001184
 30
0.0
  0
SPLINE
  5
5D1
100
AcDbEntity
  8
0
100
AcDbSpline
 62
7
  6
CONTINUOUS
 70
0
 71
3
 72
11
 73
7
 74
0
 42
0.0000001
 43
0.0000001
 44
0.0000000001
 40
0.0
 40
0.0
 40
0.0
 40
0.0
 40
0.2427017075
 40
0.4955310213
 40
0.7506985425
 40
1.0
 40
1.0
 40
1.0
 40
1.0
 10
15.9505815906
 20
13.0364329485
 30
0.0
 10
15.9621634722
 20
13.0364329485
 30
0.0
 10
15.985862339
 20
13.0391320701
 30
0.0
 10
16.0201702893
 20
13.0501334974
 30
0.0
 10
16.0521212117
 20
13.0674469315
 30
0.0
 10
16.0708862916
 20
13.082822998
 30
0.0
 10
16.0792472175
 20
13.0912864124
 30
0.0
  0
SPLINE
  5
5D2
100
AcDbEntity
  8
0
100
AcDbSpline
 62
7
  6
CONTINUOUS
 70
0
 71
3
 72
13
 73
9
 74
0
 42
0.0000001
 43
0.0000001
 44
0.0000000001
 40
0.0
 40
0.0
 40
0.0
 40
0.0
 40
0.1134862894
 40
0.227842983
 40
0.344602034
 40
0.4652563183
 40
0.721293789
 40
1.0
 40
1.0
 40
1.0
 40
1.0
 10
15.8558179686
 20
13.0912864124
 30
0.0
 10
15.8573457518
 20
13.0871555231
 30
0.0
 10
15.8611762304
 20
13.0791218971
 30
0.0
 10
15.8690579206
 20
13.0682324321
 30
0.0
 10
15.8789347946
 20
13.058707197
 30
0.0
 10
15.8947995589
 20
13.0478435542
 30
0.0
 10
15.9189116399
 20
13.0386356126
 30
0.0
 10
15.9397651132
 20
13.0364329485
 30
0.0
 10
15.9505815906
 20
13.0364329485
 30
0.0
  0
SPLINE
  5
5D3
100
AcDbEntity
  8
0
100
AcDbSpline
 62
7
  6
CONTINUOUS
 70
0
 71
3
 72
22
 73
18
 74
0
 42
0.0000001
 43
0.0000001
 44
0.0000000001
 40
0.0
 40
0.0
 40
0.0
 40
0.0
 40
0.0617330206
 40
0.1260638548
 40
0.1925012841
 40
0.2605396414
 40
0.3296052105
 40
0.3991033951
 40
0.4684284034
 40
0.5369775305
 40
0.6041687899
 40
0.669457284
 40
0.7323526009
 40
0.792437311
 40
0.8493889049
 40
0.903006467
 40
1.0
 40
1.0
 40
1.0
 40
1.0
 10
16.0965248688
 20
13.272112428
 30
0.0
 10
16.0675436438
 20
13.2969960322
 30
0.0
 10
16.006086033
 20
13.345205216
 30
0.0
 10
15.9067961859
 20
13.4111951719
 30
0.0
 10
15.7995517305
 20
13.4716697301
 30
0.0
 10
15.68574874
 20
13.5258448532
 30
0.0
 10
15.5668370478
 20
13.5730275756
 30
0.0
 10
15.4443497706
 20
13.6126115765
 30
0.0
 10
15.319862006
 20
13.6440893422
 30
0.0
 10
15.1949745179
 20
13.667054426
 30
0.0
 10
15.071292109
 20
13.6812097197
 30
0.0
 10
14.9504033386
 20
13.6863758689
 30
0.0
 10
14.8338495861
 20
13.6824828453
 30
0.0
 10
14.7231357269
 20
13.6695825281
 30
0.0
 10
14.6196034123
 20
13.6477969936
 30
0.0
 10
14.4972072034
 20
13.6086655855
 30
0.0
 10
14.4131409682
 20
13.565203681
 30
0.0
 10
14.3648938848
 20
13.529508246
 30
0.0
  0
SPLINE
  5
5D4
100
AcDbEntity
  8
0
100
AcDbSpline
 62
7
  6
CONTINUOUS
 70
0
 71
3
 72
9
 73
5
 74
0
 42
0.0000001
 43
0.0000001
 44
0.0000000001
 40
0.0
 40
0.0
 40
0.0
 40
0.0
 40
0.2556200149
 40
1.0
 40
1.0
 40
1.0
 40
1.0
 10
14.3484387335
 20
13.5168420594
 30
0.0
 10
14.343071373
 20
13.5125427717
 30
0.0
 10
14.3224045376
 20
13.4953174517
 30
0.0
 10
14.3031072262
 20
13.4764309103
 30
0.0
 10
14.2897714634
 20
13.4614910047
 30
0.0
  0
SPLINE
  5
5D5
100
AcDbEntity
  8
0
100
AcDbSpline
 62
7
  6
CONTINUOUS
 70
0
 71
3
 72
9
 73
5
 74
0
 42
0.0000001
 43
0.0000001
 44
0.0000000001
 40
0.0
 40
0.0
 40
0.0
 40
0.0
 40
0.2527395942
 40
1.0
 40
1.0
 40
1.0
 40
1.0
 10
14.2659201598
 20
13.4323182076
 30
0.0
 10
14.2628956023
 20
13.4282646569
 30
0.0
 10
14.2512215922
 20
13.4120100934
 30
0.0
 10
14.2407506203
 20
13.3948876184
 30
0.0
 10
14.2337100551
 20
13.3816953068
 30
0.0
  0
SPLINE
  5
5D6
100
AcDbEntity
  8
0
100
AcDbSpline
 62
7
  6
CONTINUOUS
 70
0
 71
3
 72
10
 73
6
 74
0
 42
0.0000001
 43
0.0000001
 44
0.0000000001
 40
0.0
 40
0.0
 40
0.0
 40
0.0
 40
0.5216843196
 40
0.7715185339
 40
1.0
 40
1.0
 40
1.0
 40
1.0
 10
14.4615764135
 20
12.7453088924
 30
0.0
 10
14.4575873614
 20
12.7427394867
 30
0.0
 10
14.4522355535
 20
12.7379628288
 30
0.0
 10
14.4470568449
 20
12.730454371
 30
0.0
 10
14.4452589305
 20
12.7264500055
 30
0.0
 10
14.4446425626
 20
12.7244653834
 30
0.0
  0
SPLINE
  5
5D7
100
AcDbEntity
  8
0
100
AcDbSpline
 62
7
  6
CONTINUOUS
 70
0
 71
3
 72
10
 73
6
 74
0
 42
0.0000001
 43
0.0000001
 44
0.0000000001
 40
0.0
 40
0.0
 40
0.0
 40
0.0
 40
0.4389449279
 40
0.7076408689
 40
1.0
 40
1.0
 40
1.0
 40
1.0
 10
14.4838713717
 20
12.7497332224
 30
0.0
 10
14.4807294596
 20
12.7510959166
 30
0.0
 10
14.4747710904
 20
12.7510599445
 30
0.0
 10
14.4673853024
 20
12.7486309974
 30
0.0
 10
14.4634940594
 20
12.7465440756
 30
0.0
 10
14.4615764135
 20
12.7453088924
 30
0.0
  0
SPLINE
  5
5D8
100
AcDbEntity
  8
0
100
AcDbSpline
 62
7
  6
CONTINUOUS
 70
0
 71
3
 72
9
 73
5
 74
0
 42
0.0000001
 43
0.0000001
 44
0.0000000001
 40
0.0
 40
0.0
 40
0.0
 40
0.0
 40
0.2672111908
 40
1.0
 40
1.0
 40
1.0
 40
1.0
 10
14.4892324791
 20
12.7333140434
 30
0.0
 10
14.4894220102
 20
12.7339243084
 30
0.0
 10
14.4900424972
 20
12.7362324074
 30
0.0
 10
14.4902973194
 20
12.738656432
 30
0.0
 10
14.4901729859
 20
12.740404435
 30
0.0
  0
LINE
  5
5D9
100
AcDbEntity
  8
0
100
AcDbLine
 62
7
  6
CONTINUOUS
 10
14.4901729859
 20
12.740404435
 11
14.4897751719
 21
12.7428399758
  0
SPLINE
  5
5DA
100
AcDbEntity
  8
0
100
AcDbSpline
 62
7
  6
CONTINUOUS
 70
0
 71
3
 72
9
 73
5
 74
0
 42
0.0000001
 43
0.0000001
 44
0.0000000001
 40
0.0
 40
0.0
 40
0.0
 40
0.0
 40
0.2570232544
 40
1.0
 40
1.0
 40
1.0
 40
1.0
 10
14.4897751719
 20
12.7428399758
 30
0.0
 10
14.4896964521
 20
12.7431373565
 30
0.0
 10
14.4893463117
 20
12.7442820332
 30
0.0
 10
14.4888093127
 20
12.7453717563
 30
0.0
 10
14.4883106729
 20
12.7461080424
 30
0.0
  0
SPLINE
  5
5DB
100
AcDbEntity
  8
0
100
AcDbSpline
 62
7
  6
CONTINUOUS
 70
0
 71
3
 72
9
 73
5
 74
0
 42
0.0000001
 43
0.0000001
 44
0.0000000001
 40
0.0
 40
0.0
 40
0.0
 40
0.0
 40
0.4934087092
 40
1.0
 40
1.0
 40
1.0
 40
1.0
 10
14.4883106729
 20
12.7461080424
 30
0.0
 10
14.4877766659
 20
12.746896551
 30
0.0
 10
14.4864501998
 20
12.7483419281
 30
0.0
 10
14.4847683972
 20
12.749344169
 30
0.0
 10
14.4838713717
 20
12.7497332224
 30
0.0
  0
SPLINE
  5
5DC
100
AcDbEntity
  8
0
100
AcDbSpline
 62
7
  6
CONTINUOUS
 70
0
 71
3
 72
9
 73
5
 74
0
 42
0.0000001
 43
0.0000001
 44
0.0000000001
 40
0.0
 40
0.0
 40
0.0
 40
0.0
 40
0.2554081212
 40
1.0
 40
1.0
 40
1.0
 40
1.0
 10
14.4797207235
 20
12.718449553
 30
0.0
 10
14.480284983
 20
12.7190097287
 30
0.0
 10
14.4824357949
 20
12.72126055
 30
0.0
 10
14.4843546976
 20
12.7237370142
 30
0.0
 10
14.4856031149
 20
12.7256900608
 30
0.0
  0
SPLINE
  5
5DD
100
AcDbEntity
  8
0
100
AcDbSpline
 62
7
  6
CONTINUOUS
 70
0
 71
3
 72
9
 73
5
 74
0
 42
0.0000001
 43
0.0000001
 44
0.0000000001
 40
0.0
 40
0.0
 40
0.0
 40
0.0
 40
0.2591776892
 40
1.0
 40
1.0
 40
1.0
 40
1.0
 10
14.4856031149
 20
12.7256900608
 30
0.0
 10
14.4859108659
 20
12.726171512
 30
0.0
 10
14.4870556653
 20
12.7280556476
 30
0.0
 10
14.488030038
 20
12.7300461861
 30
0.0
 10
14.4886216042
 20
12.7315685754
 30
0.0
  0
SPLINE
  5
5DE
100
AcDbEntity
  8
0
100
AcDbSpline
 62
7
  6
CONTINUOUS
 70
0
 71
3
 72
9
 73
5
 74
0
 42
0.0000001
 43
0.0000001
 44
0.0000000001
 40
0.0
 40
0.0
 40
0.0
 40
0.0
 40
0.2362038072
 40
1.0
 40
1.0
 40
1.0
 40
1.0
 10
14.4510499544
 20
12.7076499477
 30
0.0
 10
14.4514613387
 20
12.7075152368
 30
0.0
 10
14.453231984
 20
12.7070338903
 30
0.0
 10
14.4550860825
 20
12.7068940234
 30
0.0
 10
14.4564852584
 20
12.7069348315
 30
0.0
  0
SPLINE
  5
5DF
100
AcDbEntity
  8
0
100
AcDbSpline
 62
7
  6
CONTINUOUS
 70
0
 71
3
 72
9
 73
5
 74
0
 42
0.0000001
 43
0.0000001
 44
0.0000000001
 40
0.0
 40
0.0
 40
0.0
 40
0.0
 40
0.2347942699
 40
1.0
 40
1.0
 40
1.0
 40
1.0
 10
14.4564852584
 20
12.7069348315
 30
0.0
 10
14.4571043644
 20
12.7069528883
 30
0.0
 10
14.4597373676
 20
12.7071537443
 30
0.0
 10
14.4623251308
 20
12.7078037685
 30
0.0
 10
14.4642299629
 20
12.7084717318
 30
0.0
  0
SPLINE
  5
5E0
100
AcDbEntity
  8
0
100
AcDbSpline
 62
7
  6
CONTINUOUS
 70
0
 71
3
 72
9
 73
5
 74
0
 42
0.0000001
 43
0.0000001
 44
0.0000000001
 40
0.0
 40
0.0
 40
0.0
 40
0.0
 40
0.2411731759
 40
1.0
 40
1.0
 40
1.0
 40
1.0
 10
14.4642299629
 20
12.7084717318
 30
0.0
 10
14.464914005
 20
12.7087116034
 30
0.0
 10
14.4677164409
 20
12.7098015428
 30
0.0
 10
14.4703811966
 20
12.7112354893
 30
0.0
 10
14.4722986282
 20
12.7124705345
 30
0.0
  0
SPLINE
  5
5E1
100
AcDbEntity
  8
0
100
AcDbSpline
 62
7
  6
CONTINUOUS
 70
0
 71
3
 72
11
 73
7
 74
0
 42
0.0000001
 43
0.0000001
 44
0.0000000001
 40
0.0
 40
0.0
 40
0.0
 40
0.0
 40
0.2835571203
 40
0.5427982644
 40
0.7791959909
 40
1.0
 40
1.0
 40
1.0
 40
1.0
 10
14.4446425626
 20
12.7244653834
 30
0.0
 10
14.4442715267
 20
12.7232706973
 30
0.0
 10
14.4437309159
 20
12.720924876
 30
0.0
 10
14.4435723527
 20
12.7174679978
 30
0.0
 10
14.444136862
 20
12.7143275746
 30
0.0
 10
14.4450181325
 20
12.7124779509
 30
0.0
 10
14.4455643688
 20
12.7116713845
 30
0.0
  0
SPLINE
  5
5E2
100
AcDbEntity
  8
0
100
AcDbSpline
 62
7
  6
CONTINUOUS
 70
0
 71
3
 72
9
 73
5
 74
0
 42
0.0000001
 43
0.0000001
 44
0.0000000001
 40
0.0
 40
0.0
 40
0.0
 40
0.0
 40
0.2465123648
 40
1.0
 40
1.0
 40
1.0
 40
1.0
 10
14.4461705229
 20
12.7108685996
 30
0.0
 10
14.4464232727
 20
12.7105674376
 30
0.0
 10
14.4475211497
 20
12.7094073177
 30
0.0
 10
14.4489011477
 20
12.7085243849
 30
0.0
 10
14.45000367
 20
12.7080462045
 30
0.0
  0
SPLINE
  5
5E3
100
AcDbEntity
  8
0
100
AcDbSpline
 62
7
  6
CONTINUOUS
 70
0
 71
3
 72
17
 73
13
 74
0
 42
0.0000001
 43
0.0000001
 44
0.0000000001
 40
0.0
 40
0.0
 40
0.0
 40
0.0
 40
0.023248872
 40
0.0426923272
 40
0.0660859283
 40
0.0969992427
 40
0.1830895113
 40
0.2997574533
 40
0.4429049546
 40
0.6092189795
 40
0.7956851203
 40
1.0
 40
1.0
 40
1.0
 40
1.0
 10
14.0000107444
 20
11.8475855503
 30
0.0
 10
14.0000973582
 20
11.8474097167
 30
0.0
 10
14.0003141787
 20
11.8470899288
 30
0.0
 10
14.0008970185
 20
11.8469456603
 30
0.0
 10
14.0014960012
 20
11.847182207
 30
0.0
 10
14.0024465954
 20
11.847890605
 30
0.0
 10
14.0037179298
 20
11.8494238223
 30
0.0
 10
14.005307817
 20
11.8518652051
 30
0.0
 10
14.0070336544
 20
11.8550216925
 30
0.0
 10
14.0088470693
 20
11.8587896379
 30
0.0
 10
14.0107127282
 20
11.8631013857
 30
0.0
 10
14.0119232582
 20
11.8661660804
 30
0.0
 10
14.012535071
 20
11.8677763242
 30
0.0
  0
SPLINE
  5
5E4
100
AcDbEntity
  8
0
100
AcDbSpline
 62
7
  6
CONTINUOUS
 70
0
 71
3
 72
12
 73
8
 74
0
 42
0.0000001
 43
0.0000001
 44
0.0000000001
 40
0.0
 40
0.0
 40
0.0
 40
0.0
 40
0.279915554
 40
0.5389435661
 40
0.7767115851
 40
0.8896824574
 40
1.0
 40
1.0
 40
1.0
 40
1.0
 10
15.8897199734
 20
13.2009933403
 30
0.0
 10
15.8817969389
 20
13.1929731849
 30
0.0
 10
15.8680230393
 20
13.1759325366
 30
0.0
 10
15.8544039969
 20
13.1474233551
 30
0.0
 10
15.8502899564
 20
13.1227702855
 30
0.0
 10
15.8519264076
 20
13.1041937583
 30
0.0
 10
15.8542767474
 20
13.0954536358
 30
0.0
 10
15.8558179686
 20
13.0912864124
 30
0.0
  0
SPLINE
  5
5E5
100
AcDbEntity
  8
0
100
AcDbSpline
 62
7
  6
CONTINUOUS
 70
0
 71
3
 72
11
 73
7
 74
0
 42
0.0000001
 43
0.0000001
 44
0.0000000001
 40
0.0
 40
0.0
 40
0.0
 40
0.0
 40
0.2427017075
 40
0.4955310213
 40
0.7506985425
 40
1.0
 40
1.0
 40
1.0
 40
1.0
 10
16.0183856003
 20
13.2558468042
 30
0.0
 10
16.0068037187
 20
13.2558468042
 30
0.0
 10
15.9831048519
 20
13.2531476826
 30
0.0
 10
15.9487969016
 20
13.2421462553
 30
0.0
 10
15.9168459792
 20
13.2248328212
 30
0.0
 10
15.8980808993
 20
13.2094567547
 30
0.0
 10
15.8897199734
 20
13.2009933403
 30
0.0
  0
SPLINE
  5
5E6
100
AcDbEntity
  8
0
100
AcDbSpline
 62
7
  6
CONTINUOUS
 70
0
 71
3
 72
10
 73
6
 74
0
 42
0.0000001
 43
0.0000001
 44
0.0000000001
 40
0.0
 40
0.0
 40
0.0
 40
0.0
 40
0.2395190056
 40
0.4838412488
 40
1.0
 40
1.0
 40
1.0
 40
1.0
 10
16.8372226811
 20
12.2560581941
 30
0.0
 10
16.835736746
 20
12.259084573
 30
0.0
 10
16.8333695799
 20
12.2655341688
 30
0.0
 10
16.8312820832
 20
12.2795284367
 30
0.0
 10
16.8328890786
 20
12.2904167894
 30
0.0
 10
16.8350341994
 20
12.2973584028
 30
0.0
  0
SPLINE
  5
5E7
100
AcDbEntity
  8
0
100
AcDbSpline
 62
7
  6
CONTINUOUS
 70
0
 71
3
 72
24
 73
20
 74
0
 42
0.0000001
 43
0.0000001
 44
0.0000000001
 40
0.0
 40
0.0
 40
0.0
 40
0.0
 40
0.0543122021
 40
0.1136546854
 40
0.1777269251
 40
0.245863537
 40
0.3171228528
 40
0.3903870601
 40
0.4644292317
 40
0.5379827458
 40
0.6098056877
 40
0.6787477892
 40
0.7438223983
 40
0.8042886655
 40
0.8597508805
 40
0.9102797779
 40
0.9565454195
 40
0.9785231769
 40
1.0
 40
1.0
 40
1.0
 40
1.0
 10
14.5389325053
 20
12.0310111656
 30
0.0
 10
14.5479110403
 20
12.0136736774
 30
0.0
 10
14.5702481922
 20
11.9791802358
 30
0.0
 10
14.6129222423
 20
11.9313741239
 30
0.0
 10
14.6651827284
 20
11.8862702868
 30
0.0
 10
14.725721326
 20
11.8449747118
 30
0.0
 10
14.7930440225
 20
11.8084947595
 30
0.0
 10
14.8654678277
 20
11.777738398
 30
0.0
 10
14.9411806814
 20
11.7534758016
 30
0.0
 10
15.0182834898
 20
11.7363153622
 30
0.0
 10
15.0948446114
 20
11.7266877918
 30
0.0
 10
15.1689526498
 20
11.7248346116
 30
0.0
 10
15.2387714773
 20
11.7308091773
 30
0.0
 10
15.302588802
 20
11.7444831481
 30
0.0
 10
15.3588628132
 20
11.7655889123
 30
0.0
 10
15.4062040614
 20
11.7937113401
 30
0.0
 10
15.4377181107
 20
11.8231720791
 30
0.0
 10
15.4566499947
 20
11.8493824475
 30
0.0
 10
15.4640547241
 20
11.8632037255
 30
0.0
 10
15.4672159306
 20
11.8702474673
 30
0.0
  0
SPLINE
  5
5E8
100
AcDbEntity
  8
0
100
AcDbSpline
 62
7
  6
CONTINUOUS
 70
0
 71
3
 72
11
 73
7
 74
0
 42
0.0000001
 43
0.0000001
 44
0.0000000001
 40
0.0
 40
0.0
 40
0.0
 40
0.0
 40
0.2366755313
 40
0.4790072011
 40
0.7321364062
 40
1.0
 40
1.0
 40
1.0
 40
1.0
 10
14.5128442046
 20
12.1647190071
 30
0.0
 10
14.5097455754
 20
12.1546883707
 30
0.0
 10
14.5054281921
 20
12.133727547
 30
0.0
 10
14.5049704236
 20
12.1010812731
 30
0.0
 10
14.5104370006
 20
12.0675095154
 30
0.0
 10
14.5177321816
 20
12.0454773097
 30
0.0
 10
14.5222169533
 20
12.0344744373
 30
0.0
  0
SPLINE
  5
5E9
100
AcDbEntity
  8
0
100
AcDbSpline
 62
7
  6
CONTINUOUS
 70
0
 71
3
 72
9
 73
5
 74
0
 42
0.0000001
 43
0.0000001
 44
0.0000000001
 40
0.0
 40
0.0
 40
0.0
 40
0.0
 40
0.2482216467
 40
1.0
 40
1.0
 40
1.0
 40
1.0
 10
14.5035268693
 20
12.1672868082
 30
0.0
 10
14.5028387675
 20
12.1644263423
 30
0.0
 10
14.5003684575
 20
12.1528314882
 30
0.0
 10
14.4991232258
 20
12.1409796248
 30
0.0
 10
14.4988572316
 20
12.1320730872
 30
0.0
  0
SPLINE
  5
5EA
100
AcDbEntity
  8
0
100
AcDbSpline
 62
7
  6
CONTINUOUS
 70
0
 71
3
 72
9
 73
5
 74
0
 42
0.0000001
 43
0.0000001
 44
0.0000000001
 40
0.0
 40
0.0
 40
0.0
 40
0.0
 40
0.2420500377
 40
1.0
 40
1.0
 40
1.0
 40
1.0
 10
15.9870418749
 20
12.9344754898
 30
0.0
 10
15.9936434187
 20
12.9344754898
 30
0.0
 10
16.0209067465
 20
12.9360145959
 30
0.0
 10
16.0477470262
 20
12.9433402337
 30
0.0
 10
16.0667629496
 20
12.9514472106
 30
0.0
  0
SPLINE
  5
5EB
100
AcDbEntity
  8
0
100
AcDbSpline
 62
7
  6
CONTINUOUS
 70
0
 71
3
 72
9
 73
5
 74
0
 42
0.0000001
 43
0.0000001
 44
0.0000000001
 40
0.0
 40
0.0
 40
0.0
 40
0.0
 40
0.2414728578
 40
1.0
 40
1.0
 40
1.0
 40
1.0
 10
15.9442713412
 20
12.9402774464
 30
0.0
 10
15.9476138665
 20
12.9393060454
 30
0.0
 10
15.9616123758
 20
12.9358277291
 30
0.0
 10
15.9761077471
 20
12.9344754898
 30
0.0
 10
15.9870418749
 20
12.9344754898
 30
0.0
  0
SPLINE
  5
5EC
100
AcDbEntity
  8
0
100
AcDbSpline
 62
7
  6
CONTINUOUS
 70
0
 71
3
 72
10
 73
6
 74
0
 42
0.0000001
 43
0.0000001
 44
0.0000000001
 40
0.0
 40
0.0
 40
0.0
 40
0.0
 40
0.2721011135
 40
0.5286137151
 40
1.0
 40
1.0
 40
1.0
 40
1.0
 10
15.9505815906
 20
13.0364329485
 30
0.0
 10
15.9442708114
 20
13.0364329485
 30
0.0
 10
15.9319979908
 20
13.0358166879
 30
0.0
 10
15.9090560249
 20
13.032189249
 30
0.0
 10
15.8928495973
 20
13.0270638422
 30
0.0
 10
15.8827142737
 20
13.02296502
 30
0.0
  0
SPLINE
  5
5ED
100
AcDbEntity
  8
0
100
AcDbSpline
 62
7
  6
CONTINUOUS
 70
0
 71
3
 72
9
 73
5
 74
0
 42
0.0000001
 43
0.0000001
 44
0.0000000001
 40
0.0
 40
0.0
 40
0.0
 40
0.0
 40
0.2475721414
 40
1.0
 40
1.0
 40
1.0
 40
1.0
 10
14.9375088556
 20
11.3179208746
 30
0.0
 10
14.9376370168
 20
11.3183355716
 30
0.0
 10
14.9380868487
 20
11.320031123
 30
0.0
 10
14.9382547421
 20
11.3217992347
 30
0.0
 10
14.9382290479
 20
11.323118159
 30
0.0
  0
SPLINE
  5
5EE
100
AcDbEntity
  8
0
100
AcDbSpline
 62
7
  6
CONTINUOUS
 70
0
 71
3
 72
9
 73
5
 74
0
 42
0.0000001
 43
0.0000001
 44
0.0000000001
 40
0.0
 40
0.0
 40
0.0
 40
0.0
 40
0.2369015649
 40
1.0
 40
1.0
 40
1.0
 40
1.0
 10
14.9382290479
 20
11.323118159
 30
0.0
 10
14.9382143639
 20
11.3238719094
 30
0.0
 10
14.9379478388
 20
11.3270496475
 30
0.0
 10
14.9369038725
 20
11.3301340493
 30
0.0
 10
14.9358340527
 20
11.3323141127
 30
0.0
  0
SPLINE
  5
5EF
100
AcDbEntity
  8
0
100
AcDbSpline
 62
7
  6
CONTINUOUS
 70
0
 71
3
 72
10
 73
6
 74
0
 42
0.0000001
 43
0.0000001
 44
0.0000000001
 40
0.0
 40
0.0
 40
0.0
 40
0.0
 40
0.2922950136
 40
0.5609439295
 40
1.0
 40
1.0
 40
1.0
 40
1.0
 10
14.5575312566
 20
13.2299692932
 30
0.0
 10
14.5550811106
 20
13.2283887507
 30
0.0
 10
14.5501083769
 20
13.2257184275
 30
0.0
 10
14.540665809
 20
13.2226107085
 30
0.0
 10
14.5330464213
 20
13.2225686996
 30
0.0
 10
14.5290291721
 20
13.2243131976
 30
0.0
  0
SPLINE
  5
5F0
100
AcDbEntity
  8
0
100
AcDbSpline
 62
7
  6
CONTINUOUS
 70
0
 71
3
 72
20
 73
16
 74
0
 42
0.0000001
 43
0.0000001
 44
0.0000000001
 40
0.0
 40
0.0
 40
0.0
 40
0.0
 40
0.072829026
 40
0.1435983581
 40
0.2113738398
 40
0.2755731375
 40
0.3363152048
 40
0.3945407024
 40
0.4516589809
 40
0.5089064101
 40
0.5669939431
 40
0.6262009584
 40
0.7477047535
 40
0.8727304612
 40
1.0
 40
1.0
 40
1.0
 40
1.0
 10
15.7875640057
 20
13.1235820226
 30
0.0
 10
15.7836614453
 20
13.1315352871
 30
0.0
 10
15.7767263713
 20
13.1476122271
 30
0.0
 10
15.769556233
 20
13.1723912079
 30
0.0
 10
15.7665424525
 20
13.1970017271
 30
0.0
 10
15.7683835004
 20
13.2205635067
 30
0.0
 10
15.7754433022
 20
13.2419572107
 30
0.0
 10
15.7874388745
 20
13.260018204
 30
0.0
 10
15.8034009921
 20
13.2740022585
 30
0.0
 10
15.8221540653
 20
13.2837785996
 30
0.0
 10
15.8426891902
 20
13.2896326813
 30
0.0
 10
15.8716707932
 20
13.292814477
 30
0.0
 10
15.9090678342
 20
13.2890379355
 30
0.0
 10
15.9527175243
 20
13.2756536109
 30
0.0
 10
15.9804964891
 20
13.2623578481
 30
0.0
 10
15.9940458574
 20
13.2548685292
 30
0.0
  0
SPLINE
  5
5F1
100
AcDbEntity
  8
0
100
AcDbSpline
 62
7
  6
CONTINUOUS
 70
0
 71
3
 72
18
 73
14
 74
0
 42
0.0000001
 43
0.0000001
 44
0.0000000001
 40
0.0
 40
0.0
 40
0.0
 40
0.0
 40
0.1990329329
 40
0.3799371907
 40
0.5400631397
 40
0.6763171657
 40
0.7347045282
 40
0.7861320992
 40
0.8305004667
 40
0.8682145763
 40
0.900564159
 40
0.930366362
 40
1.0
 40
1.0
 40
1.0
 40
1.0
 10
14.18493817
 20
13.2466245177
 30
0.0
 10
14.1862423553
 20
13.250468861
 30
0.0
 10
14.1889110956
 20
13.2577487323
 30
0.0
 10
14.1933152341
 20
13.2678544551
 30
0.0
 10
14.1978539923
 20
13.2764764163
 30
0.0
 10
14.2018319858
 20
13.2825455047
 30
0.0
 10
14.2050477278
 20
13.2864062682
 30
0.0
 10
14.2072868228
 20
13.2886232815
 30
0.0
 10
14.2094607254
 20
13.2902805914
 30
0.0
 10
14.2115608589
 20
13.2913399315
 30
0.0
 10
14.2135955515
 20
13.2917430599
 30
0.0
 10
14.2163168608
 20
13.2911814062
 30
0.0
 10
14.2176996865
 20
13.2893718816
 30
0.0
 10
14.2183251615
 20
13.2880967544
 30
0.0
  0
SPLINE
  5
5F2
100
AcDbEntity
  8
0
100
AcDbSpline
 62
7
  6
CONTINUOUS
 70
0
 71
3
 72
9
 73
5
 74
0
 42
0.0000001
 43
0.0000001
 44
0.0000000001
 40
0.0
 40
0.0
 40
0.0
 40
0.0
 40
0.241824898
 40
1.0
 40
1.0
 40
1.0
 40
1.0
 10
14.522148131
 20
13.2453344819
 30
0.0
 10
14.5222805871
 20
13.24576311
 30
0.0
 10
14.5228658483
 20
13.2475239009
 30
0.0
 10
14.523592303
 20
13.2492366559
 30
0.0
 10
14.5242054495
 20
13.250502526
 30
0.0
  0
SPLINE
  5
5F3
100
AcDbEntity
  8
0
100
AcDbSpline
 62
7
  6
CONTINUOUS
 70
0
 71
3
 72
8
 73
4
 74
0
 42
0.0000001
 43
0.0000001
 44
0.0000000001
 40
0.0
 40
0.0
 40
0.0
 40
0.0
 40
1.0
 40
1.0
 40
1.0
 40
1.0
 10
16.8924961891
 20
11.6217389432
 30
0.0
 10
16.887558439
 20
11.6196338535
 30
0.0
 10
16.8826151475
 20
11.6175205613
 30
0.0
 10
16.8775463594
 20
11.6157541619
 30
0.0
  0
SPLINE
  5
5F4
100
AcDbEntity
  8
0
100
AcDbSpline
 62
7
  6
CONTINUOUS
 70
0
 71
3
 72
9
 73
5
 74
0
 42
0.0000001
 43
0.0000001
 44
0.0000000001
 40
0.0
 40
0.0
 40
0.0
 40
0.0
 40
0.2560369011
 40
1.0
 40
1.0
 40
1.0
 40
1.0
 10
16.7007128045
 20
12.2973584028
 30
0.0
 10
16.6997390628
 20
12.2942073737
 30
0.0
 10
16.6962717367
 20
12.2818007485
 30
0.0
 10
16.6941841389
 20
12.268996243
 30
0.0
 10
16.6935468587
 20
12.2594343446
 30
0.0
  0
SPLINE
  5
5F5
100
AcDbEntity
  8
0
100
AcDbSpline
 62
7
  6
CONTINUOUS
 70
0
 71
3
 72
13
 73
9
 74
0
 42
0.0000001
 43
0.0000001
 44
0.0000000001
 40
0.0
 40
0.0
 40
0.0
 40
0.0
 40
0.264405153
 40
0.3959146195
 40
0.5251863412
 40
0.6510731396
 40
0.7726311408
 40
1.0
 40
1.0
 40
1.0
 40
1.0
 10
16.8843323633
 20
12.4687111643
 30
0.0
 10
16.8626611335
 20
12.4613431307
 30
0.0
 10
16.8312458364
 20
12.4468402434
 30
0.0
 10
16.7933682123
 20
12.4215905362
 30
0.0
 10
16.7675914552
 20
12.4001285197
 30
0.0
 10
16.7449531609
 20
12.3765392715
 30
0.0
 10
16.7201519384
 20
12.3437032914
 30
0.0
 10
16.7065242449
 20
12.3161642309
 30
0.0
 10
16.7007128045
 20
12.2973584028
 30
0.0
  0
SPLINE
  5
5F6
100
AcDbEntity
  8
0
100
AcDbSpline
 62
7
  6
CONTINUOUS
 70
0
 71
3
 72
9
 73
5
 74
0
 42
0.0000001
 43
0.0000001
 44
0.0000000001
 40
0.0
 40
0.0
 40
0.0
 40
0.0
 40
0.5095165678
 40
1.0
 40
1.0
 40
1.0
 40
1.0
 10
16.0316671063
 20
13.02296502
 30
0.0
 10
16.0182249361
 20
13.026856566
 30
0.0
 10
15.9915305215
 20
13.0334911113
 30
0.0
 10
15.9640529796
 20
13.0364329485
 30
0.0
 10
15.9505815906
 20
13.0364329485
 30
0.0
  0
SPLINE
  5
5F7
100
AcDbEntity
  8
0
100
AcDbSpline
 62
7
  6
CONTINUOUS
 70
0
 71
3
 72
9
 73
5
 74
0
 42
0.0000001
 43
0.0000001
 44
0.0000000001
 40
0.0
 40
0.0
 40
0.0
 40
0.0
 40
0.2557759115
 40
1.0
 40
1.0
 40
1.0
 40
1.0
 10
16.5418567797
 20
11.7833001184
 30
0.0
 10
16.540936883
 20
11.7803233314
 30
0.0
 10
16.5376397139
 20
11.7685959651
 30
0.0
 10
16.5355712156
 20
11.7565130919
 30
0.0
 10
16.5348441304
 20
11.7474766842
 30
0.0
  0
SPLINE
  5
5F8
100
AcDbEntity
  8
0
100
AcDbSpline
 62
7
  6
CONTINUOUS
 70
0
 71
3
 72
13
 73
9
 74
0
 42
0.0000001
 43
0.0000001
 44
0.0000000001
 40
0.0
 40
0.0
 40
0.0
 40
0.0
 40
0.2528458989
 40
0.3844165477
 40
0.5160987777
 40
0.6454891242
 40
0.7704201625
 40
1.0
 40
1.0
 40
1.0
 40
1.0
 10
16.8205226995
 20
11.9709721905
 30
0.0
 10
16.7905206209
 20
11.9709721905
 30
0.0
 10
16.7446384226
 20
11.9631015982
 30
0.0
 10
16.6876756978
 20
11.9403284398
 30
0.0
 10
16.6471063228
 20
11.9170834928
 30
0.0
 10
16.6108831782
 20
11.8887426878
 30
0.0
 10
16.571381707
 20
11.8469561591
 30
0.0
 10
16.5498997269
 20
11.8093271049
 30
0.0
 10
16.5418567797
 20
11.7833001184
 30
0.0
  0
SPLINE
  5
5F9
100
AcDbEntity
  8
0
100
AcDbSpline
 62
7
  6
CONTINUOUS
 70
0
 71
3
 72
12
 73
8
 74
0
 42
0.0000001
 43
0.0000001
 44
0.0000000001
 40
0.0
 40
0.0
 40
0.0
 40
0.0
 40
0.229743203
 40
0.3547417977
 40
0.4842211668
 40
0.7469745605
 40
1.0
 40
1.0
 40
1.0
 40
1.0
 10
16.6761781747
 20
11.7833001184
 30
0.0
 10
16.6793255678
 20
11.7934850861
 30
0.0
 10
16.6877314398
 20
11.8082084451
 30
0.0
 10
16.703189636
 20
11.8245617017
 30
0.0
 10
16.722165738
 20
11.8394024084
 30
0.0
 10
16.7494657293
 20
11.8526199422
 30
0.0
 10
16.7734808643
 20
11.8567370161
 30
0.0
 10
16.7852213607
 20
11.8567370161
 30
0.0
  0
SPLINE
  5
5FA
100
AcDbEntity
  8
0
100
AcDbSpline
 62
7
  6
CONTINUOUS
 70
0
 71
3
 72
11
 73
7
 74
0
 42
0.0000001
 43
0.0000001
 44
0.0000000001
 40
0.0
 40
0.0
 40
0.0
 40
0.0
 40
0.2891755436
 40
0.5306282887
 40
0.7536721027
 40
1.0
 40
1.0
 40
1.0
 40
1.0
 10
16.2709234796
 20
11.2948284822
 30
0.0
 10
16.2718749601
 20
11.2950514126
 30
0.0
 10
16.2735899319
 20
11.2956767945
 30
0.0
 10
16.2755472028
 20
11.2974633829
 30
0.0
 10
16.2762051463
 20
11.2999103629
 30
0.0
 10
16.2757313325
 20
11.301497031
 30
0.0
 10
16.275364604
 20
11.3022443452
 30
0.0
  0
SPLINE
  5
5FB
100
AcDbEntity
  8
0
100
AcDbSpline
 62
7
  6
CONTINUOUS
 70
0
 71
3
 72
12
 73
8
 74
0
 42
0.0000001
 43
0.0000001
 44
0.0000000001
 40
0.0
 40
0.0
 40
0.0
 40
0.0
 40
0.229743203
 40
0.3547417977
 40
0.4842211668
 40
0.7469745605
 40
1.0
 40
1.0
 40
1.0
 40
1.0
 10
16.8350341994
 20
12.2973584028
 30
0.0
 10
16.8381815925
 20
12.3075433705
 30
0.0
 10
16.8465874645
 20
12.3222667295
 30
0.0
 10
16.8620456608
 20
12.3386199861
 30
0.0
 10
16.8810217628
 20
12.3534606928
 30
0.0
 10
16.908321754
 20
12.3666782267
 30
0.0
 10
16.932336889
 20
12.3707953006
 30
0.0
 10
16.9440773854
 20
12.3707953006
 30
0.0
  0
SPLINE
  5
5FC
100
AcDbEntity
  8
0
100
AcDbSpline
 62
7
  6
CONTINUOUS
 70
0
 71
3
 72
12
 73
8
 74
0
 42
0.0000001
 43
0.0000001
 44
0.0000000001
 40
0.0
 40
0.0
 40
0.0
 40
0.0
 40
0.2659308343
 40
0.3972375177
 40
0.5260029257
 40
0.7721604333
 40
1.0
 40
1.0
 40
1.0
 40
1.0
 10
16.0667629496
 20
12.9514472106
 30
0.0
 10
16.0796986417
 20
12.9569620286
 30
0.0
 10
16.0983109557
 20
12.9670517393
 30
0.0
 10
16.12064253
 20
12.9836885409
 30
0.0
 10
16.1404533738
 20
13.0017491021
 30
0.0
 10
16.1606569816
 20
13.0267204586
 30
0.0
 10
16.1715842417
 20
13.0496432646
 30
0.0
 10
16.1751413708
 20
13.0611541385
 30
0.0
  0
SPLINE
  5
5FD
100
AcDbEntity
  8
0
100
AcDbSpline
 62
7
  6
CONTINUOUS
 70
0
 71
3
 72
25
 73
21
 74
0
 42
0.0000001
 43
0.0000001
 44
0.0000000001
 40
0.0
 40
0.0
 40
0.0
 40
0.0
 40
0.0214523011
 40
0.0432048614
 40
0.0655321961
 40
0.0886752809
 40
0.1380605609
 40
0.1924257346
 40
0.2520362744
 40
0.3165956088
 40
0.3853905225
 40
0.4574109731
 40
0.531448236
 40
0.6061789153
 40
0.6802421505
 40
0.7523115949
 40
0.8211773697
 40
0.8858231937
 40
0.9455357375
 40
1.0
 40
1.0
 40
1.0
 40
1.0
 10
15.4776658315
 20
11.8660365705
 30
0.0
 10
15.4752687073
 20
11.8583592153
 30
0.0
 10
15.4693099883
 20
11.8432252032
 30
0.0
 10
15.45710336
 20
11.8218148983
 30
0.0
 10
15.4417070752
 20
11.8017646796
 30
0.0
 10
15.4165494362
 20
11.7765097723
 30
0.0
 10
15.3771086416
 20
11.749164254
 30
0.0
 10
15.3206759008
 20
11.7246013734
 30
0.0
 10
15.2555871755
 20
11.7079701845
 30
0.0
 10
15.1835335676
 20
11.6996413383
 30
0.0
 10
15.1063781991
 20
11.6997902048
 30
0.0
 10
15.0261503616
 20
11.7084044128
 30
0.0
 10
14.9449763754
 20
11.7252519552
 30
0.0
 10
14.8650179379
 20
11.7498836807
 30
0.0
 10
14.7884084506
 20
11.7816430103
 30
0.0
 10
14.7171868604
 20
11.8196834164
 30
0.0
 10
14.653246979
 20
11.8629985847
 30
0.0
 10
14.598264669
 20
11.9104658387
 30
0.0
 10
14.5537071312
 20
11.9608495932
 30
0.0
 10
14.5306850676
 20
11.9972605987
 30
0.0
 10
14.5215816946
 20
12.015538814
 30
0.0
  0
SPLINE
  5
5FE
100
AcDbEntity
  8
0
100
AcDbSpline
 62
7
  6
CONTINUOUS
 70
0
 71
3
 72
12
 73
8
 74
0
 42
0.0000001
 43
0.0000001
 44
0.0000000001
 40
0.0
 40
0.0
 40
0.0
 40
0.0
 40
0.2306556043
 40
0.352661387
 40
0.4781024151
 40
0.7360418436
 40
1.0
 40
1.0
 40
1.0
 40
1.0
 10
16.4461067991
 20
11.9784180643
 30
0.0
 10
16.4428712362
 20
11.9679477789
 30
0.0
 10
16.4404292525
 20
11.9511031205
 30
0.0
 10
16.4411247104
 20
11.9283824035
 30
0.0
 10
16.4442806099
 20
11.9045375383
 30
0.0
 10
16.4523524694
 20
11.8747225219
 30
0.0
 10
16.4620245891
 20
11.8518176041
 30
0.0
 10
16.4675507174
 20
11.8405596933
 30
0.0
  0
SPLINE
  5
5FF
100
AcDbEntity
  8
0
100
AcDbSpline
 62
7
  6
CONTINUOUS
 70
0
 71
3
 72
19
 73
15
 74
0
 42
0.0000001
 43
0.0000001
 44
0.0000000001
 40
0.0
 40
0.0
 40
0.0
 40
0.0
 40
0.1434340336
 40
0.2831612773
 40
0.4173775541
 40
0.5448860628
 40
0.6059285389
 40
0.6651048876
 40
0.7224733461
 40
0.7782324986
 40
0.8328301991
 40
0.8871054447
 40
0.9423441496
 40
1.0
 40
1.0
 40
1.0
 40
1.0
 10
16.7928495937
 20
12.0273640511
 30
0.0
 10
16.7755776929
 20
12.0334749408
 30
0.0
 10
16.7408698418
 20
12.0438710329
 30
0.0
 10
16.6885749769
 20
12.0545706668
 30
0.0
 10
16.6375515754
 20
12.0603264521
 30
0.0
 10
16.5962244866
 20
12.060804188
 30
0.0
 10
16.5646781955
 20
12.0580359518
 30
0.0
 10
16.5422777964
 20
12.0542897049
 30
0.0
 10
16.5209746377
 20
12.048602382
 30
0.0
 10
16.5010176222
 20
12.0406409342
 30
0.0
 10
16.4827795602
 20
12.0299802456
 30
0.0
 10
16.4668363535
 20
12.0161458349
 30
0.0
 10
16.4540221602
 20
11.9988410491
 30
0.0
 10
16.4482811418
 20
11.9854542398
 30
0.0
 10
16.4461067991
 20
11.9784180643
 30
0.0
  0
SPLINE
  5
600
100
AcDbEntity
  8
0
100
AcDbSpline
 62
7
  6
CONTINUOUS
 70
0
 71
3
 72
9
 73
5
 74
0
 42
0.0000001
 43
0.0000001
 44
0.0000000001
 40
0.0
 40
0.0
 40
0.0
 40
0.0
 40
0.4899054282
 40
1.0
 40
1.0
 40
1.0
 40
1.0
 10
16.3225101284
 20
11.8677763242
 30
0.0
 10
16.3563141279
 20
11.8427394674
 30
0.0
 10
16.4281341308
 20
11.7953694221
 30
0.0
 10
16.5041578751
 20
11.7551601316
 30
0.0
 10
16.5437519008
 20
11.7364325948
 30
0.0
  0
SPLINE
  5
601
100
AcDbEntity
  8
0
100
AcDbSpline
 62
7
  6
CONTINUOUS
 70
0
 71
3
 72
11
 73
7
 74
0
 42
0.0000001
 43
0.0000001
 44
0.0000000001
 40
0.0
 40
0.0
 40
0.0
 40
0.0
 40
0.2740628206
 40
0.5327321419
 40
0.7748050714
 40
1.0
 40
1.0
 40
1.0
 40
1.0
 10
16.3089726324
 20
11.8772602728
 30
0.0
 10
16.2827923399
 20
11.8971987306
 30
0.0
 10
16.2335576627
 20
11.9382095402
 30
0.0
 10
16.1682240452
 20
12.0046851367
 30
0.0
 10
16.11437877
 20
12.0734804831
 30
0.0
 10
16.0856805869
 20
12.1219500712
 30
0.0
 10
16.0737626198
 20
12.1462223544
 30
0.0
  0
LINE
  5
602
100
AcDbEntity
  8
0
100
AcDbLine
 62
7
  6
CONTINUOUS
 10
13.719584657
 20
11.6119473569
 11
13.7038614697
 21
11.6078435317
  0
SPLINE
  5
603
100
AcDbEntity
  8
0
100
AcDbSpline
 62
7
  6
CONTINUOUS
 70
0
 71
3
 72
9
 73
5
 74
0
 42
0.0000001
 43
0.0000001
 44
0.0000000001
 40
0.0
 40
0.0
 40
0.0
 40
0.0
 40
0.5252142931
 40
1.0
 40
1.0
 40
1.0
 40
1.0
 10
16.3237551579
 20
11.4215793041
 30
0.0
 10
16.3243388316
 20
11.4203899021
 30
0.0
 10
16.3251514319
 20
11.4179454725
 30
0.0
 10
16.324968081
 20
11.4153423221
 30
0.0
 10
16.3246138024
 20
11.4141982329
 30
0.0
  0
LINE
  5
604
100
AcDbEntity
  8
0
100
AcDbLine
 62
7
  6
CONTINUOUS
 10
16.8697850792
 20
11.6078435317
 11
16.8500341621
 21
11.6119473569
  0
SPLINE
  5
605
100
AcDbEntity
  8
0
100
AcDbSpline
 62
7
  6
CONTINUOUS
 70
0
 71
3
 72
9
 73
5
 74
0
 42
0.0000001
 43
0.0000001
 44
0.0000000001
 40
0.0
 40
0.0
 40
0.0
 40
0.0
 40
0.2557825359
 40
1.0
 40
1.0
 40
1.0
 40
1.0
 10
14.5290291721
 20
13.2243131976
 30
0.0
 10
14.5286733205
 20
13.2244677268
 30
0.0
 10
14.5273065853
 20
13.2251262726
 30
0.0
 10
14.526047285
 20
13.2260115318
 30
0.0
 10
14.525218797
 20
13.2267781889
 30
0.0
  0
SPLINE
  5
606
100
AcDbEntity
  8
0
100
AcDbSpline
 62
7
  6
CONTINUOUS
 70
0
 71
3
 72
9
 73
5
 74
0
 42
0.0000001
 43
0.0000001
 44
0.0000000001
 40
0.0
 40
0.0
 40
0.0
 40
0.0
 40
0.4614793607
 40
1.0
 40
1.0
 40
1.0
 40
1.0
 10
14.522246016
 20
13.2309360439
 30
0.0
 10
14.5213251362
 20
13.2329896581
 30
0.0
 10
14.520463047
 20
13.2379582017
 30
0.0
 10
14.521372704
 20
13.2428251995
 30
0.0
 10
14.522148131
 20
13.2453344819
 30
0.0
  0
SPLINE
  5
607
100
AcDbEntity
  8
0
100
AcDbSpline
 62
7
  6
CONTINUOUS
 70
0
 71
3
 72
10
 73
6
 74
0
 42
0.0000001
 43
0.0000001
 44
0.0000000001
 40
0.0
 40
0.0
 40
0.0
 40
0.0
 40
0.4739631957
 40
0.7337302206
 40
1.0
 40
1.0
 40
1.0
 40
1.0
 10
16.6397598578
 20
12.605079592
 30
0.0
 10
16.6415324774
 20
12.6108157911
 30
0.0
 10
16.6413295931
 20
12.6205851262
 30
0.0
 10
16.6378645364
 20
12.6327439394
 30
0.0
 10
16.6352218032
 20
12.6388918878
 30
0.0
 10
16.6337353061
 20
12.6419195856
 30
0.0
  0
SPLINE
  5
608
100
AcDbEntity
  8
0
100
AcDbSpline
 62
7
  6
CONTINUOUS
 70
0
 71
3
 72
9
 73
5
 74
0
 42
0.0000001
 43
0.0000001
 44
0.0000000001
 40
0.0
 40
0.0
 40
0.0
 40
0.0
 40
0.4893972399
 40
1.0
 40
1.0
 40
1.0
 40
1.0
 10
13.8546497959
 20
12.595527008
 30
0.0
 10
13.858516733
 20
12.5876434911
 30
0.0
 10
13.8690543185
 20
12.572714704
 30
0.0
 10
13.8835221679
 20
12.5616534104
 30
0.0
 10
13.8914509544
 20
12.5570638707
 30
0.0
  0
SPLINE
  5
609
100
AcDbEntity
  8
0
100
AcDbSpline
 62
7
  6
CONTINUOUS
 70
0
 71
3
 72
10
 73
6
 74
0
 42
0.0000001
 43
0.0000001
 44
0.0000000001
 40
0.0
 40
0.0
 40
0.0
 40
0.0
 40
0.5096914264
 40
0.7576070849
 40
1.0
 40
1.0
 40
1.0
 40
1.0
 10
16.802312506
 20
12.5731350199
 30
0.0
 10
16.8070840286
 20
12.5727758205
 30
0.0
 10
16.8141371729
 20
12.5715558945
 30
0.0
 10
16.8231576322
 20
12.5689466081
 30
0.0
 10
16.8274716955
 20
12.5673146324
 30
0.0
 10
16.8295503683
 20
12.5663886233
 30
0.0
  0
SPLINE
  5
60A
100
AcDbEntity
  8
0
100
AcDbSpline
 62
7
  6
CONTINUOUS
 70
0
 71
3
 72
9
 73
5
 74
0
 42
0.0000001
 43
0.0000001
 44
0.0000000001
 40
0.0
 40
0.0
 40
0.0
 40
0.0
 40
0.4893972399
 40
1.0
 40
1.0
 40
1.0
 40
1.0
 10
13.9765234657
 20
12.9899103479
 30
0.0
 10
13.9803904027
 20
12.982026831
 30
0.0
 10
13.9909279883
 20
12.9670980439
 30
0.0
 10
14.0053958377
 20
12.9560367504
 30
0.0
 10
14.0133246242
 20
12.9514472106
 30
0.0
  0
SPLINE
  5
60B
100
AcDbEntity
  8
0
100
AcDbSpline
 62
7
  6
CONTINUOUS
 70
0
 71
3
 72
11
 73
7
 74
0
 42
0.0000001
 43
0.0000001
 44
0.0000000001
 40
0.0
 40
0.0
 40
0.0
 40
0.0
 40
0.2325231292
 40
0.4788702545
 40
0.7358847601
 40
1.0
 40
1.0
 40
1.0
 40
1.0
 10
16.6049628238
 20
12.4924763487
 30
0.0
 10
16.6024532402
 20
12.4843553332
 30
0.0
 10
16.5993129364
 20
12.4669662784
 30
0.0
 10
16.5997812771
 20
12.4399446267
 30
0.0
 10
16.6046012357
 20
12.4122160355
 30
0.0
 10
16.6101862724
 20
12.3939545767
 30
0.0
 10
16.6134809864
 20
12.3848793427
 30
0.0
  0
SPLINE
  5
60C
100
AcDbEntity
  8
0
100
AcDbSpline
 62
7
  6
CONTINUOUS
 70
0
 71
3
 72
9
 73
5
 74
0
 42
0.0000001
 43
0.0000001
 44
0.0000000001
 40
0.0
 40
0.0
 40
0.0
 40
0.0
 40
0.2487168189
 40
1.0
 40
1.0
 40
1.0
 40
1.0
 10
16.6134809864
 20
12.3848793427
 30
0.0
 10
16.6144122372
 20
12.3823142282
 30
0.0
 10
16.6183075191
 20
12.3720560193
 30
0.0
 10
16.6227767428
 20
12.3620180467
 30
0.0
 10
16.6264083318
 20
12.3546180332
 30
0.0
  0
SPLINE
  5
60D
100
AcDbEntity
  8
0
100
AcDbSpline
 62
7
  6
CONTINUOUS
 70
0
 71
3
 72
15
 73
11
 74
0
 42
0.0000001
 43
0.0000001
 44
0.0000000001
 40
0.0
 40
0.0
 40
0.0
 40
0.0
 40
0.1387159018
 40
0.2726186633
 40
0.4013687703
 40
0.5250831515
 40
0.6443168131
 40
0.7606644163
 40
0.8775841272
 40
1.0
 40
1.0
 40
1.0
 40
1.0
 10
16.802312506
 20
12.5731350199
 30
0.0
 10
16.7917074595
 20
12.5739242826
 30
0.0
 10
16.7708083448
 20
12.5748224667
 30
0.0
 10
16.7400208967
 20
12.5738899893
 30
0.0
 10
16.7105619061
 20
12.5703812913
 30
0.0
 10
16.6827416659
 20
12.5638729669
 30
0.0
 10
16.6570121804
 20
12.5536814999
 30
0.0
 10
16.6341388513
 20
12.5388497097
 30
0.0
 10
16.6156009437
 20
12.5183673204
 30
0.0
 10
16.6077336515
 20
12.5014427505
 30
0.0
 10
16.6049628238
 20
12.4924763487
 30
0.0
  0
SPLINE
  5
60E
100
AcDbEntity
  8
0
100
AcDbSpline
 62
7
  6
CONTINUOUS
 70
0
 71
3
 72
11
 73
7
 74
0
 42
0.0000001
 43
0.0000001
 44
0.0000000001
 40
0.0
 40
0.0
 40
0.0
 40
0.0
 40
0.228543351
 40
0.4907350772
 40
0.758050382
 40
1.0
 40
1.0
 40
1.0
 40
1.0
 10
14.5325700163
 20
13.2490137346
 30
0.0
 10
14.5348054431
 20
13.2491192269
 30
0.0
 10
14.5395462543
 20
13.2504704083
 30
0.0
 10
14.5458789087
 20
13.2544741334
 30
0.0
 10
14.5511512065
 20
13.2599822716
 30
0.0
 10
14.5535793784
 20
13.2644540015
 30
0.0
 10
14.5542788755
 20
13.2667175749
 30
0.0
  0
SPLINE
  5
60F
100
AcDbEntity
  8
0
100
AcDbSpline
 62
7
  6
CONTINUOUS
 70
0
 71
3
 72
9
 73
5
 74
0
 42
0.0000001
 43
0.0000001
 44
0.0000000001
 40
0.0
 40
0.0
 40
0.0
 40
0.0
 40
0.2635344549
 40
1.0
 40
1.0
 40
1.0
 40
1.0
 10
15.8389199603
 20
12.4385026384
 30
0.0
 10
15.8390472497
 20
12.4380328921
 30
0.0
 10
15.839603633
 20
12.4362787117
 30
0.0
 10
15.840603493
 20
12.4346076288
 30
0.0
 10
15.8416313727
 20
12.4337169643
 30
0.0
  0
SPLINE
  5
610
100
AcDbEntity
  8
0
100
AcDbSpline
 62
7
  6
CONTINUOUS
 70
0
 71
3
 72
9
 73
5
 74
0
 42
0.0000001
 43
0.0000001
 44
0.0000000001
 40
0.0
 40
0.0
 40
0.0
 40
0.0
 40
0.2307032763
 40
1.0
 40
1.0
 40
1.0
 40
1.0
 10
15.8388521096
 20
12.4424978198
 30
0.0
 10
15.8387606846
 20
12.4422019682
 30
0.0
 10
15.838489163
 20
12.4408811775
 30
0.0
 10
15.8386490353
 20
12.4394990315
 30
0.0
 10
15.8389199603
 20
12.4385026384
 30
0.0
  0
SPLINE
  5
611
100
AcDbEntity
  8
0
100
AcDbSpline
 62
7
  6
CONTINUOUS
 70
0
 71
3
 72
9
 73
5
 74
0
 42
0.0000001
 43
0.0000001
 44
0.0000000001
 40
0.0
 40
0.0
 40
0.0
 40
0.0
 40
0.4894481558
 40
1.0
 40
1.0
 40
1.0
 40
1.0
 10
16.0737553568
 20
12.146222354
 30
0.0
 10
16.0725965151
 20
12.1436876862
 30
0.0
 10
16.068308787
 20
12.1394075883
 30
0.0
 10
16.0625935414
 20
12.1376557966
 30
0.0
 10
16.0596863574
 20
12.1376555714
 30
0.0
  0
SPLINE
  5
612
100
AcDbEntity
  8
0
100
AcDbSpline
 62
7
  6
CONTINUOUS
 70
0
 71
3
 72
10
 73
6
 74
0
 42
0.0000001
 43
0.0000001
 44
0.0000000001
 40
0.0
 40
0.0
 40
0.0
 40
0.0
 40
0.5331849838
 40
0.7723468449
 40
1.0
 40
1.0
 40
1.0
 40
1.0
 10
13.9959300849
 20
12.1376540548
 30
0.0
 10
13.9942211753
 20
12.137654454
 30
0.0
 10
13.9916605007
 20
12.1381364553
 30
0.0
 10
13.9890027219
 20
12.1400011168
 30
0.0
 10
13.9880934478
 20
12.1412308863
 30
0.0
 10
13.9877654801
 20
12.1418826738
 30
0.0
  0
SPLINE
  5
613
100
AcDbEntity
  8
0
100
AcDbSpline
 62
7
  6
CONTINUOUS
 70
0
 71
3
 72
9
 73
5
 74
0
 42
0.0000001
 43
0.0000001
 44
0.0000000001
 40
0.0
 40
0.0
 40
0.0
 40
0.0
 40
0.2361151039
 40
1.0
 40
1.0
 40
1.0
 40
1.0
 10
13.8018704002
 20
11.9722827044
 30
0.0
 10
13.801043759
 20
11.9720616521
 30
0.0
 10
13.7975064837
 20
11.971262014
 30
0.0
 10
13.7938638611
 20
11.9709721905
 30
0.0
 10
13.7910955239
 20
11.9709721905
 30
0.0
  0
SPLINE
  5
614
100
AcDbEntity
  8
0
100
AcDbSpline
 62
7
  6
CONTINUOUS
 70
0
 71
3
 72
9
 73
5
 74
0
 42
0.0000001
 43
0.0000001
 44
0.0000000001
 40
0.0
 40
0.0
 40
0.0
 40
0.0
 40
0.240416882
 40
1.0
 40
1.0
 40
1.0
 40
1.0
 10
13.9183220852
 20
12.0146366526
 30
0.0
 10
13.9093554888
 20
12.010350147
 30
0.0
 10
13.8715989235
 20
11.993488843
 30
0.0
 10
13.8322046925
 20
11.9803944036
 30
0.0
 10
13.8018704002
 20
11.9722827044
 30
0.0
  0
SPLINE
  5
615
100
AcDbEntity
  8
0
100
AcDbSpline
 62
7
  6
CONTINUOUS
 70
0
 71
3
 72
11
 73
7
 74
0
 42
0.0000001
 43
0.0000001
 44
0.0000000001
 40
0.0
 40
0.0
 40
0.0
 40
0.0
 40
0.2287002768
 40
0.4717335328
 40
0.7290500932
 40
1.0
 40
1.0
 40
1.0
 40
1.0
 10
16.0737626198
 20
12.1462223544
 30
0.0
 10
16.0612705516
 20
12.1716632957
 30
0.0
 10
16.0320862066
 20
12.2225063045
 30
0.0
 10
15.9786549631
 20
12.2955518451
 30
0.0
 10
15.9148370705
 20
12.3668951656
 30
0.0
 10
15.8670081782
 20
12.4117277971
 30
0.0
 10
15.8416313727
 20
12.4337169643
 30
0.0
  0
SPLINE
  5
616
100
AcDbEntity
  8
0
100
AcDbSpline
 62
7
  6
CONTINUOUS
 70
0
 71
3
 72
12
 73
8
 74
0
 42
0.0000001
 43
0.0000001
 44
0.0000000001
 40
0.0
 40
0.0
 40
0.0
 40
0.0
 40
0.229743203
 40
0.3547417977
 40
0.4842211668
 40
0.7469745605
 40
1.0
 40
1.0
 40
1.0
 40
1.0
 10
13.6467509991
 20
11.7833001184
 30
0.0
 10
13.6498983922
 20
11.7934850861
 30
0.0
 10
13.6583042642
 20
11.8082084451
 30
0.0
 10
13.6737624605
 20
11.8245617017
 30
0.0
 10
13.6927385624
 20
11.8394024084
 30
0.0
 10
13.7200385537
 20
11.8526199422
 30
0.0
 10
13.7440536887
 20
11.8567370161
 30
0.0
 10
13.7557941851
 20
11.8567370161
 30
0.0
  0
SPLINE
  5
617
100
AcDbEntity
  8
0
100
AcDbSpline
 62
7
  6
CONTINUOUS
 70
0
 71
3
 72
10
 73
6
 74
0
 42
0.0000001
 43
0.0000001
 44
0.0000000001
 40
0.0
 40
0.0
 40
0.0
 40
0.0
 40
0.2350952608
 40
0.4788057311
 40
1.0
 40
1.0
 40
1.0
 40
1.0
 10
15.4814870664
 20
11.9084940351
 30
0.0
 10
15.4819579334
 20
11.9171960617
 30
0.0
 10
15.4815955515
 20
11.9350156673
 30
0.0
 10
15.4757345964
 20
11.971703715
 30
0.0
 10
15.4658087647
 20
11.9986323067
 30
0.0
 10
15.4573693608
 20
12.0160117647
 30
0.0
  0
SPLINE
  5
618
100
AcDbEntity
  8
0
100
AcDbSpline
 62
7
  6
CONTINUOUS
 70
0
 71
3
 72
9
 73
5
 74
0
 42
0.0000001
 43
0.0000001
 44
0.0000000001
 40
0.0
 40
0.0
 40
0.0
 40
0.0
 40
0.2639645187
 40
1.0
 40
1.0
 40
1.0
 40
1.0
 10
14.4937768021
 20
12.7281799838
 30
0.0
 10
14.4939389045
 20
12.7287045474
 30
0.0
 10
14.4944856005
 20
12.7307108194
 30
0.0
 10
14.4947545527
 20
12.7328017127
 30
0.0
 10
14.4947317302
 20
12.7343324773
 30
0.0
  0
SPLINE
  5
619
100
AcDbEntity
  8
0
100
AcDbSpline
 62
7
  6
CONTINUOUS
 70
0
 71
3
 72
27
 73
23
 74
0
 42
0.0000001
 43
0.0000001
 44
0.0000000001
 40
0.0
 40
0.0
 40
0.0
 40
0.0
 40
0.0543374353
 40
0.0835092186
 40
0.1139757842
 40
0.1785405392
 40
0.2473558004
 40
0.3194073339
 40
0.3934795514
 40
0.4682416152
 40
0.5423246469
 40
0.6143971555
 40
0.6832425451
 40
0.747843938
 40
0.8074830725
 40
0.8618614734
 40
0.8871690461
 40
0.9113199364
 40
0.9344608615
 40
0.9567879251
 40
0.978541959
 40
1.0
 40
1.0
 40
1.0
 40
1.0
 10
15.9391055488
 20
12.0268873951
 30
0.0
 10
15.9210024693
 20
12.0637775924
 30
0.0
 10
15.8872879601
 20
12.117701532
 30
0.0
 10
15.833236776
 20
12.1848900376
 30
0.0
 10
15.7690307193
 20
12.2535651575
 30
0.0
 10
15.6751958449
 20
12.3350456361
 30
0.0
 10
15.5465229832
 20
12.4226437335
 30
0.0
 10
15.4030401533
 20
12.4996233287
 30
0.0
 10
15.2485915348
 20
12.5639248176
 30
0.0
 10
15.0873061937
 20
12.6138317137
 30
0.0
 10
14.9235089912
 20
12.6480053199
 30
0.0
 10
14.7615826434
 20
12.6655299209
 30
0.0
 10
14.6058451696
 20
12.6659352732
 30
0.0
 10
14.4603953153
 20
12.649180907
 30
0.0
 10
14.3290702718
 20
12.6156644058
 30
0.0
 10
14.2318999481
 20
12.5733112991
 30
0.0
 10
14.1653233195
 20
12.5314259568
 30
0.0
 10
14.1221975272
 20
12.4972539101
 30
0.0
 10
14.0850055267
 20
12.4598000921
 30
0.0
 10
14.0540248269
 20
12.4193014243
 30
0.0
 10
14.0295090099
 20
12.3760462832
 30
0.0
 10
14.0175717205
 20
12.3454812255
 30
0.0
 10
14.0127799077
 20
12.3299771989
 30
0.0
  0
SPLINE
  5
61A
100
AcDbEntity
  8
0
100
AcDbSpline
 62
7
  6
CONTINUOUS
 70
0
 71
3
 72
27
 73
23
 74
0
 42
0.0000001
 43
0.0000001
 44
0.0000000001
 40
0.0
 40
0.0
 40
0.0
 40
0.0
 40
0.054223469
 40
0.0833231809
 40
0.1137084859
 40
0.1780886983
 40
0.246702288
 40
0.3185552304
 40
0.3924499523
 40
0.4670757036
 40
0.5410816463
 40
0.6131507734
 40
0.6820752208
 40
0.7468384847
 40
0.8067108949
 40
0.8613663131
 40
0.8868133984
 40
0.9110940763
 40
0.934346002
 40
0.9567543342
 40
0.9785496991
 40
1.0
 40
1.0
 40
1.0
 40
1.0
 10
15.9245664573
 20
12.0170958087
 30
0.0
 10
15.9067914377
 20
12.0533174904
 30
0.0
 10
15.8737266553
 20
12.1062735155
 30
0.0
 10
15.8207433455
 20
12.1722882678
 30
0.0
 10
15.7578386018
 20
12.2397676498
 30
0.0
 10
15.6659245353
 20
12.3198800905
 30
0.0
 10
15.5398746315
 20
12.4061102063
 30
0.0
 10
15.3992768626
 20
12.4820200791
 30
0.0
 10
15.2478551725
 20
12.5456010269
 30
0.0
 10
15.0896135527
 20
12.5951748373
 30
0.0
 10
14.9287475371
 20
12.6294266924
 30
0.0
 10
14.7695137504
 20
12.6474493608
 30
0.0
 10
14.6161120957
 20
12.6487651656
 30
0.0
 10
14.4725377262
 20
12.6333129466
 30
0.0
 10
14.3425387133
 20
12.6014568276
 30
0.0
 10
14.2459885322
 20
12.5608054276
 30
0.0
 10
14.1795013891
 20
12.520412714
 30
0.0
 10
14.1362555947
 20
12.4873797168
 30
0.0
 10
14.0987547525
 20
12.4511104802
 30
0.0
 10
14.0672790985
 20
12.4118241774
 30
0.0
 10
14.0420730665
 20
12.3698013927
 30
0.0
 10
14.0295358332
 20
12.3400235768
 30
0.0
 10
14.0244189265
 20
12.3249047062
 30
0.0
  0
SPLINE
  5
61B
100
AcDbEntity
  8
0
100
AcDbSpline
 62
7
  6
CONTINUOUS
 70
0
 71
3
 72
11
 73
7
 74
0
 42
0.0000001
 43
0.0000001
 44
0.0000000001
 40
0.0
 40
0.0
 40
0.0
 40
0.0
 40
0.2348293746
 40
0.4758534674
 40
0.7293578106
 40
1.0
 40
1.0
 40
1.0
 40
1.0
 10
14.0244189265
 20
12.3249047062
 30
0.0
 10
14.0167746494
 20
12.3023182408
 30
0.0
 10
14.0062415939
 20
12.2547096006
 30
0.0
 10
14.0058404937
 20
12.1801547795
 30
0.0
 10
14.020577018
 20
12.1034285941
 30
0.0
 10
14.0395392541
 20
12.0534149409
 30
0.0
 10
14.0511035688
 20
12.0284850687
 30
0.0
  0
SPLINE
  5
61C
100
AcDbEntity
  8
0
100
AcDbSpline
 62
7
  6
CONTINUOUS
 70
0
 71
3
 72
11
 73
7
 74
0
 42
0.0000001
 43
0.0000001
 44
0.0000000001
 40
0.0
 40
0.0
 40
0.0
 40
0.0
 40
0.2643566353
 40
0.517104783
 40
0.7609079362
 40
1.0
 40
1.0
 40
1.0
 40
1.0
 10
16.1751413708
 20
13.0611541385
 30
0.0
 10
16.1770403555
 20
13.0672992554
 30
0.0
 10
16.1798205076
 20
13.0796401464
 30
0.0
 10
16.1806611221
 20
13.0982373494
 30
0.0
 10
16.1780151455
 20
13.1160542192
 30
0.0
 10
16.1739298972
 20
13.1271752344
 30
0.0
 10
16.1713681178
 20
13.132397929
 30
0.0
  0
SPLINE
  5
61D
100
AcDbEntity
  8
0
100
AcDbSpline
 62
7
  6
CONTINUOUS
 70
0
 71
3
 72
9
 73
5
 74
0
 42
0.0000001
 43
0.0000001
 44
0.0000000001
 40
0.0
 40
0.0
 40
0.0
 40
0.0
 40
0.2565960278
 40
1.0
 40
1.0
 40
1.0
 40
1.0
 10
15.9908548983
 20
12.9267053652
 30
0.0
 10
15.9878456772
 20
12.9267053652
 30
0.0
 10
15.9761217676
 20
12.9270103399
 30
0.0
 10
15.9644177504
 20
12.9285510852
 30
0.0
 10
15.9559163178
 20
12.9304832936
 30
0.0
  0
SPLINE
  5
61E
100
AcDbEntity
  8
0
100
AcDbSpline
 62
7
  6
CONTINUOUS
 70
0
 71
3
 72
11
 73
7
 74
0
 42
0.0000001
 43
0.0000001
 44
0.0000000001
 40
0.0
 40
0.0
 40
0.0
 40
0.0
 40
0.2714883621
 40
0.5255377843
 40
0.766317422
 40
1.0
 40
1.0
 40
1.0
 40
1.0
 10
14.5208119362
 20
12.0170958087
 30
0.0
 10
14.5146443315
 20
12.0296640656
 30
0.0
 10
14.5044082486
 20
12.0548977069
 30
0.0
 10
14.4958947068
 20
12.0937046109
 30
0.0
 10
14.4950182883
 20
12.1315095353
 30
0.0
 10
14.4996421575
 20
12.1557622751
 30
0.0
 10
14.5031710267
 20
12.1672844567
 30
0.0
  0
SPLINE
  5
61F
100
AcDbEntity
  8
0
100
AcDbSpline
 62
7
  6
CONTINUOUS
 70
0
 71
3
 72
17
 73
13
 74
0
 42
0.0000001
 43
0.0000001
 44
0.0000000001
 40
0.0
 40
0.0
 40
0.0
 40
0.0
 40
0.0505067279
 40
0.1018431688
 40
0.1547453909
 40
0.2097731842
 40
0.3271393387
 40
0.4546727824
 40
0.5900481807
 40
0.7292268727
 40
0.8674010963
 40
1.0
 40
1.0
 40
1.0
 40
1.0
 10
16.1751815767
 20
13.1246280175
 30
0.0
 10
16.1775061751
 20
13.1198903147
 30
0.0
 10
16.1812961123
 20
13.1098678168
 30
0.0
 10
16.1841395961
 20
13.0938650447
 30
0.0
 10
16.1841183755
 20
13.0771402844
 30
0.0
 10
16.1802251648
 20
13.0538327613
 30
0.0
 10
16.1679742891
 20
13.0245032093
 30
0.0
 10
16.1438566843
 20
12.9925088138
 30
0.0
 10
16.1117773308
 20
12.9649227495
 30
0.0
 10
16.0739657503
 20
12.9436225677
 30
0.0
 10
16.0330677037
 20
12.9300505438
 30
0.0
 10
16.0047096923
 20
12.9267053652
 30
0.0
 10
15.9908548983
 20
12.9267053652
 30
0.0
  0
SPLINE
  5
620
100
AcDbEntity
  8
0
100
AcDbSpline
 62
7
  6
CONTINUOUS
 70
0
 71
3
 72
9
 73
5
 74
0
 42
0.0000001
 43
0.0000001
 44
0.0000000001
 40
0.0
 40
0.0
 40
0.0
 40
0.0
 40
0.4775888259
 40
1.0
 40
1.0
 40
1.0
 40
1.0
 10
14.5791522998
 20
13.2566466732
 30
0.0
 10
14.5783537003
 20
13.2540624041
 30
0.0
 10
14.576011609
 20
13.2488527414
 30
0.0
 10
14.5727657324
 20
13.244176156
 30
0.0
 10
14.5708903744
 20
13.2418877169
 30
0.0
  0
SPLINE
  5
621
100
AcDbEntity
  8
0
100
AcDbSpline
 62
7
  6
CONTINUOUS
 70
0
 71
3
 72
9
 73
5
 74
0
 42
0.0000001
 43
0.0000001
 44
0.0000000001
 40
0.0
 40
0.0
 40
0.0
 40
0.0
 40
0.5073207238
 40
1.0
 40
1.0
 40
1.0
 40
1.0
 10
15.4432934158
 20
11.8108202458
 30
0.0
 10
15.4498371132
 20
11.8181678569
 30
0.0
 10
15.4616879665
 20
11.8336303765
 30
0.0
 10
15.4708945997
 20
11.850815383
 30
0.0
 10
15.4746730079
 20
11.8595917058
 30
0.0
  0
SPLINE
  5
622
100
AcDbEntity
  8
0
100
AcDbSpline
 62
7
  6
CONTINUOUS
 70
0
 71
3
 72
9
 73
5
 74
0
 42
0.0000001
 43
0.0000001
 44
0.0000000001
 40
0.0
 40
0.0
 40
0.0
 40
0.0
 40
0.474779535
 40
1.0
 40
1.0
 40
1.0
 40
1.0
 10
16.2907626332
 20
11.3046547654
 30
0.0
 10
16.2911169137
 20
11.3057988713
 30
0.0
 10
16.2913005053
 20
11.3084021246
 30
0.0
 10
16.2904873916
 20
11.3108464838
 30
0.0
 10
16.2899036954
 20
11.3120359316
 30
0.0
  0
SPLINE
  5
623
100
AcDbEntity
  8
0
100
AcDbSpline
 62
7
  6
CONTINUOUS
 70
0
 71
3
 72
9
 73
5
 74
0
 42
0.0000001
 43
0.0000001
 44
0.0000000001
 40
0.0
 40
0.0
 40
0.0
 40
0.0
 40
0.5402886346
 40
1.0
 40
1.0
 40
1.0
 40
1.0
 10
14.8760615383
 20
11.3626175987
 30
0.0
 10
14.8716477647
 20
11.3626175987
 30
0.0
 10
14.8634478428
 20
11.3618342273
 30
0.0
 10
14.8556477926
 20
11.3588607604
 30
0.0
 10
14.8524948133
 20
11.3568205124
 30
0.0
  0
SPLINE
  5
624
100
AcDbEntity
  8
0
100
AcDbSpline
 62
7
  6
CONTINUOUS
 70
0
 71
3
 72
9
 73
5
 74
0
 42
0.0000001
 43
0.0000001
 44
0.0000000001
 40
0.0
 40
0.0
 40
0.0
 40
0.0
 40
0.5219298717
 40
1.0
 40
1.0
 40
1.0
 40
1.0
 10
14.8524948133
 20
11.3568205124
 30
0.0
 10
14.8505688863
 20
11.3555742725
 30
0.0
 10
14.8471556908
 20
11.3526747282
 30
0.0
 10
14.8449762219
 20
11.3487148684
 30
0.0
 10
14.844355803
 20
11.3467073509
 30
0.0
  0
SPLINE
  5
625
100
AcDbEntity
  8
0
100
AcDbSpline
 62
7
  6
CONTINUOUS
 70
0
 71
3
 72
11
 73
7
 74
0
 42
0.0000001
 43
0.0000001
 44
0.0000000001
 40
0.0
 40
0.0
 40
0.0
 40
0.0
 40
0.2476496821
 40
0.4889513196
 40
0.7357761618
 40
1.0
 40
1.0
 40
1.0
 40
1.0
 10
14.5722712587
 20
13.2776679575
 30
0.0
 10
14.5734193823
 20
13.2771693827
 30
0.0
 10
14.5755731387
 20
13.2758837416
 30
0.0
 10
14.5781241127
 20
13.2731045429
 30
0.0
 10
14.5797821091
 20
13.2696261952
 30
0.0
 10
14.5802475901
 20
13.2670552802
 30
0.0
 10
14.5803438522
 20
13.2657232779
 30
0.0
  0
SPLINE
  5
626
100
AcDbEntity
  8
0
100
AcDbSpline
 62
7
  6
CONTINUOUS
 70
0
 71
3
 72
9
 73
5
 74
0
 42
0.0000001
 43
0.0000001
 44
0.0000000001
 40
0.0
 40
0.0
 40
0.0
 40
0.0
 40
0.2337525369
 40
1.0
 40
1.0
 40
1.0
 40
1.0
 10
14.5803438522
 20
13.2657232779
 30
0.0
 10
14.5803954387
 20
13.2650094628
 30
0.0
 10
14.580439764
 20
13.2619431834
 30
0.0
 10
14.5798449527
 20
13.2588880987
 30
0.0
 10
14.5791522998
 20
13.2566466732
 30
0.0
  0
SPLINE
  5
627
100
AcDbEntity
  8
0
100
AcDbSpline
 62
7
  6
CONTINUOUS
 70
0
 71
3
 72
10
 73
6
 74
0
 42
0.0000001
 43
0.0000001
 44
0.0000000001
 40
0.0
 40
0.0
 40
0.0
 40
0.0
 40
0.5141379053
 40
0.76196684
 40
1.0
 40
1.0
 40
1.0
 40
1.0
 10
13.719584657
 20
11.6119473569
 30
0.0
 10
13.7152032532
 20
11.6119473569
 30
0.0
 10
13.7086927095
 20
11.612335118
 30
0.0
 10
13.7002963923
 20
11.6138155312
 30
0.0
 10
13.6963003195
 20
11.6149803227
 30
0.0
 10
13.6944252431
 20
11.6157541619
 30
0.0
  0
SPLINE
  5
628
100
AcDbEntity
  8
0
100
AcDbSpline
 62
7
  6
CONTINUOUS
 70
0
 71
3
 72
9
 73
5
 74
0
 42
0.0000001
 43
0.0000001
 44
0.0000000001
 40
0.0
 40
0.0
 40
0.0
 40
0.0
 40
0.25327144
 40
1.0
 40
1.0
 40
1.0
 40
1.0
 10
13.6944252431
 20
11.6157541619
 30
0.0
 10
13.6934416305
 20
11.6161910294
 30
0.0
 10
13.6896030794
 20
11.6180189488
 30
0.0
 10
13.6859205707
 20
11.6201492709
 30
0.0
 10
13.6831742881
 20
11.6217389432
 30
0.0
  0
LINE
  5
629
100
AcDbEntity
  8
0
100
AcDbLine
 62
7
  6
CONTINUOUS
 10
14.9358340527
 20
11.3323141127
 11
14.9344463743
 21
11.3348243574
  0
SPLINE
  5
62A
100
AcDbEntity
  8
0
100
AcDbSpline
 62
7
  6
CONTINUOUS
 70
0
 71
3
 72
9
 73
5
 74
0
 42
0.0000001
 43
0.0000001
 44
0.0000000001
 40
0.0
 40
0.0
 40
0.0
 40
0.0
 40
0.2380713799
 40
1.0
 40
1.0
 40
1.0
 40
1.0
 10
14.9344463743
 20
11.3348243574
 30
0.0
 10
14.9340814638
 20
11.3354179843
 30
0.0
 10
14.9324692581
 20
11.3378624141
 30
0.0
 10
14.9305672817
 20
11.3401101574
 30
0.0
 10
14.9290118295
 20
11.3417082609
 30
0.0
  0
SPLINE
  5
62B
100
AcDbEntity
  8
0
100
AcDbSpline
 62
7
  6
CONTINUOUS
 70
0
 71
3
 72
11
 73
7
 74
0
 42
0.0000001
 43
0.0000001
 44
0.0000000001
 40
0.0
 40
0.0
 40
0.0
 40
0.0
 40
0.2317317313
 40
0.4862602703
 40
0.7480306563
 40
1.0
 40
1.0
 40
1.0
 40
1.0
 10
14.9290118295
 20
11.3417082609
 30
0.0
 10
14.9258758855
 20
11.344930194
 30
0.0
 10
14.9183533615
 20
11.3507879518
 30
0.0
 10
14.9053021512
 20
11.3573036669
 30
0.0
 10
14.8909335179
 20
11.361537113
 30
0.0
 10
14.880950302
 20
11.3626175987
 30
0.0
 10
14.8760615383
 20
11.3626175987
 30
0.0
  0
SPLINE
  5
62C
100
AcDbEntity
  8
0
100
AcDbSpline
 62
7
  6
CONTINUOUS
 70
0
 71
3
 72
9
 73
5
 74
0
 42
0.0000001
 43
0.0000001
 44
0.0000000001
 40
0.0
 40
0.0
 40
0.0
 40
0.0
 40
0.4674989428
 40
1.0
 40
1.0
 40
1.0
 40
1.0
 10
16.1131492223
 20
13.2009933403
 30
0.0
 10
16.1171183535
 20
13.190261424
 30
0.0
 10
16.1259623481
 20
13.1674368174
 30
0.0
 10
16.1351237508
 20
13.1447402702
 30
0.0
 10
16.1400455275
 20
13.1326719478
 30
0.0
  0
SPLINE
  5
62D
100
AcDbEntity
  8
0
100
AcDbSpline
 62
7
  6
CONTINUOUS
 70
0
 71
3
 72
9
 73
5
 74
0
 42
0.0000001
 43
0.0000001
 44
0.0000000001
 40
0.0
 40
0.0
 40
0.0
 40
0.0
 40
0.2862220654
 40
1.0
 40
1.0
 40
1.0
 40
1.0
 10
14.554080481
 20
13.2771281961
 30
0.0
 10
14.5557377353
 20
13.2777097978
 30
0.0
 10
14.5616031318
 20
13.2793753217
 30
0.0
 10
14.5682537492
 20
13.2794125685
 30
0.0
 10
14.5722712587
 20
13.2776679575
 30
0.0
  0
SPLINE
  5
62E
100
AcDbEntity
  8
0
100
AcDbSpline
 62
7
  6
CONTINUOUS
 70
0
 71
3
 72
9
 73
5
 74
0
 42
0.0000001
 43
0.0000001
 44
0.0000000001
 40
0.0
 40
0.0
 40
0.0
 40
0.0
 40
0.404457514
 40
1.0
 40
1.0
 40
1.0
 40
1.0
 10
16.099471116
 20
13.2423788757
 30
0.0
 10
16.1009907304
 20
13.2367008108
 30
0.0
 10
16.1052597729
 20
13.2228002501
 30
0.0
 10
16.1101470142
 20
13.2091108463
 30
0.0
 10
16.1131492223
 20
13.2009933403
 30
0.0
  0
SPLINE
  5
62F
100
AcDbEntity
  8
0
100
AcDbSpline
 62
7
  6
CONTINUOUS
 70
0
 71
3
 72
10
 73
6
 74
0
 42
0.0000001
 43
0.0000001
 44
0.0000000001
 40
0.0
 40
0.0
 40
0.0
 40
0.0
 40
0.2368776943
 40
0.4806109124
 40
1.0
 40
1.0
 40
1.0
 40
1.0
 10
14.5141060096
 20
12.1645413209
 30
0.0
 10
14.5125455634
 20
12.1557826322
 30
0.0
 10
14.5108126252
 20
12.1377236637
 30
0.0
 10
14.5129741967
 20
12.1001205857
 30
0.0
 10
14.5209056522
 20
12.072121785
 30
0.0
 10
14.5282686114
 20
12.0540576101
 30
0.0
  0
SPLINE
  5
630
100
AcDbEntity
  8
0
100
AcDbSpline
 62
7
  6
CONTINUOUS
 70
0
 71
3
 72
11
 73
7
 74
0
 42
0.0000001
 43
0.0000001
 44
0.0000000001
 40
0.0
 40
0.0
 40
0.0
 40
0.0
 40
0.2778960494
 40
0.534982836
 40
0.7731369267
 40
1.0
 40
1.0
 40
1.0
 40
1.0
 10
17.1239721108
 20
12.3707953006
 30
0.0
 10
17.1307227324
 20
12.3707953006
 30
0.0
 10
17.1437756041
 20
12.3695006138
 30
0.0
 10
17.1616999379
 20
12.3632403855
 30
0.0
 10
17.1762223114
 20
12.3529461491
 30
0.0
 10
17.1830123632
 20
12.3436063489
 30
0.0
 10
17.1854395599
 20
12.3386587122
 30
0.0
  0
SPLINE
  5
631
100
AcDbEntity
  8
0
100
AcDbSpline
 62
7
  6
CONTINUOUS
 70
0
 71
3
 72
11
 73
7
 74
0
 42
0.0000001
 43
0.0000001
 44
0.0000000001
 40
0.0
 40
0.0
 40
0.0
 40
0.0
 40
0.2778960494
 40
0.534982836
 40
0.7731369267
 40
1.0
 40
1.0
 40
1.0
 40
1.0
 10
16.9651160861
 20
11.8567370161
 30
0.0
 10
16.9718667076
 20
11.8567370161
 30
0.0
 10
16.9849195794
 20
11.8554423294
 30
0.0
 10
17.0028439132
 20
11.8491821011
 30
0.0
 10
17.0173662866
 20
11.8388878647
 30
0.0
 10
17.0241563385
 20
11.8295480644
 30
0.0
 10
17.0265835352
 20
11.8246004278
 30
0.0
  0
SPLINE
  5
632
100
AcDbEntity
  8
0
100
AcDbSpline
 62
7
  6
CONTINUOUS
 70
0
 71
3
 72
11
 73
7
 74
0
 42
0.0000001
 43
0.0000001
 44
0.0000000001
 40
0.0
 40
0.0
 40
0.0
 40
0.0
 40
0.2694884826
 40
0.5262206946
 40
0.7692104491
 40
1.0
 40
1.0
 40
1.0
 40
1.0
 10
13.9356889105
 20
11.8567370161
 30
0.0
 10
13.940273558
 20
11.8567370161
 30
0.0
 10
13.9492410324
 20
11.8561257027
 30
0.0
 10
13.96206877
 20
11.8532736414
 30
0.0
 10
13.9736288208
 20
11.8485429099
 30
0.0
 10
13.9804354476
 20
11.8441092537
 30
0.0
 10
13.9834795666
 20
11.8416295244
 30
0.0
  0
LINE
  5
633
100
AcDbEntity
  8
0
100
AcDbLine
 62
7
  6
CONTINUOUS
 10
17.1399536172
 20
12.4649043592
 11
17.143736267
 21
12.4630823679
  0
LINE
  5
634
100
AcDbEntity
  8
0
100
AcDbLine
 62
7
  6
CONTINUOUS
 10
17.143736267
 20
12.4630823679
 11
17.1474681038
 21
12.4610618519
  0
LINE
  5
635
100
AcDbEntity
  8
0
100
AcDbLine
 62
7
  6
CONTINUOUS
 10
17.1474681038
 20
12.4610618519
 11
17.1512045722
 21
12.4589195779
  0
SPLINE
  5
636
100
AcDbEntity
  8
0
100
AcDbSpline
 62
7
  6
CONTINUOUS
 70
0
 71
3
 72
10
 73
6
 74
0
 42
0.0000001
 43
0.0000001
 44
0.0000000001
 40
0.0
 40
0.0
 40
0.0
 40
0.0
 40
0.2569696751
 40
0.5092324655
 40
1.0
 40
1.0
 40
1.0
 40
1.0
 10
16.8775463594
 20
11.6157541619
 30
0.0
 10
16.8752790452
 20
11.6150086118
 30
0.0
 10
16.8706789798
 20
11.613853604
 30
0.0
 10
16.8615048534
 20
11.6123798208
 30
0.0
 10
16.8545924342
 20
11.6119473569
 30
0.0
 10
16.8500341621
 20
11.6119473569
 30
0.0
  0
SPLINE
  5
637
100
AcDbEntity
  8
0
100
AcDbSpline
 62
7
  6
CONTINUOUS
 70
0
 71
3
 72
9
 73
5
 74
0
 42
0.0000001
 43
0.0000001
 44
0.0000000001
 40
0.0
 40
0.0
 40
0.0
 40
0.0
 40
0.2426882029
 40
1.0
 40
1.0
 40
1.0
 40
1.0
 10
17.0004174249
 20
11.9709721905
 30
0.0
 10
16.9994349762
 20
11.9709721905
 30
0.0
 10
16.9953872209
 20
11.9710888434
 30
0.0
 10
16.9913555353
 20
11.9716474193
 30
0.0
 10
16.988356335
 20
11.9722827044
 30
0.0
  0
SPLINE
  5
638
100
AcDbEntity
  8
0
100
AcDbSpline
 62
7
  6
CONTINUOUS
 70
0
 71
3
 72
9
 73
5
 74
0
 42
0.0000001
 43
0.0000001
 44
0.0000000001
 40
0.0
 40
0.0
 40
0.0
 40
0.0
 40
0.490420973
 40
1.0
 40
1.0
 40
1.0
 40
1.0
 10
13.924222428
 20
12.6420496086
 30
0.0
 10
13.9367220898
 20
12.6420496086
 30
0.0
 10
13.9622233823
 20
12.6395184835
 30
0.0
 10
13.9870708732
 20
12.6336669136
 30
0.0
 10
13.9995880669
 20
12.6302018259
 30
0.0
  0
SPLINE
  5
639
100
AcDbEntity
  8
0
100
AcDbSpline
 62
7
  6
CONTINUOUS
 70
0
 71
3
 72
9
 73
5
 74
0
 42
0.0000001
 43
0.0000001
 44
0.0000000001
 40
0.0
 40
0.0
 40
0.0
 40
0.0
 40
0.5789013978
 40
1.0
 40
1.0
 40
1.0
 40
1.0
 10
14.0828465137
 20
12.8174816953
 30
0.0
 10
14.080778967
 20
12.8233074125
 30
0.0
 10
14.0773267908
 20
12.8334145246
 30
0.0
 10
14.0742744736
 20
12.8436517594
 30
0.0
 10
14.0731119534
 20
12.8479955358
 30
0.0
  0
SPLINE
  5
63A
100
AcDbEntity
  8
0
100
AcDbSpline
 62
7
  6
CONTINUOUS
 70
0
 71
3
 72
9
 73
5
 74
0
 42
0.0000001
 43
0.0000001
 44
0.0000000001
 40
0.0
 40
0.0
 40
0.0
 40
0.0
 40
0.2565981197
 40
1.0
 40
1.0
 40
1.0
 40
1.0
 10
15.8689812285
 20
12.5323220253
 30
0.0
 10
15.865971219
 20
12.5323220253
 30
0.0
 10
15.8542443358
 20
12.5326271571
 30
0.0
 10
15.8425373556
 20
12.5341687016
 30
0.0
 10
15.8340339127
 20
12.5361019394
 30
0.0
  0
SPLINE
  5
63B
100
AcDbEntity
  8
0
100
AcDbSpline
 62
7
  6
CONTINUOUS
 70
0
 71
3
 72
10
 73
6
 74
0
 42
0.0000001
 43
0.0000001
 44
0.0000000001
 40
0.0
 40
0.0
 40
0.0
 40
0.0
 40
0.4713804725
 40
0.7278942949
 40
1.0
 40
1.0
 40
1.0
 40
1.0
 10
13.8563551111
 20
12.62858168
 30
0.0
 10
13.8664903096
 20
12.6326804517
 30
0.0
 10
13.8826966614
 20
12.6378056771
 30
0.0
 10
13.9056385748
 20
12.6414334554
 30
0.0
 10
13.9179115424
 20
12.6420496086
 30
0.0
 10
13.924222428
 20
12.6420496086
 30
0.0
  0
SPLINE
  5
63C
100
AcDbEntity
  8
0
100
AcDbSpline
 62
7
  6
CONTINUOUS
 70
0
 71
3
 72
9
 73
5
 74
0
 42
0.0000001
 43
0.0000001
 44
0.0000000001
 40
0.0
 40
0.0
 40
0.0
 40
0.0
 40
0.4899763461
 40
1.0
 40
1.0
 40
1.0
 40
1.0
 10
13.924222428
 20
12.6420496086
 30
0.0
 10
13.9403017344
 20
12.6420496086
 30
0.0
 10
13.9732126616
 20
12.6472235551
 30
0.0
 10
14.00357292
 20
12.6606962067
 30
0.0
 10
14.0178762084
 20
12.6693881239
 30
0.0
  0
SPLINE
  5
63D
100
AcDbEntity
  8
0
100
AcDbSpline
 62
7
  6
CONTINUOUS
 70
0
 71
3
 72
13
 73
9
 74
0
 42
0.0000001
 43
0.0000001
 44
0.0000000001
 40
0.0
 40
0.0
 40
0.0
 40
0.0
 40
0.1134862894
 40
0.227842983
 40
0.344602034
 40
0.4652563183
 40
0.721293789
 40
1.0
 40
1.0
 40
1.0
 40
1.0
 10
13.829458806
 20
12.6969030725
 30
0.0
 10
13.8309865892
 20
12.6927721832
 30
0.0
 10
13.8348170679
 20
12.6847385572
 30
0.0
 10
13.8426987581
 20
12.6738490922
 30
0.0
 10
13.852575632
 20
12.664323857
 30
0.0
 10
13.8684403963
 20
12.6534602143
 30
0.0
 10
13.8925524774
 20
12.6442522727
 30
0.0
 10
13.9134059506
 20
12.6420496086
 30
0.0
 10
13.924222428
 20
12.6420496086
 30
0.0
  0
SPLINE
  5
63E
100
AcDbEntity
  8
0
100
AcDbSpline
 62
7
  6
CONTINUOUS
 70
0
 71
3
 72
12
 73
8
 74
0
 42
0.0000001
 43
0.0000001
 44
0.0000000001
 40
0.0
 40
0.0
 40
0.0
 40
0.0
 40
0.279915554
 40
0.5389435661
 40
0.7767115851
 40
0.8896824574
 40
1.0
 40
1.0
 40
1.0
 40
1.0
 10
13.8633608108
 20
12.8066100004
 30
0.0
 10
13.8554377763
 20
12.798589845
 30
0.0
 10
13.8416638767
 20
12.7815491967
 30
0.0
 10
13.8280448343
 20
12.7530400152
 30
0.0
 10
13.8239307938
 20
12.7283869456
 30
0.0
 10
13.825567245
 20
12.7098104184
 30
0.0
 10
13.8279175848
 20
12.7010702959
 30
0.0
 10
13.829458806
 20
12.6969030725
 30
0.0
  0
SPLINE
  5
63F
100
AcDbEntity
  8
0
100
AcDbSpline
 62
7
  6
CONTINUOUS
 70
0
 71
3
 72
11
 73
7
 74
0
 42
0.0000001
 43
0.0000001
 44
0.0000000001
 40
0.0
 40
0.0
 40
0.0
 40
0.0
 40
0.2427017075
 40
0.4955310213
 40
0.7506985425
 40
1.0
 40
1.0
 40
1.0
 40
1.0
 10
13.9920264377
 20
12.8614634643
 30
0.0
 10
13.9804445561
 20
12.8614634643
 30
0.0
 10
13.9567456893
 20
12.8587643427
 30
0.0
 10
13.922437739
 20
12.8477629153
 30
0.0
 10
13.8904868166
 20
12.8304494813
 30
0.0
 10
13.8717217367
 20
12.8150734148
 30
0.0
 10
13.8633608108
 20
12.8066100004
 30
0.0
  0
SPLINE
  5
640
100
AcDbEntity
  8
0
100
AcDbSpline
 62
7
  6
CONTINUOUS
 70
0
 71
3
 72
9
 73
5
 74
0
 42
0.0000001
 43
0.0000001
 44
0.0000000001
 40
0.0
 40
0.0
 40
0.0
 40
0.0
 40
0.4946877072
 40
1.0
 40
1.0
 40
1.0
 40
1.0
 10
14.0828971414
 20
12.815332912
 30
0.0
 10
14.0805672747
 20
12.8197519878
 30
0.0
 10
14.0749214422
 20
12.8282209704
 30
0.0
 10
14.0676975662
 20
12.8353798262
 30
0.0
 10
14.063757099
 20
12.8386221617
 30
0.0
  0
SPLINE
  5
641
100
AcDbEntity
  8
0
100
AcDbSpline
 62
7
  6
CONTINUOUS
 70
0
 71
3
 72
11
 73
7
 74
0
 42
0.0000001
 43
0.0000001
 44
0.0000000001
 40
0.0
 40
0.0
 40
0.0
 40
0.0
 40
0.2307439998
 40
0.473651612
 40
0.7301995559
 40
1.0
 40
1.0
 40
1.0
 40
1.0
 10
14.063757099
 20
12.8386221617
 30
0.0
 10
14.0592030983
 20
12.842369331
 30
0.0
 10
14.0490058519
 20
12.8490708552
 30
0.0
 10
14.0316645787
 20
12.8562223497
 30
0.0
 10
14.0123987594
 20
12.8605455157
 30
0.0
 10
13.9989221365
 20
12.8614634643
 30
0.0
 10
13.9920264377
 20
12.8614634643
 30
0.0
  0
SPLINE
  5
642
100
AcDbEntity
  8
0
100
AcDbSpline
 62
7
  6
CONTINUOUS
 70
0
 71
3
 72
10
 73
6
 74
0
 42
0.0000001
 43
0.0000001
 44
0.0000000001
 40
0.0
 40
0.0
 40
0.0
 40
0.0
 40
0.2526320481
 40
0.6305444393
 40
1.0
 40
1.0
 40
1.0
 40
1.0
 10
15.9097934365
 20
12.62858168
 30
0.0
 10
15.913054576
 20
12.6348135041
 30
0.0
 10
15.9215344285
 20
12.6501920835
 30
0.0
 10
15.9366995
 20
12.6735939151
 30
0.0
 10
15.9501446698
 20
12.6895855827
 30
0.0
 10
15.9573735477
 20
12.6969030725
 30
0.0
  0
SPLINE
  5
643
100
AcDbEntity
  8
0
100
AcDbSpline
 62
7
  6
CONTINUOUS
 70
0
 71
3
 72
9
 73
5
 74
0
 42
0.0000001
 43
0.0000001
 44
0.0000000001
 40
0.0
 40
0.0
 40
0.0
 40
0.0
 40
0.4905053176
 40
1.0
 40
1.0
 40
1.0
 40
1.0
 10
15.8287079208
 20
12.6420496086
 30
0.0
 10
15.8421799219
 20
12.6420496086
 30
0.0
 10
15.8696576132
 20
12.6391086342
 30
0.0
 10
15.8963518327
 20
12.6324730621
 30
0.0
 10
15.9097934365
 20
12.62858168
 30
0.0
  0
SPLINE
  5
644
100
AcDbEntity
  8
0
100
AcDbSpline
 62
7
  6
CONTINUOUS
 70
0
 71
3
 72
9
 73
5
 74
0
 42
0.0000001
 43
0.0000001
 44
0.0000000001
 40
0.0
 40
0.0
 40
0.0
 40
0.0
 40
0.5324776843
 40
1.0
 40
1.0
 40
1.0
 40
1.0
 10
16.0181718577
 20
12.7382886079
 30
0.0
 10
16.0132502972
 20
12.7503564002
 30
0.0
 10
16.0040891303
 20
12.7730530402
 30
0.0
 10
15.9952448821
 20
12.7958775478
 30
0.0
 10
15.9912755526
 20
12.8066100004
 30
0.0
  0
SPLINE
  5
645
100
AcDbEntity
  8
0
100
AcDbSpline
 62
7
  6
CONTINUOUS
 70
0
 71
3
 72
10
 73
6
 74
0
 42
0.0000001
 43
0.0000001
 44
0.0000000001
 40
0.0
 40
0.0
 40
0.0
 40
0.0
 40
0.2670108325
 40
0.5223319116
 40
1.0
 40
1.0
 40
1.0
 40
1.0
 10
15.9573735477
 20
12.6969030725
 30
0.0
 10
15.9619979982
 20
12.7015842096
 30
0.0
 10
15.9715250334
 20
12.710284454
 30
0.0
 10
15.9913967124
 20
12.7249188978
 30
0.0
 10
16.0074242795
 20
12.733486597
 30
0.0
 10
16.0181718577
 20
12.7382886079
 30
0.0
  0
SPLINE
  5
646
100
AcDbEntity
  8
0
100
AcDbSpline
 62
7
  6
CONTINUOUS
 70
0
 71
3
 72
9
 73
5
 74
0
 42
0.0000001
 43
0.0000001
 44
0.0000000001
 40
0.0
 40
0.0
 40
0.0
 40
0.0
 40
0.5955990209
 40
1.0
 40
1.0
 40
1.0
 40
1.0
 10
15.9912755526
 20
12.8066100004
 30
0.0
 10
15.9882730588
 20
12.8147282788
 30
0.0
 10
15.9833854136
 20
12.828417554
 30
0.0
 10
15.9791168486
 20
12.8423182633
 30
0.0
 10
15.9775974462
 20
12.8479955358
 30
0.0
  0
SPLINE
  5
647
100
AcDbEntity
  8
0
100
AcDbSpline
 62
7
  6
CONTINUOUS
 70
0
 71
3
 72
17
 73
13
 74
0
 42
0.0000001
 43
0.0000001
 44
0.0000000001
 40
0.0
 40
0.0
 40
0.0
 40
0.0
 40
0.0505067279
 40
0.1018431688
 40
0.1547453909
 40
0.2097731842
 40
0.3271393387
 40
0.4546727824
 40
0.5900481807
 40
0.7292268727
 40
0.8674010963
 40
1.0
 40
1.0
 40
1.0
 40
1.0
 10
16.0533079069
 20
12.7302446776
 30
0.0
 10
16.0556325054
 20
12.7255069748
 30
0.0
 10
16.0594224426
 20
12.7154844769
 30
0.0
 10
16.0622659263
 20
12.6994817047
 30
0.0
 10
16.0622447057
 20
12.6827569445
 30
0.0
 10
16.0583514951
 20
12.6594494214
 30
0.0
 10
16.0461006193
 20
12.6301198694
 30
0.0
 10
16.0219830146
 20
12.5981254739
 30
0.0
 10
15.989903661
 20
12.5705394096
 30
0.0
 10
15.9520920805
 20
12.5492392278
 30
0.0
 10
15.911194034
 20
12.5356672039
 30
0.0
 10
15.8828360225
 20
12.5323220253
 30
0.0
 10
15.8689812285
 20
12.5323220253
 30
0.0
  0
SPLINE
  5
648
100
AcDbEntity
  8
0
100
AcDbSpline
 62
7
  6
CONTINUOUS
 70
0
 71
3
 72
10
 73
6
 74
0
 42
0.0000001
 43
0.0000001
 44
0.0000000001
 40
0.0
 40
0.0
 40
0.0
 40
0.0
 40
0.4713804725
 40
0.7278942949
 40
1.0
 40
1.0
 40
1.0
 40
1.0
 10
15.7608406039
 20
12.62858168
 30
0.0
 10
15.7709758024
 20
12.6326804517
 30
0.0
 10
15.7871821542
 20
12.6378056771
 30
0.0
 10
15.8101240676
 20
12.6414334554
 30
0.0
 10
15.8223970353
 20
12.6420496086
 30
0.0
 10
15.8287079208
 20
12.6420496086
 30
0.0
  0
SPLINE
  5
649
100
AcDbEntity
  8
0
100
AcDbSpline
 62
7
  6
CONTINUOUS
 70
0
 71
3
 72
11
 73
7
 74
0
 42
0.0000001
 43
0.0000001
 44
0.0000000001
 40
0.0
 40
0.0
 40
0.0
 40
0.0
 40
0.2427017075
 40
0.4955310213
 40
0.7506985425
 40
1.0
 40
1.0
 40
1.0
 40
1.0
 10
15.8287079208
 20
12.6420496086
 30
0.0
 10
15.8402898024
 20
12.6420496086
 30
0.0
 10
15.8639886693
 20
12.6447487302
 30
0.0
 10
15.8982966196
 20
12.6557501575
 30
0.0
 10
15.930247542
 20
12.6730635916
 30
0.0
 10
15.9490126218
 20
12.688439658
 30
0.0
 10
15.9573735477
 20
12.6969030725
 30
0.0
  0
SPLINE
  5
64A
100
AcDbEntity
  8
0
100
AcDbSpline
 62
7
  6
CONTINUOUS
 70
0
 71
3
 72
13
 73
9
 74
0
 42
0.0000001
 43
0.0000001
 44
0.0000000001
 40
0.0
 40
0.0
 40
0.0
 40
0.0
 40
0.1134862894
 40
0.227842983
 40
0.344602034
 40
0.4652563183
 40
0.721293789
 40
1.0
 40
1.0
 40
1.0
 40
1.0
 10
15.7339442988
 20
12.6969030725
 30
0.0
 10
15.735472082
 20
12.6927721832
 30
0.0
 10
15.7393025607
 20
12.6847385572
 30
0.0
 10
15.7471842509
 20
12.6738490922
 30
0.0
 10
15.7570611248
 20
12.664323857
 30
0.0
 10
15.7729258891
 20
12.6534602143
 30
0.0
 10
15.7970379702
 20
12.6442522727
 30
0.0
 10
15.8178914435
 20
12.6420496086
 30
0.0
 10
15.8287079208
 20
12.6420496086
 30
0.0
  0
SPLINE
  5
64B
100
AcDbEntity
  8
0
100
AcDbSpline
 62
7
  6
CONTINUOUS
 70
0
 71
3
 72
12
 73
8
 74
0
 42
0.0000001
 43
0.0000001
 44
0.0000000001
 40
0.0
 40
0.0
 40
0.0
 40
0.0
 40
0.279915554
 40
0.5389435661
 40
0.7767115851
 40
0.8896824574
 40
1.0
 40
1.0
 40
1.0
 40
1.0
 10
15.7678463036
 20
12.8066100004
 30
0.0
 10
15.7599232691
 20
12.798589845
 30
0.0
 10
15.7461493695
 20
12.7815491967
 30
0.0
 10
15.7325303271
 20
12.7530400152
 30
0.0
 10
15.7284162866
 20
12.7283869456
 30
0.0
 10
15.7300527378
 20
12.7098104184
 30
0.0
 10
15.7324030776
 20
12.7010702959
 30
0.0
 10
15.7339442988
 20
12.6969030725
 30
0.0
  0
SPLINE
  5
64C
100
AcDbEntity
  8
0
100
AcDbSpline
 62
7
  6
CONTINUOUS
 70
0
 71
3
 72
11
 73
7
 74
0
 42
0.0000001
 43
0.0000001
 44
0.0000000001
 40
0.0
 40
0.0
 40
0.0
 40
0.0
 40
0.2427017075
 40
0.4955310213
 40
0.7506985425
 40
1.0
 40
1.0
 40
1.0
 40
1.0
 10
15.8965119305
 20
12.8614634643
 30
0.0
 10
15.8849300489
 20
12.8614634643
 30
0.0
 10
15.8612311821
 20
12.8587643427
 30
0.0
 10
15.8269232318
 20
12.8477629153
 30
0.0
 10
15.7949723094
 20
12.8304494813
 30
0.0
 10
15.7762072296
 20
12.8150734148
 30
0.0
 10
15.7678463036
 20
12.8066100004
 30
0.0
  0
SPLINE
  5
64D
100
AcDbEntity
  8
0
100
AcDbSpline
 62
7
  6
CONTINUOUS
 70
0
 71
3
 72
9
 73
5
 74
0
 42
0.0000001
 43
0.0000001
 44
0.0000000001
 40
0.0
 40
0.0
 40
0.0
 40
0.0
 40
0.4947268558
 40
1.0
 40
1.0
 40
1.0
 40
1.0
 10
15.9912755526
 20
12.8066100004
 30
0.0
 10
15.9889994959
 20
12.8127641054
 30
0.0
 10
15.9826758655
 20
12.8246339685
 30
0.0
 10
15.9734173698
 20
12.834364198
 30
0.0
 10
15.9682425918
 20
12.8386221617
 30
0.0
  0
SPLINE
  5
64E
100
AcDbEntity
  8
0
100
AcDbSpline
 62
7
  6
CONTINUOUS
 70
0
 71
3
 72
11
 73
7
 74
0
 42
0.0000001
 43
0.0000001
 44
0.0000000001
 40
0.0
 40
0.0
 40
0.0
 40
0.0
 40
0.2307439998
 40
0.473651612
 40
0.7301995559
 40
1.0
 40
1.0
 40
1.0
 40
1.0
 10
15.9682425918
 20
12.8386221617
 30
0.0
 10
15.9636885911
 20
12.842369331
 30
0.0
 10
15.9534913447
 20
12.8490708552
 30
0.0
 10
15.9361500715
 20
12.8562223497
 30
0.0
 10
15.9168842522
 20
12.8605455157
 30
0.0
 10
15.9034076293
 20
12.8614634643
 30
0.0
 10
15.8965119305
 20
12.8614634643
 30
0.0
  0
SPLINE
  5
64F
100
AcDbEntity
  8
0
100
AcDbSpline
 62
7
  6
CONTINUOUS
 70
0
 71
3
 72
12
 73
8
 74
0
 42
0.0000001
 43
0.0000001
 44
0.0000000001
 40
0.0
 40
0.0
 40
0.0
 40
0.0
 40
0.279915554
 40
0.5389435661
 40
0.7767115851
 40
0.8896824574
 40
1.0
 40
1.0
 40
1.0
 40
1.0
 10
15.9573735477
 20
12.6969030725
 30
0.0
 10
15.9652965822
 20
12.7049232278
 30
0.0
 10
15.9790704819
 20
12.7219638762
 30
0.0
 10
15.9926895243
 20
12.7504730577
 30
0.0
 10
15.9968035647
 20
12.7751261273
 30
0.0
 10
15.9951671135
 20
12.7937026545
 30
0.0
 10
15.9928167737
 20
12.8024427769
 30
0.0
 10
15.9912755526
 20
12.8066100004
 30
0.0
  0
SPLINE
  5
650
100
AcDbEntity
  8
0
100
AcDbSpline
 62
7
  6
CONTINUOUS
 70
0
 71
3
 72
9
 73
5
 74
0
 42
0.0000001
 43
0.0000001
 44
0.0000000001
 40
0.0
 40
0.0
 40
0.0
 40
0.0
 40
0.2420500377
 40
1.0
 40
1.0
 40
1.0
 40
1.0
 10
15.8651682051
 20
12.5400921499
 30
0.0
 10
15.8717697489
 20
12.5400921499
 30
0.0
 10
15.8990330767
 20
12.541631256
 30
0.0
 10
15.9258733564
 20
12.5489568938
 30
0.0
 10
15.9448892799
 20
12.5570638707
 30
0.0
  0
SPLINE
  5
651
100
AcDbEntity
  8
0
100
AcDbSpline
 62
7
  6
CONTINUOUS
 70
0
 71
3
 72
9
 73
5
 74
0
 42
0.0000001
 43
0.0000001
 44
0.0000000001
 40
0.0
 40
0.0
 40
0.0
 40
0.0
 40
0.241470727
 40
1.0
 40
1.0
 40
1.0
 40
1.0
 10
15.8223882752
 20
12.5458968376
 30
0.0
 10
15.8257314522
 20
12.5449249798
 30
0.0
 10
15.839732903
 20
12.5414450043
 30
0.0
 10
15.8542315839
 20
12.5400921499
 30
0.0
 10
15.8651682051
 20
12.5400921499
 30
0.0
  0
SPLINE
  5
652
100
AcDbEntity
  8
0
100
AcDbSpline
 62
7
  6
CONTINUOUS
 70
0
 71
3
 72
9
 73
5
 74
0
 42
0.0000001
 43
0.0000001
 44
0.0000000001
 40
0.0
 40
0.0
 40
0.0
 40
0.0
 40
0.2451355324
 40
1.0
 40
1.0
 40
1.0
 40
1.0
 10
14.4515546846
 20
12.70486863
 30
0.0
 10
14.4517612015
 20
12.7046821349
 30
0.0
 10
14.452636401
 20
12.7039579561
 30
0.0
 10
14.4536366601
 20
12.7033887111
 30
0.0
 10
14.454424771
 20
12.7030523894
 30
0.0
  0
LINE
  5
653
100
AcDbEntity
  8
0
100
AcDbLine
 62
7
  6
CONTINUOUS
 10
14.454424771
 20
12.7030523894
 11
14.4570363216
 21
12.7022657624
  0
SPLINE
  5
654
100
AcDbEntity
  8
0
100
AcDbSpline
 62
7
  6
CONTINUOUS
 70
0
 71
3
 72
9
 73
5
 74
0
 42
0.0000001
 43
0.0000001
 44
0.0000000001
 40
0.0
 40
0.0
 40
0.0
 40
0.0
 40
0.486153882
 40
1.0
 40
1.0
 40
1.0
 40
1.0
 10
14.4686085365
 20
12.7035242076
 30
0.0
 10
14.4714505809
 20
12.7045079188
 30
0.0
 10
14.4770390682
 20
12.7073016288
 30
0.0
 10
14.4819247843
 20
12.7111714845
 30
0.0
 10
14.4842013208
 20
12.7133900567
 30
0.0
  0
SPLINE
  5
655
100
AcDbEntity
  8
0
100
AcDbSpline
 62
7
  6
CONTINUOUS
 70
0
 71
3
 72
9
 73
5
 74
0
 42
0.0000001
 43
0.0000001
 44
0.0000000001
 40
0.0
 40
0.0
 40
0.0
 40
0.0
 40
0.2627924927
 40
1.0
 40
1.0
 40
1.0
 40
1.0
 10
14.490133374
 20
12.7205726617
 30
0.0
 10
14.4905356458
 20
12.7211939019
 30
0.0
 10
14.4919935798
 20
12.7236028975
 30
0.0
 10
14.4931638045
 20
12.7261963227
 30
0.0
 10
14.4937768021
 20
12.7281799838
 30
0.0
  0
SPLINE
  5
656
100
AcDbEntity
  8
0
100
AcDbSpline
 62
7
  6
CONTINUOUS
 70
0
 71
3
 72
11
 73
7
 74
0
 42
0.0000001
 43
0.0000001
 44
0.0000000001
 40
0.0
 40
0.0
 40
0.0
 40
0.0
 40
0.2643566353
 40
0.517104783
 40
0.7609079362
 40
1.0
 40
1.0
 40
1.0
 40
1.0
 10
16.053267701
 20
12.6667707986
 30
0.0
 10
16.0551666858
 20
12.6729159155
 30
0.0
 10
16.0579468378
 20
12.6852568065
 30
0.0
 10
16.0587874523
 20
12.7038540095
 30
0.0
 10
16.0561414757
 20
12.7216708793
 30
0.0
 10
16.0520562274
 20
12.7327918945
 30
0.0
 10
16.049494448
 20
12.7380145891
 30
0.0
  0
SPLINE
  5
657
100
AcDbEntity
  8
0
100
AcDbSpline
 62
7
  6
CONTINUOUS
 70
0
 71
3
 72
12
 73
8
 74
0
 42
0.0000001
 43
0.0000001
 44
0.0000000001
 40
0.0
 40
0.0
 40
0.0
 40
0.0
 40
0.2659308343
 40
0.3972375177
 40
0.5260029257
 40
0.7721604333
 40
1.0
 40
1.0
 40
1.0
 40
1.0
 10
15.9448892799
 20
12.5570638707
 30
0.0
 10
15.9578249719
 20
12.5625786887
 30
0.0
 10
15.9764372859
 20
12.5726683994
 30
0.0
 10
15.9987688602
 20
12.589305201
 30
0.0
 10
16.018579704
 20
12.6073657622
 30
0.0
 10
16.0387833118
 20
12.6323371187
 30
0.0
 10
16.0497105719
 20
12.6552599247
 30
0.0
 10
16.053267701
 20
12.6667707986
 30
0.0
  0
LINE
  5
658
100
AcDbEntity
  8
0
100
AcDbLine
 62
7
  6
CONTINUOUS
 10
13.9371172278
 20
12.4337169643
 11
13.9375915268
 21
12.4366487676
  0
ENDSEC
  0
SECTION
  2
OBJECTS
  0
DICTIONARY
  5
C
100
AcDbDictionary
280
0
281
1
  3
ACAD_GROUP
350
D
  3
ACAD_MLINESTYLE
350
17
  3
ACAD_LAYOUT
350
1A
  3
ACAD_PLOTSETTINGS
350
19
  3
ACAD_PLOTSTYLENAME
350
E
  0
DICTIONARY
  5
D
102
{ACAD_REACTORS
330
C
102
}
100
AcDbDictionary
280
0
281
1
  0
ACDBDICTIONARYWDFLT
  5
E
102
{ACAD_REACTORS
330
C
102
}
100
AcDbDictionary
281
1
  3
Normal
350
F
100
AcDbDictionaryWithDefault
340
F
  0
DICTIONARY
  5
17
102
{ACAD_REACTORS
330
C
102
}
100
AcDbDictionary
280
0
281
1
  3
Standard
350
18
  0
DICTIONARY
  5
19
102
{ACAD_REACTORS
330
C
102
}
100
AcDbDictionary
281
1
  0
DICTIONARY
  5
1A
102
{ACAD_REACTORS
330
C
102
}
100
AcDbDictionary
281
1
  3
Model
350
659
  3
Layout1
350
65A
  0
ACDBPLACEHOLDER
  5
F
102
{ACAD_REACTORS
330
E
102
}
  0
MLINESTYLE
  5
18
102
{ACAD_REACTORS
330
17
102
}
100
AcDbMlineStyle
  2
STANDARD
 70
0
  3

 62
256
 51
90.0
 52
90.0
 71
2
 49
0.5
 62
256
  6
BYLAYER
 49
-0.5
 62
256
  6
BYLAYER
  0
LAYOUT
  5
659
102
{ACAD_REACTORS
330
1A
102
}
100
AcDbPlotSettings
  1

  2
none_device
  4
ANSI_C_(22.00_x_17.00_Inches)
  6

 40
0.0
 41
0.0
 42
0.0
 43
0.0
 44
558.8
 45
431.8
 46
0.0
 47
0.0
 48
0.0
 49
0.0
140
0.0
141
0.0
142
1.0
143
1.0
 70
1024
 72
0
 73
0
 74
0
  7

 75
0
147
1.0
148
0.0
149
0.0
100
AcDbLayout
  1
Model
 70
0
 71
0
 10
0.0
 20
0.0
 11
22.0
 21
17.0
 12
0.0
 22
0.0
 32
0.0
 14
0.0
 24
0.0
 34
0.0
 15
0.0
 25
0.0
 35
0.0
146
0.0
 13
0.0
 23
0.0
 33
0.0
 16
1.0
 26
0.0
 36
0.0
 17
0.0
 27
1.0
 37
0.0
 76
0
330
228
345
0
346
0
  0
LAYOUT
  5
65A
102
{ACAD_REACTORS
330
1A
102
}
100
AcDbPlotSettings
  1

  2
none_device
  4
ANSI_C_(22.00_x_17.00_Inches)
  6

 40
0.0
 41
0.0
 42
0.0
 43
0.0
 44
558.8
 45
431.8
 46
0.0
 47
0.0
 48
0.0
 49
0.0
140
0.0
141
0.0
142
1.0
143
1.0
 70
0
 72
0
 73
0
 74
0
  7

 75
0
147
1.0
148
0.0
149
0.0
100
AcDbLayout
  1
Layout1
 70
0
 71
1
 10
0.0
 20
0.0
 11
22.0
 21
17.0
 12
0.0
 22
0.0
 32
0.0
 14
0.0
 24
0.0
 34
0.0
 15
0.0
 25
0.0
 35
0.0
146
0.0
 13
0.0
 23
0.0
 33
0.0
 16
1.0
 26
0.0
 36
0.0
 17
0.0
 27
1.0
 37
0.0
 76
0
330
229
345
0
346
0
  0
ENDSEC
  0
EOF