999
DXF file: _cgs_temp_output.dxf
999
Pro/ENGINEER 2016360 by Parametric Technology Corporation
  0
SECTION
  2
HEADER
  9
$ACADVER
  1
AC1021
  9
$DWGCODEPAGE
  3
ANSI_1252
  9
$EXTMAX
 10
22.0
 20
17.0
 30
0.0
  9
$EXTMIN
 10
0.0
 20
0.0
 30
0.0
  9
$LIMMIN
 10
0.0
 20
0.0
  9
$LIMMAX
 10
22.0
 20
17.0
  9
$VIEWCTR
 10
11.0
 20
8.5
  9
$VIEWSIZE
 40
17.0
  9
$CLAYER
  8
0
  9
$LTSCALE
 40
1.21
  9
$CELTYPE
  6
BYLAYER
  9
$DIMSCALE
 40
1.0
  9
$DIMASZ
 40
0.1875
  9
$DIMEXO
 40
0.0625
  9
$DIMDLI
 40
0.836
  9
$DIMEXE
 40
0.125
  9
$DIMCEN
 40
0.198
  9
$DIMLFAC
 40
1.0
  9
$DIMBLK
  1
_CLOSED
  9
$DIMALT
 70
0
  9
$DIMALTF
 40
25.4
  9
$DIMTXT
 40
0.15625
  9
$DIMTOL
 70
0
  9
$DIMLIM
 70
0
  9
$DIMTFAC
 40
1.0
  9
$DIMGAP
 40
0.09
  9
$DIMDSEP
 70
46
  9
$AUNITS
 70
0
  9
$PDMODE
 70
3
  9
$PDSIZE
 40
0.3125
  9
$HANDSEED
  5
368
  9
$TILEMODE
 70
1
  9
$MEASUREMENT
 70
0
  9
$INSUNITS
 70
1
  0
ENDSEC
  0
SECTION
  2
CLASSES
  0
CLASS
  1
ACDBDICTIONARYWDFLT
  2
AcDbDictionaryWithDefault
  3
AutoCAD 2000
 90
0
 91
1
280
0
281
0
  0
CLASS
  1
ACDBPLACEHOLDER
  2
AcDbPlaceHolder
  3
AutoCAD 2000
 90
0
 91
1
280
0
281
0
  0
CLASS
  1
LAYOUT
  2
AcDbLayout
  3
AutoCAD 2000
 90
0
 91
0
280
0
281
0
  0
ENDSEC
  0
SECTION
  2
TABLES
  0
TABLE
  2
VPORT
  5
8
100
AcDbSymbolTable
 70
2
  0
VPORT
  5
1F4
100
AcDbSymbolTableRecord
100
AcDbViewportTableRecord
  2
*ACTIVE
 70
0
 10
0.0
 20
0.0
 11
1.0
 21
1.0
 12
11.0
 22
8.5
 13
0.0
 23
0.0
 14
1.0
 24
1.0
 15
0.0
 25
0.0
 16
0.0
 26
0.0
 36
1.0
 17
0.0
 27
0.0
 37
0.0
 40
17.0
 41
1.2941176471
 42
50.0
 43
0.0
 44
0.0
 50
0.0
 51
0.0
 71
0
 72
100
 73
1
 74
1
 75
0
 76
0
 77
0
 78
0
  0
ENDTAB
  0
TABLE
  2
LTYPE
  5
5
100
AcDbSymbolTable
 70
6
  0
LTYPE
  5
14
100
AcDbSymbolTableRecord
100
AcDbLinetypeTableRecord
  2
BYBLOCK
 70
0
  3

 72
65
 73
0
 40
0.0
  0
LTYPE
  5
15
100
AcDbSymbolTableRecord
100
AcDbLinetypeTableRecord
  2
BYLAYER
 70
0
  3

 72
65
 73
0
 40
0.0
  0
LTYPE
  5
16
100
AcDbSymbolTableRecord
100
AcDbLinetypeTableRecord
  2
CONTINUOUS
 70
64
  3
Solid line
 72
65
 73
0
 40
0.0
  0
LTYPE
  5
1F5
100
AcDbSymbolTableRecord
100
AcDbLinetypeTableRecord
  2
CENTER
 70
64
  3
____ _ ____ _ ____ _ ____ _ ____ _ ____ _ ____
 72
65
 73
4
 40
0.6
 49
0.375
 74
0
 49
-0.075
 74
0
 49
0.075
 74
0
 49
-0.075
 74
0
  0
LTYPE
  5
1F6
100
AcDbSymbolTableRecord
100
AcDbLinetypeTableRecord
  2
HIDDEN
 70
64
  3
- - - - - - - - - - - - - - - - - - - -
 72
65
 73
2
 40
0.2
 49
0.1
 74
0
 49
-0.1
 74
0
  0
LTYPE
  5
1F7
100
AcDbSymbolTableRecord
100
AcDbLinetypeTableRecord
  2
PHANTOM
 70
64
  3
_____ _ _ _____ _ _ _____ _ _ _____
 72
65
 73
6
 40
0.8
 49
0.45
 74
0
 49
-0.05
 74
0
 49
0.1
 74
0
 49
-0.05
 74
0
 49
0.1
 74
0
 49
-0.05
 74
0
  0
LTYPE
  5
1F8
100
AcDbSymbolTableRecord
100
AcDbLinetypeTableRecord
  2
DOT
 70
64
  3
. . . . . . . . . . . . . . . . . . . .
 72
65
 73
2
 40
0.2
 49
0.1
 74
0
 49
-0.1
 74
0
  0
LTYPE
  5
1F9
100
AcDbSymbolTableRecord
100
AcDbLinetypeTableRecord
  2
DASHED
 70
64
  3
- - - - - - - - - - - - - - - - - - - -
 72
65
 73
2
 40
0.2
 49
0.1
 74
0
 49
-0.1
 74
0
  0
ENDTAB
  0
TABLE
  2
LAYER
  5
2
100
AcDbSymbolTable
 70
36
  0
LAYER
  5
10
100
AcDbSymbolTableRecord
100
AcDbLayerTableRecord
  2
0
 70
0
 62
7
  6
CONTINUOUS
370
-3
390
F
  0
LAYER
  5
1FA
100
AcDbSymbolTableRecord
100
AcDbLayerTableRecord
  2
DEFAULT_1
 70
0
 62
7
  6
CENTER
370
-3
390
F
  0
LAYER
  5
1FB
100
AcDbSymbolTableRecord
100
AcDbLayerTableRecord
  2
DEFAULT_2
 70
0
 62
8
  6
HIDDEN
370
-3
390
F
  0
LAYER
  5
1FC
100
AcDbSymbolTableRecord
100
AcDbLayerTableRecord
  2
DEFAULT_3
 70
0
 62
7
  6
PHANTOM
370
-3
390
F
  0
LAYER
  5
1FD
100
AcDbSymbolTableRecord
100
AcDbLayerTableRecord
  2
01_ALL_DTM_PLN
 70
0
 62
7
  6
CONTINUOUS
370
-3
390
F
  0
LAYER
  5
1FE
100
AcDbSymbolTableRecord
100
AcDbLayerTableRecord
  2
01__ASM_ALL_DTM_PLN
 70
0
 62
7
  6
CONTINUOUS
370
-3
390
F
  0
LAYER
  5
1FF
100
AcDbSymbolTableRecord
100
AcDbLayerTableRecord
  2
01__ASM_DEF_DTM_PLN
 70
0
 62
7
  6
CONTINUOUS
370
-3
390
F
  0
LAYER
  5
200
100
AcDbSymbolTableRecord
100
AcDbLayerTableRecord
  2
01___PRT_ALL_DTM_PLN
 70
0
 62
7
  6
CONTINUOUS
370
-3
390
F
  0
LAYER
  5
201
100
AcDbSymbolTableRecord
100
AcDbLayerTableRecord
  2
01___PRT_DEF_DTM_PLN
 70
0
 62
7
  6
CONTINUOUS
370
-3
390
F
  0
LAYER
  5
202
100
AcDbSymbolTableRecord
100
AcDbLayerTableRecord
  2
02_ALL_AXES
 70
0
 62
7
  6
CONTINUOUS
370
-3
390
F
  0
LAYER
  5
203
100
AcDbSymbolTableRecord
100
AcDbLayerTableRecord
  2
02__ASM_ALL_AXES
 70
0
 62
7
  6
CONTINUOUS
370
-3
390
F
  0
LAYER
  5
204
100
AcDbSymbolTableRecord
100
AcDbLayerTableRecord
  2
02___PRT_ALL_AXES
 70
0
 62
7
  6
CONTINUOUS
370
-3
390
F
  0
LAYER
  5
205
100
AcDbSymbolTableRecord
100
AcDbLayerTableRecord
  2
03_ALL_CURVES
 70
0
 62
7
  6
CONTINUOUS
370
-3
390
F
  0
LAYER
  5
206
100
AcDbSymbolTableRecord
100
AcDbLayerTableRecord
  2
03__ASM_ALL_CURVES
 70
0
 62
7
  6
CONTINUOUS
370
-3
390
F
  0
LAYER
  5
207
100
AcDbSymbolTableRecord
100
AcDbLayerTableRecord
  2
03___PRT_ALL_CURVES
 70
0
 62
7
  6
CONTINUOUS
370
-3
390
F
  0
LAYER
  5
208
100
AcDbSymbolTableRecord
100
AcDbLayerTableRecord
  2
04_ALL_DTM_PNT
 70
0
 62
7
  6
CONTINUOUS
370
-3
390
F
  0
LAYER
  5
209
100
AcDbSymbolTableRecord
100
AcDbLayerTableRecord
  2
04__ASM_ALL_DTM_PNT
 70
0
 62
7
  6
CONTINUOUS
370
-3
390
F
  0
LAYER
  5
20A
100
AcDbSymbolTableRecord
100
AcDbLayerTableRecord
  2
04___PRT_ALL_DTM_PNT
 70
0
 62
7
  6
CONTINUOUS
370
-3
390
F
  0
LAYER
  5
20B
100
AcDbSymbolTableRecord
100
AcDbLayerTableRecord
  2
05_ALL_DTM_CSYS
 70
0
 62
7
  6
CONTINUOUS
370
-3
390
F
  0
LAYER
  5
20C
100
AcDbSymbolTableRecord
100
AcDbLayerTableRecord
  2
05__ASM_ALL_DTM_CSYS
 70
0
 62
7
  6
CONTINUOUS
370
-3
390
F
  0
LAYER
  5
20D
100
AcDbSymbolTableRecord
100
AcDbLayerTableRecord
  2
05__ASM_DEF_DTM_CSYS
 70
0
 62
7
  6
CONTINUOUS
370
-3
390
F
  0
LAYER
  5
20E
100
AcDbSymbolTableRecord
100
AcDbLayerTableRecord
  2
05___PRT_ALL_DTM_CSYS
 70
0
 62
7
  6
CONTINUOUS
370
-3
390
F
  0
LAYER
  5
20F
100
AcDbSymbolTableRecord
100
AcDbLayerTableRecord
  2
05___PRT_DEF_DTM_CSYS
 70
0
 62
7
  6
CONTINUOUS
370
-3
390
F
  0
LAYER
  5
210
100
AcDbSymbolTableRecord
100
AcDbLayerTableRecord
  2
06_ALL_SURFS
 70
0
 62
7
  6
CONTINUOUS
370
-3
390
F
  0
LAYER
  5
211
100
AcDbSymbolTableRecord
100
AcDbLayerTableRecord
  2
06__ASM_ALL_SURFS
 70
0
 62
7
  6
CONTINUOUS
370
-3
390
F
  0
LAYER
  5
212
100
AcDbSymbolTableRecord
100
AcDbLayerTableRecord
  2
06___PRT_ALL_SURFS
 70
0
 62
7
  6
CONTINUOUS
370
-3
390
F
  0
LAYER
  5
213
100
AcDbSymbolTableRecord
100
AcDbLayerTableRecord
  2
07__ASM_ALL_SKELETONS
 70
0
 62
7
  6
CONTINUOUS
370
-3
390
F
  0
LAYER
  5
214
100
AcDbSymbolTableRecord
100
AcDbLayerTableRecord
  2
COLOR2
 70
0
 62
7
  6
CONTINUOUS
370
-3
390
F
  0
LAYER
  5
215
100
AcDbSymbolTableRecord
100
AcDbLayerTableRecord
  2
COLOR4
 70
0
 62
7
  6
CONTINUOUS
370
-3
390
F
  0
LAYER
  5
216
100
AcDbSymbolTableRecord
100
AcDbLayerTableRecord
  2
INTFCLR_8142
 70
0
 62
7
  6
CONTINUOUS
370
-3
390
F
  0
LAYER
  5
217
100
AcDbSymbolTableRecord
100
AcDbLayerTableRecord
  2
INTFCLR_8142_1
 70
0
 62
7
  6
CONTINUOUS
370
-3
390
F
  0
LAYER
  5
218
100
AcDbSymbolTableRecord
100
AcDbLayerTableRecord
  2
INTFCLR_8142_2
 70
0
 62
7
  6
CONTINUOUS
370
-3
390
F
  0
LAYER
  5
219
100
AcDbSymbolTableRecord
100
AcDbLayerTableRecord
  2
INTFCLR_8142_3
 70
0
 62
7
  6
CONTINUOUS
370
-3
390
F
  0
LAYER
  5
21A
100
AcDbSymbolTableRecord
100
AcDbLayerTableRecord
  2
INTFCLR_8142_4
 70
0
 62
7
  6
CONTINUOUS
370
-3
390
F
  0
LAYER
  5
21B
100
AcDbSymbolTableRecord
100
AcDbLayerTableRecord
  2
INTFCLR_8142_5
 70
0
 62
7
  6
CONTINUOUS
370
-3
390
F
  0
LAYER
  5
21C
100
AcDbSymbolTableRecord
100
AcDbLayerTableRecord
  2
NONE
 70
0
 62
7
  6
CONTINUOUS
370
-3
390
F
  0
LAYER
  5
21D
100
AcDbSymbolTableRecord
100
AcDbLayerTableRecord
  2
NONE_1
 70
0
 62
7
  6
CONTINUOUS
370
-3
390
F
  0
LAYER
  5
21E
100
AcDbSymbolTableRecord
100
AcDbLayerTableRecord
  2
NONE_2
 70
0
 62
7
  6
CONTINUOUS
370
-3
390
F
  0
LAYER
  5
21F
100
AcDbSymbolTableRecord
100
AcDbLayerTableRecord
  2
NONE_3
 70
0
 62
7
  6
CONTINUOUS
370
-3
390
F
  0
LAYER
  5
220
100
AcDbSymbolTableRecord
100
AcDbLayerTableRecord
  2
NONE_4
 70
0
 62
7
  6
CONTINUOUS
370
-3
390
F
  0
LAYER
  5
221
100
AcDbSymbolTableRecord
100
AcDbLayerTableRecord
  2
NONE_5
 70
0
 62
7
  6
CONTINUOUS
370
-3
390
F
  0
LAYER
  5
222
100
AcDbSymbolTableRecord
100
AcDbLayerTableRecord
  2
_122
 70
0
 62
7
  6
CONTINUOUS
370
-3
390
F
  0
LAYER
  5
223
100
AcDbSymbolTableRecord
100
AcDbLayerTableRecord
  2
_122_1
 70
0
 62
7
  6
CONTINUOUS
370
-3
390
F
  0
LAYER
  5
224
100
AcDbSymbolTableRecord
100
AcDbLayerTableRecord
  2
_182
 70
0
 62
7
  6
CONTINUOUS
370
-3
390
F
  0
LAYER
  5
225
100
AcDbSymbolTableRecord
100
AcDbLayerTableRecord
  2
_182_1
 70
0
 62
7
  6
CONTINUOUS
370
-3
390
F
  0
LAYER
  5
226
100
AcDbSymbolTableRecord
100
AcDbLayerTableRecord
  2
_4412
 70
0
 62
7
  6
CONTINUOUS
370
-3
390
F
  0
LAYER
  5
227
100
AcDbSymbolTableRecord
100
AcDbLayerTableRecord
  2
_4412_1
 70
0
 62
7
  6
CONTINUOUS
370
-3
390
F
  0
LAYER
  5
228
100
AcDbSymbolTableRecord
100
AcDbLayerTableRecord
  2
_5559
 70
0
 62
7
  6
CONTINUOUS
370
-3
390
F
  0
LAYER
  5
229
100
AcDbSymbolTableRecord
100
AcDbLayerTableRecord
  2
_5559_1
 70
0
 62
7
  6
CONTINUOUS
370
-3
390
F
  0
LAYER
  5
22A
100
AcDbSymbolTableRecord
100
AcDbLayerTableRecord
  2
_6761
 70
0
 62
7
  6
CONTINUOUS
370
-3
390
F
  0
LAYER
  5
22B
100
AcDbSymbolTableRecord
100
AcDbLayerTableRecord
  2
_7264
 70
0
 62
7
  6
CONTINUOUS
370
-3
390
F
  0
LAYER
  5
22C
100
AcDbSymbolTableRecord
100
AcDbLayerTableRecord
  2
_7264_1
 70
0
 62
7
  6
CONTINUOUS
370
-3
390
F
  0
LAYER
  5
22D
100
AcDbSymbolTableRecord
100
AcDbLayerTableRecord
  2
_9687
 70
0
 62
7
  6
CONTINUOUS
370
-3
390
F
  0
LAYER
  5
22E
100
AcDbSymbolTableRecord
100
AcDbLayerTableRecord
  2
_9687_1
 70
0
 62
7
  6
CONTINUOUS
370
-3
390
F
  0
LAYER
  5
22F
100
AcDbSymbolTableRecord
100
AcDbLayerTableRecord
  2
___SHELL
 70
0
 62
7
  6
CONTINUOUS
370
-3
390
F
  0
ENDTAB
  0
TABLE
  2
STYLE
  5
3
100
AcDbSymbolTable
 70
1
  0
STYLE
  5
11
100
AcDbSymbolTableRecord
100
AcDbTextStyleTableRecord
  2
STANDARD
 70
0
 40
0.0
 41
0.8
 50
0.0
 71
0
 42
0.2
  3
txt
  4

  0
STYLE
  5
230
100
AcDbSymbolTableRecord
100
AcDbTextStyleTableRecord
  2
TEXTSTYLE_1
 70
0
 40
0.0
 41
0.8
 50
0.0
 71
0
 42
0.2
  3
gdt
  4

  0
ENDTAB
  0
TABLE
  2
VIEW
  5
6
100
AcDbSymbolTable
 70
0
  0
ENDTAB
  0
TABLE
  2
UCS
  5
7
100
AcDbSymbolTable
 70
0
  0
ENDTAB
  0
TABLE
  2
APPID
  5
9
100
AcDbSymbolTable
 70
1
  0
APPID
  5
231
100
AcDbSymbolTableRecord
100
AcDbRegAppTableRecord
  2
ACAD
 70
0
  0
ENDTAB
  0
TABLE
  2
BLOCK_RECORD
  5
1
100
AcDbSymbolTable
 70
0
  0
BLOCK_RECORD
  5
232
100
AcDbSymbolTableRecord
100
AcDbBlockTableRecord
  2
*Model_Space
  0
BLOCK_RECORD
  5
233
100
AcDbSymbolTableRecord
100
AcDbBlockTableRecord
  2
*Paper_Space
  0
BLOCK_RECORD
  5
234
100
AcDbSymbolTableRecord
100
AcDbBlockTableRecord
  2
_NONE
  0
ENDTAB
  0
TABLE
  2
DIMSTYLE
  5
A
100
AcDbSymbolTable
 70
1
100
AcDbDimStyleTable
 71
0
  0
DIMSTYLE
105
235
100
AcDbSymbolTableRecord
100
AcDbDimStyleTableRecord
  2
STANDARD
 70
0
  3

  4

 40
1.0
 41
0.1875
 42
0.0625
 43
0.38
 44
0.125
 45
0.0
 46
0.0
 47
0.0001
 48
0.0001
140
0.15625
141
0.09
142
0.0
143
25.4
144
1.0
145
0.0
146
1.0
147
0.09
 71
0.0
 72
0.0
 73
1
 74
1
 75
0
 76
0
 77
0
 78
4
 79
1
170
0
171
3
172
0
173
0
174
0
175
0
176
0
177
0
178
0
270
2
179
4
271
4
272
4
273
2
274
2
275
0
280
0
281
0
282
0
283
1
284
4
285
0
286
0
287
3
288
0
340
11
278
46
  0
ENDTAB
  0
ENDSEC
  0
SECTION
  2
BLOCKS
  0
BLOCK
  5
20
100
AcDbEntity
  8
0
100
AcDbBlockBegin
  2
*Model_Space
 70
0
 10
0.0
 20
0.0
 30
0.0
  3
*Model_Space
  1

  0
ENDBLK
  5
21
100
AcDbEntity
  8
0
100
AcDbBlockEnd
  0
BLOCK
  5
1C
100
AcDbEntity
  8
0
100
AcDbBlockBegin
  2
*Paper_Space
 70
0
 10
0.0
 20
0.0
 30
0.0
  3
*Paper_Space
  1

  0
ENDBLK
  5
1D
100
AcDbEntity
  8
0
100
AcDbBlockEnd
  0
BLOCK
  5
236
100
AcDbEntity
  8
0
100
AcDbBlockBegin
  2
_NONE
 70
64
 10
0.0
 20
0.0
  3
_NONE
  1

  0
ENDBLK
  5
237
100
AcDbEntity
  8
0
  6
BYBLOCK
 62
0
100
AcDbBlockEnd
  0
ENDSEC
  0
SECTION
  2
ENTITIES
  0
MTEXT
  5
238
100
AcDbEntity
  8
0
100
AcDbMText
 62
7
  6
CONTINUOUS
  7
STANDARD
 71
1
 72
1
 10
15.9560215477
 20
0.9479130325
 30
0.0
 11
1.0
 21
0.0
 31
0.0
 44
0.9
  1
SCALE: 1:1.000
 40
0.3
 41
3.36
  0
LEADER
  5
239
100
AcDbEntity
  8
0
100
AcDbLeader
 62
2
  6
CONTINUOUS
  3
STANDARD
 71
1
 72
0
 73
0
 75
0
 40
0.15625
 41
1.5
 76
3
 10
3.8178672762
 20
4.6919948968
 30
0.0
 10
10.753425556
 20
2.9355679925
 30
0.0
 10
11.003425556
 20
2.9355679925
 30
0.0
340
23A
1001
ACAD
1000
DSTYLE
1002
{
1070
77
1070
0
1070
341
1005
234
1002
}
  0
MTEXT
  5
23A
102
{ACAD_REACTORS
330
239
102
}
100
AcDbEntity
  8
0
100
AcDbMText
 62
2
  6
CONTINUOUS
  7
STANDARD
 71
1
 72
1
 10
11.003425556
 20
3.0136929925
 30
0.0
 11
1.0
 21
0.0
 31
0.0
 44
0.9
  1
 0.375 BOLTS
 40
0.15625
 41
1.5
  0
LINE
  5
23B
100
AcDbEntity
  8
0
100
AcDbLine
 62
7
  6
CONTINUOUS
 10
0.0
 20
0.0
 11
0.0
 21
17.0
  0
LINE
  5
23C
100
AcDbEntity
  8
0
100
AcDbLine
 62
7
  6
CONTINUOUS
 10
0.0
 20
0.0
 11
22.0
 21
0.0
  0
LINE
  5
23D
100
AcDbEntity
  8
0
100
AcDbLine
 62
7
  6
CONTINUOUS
 10
0.0
 20
17.0
 11
22.0
 21
17.0
  0
LINE
  5
23E
100
AcDbEntity
  8
0
100
AcDbLine
 62
7
  6
CONTINUOUS
 10
22.0
 20
0.0
 11
22.0
 21
17.0
  0
LINE
  5
23F
100
AcDbEntity
  8
0
100
AcDbLine
 62
7
  6
CONTINUOUS
 10
3.5678672762
 20
4.2544948968
 11
3.5678672762
 21
4.6419948968
  0
LINE
  5
240
100
AcDbEntity
  8
0
100
AcDbLine
 62
7
  6
CONTINUOUS
 10
4.4741172762
 20
4.6419948968
 11
4.4741172762
 21
4.2544948968
  0
LINE
  5
241
100
AcDbEntity
  8
0
100
AcDbLine
 62
7
  6
CONTINUOUS
 10
4.9459423625
 20
4.2544948968
 11
4.9459423625
 21
4.2794948968
  0
LINE
  5
242
100
AcDbEntity
  8
0
100
AcDbLine
 62
7
  6
CONTINUOUS
 10
4.4741172762
 20
4.6919948968
 11
4.9254733239
 21
5.9401921841
  0
LINE
  5
243
100
AcDbEntity
  8
0
100
AcDbLine
 62
7
  6
CONTINUOUS
 10
3.5678672762
 20
4.2544948968
 11
4.9459423625
 21
4.2544948968
  0
LINE
  5
244
100
AcDbEntity
  8
0
100
AcDbLine
 62
7
  6
CONTINUOUS
 10
7.3147921898
 20
4.2544948968
 11
8.6928672762
 21
4.2544948968
  0
LINE
  5
245
100
AcDbEntity
  8
0
100
AcDbLine
 62
7
  6
CONTINUOUS
 10
7.3147921976
 20
4.2794948968
 11
4.9459423548
 21
4.2794948968
  0
LINE
  5
246
100
AcDbEntity
  8
0
100
AcDbLine
 62
7
  6
CONTINUOUS
 10
8.6428672762
 20
4.6919948968
 11
7.7018502649
 21
4.6919948968
  0
LINE
  5
247
100
AcDbEntity
  8
0
100
AcDbLine
 62
7
  6
CONTINUOUS
 10
3.6178672762
 20
4.6919948968
 11
4.5588842874
 21
4.6919948968
  0
LINE
  5
248
100
AcDbEntity
  8
0
100
AcDbLine
 62
7
  6
CONTINUOUS
 10
6.8816682312
 20
6.5651550685
 11
6.925862405
 21
6.6093492424
  0
LINE
  5
249
100
AcDbEntity
  8
0
100
AcDbLine
 62
7
  6
CONTINUOUS
 10
6.8949264833
 20
6.5518968164
 11
6.8827829499
 21
6.539753283
  0
LINE
  5
24A
100
AcDbEntity
  8
0
100
AcDbLine
 62
7
  6
CONTINUOUS
 10
7.0805420134
 20
6.454669634
 11
7.0363478396
 21
6.4104754601
  0
LINE
  5
24B
100
AcDbEntity
  8
0
100
AcDbLine
 62
7
  6
CONTINUOUS
 10
7.1652178101
 20
6.2565027182
 11
7.1777691958
 21
6.2690541039
  0
LINE
  5
24C
100
AcDbEntity
  8
0
100
AcDbLine
 62
7
  6
CONTINUOUS
 10
7.2352216218
 20
6.2999900256
 11
7.1910274479
 21
6.2557958518
  0
LINE
  5
24D
100
AcDbEntity
  8
0
100
AcDbLine
 62
7
  6
CONTINUOUS
 10
7.3147921898
 20
4.2544948968
 11
7.3147921898
 21
4.2794948968
  0
LINE
  5
24E
100
AcDbEntity
  8
0
100
AcDbLine
 62
7
  6
CONTINUOUS
 10
7.1910274479
 20
6.2557958518
 11
6.8816682312
 21
6.5651550685
  0
LINE
  5
24F
100
AcDbEntity
  8
0
100
AcDbLine
 62
7
  6
CONTINUOUS
 10
7.2352216218
 20
6.2999900256
 11
6.925862405
 21
6.6093492424
  0
LINE
  5
250
100
AcDbEntity
  8
0
100
AcDbLine
 62
7
  6
CONTINUOUS
 10
7.7866172762
 20
4.6919948968
 11
7.3352612285
 21
5.9401921841
  0
LINE
  5
251
100
AcDbEntity
  8
0
100
AcDbLine
 62
7
  6
CONTINUOUS
 10
7.2611339902
 20
6.4756030898
 11
7.1014754692
 21
6.6352616108
  0
LINE
  5
252
100
AcDbEntity
  8
0
100
AcDbLine
 62
7
  6
CONTINUOUS
 10
7.7866172762
 20
4.2544948968
 11
7.7866172762
 21
4.6419948968
  0
LINE
  5
253
100
AcDbEntity
  8
0
100
AcDbLine
 62
7
  6
CONTINUOUS
 10
7.3258196781
 20
6.6292366206
 11
7.255109
 21
6.6999472987
  0
LINE
  5
254
100
AcDbEntity
  8
0
100
AcDbLine
 62
7
  6
CONTINUOUS
 10
8.6928672762
 20
4.2544948968
 11
8.6928672762
 21
4.6419948968
  0
LINE
  5
255
100
AcDbEntity
  8
0
100
AcDbLine
 62
7
  6
CONTINUOUS
 10
3.5083720839
 20
13.5578602814
 11
3.5083720839
 21
12.2203602814
  0
LINE
  5
256
100
AcDbEntity
  8
0
100
AcDbLine
 62
7
  6
CONTINUOUS
 10
4.4146220839
 20
12.2732195651
 11
4.4146220839
 21
12.4145019654
  0
LINE
  5
257
100
AcDbEntity
  8
0
100
AcDbLine
 62
7
  6
CONTINUOUS
 10
4.4146220839
 20
13.3637185974
 11
4.4146220839
 21
13.5050009976
  0
LINE
  5
258
100
AcDbEntity
  8
0
100
AcDbLine
 62
7
  6
CONTINUOUS
 10
5.1208720839
 20
11.7172352814
 11
5.1208720839
 21
12.4099436147
  0
LINE
  5
259
100
AcDbEntity
  8
0
100
AcDbLine
 62
7
  6
CONTINUOUS
 10
6.8958720839
 20
11.5922352814
 11
5.2458720839
 21
11.5922352814
  0
LINE
  5
25A
100
AcDbEntity
  8
0
100
AcDbLine
 62
7
  6
CONTINUOUS
 10
4.4146220839
 20
12.1703602814
 11
4.5704628393
 21
12.2974405858
  0
LINE
  5
25B
100
AcDbEntity
  8
0
100
AcDbLine
 62
7
  6
CONTINUOUS
 10
5.5708720839
 20
13.5609852814
 11
5.5708720839
 21
13.368276948
  0
LINE
  5
25C
100
AcDbEntity
  8
0
100
AcDbLine
 62
7
  6
CONTINUOUS
 10
8.5833720839
 20
12.1703602814
 11
7.7271220839
 21
12.1703602814
  0
LINE
  5
25D
100
AcDbEntity
  8
0
100
AcDbLine
 62
7
  6
CONTINUOUS
 10
3.5583720839
 20
12.1703602814
 11
4.4146220839
 21
12.1703602814
  0
LINE
  5
25E
100
AcDbEntity
  8
0
100
AcDbLine
 62
7
  6
CONTINUOUS
 10
4.8864471625
 20
12.4099436147
 11
7.255297013
 21
12.4099436147
  0
LINE
  5
25F
100
AcDbEntity
  8
0
100
AcDbLine
 62
7
  6
CONTINUOUS
 10
4.5704628465
 20
13.480779971
 11
4.4146220839
 21
13.6078602814
  0
LINE
  5
260
100
AcDbEntity
  8
0
100
AcDbLine
 62
7
  6
CONTINUOUS
 10
6.8221730389
 20
13.0154056528
 11
6.9768526473
 21
13.1417010241
  0
LINE
  5
261
100
AcDbEntity
  8
0
100
AcDbLine
 62
7
  6
CONTINUOUS
 10
6.8663672127
 20
13.0154056528
 11
7.0210468211
 21
13.1417010241
  0
LINE
  5
262
100
AcDbEntity
  8
0
100
AcDbLine
 62
7
  6
CONTINUOUS
 10
7.0210468211
 20
12.6365195386
 11
6.9768526473
 21
12.6365195386
  0
LINE
  5
263
100
AcDbEntity
  8
0
100
AcDbLine
 62
7
  6
CONTINUOUS
 10
8.1958720839
 20
12.7016102814
 11
7.8208720839
 21
12.7016102814
  0
LINE
  5
264
100
AcDbEntity
  8
0
100
AcDbLine
 62
7
  6
CONTINUOUS
 10
4.3208720839
 20
12.7016102814
 11
3.9458720839
 21
12.7016102814
  0
LINE
  5
265
100
AcDbEntity
  8
0
100
AcDbLine
 62
7
  6
CONTINUOUS
 10
6.8221730389
 20
12.76281491
 11
6.8663672127
 21
12.76281491
  0
LINE
  5
266
100
AcDbEntity
  8
0
100
AcDbLine
 62
7
  6
CONTINUOUS
 10
7.5712813285
 20
13.480779977
 11
7.7271220839
 21
13.6078602814
  0
LINE
  5
267
100
AcDbEntity
  8
0
100
AcDbLine
 62
7
  6
CONTINUOUS
 10
6.5708720839
 20
13.368276948
 11
6.5708720839
 21
13.5609852814
  0
LINE
  5
268
100
AcDbEntity
  8
0
100
AcDbLine
 62
7
  6
CONTINUOUS
 10
7.0210468211
 20
12.6365195386
 11
7.1605758465
 21
12.7504445108
  0
LINE
  5
269
100
AcDbEntity
  8
0
100
AcDbLine
 62
7
  6
CONTINUOUS
 10
6.8663672127
 20
13.0154056528
 11
6.8221730389
 21
13.0154056528
  0
LINE
  5
26A
100
AcDbEntity
  8
0
100
AcDbLine
 62
7
  6
CONTINUOUS
 10
3.9458720839
 20
13.0766102814
 11
4.3208720839
 21
13.0766102814
  0
LINE
  5
26B
100
AcDbEntity
  8
0
100
AcDbLine
 62
7
  6
CONTINUOUS
 10
7.8208720839
 20
13.0766102814
 11
8.1958720839
 21
13.0766102814
  0
LINE
  5
26C
100
AcDbEntity
  8
0
100
AcDbLine
 62
7
  6
CONTINUOUS
 10
6.9768526473
 20
13.1417010241
 11
7.0210468211
 21
13.1417010241
  0
LINE
  5
26D
100
AcDbEntity
  8
0
100
AcDbLine
 62
7
  6
CONTINUOUS
 10
6.8221730389
 20
12.76281491
 11
6.8221730389
 21
13.0154056528
  0
LINE
  5
26E
100
AcDbEntity
  8
0
100
AcDbLine
 62
7
  6
CONTINUOUS
 10
7.7271220839
 20
12.1703602814
 11
7.5712813212
 21
12.2974405917
  0
LINE
  5
26F
100
AcDbEntity
  8
0
100
AcDbLine
 62
7
  6
CONTINUOUS
 10
6.9768526473
 20
12.6365195386
 11
6.8221730389
 21
12.76281491
  0
LINE
  5
270
100
AcDbEntity
  8
0
100
AcDbLine
 62
7
  6
CONTINUOUS
 10
7.0210468211
 20
12.6365195386
 11
6.8663672127
 21
12.76281491
  0
LINE
  5
271
100
AcDbEntity
  8
0
100
AcDbLine
 62
7
  6
CONTINUOUS
 10
6.8663672127
 20
12.76281491
 11
6.8663672127
 21
13.0154056528
  0
LINE
  5
272
100
AcDbEntity
  8
0
100
AcDbLine
 62
7
  6
CONTINUOUS
 10
7.2552970053
 20
13.368276948
 11
4.8864471547
 21
13.368276948
  0
LINE
  5
273
100
AcDbEntity
  8
0
100
AcDbLine
 62
7
  6
CONTINUOUS
 10
7.0208720839
 20
11.7172352814
 11
7.0208720839
 21
12.4099436147
  0
LINE
  5
274
100
AcDbEntity
  8
0
100
AcDbLine
 62
7
  6
CONTINUOUS
 10
6.5708720839
 20
13.5609852814
 11
5.5708720839
 21
13.5609852814
  0
LINE
  5
275
100
AcDbEntity
  8
0
100
AcDbLine
 62
7
  6
CONTINUOUS
 10
8.5833720839
 20
13.6078602814
 11
7.7271220839
 21
13.6078602814
  0
LINE
  5
276
100
AcDbEntity
  8
0
100
AcDbLine
 62
7
  6
CONTINUOUS
 10
3.5583720839
 20
13.6078602814
 11
4.4146220839
 21
13.6078602814
  0
LINE
  5
277
100
AcDbEntity
  8
0
100
AcDbLine
 62
7
  6
CONTINUOUS
 10
7.0210468211
 20
13.1417010241
 11
7.1592890643
 21
13.0288267052
  0
LINE
  5
278
100
AcDbEntity
  8
0
100
AcDbLine
 62
7
  6
CONTINUOUS
 10
7.7271220839
 20
13.5050009976
 11
7.7271220839
 21
13.3637185974
  0
LINE
  5
279
100
AcDbEntity
  8
0
100
AcDbLine
 62
7
  6
CONTINUOUS
 10
7.7271220839
 20
12.4145019654
 11
7.7271220839
 21
12.2732195651
  0
LINE
  5
27A
100
AcDbEntity
  8
0
100
AcDbLine
 62
7
  6
CONTINUOUS
 10
8.6333720839
 20
12.2203602814
 11
8.6333720839
 21
13.5578602814
  0
LINE
  5
27B
100
AcDbEntity
  8
0
100
AcDbLine
 62
7
  6
CONTINUOUS
 10
15.1306677569
 20
4.1949997044
 11
16.5681677569
 21
4.1949997044
  0
LINE
  5
27C
100
AcDbEntity
  8
0
100
AcDbLine
 62
7
  6
CONTINUOUS
 10
14.5525427569
 20
6.2699997044
 11
14.5525427569
 21
4.6200001609
  0
LINE
  5
27D
100
AcDbEntity
  8
0
100
AcDbLine
 62
7
  6
CONTINUOUS
 10
15.1306677569
 20
4.4949997044
 11
14.6775427569
 21
4.4949997044
  0
LINE
  5
27E
100
AcDbEntity
  8
0
100
AcDbLine
 62
7
  6
CONTINUOUS
 10
15.1806677569
 20
4.6324997044
 11
16.5181677569
 21
4.6324997044
  0
LINE
  5
27F
100
AcDbEntity
  8
0
100
AcDbLine
 62
7
  6
CONTINUOUS
 10
15.5968270142
 20
6.3951744417
 11
15.7097013331
 21
6.5334166849
  0
LINE
  5
280
100
AcDbEntity
  8
0
100
AcDbLine
 62
7
  6
CONTINUOUS
 10
15.1306677569
 20
4.1949997044
 11
15.1306677569
 21
4.5824997044
  0
LINE
  5
281
100
AcDbEntity
  8
0
100
AcDbLine
 62
7
  6
CONTINUOUS
 10
16.5212927569
 20
4.9449997044
 11
16.426358096
 21
4.9449997044
  0
LWPOLYLINE
  5
282
100
AcDbEntity
  8
0
100
AcDbPolyline
 62
7
  6
CONTINUOUS
 90
4
 70
0
 10
15.3702510903
 20
5.7902681403
 10
15.3552325897
 20
5.4395215171
 10
15.3116721769
 20
5.1118773796
 10
15.248544653
 20
4.8432048363
  0
LINE
  5
283
100
AcDbEntity
  8
0
100
AcDbLine
 62
7
  6
CONTINUOUS
 10
15.3702510903
 20
6.6762497044
 11
15.3702510903
 21
5.7902684355
  0
LINE
  5
284
100
AcDbEntity
  8
0
100
AcDbLine
 62
7
  6
CONTINUOUS
 10
15.2485392987
 20
4.8431913978
 11
15.1864122609
 21
4.6324997044
  0
LINE
  5
285
100
AcDbEntity
  8
0
100
AcDbLine
 62
7
  6
CONTINUOUS
 10
16.1020084997
 20
6.3951744417
 11
15.9757131283
 21
6.2404948333
  0
LINE
  5
286
100
AcDbEntity
  8
0
100
AcDbLine
 62
7
  6
CONTINUOUS
 10
15.9757131283
 20
6.1963006595
 11
16.1020084997
 21
6.3509802678
  0
LINE
  5
287
100
AcDbEntity
  8
0
100
AcDbLine
 62
7
  6
CONTINUOUS
 10
15.5968270142
 20
6.3951744417
 11
15.5968270142
 21
6.3509802678
  0
LINE
  5
288
100
AcDbEntity
  8
0
100
AcDbLine
 62
7
  6
CONTINUOUS
 10
15.7231223856
 20
6.2404948333
 11
15.7231223856
 21
6.1963006595
  0
LINE
  5
289
100
AcDbEntity
  8
0
100
AcDbLine
 62
7
  6
CONTINUOUS
 10
15.9757131283
 20
6.1963006595
 11
15.9757131283
 21
6.2404948333
  0
LINE
  5
28A
100
AcDbEntity
  8
0
100
AcDbLine
 62
7
  6
CONTINUOUS
 10
16.1020084997
 20
6.3509802678
 11
16.1020084997
 21
6.3951744417
  0
LINE
  5
28B
100
AcDbEntity
  8
0
100
AcDbLine
 62
7
  6
CONTINUOUS
 10
16.5212927569
 20
5.9449997044
 11
16.3285844236
 21
5.9449997044
  0
LINE
  5
28C
100
AcDbEntity
  8
0
100
AcDbLine
 62
7
  6
CONTINUOUS
 10
15.7231223856
 20
6.1963006595
 11
15.5968270142
 21
6.3509802678
  0
LINE
  5
28D
100
AcDbEntity
  8
0
100
AcDbLine
 62
7
  6
CONTINUOUS
 10
15.5968270142
 20
6.3951744417
 11
15.7231223856
 21
6.2404948333
  0
LINE
  5
28E
100
AcDbEntity
  8
0
100
AcDbLine
 62
7
  6
CONTINUOUS
 10
16.3285844299
 20
5.7900257958
 11
16.3285844236
 21
6.6762497044
  0
LINE
  5
28F
100
AcDbEntity
  8
0
100
AcDbLine
 62
7
  6
CONTINUOUS
 10
15.7231223856
 20
6.1963006595
 11
15.9757131283
 21
6.1963006595
  0
LINE
  5
290
100
AcDbEntity
  8
0
100
AcDbLine
 62
7
  6
CONTINUOUS
 10
16.512423253
 20
4.6324997044
 11
16.4502962152
 21
4.8431913978
  0
LWPOLYLINE
  5
291
100
AcDbEntity
  8
0
100
AcDbPolyline
 62
7
  6
CONTINUOUS
 90
4
 70
0
 10
16.4502907836
 20
4.8432050976
 10
16.3873035358
 20
5.1111132507
 10
16.3436796644
 20
5.4386378536
 10
16.3285844305
 20
5.7900302996
  0
LINE
  5
292
100
AcDbEntity
  8
0
100
AcDbLine
 62
7
  6
CONTINUOUS
 10
15.9757131283
 20
6.2404948333
 11
15.7231223856
 21
6.2404948333
  0
LINE
  5
293
100
AcDbEntity
  8
0
100
AcDbLine
 62
7
  6
CONTINUOUS
 10
16.5212927569
 20
4.9450006718
 11
16.5212927569
 21
5.9449987371
  0
LINE
  5
294
100
AcDbEntity
  8
0
100
AcDbLine
 62
7
  6
CONTINUOUS
 10
15.3702510903
 20
6.3949997044
 11
14.6775427569
 21
6.3949997044
  0
LINE
  5
295
100
AcDbEntity
  8
0
100
AcDbLine
 62
7
  6
CONTINUOUS
 10
16.5681677569
 20
4.1949997044
 11
16.5681677569
 21
4.5824997044
  0
LINE
  5
296
100
AcDbEntity
  8
0
100
AcDbLine
 62
7
  6
CONTINUOUS
 10
15.9880835275
 20
6.5347034671
 11
16.1020084997
 21
6.3951744417
  0
LINE
  5
297
100
AcDbEntity
  8
0
100
AcDbLine
 62
7
  6
CONTINUOUS
 10
15.4202510903
 20
6.7262497044
 11
16.2785844236
 21
6.7262497044
  0
LINE
  5
298
100
AcDbEntity
  8
0
100
AcDbLine
 62
7
  6
CONTINUOUS
 10
13.0105119784
 20
11.3900427133
 11
12.8923082551
 21
11.630916576
  0
LINE
  5
299
100
AcDbEntity
  8
0
100
AcDbLine
 62
7
  6
CONTINUOUS
 10
12.8894237956
 20
11.66770608
 11
13.2131875031
 21
12.7154058216
  0
LINE
  5
29A
100
AcDbEntity
  8
0
100
AcDbLine
 62
7
  6
CONTINUOUS
 10
13.7137499977
 20
11.6137773659
 11
13.8319537211
 21
11.3729035032
  0
LINE
  5
29B
100
AcDbEntity
  8
0
100
AcDbLine
 62
7
  6
CONTINUOUS
 10
13.3928415309
 20
12.2183992292
 11
13.34649899
 21
12.068434712
  0
LINE
  5
29C
100
AcDbEntity
  8
0
100
AcDbLine
 62
7
  6
CONTINUOUS
 10
13.8000566071
 20
12.5935801385
 11
13.8021161074
 21
12.6392705436
  0
LWPOLYLINE
  5
29D
100
AcDbEntity
  8
0
100
AcDbPolyline
 62
7
  6
CONTINUOUS
 90
4
 70
0
 10
13.8000649158
 20
12.5936118818
 10
13.7867349289
 20
12.3654381132
 10
13.7673554345
 20
12.13025479
 10
13.7434689262
 20
11.9027569541
  0
LINE
  5
29E
100
AcDbEntity
  8
0
100
AcDbLine
 62
7
  6
CONTINUOUS
 10
13.7220546077
 20
11.7191627278
 11
13.7434548995
 21
11.9027244406
  0
LINE
  5
29F
100
AcDbEntity
  8
0
100
AcDbLine
 62
7
  6
CONTINUOUS
 10
13.8221240752
 20
12.7550400758
 11
14.0298976695
 21
13.4273956733
  0
LINE
  5
2A0
100
AcDbEntity
  8
0
100
AcDbLine
 62
7
  6
CONTINUOUS
 10
14.1265039137
 20
12.6180730386
 11
13.9588225543
 21
12.0754559605
  0
LINE
  5
2A1
100
AcDbEntity
  8
0
100
AcDbLine
 62
7
  6
CONTINUOUS
 10
17.6716267398
 20
11.3729035032
 11
16.8829682637
 21
11.3729035032
  0
LINE
  5
2A2
100
AcDbEntity
  8
0
100
AcDbLine
 62
7
  6
CONTINUOUS
 10
13.8319537211
 20
11.3729035032
 11
13.0432952449
 21
11.3729035032
  0
LINE
  5
2A3
100
AcDbEntity
  8
0
100
AcDbLine
 62
7
  6
CONTINUOUS
 10
16.4987575978
 20
11.5761158245
 11
15.7931672285
 21
11.5761158245
  0
LINE
  5
2A4
100
AcDbEntity
  8
0
100
AcDbLine
 62
7
  6
CONTINUOUS
 10
15.5763883874
 20
13.4986512175
 11
15.549163931
 21
13.4711796785
  0
LINE
  5
2A5
100
AcDbEntity
  8
0
100
AcDbLine
 62
7
  6
CONTINUOUS
 10
15.5170672707
 20
13.3673148477
 11
15.5153535536
 21
13.3655855773
  0
LINE
  5
2A6
100
AcDbEntity
  8
0
100
AcDbLine
 62
7
  6
CONTINUOUS
 10
15.4880202186
 20
13.2733185526
 11
15.515244675
 21
13.3007900916
  0
LINE
  5
2A7
100
AcDbEntity
  8
0
100
AcDbLine
 62
7
  6
CONTINUOUS
 10
17.3098575223
 20
12.0610002851
 11
16.9644596495
 21
12.0610002851
  0
LINE
  5
2A8
100
AcDbEntity
  8
0
100
AcDbLine
 62
7
  6
CONTINUOUS
 10
13.7407461705
 20
12.0610002851
 11
13.3953482978
 21
12.0610002851
  0
LINE
  5
2A9
100
AcDbEntity
  8
0
100
AcDbLine
 62
7
  6
CONTINUOUS
 10
15.4880202186
 20
13.2733185526
 11
15.549163931
 21
13.4711796785
  0
LINE
  5
2AA
100
AcDbEntity
  8
0
100
AcDbLine
 62
7
  6
CONTINUOUS
 10
15.515244675
 20
13.3007900916
 11
15.5763883874
 21
13.4986512175
  0
LINE
  5
2AB
100
AcDbEntity
  8
0
100
AcDbLine
 62
7
  6
CONTINUOUS
 10
15.6743259291
 20
13.1057091422
 11
15.6471014727
 21
13.0782376032
  0
LINE
  5
2AC
100
AcDbEntity
  8
0
100
AcDbLine
 62
7
  6
CONTINUOUS
 10
17.4451176658
 20
12.2640964225
 11
17.099719793
 21
12.2640964225
  0
LINE
  5
2AD
100
AcDbEntity
  8
0
100
AcDbLine
 62
7
  6
CONTINUOUS
 10
13.5306084413
 20
12.2640964225
 11
13.7783842062
 21
12.2640964225
  0
LINE
  5
2AE
100
AcDbEntity
  8
0
100
AcDbLine
 62
7
  6
CONTINUOUS
 10
15.8945508956
 20
13.1084893187
 11
15.8673264392
 21
13.0810177797
  0
LINE
  5
2AF
100
AcDbEntity
  8
0
100
AcDbLine
 62
7
  6
CONTINUOUS
 10
13.7933059001
 20
11.6990039566
 11
13.7670768648
 21
11.6840242098
  0
LINE
  5
2B0
100
AcDbEntity
  8
0
100
AcDbLine
 62
7
  6
CONTINUOUS
 10
13.4861231691
 20
12.3547478762
 11
13.7858540357
 21
12.3547478762
  0
LINE
  5
2B1
100
AcDbEntity
  8
0
100
AcDbLine
 62
7
  6
CONTINUOUS
 10
17.0552345208
 20
12.3547478762
 11
17.4006323936
 21
12.3547478762
  0
LINE
  5
2B2
100
AcDbEntity
  8
0
100
AcDbLine
 62
7
  6
CONTINUOUS
 10
13.8319537211
 20
11.3729035032
 11
14.0062544405
 21
11.4724489347
  0
LINE
  5
2B3
100
AcDbEntity
  8
0
100
AcDbLine
 62
7
  6
CONTINUOUS
 10
16.7701912741
 20
11.4724489347
 11
16.8829682637
 21
11.3729035032
  0
LINE
  5
2B4
100
AcDbEntity
  8
0
100
AcDbLine
 62
7
  6
CONTINUOUS
 10
16.705140119
 20
11.6840242098
 11
16.6881692675
 21
11.6990039566
  0
LINE
  5
2B5
100
AcDbEntity
  8
0
100
AcDbLine
 62
7
  6
CONTINUOUS
 10
15.955694608
 20
13.3063504446
 11
15.8945508956
 21
13.1084893187
  0
LINE
  5
2B6
100
AcDbEntity
  8
0
100
AcDbLine
 62
7
  6
CONTINUOUS
 10
17.8892900402
 20
12.750643453
 11
17.0883948117
 21
12.750643453
  0
LINE
  5
2B7
100
AcDbEntity
  8
0
100
AcDbLine
 62
7
  6
CONTINUOUS
 10
13.8209694492
 20
12.750643453
 11
13.2609585454
 21
12.750643453
  0
LINE
  5
2B8
100
AcDbEntity
  8
0
100
AcDbLine
 62
7
  6
CONTINUOUS
 10
15.9418035178
 20
12.0571030328
 11
15.7741221583
 21
11.5144859547
  0
LINE
  5
2B9
100
AcDbEntity
  8
0
100
AcDbLine
 62
7
  6
CONTINUOUS
 10
15.8673264392
 20
13.0810177797
 11
15.6471014727
 21
13.0782376032
  0
LINE
  5
2BA
100
AcDbEntity
  8
0
100
AcDbLine
 62
7
  6
CONTINUOUS
 10
15.6743259291
 20
13.1057091422
 11
15.8945508956
 21
13.1084893187
  0
LINE
  5
2BB
100
AcDbEntity
  8
0
100
AcDbLine
 62
7
  6
CONTINUOUS
 10
15.6471014727
 20
13.0782376032
 11
15.4880202186
 21
13.2733185526
  0
LINE
  5
2BC
100
AcDbEntity
  8
0
100
AcDbLine
 62
7
  6
CONTINUOUS
 10
15.6743259291
 20
13.1057091422
 11
15.515244675
 21
13.3007900916
  0
LINE
  5
2BD
100
AcDbEntity
  8
0
100
AcDbLine
 62
7
  6
CONTINUOUS
 10
16.5063836373
 20
11.5605755753
 11
16.4987575907
 21
11.5761158245
  0
LINE
  5
2BE
100
AcDbEntity
  8
0
100
AcDbLine
 62
7
  6
CONTINUOUS
 10
16.8829682637
 20
11.3729035032
 11
16.7647645404
 21
11.6137773659
  0
LINE
  5
2BF
100
AcDbEntity
  8
0
100
AcDbLine
 62
7
  6
CONTINUOUS
 10
15.5763883874
 20
13.4986512175
 11
15.7351253085
 21
13.5006551532
  0
LINE
  5
2C0
100
AcDbEntity
  8
0
100
AcDbLine
 62
7
  6
CONTINUOUS
 10
17.060612023
 20
12.7224286237
 11
16.9070657
 21
12.8069686816
  0
LINE
  5
2C1
100
AcDbEntity
  8
0
100
AcDbLine
 62
7
  6
CONTINUOUS
 10
15.9434789485
 20
13.3213304778
 11
15.955694608
 21
13.3063504446
  0
LWPOLYLINE
  5
2C2
100
AcDbEntity
  8
0
100
AcDbPolyline
 62
7
  6
CONTINUOUS
 90
3
 70
0
 10
16.9070472962
 20
12.8069751682
 10
16.7136713113
 20
12.9293039561
 10
16.498563881
 20
13.0961591278
  0
LINE
  5
2C3
100
AcDbEntity
  8
0
100
AcDbLine
 62
7
  6
CONTINUOUS
 10
16.498563881
 20
13.0961591278
 11
16.2745294021
 21
13.2995442458
  0
LINE
  5
2C4
100
AcDbEntity
  8
0
100
AcDbLine
 62
7
  6
CONTINUOUS
 10
16.2745262403
 20
13.2995476358
 11
16.2276730284
 21
13.3451898083
  0
LINE
  5
2C5
100
AcDbEntity
  8
0
100
AcDbLine
 62
7
  6
CONTINUOUS
 10
17.0725840183
 20
12.6903178521
 11
17.0383843071
 21
12.5796475461
  0
LINE
  5
2C6
100
AcDbEntity
  8
0
100
AcDbLine
 62
7
  6
CONTINUOUS
 10
16.8086109269
 20
11.8361006152
 11
16.7744112157
 21
11.7254303092
  0
LINE
  5
2C7
100
AcDbEntity
  8
0
100
AcDbLine
 62
7
  6
CONTINUOUS
 10
18.0523803462
 20
12.4817967258
 11
17.9341766229
 21
12.7226705885
  0
LINE
  5
2C8
100
AcDbEntity
  8
0
100
AcDbLine
 62
7
  6
CONTINUOUS
 10
18.0535468132
 20
12.4597695903
 11
17.7297831057
 21
11.4120698487
  0
ARC
  5
2C9
100
AcDbEntity
  8
0
100
AcDbCircle
 62
7
  6
CONTINUOUS
 10
6.1303672762
 20
5.5044948968
 40
1.28125
100
AcDbArc
 50
19.8803114816
 51
160.1196885184
  0
CIRCLE
  5
2CA
100
AcDbEntity
  8
0
100
AcDbCircle
 62
7
  6
CONTINUOUS
 10
6.1303672762
 20
5.5044948968
 40
0.95
  0
ARC
  5
2CB
100
AcDbEntity
  8
0
100
AcDbCircle
 62
7
  6
CONTINUOUS
 10
7.0008206789
 20
6.7093805233
 40
0.125
100
AcDbArc
 50
233.1540058898
 51
323.633277675
  0
ARC
  5
2CC
100
AcDbEntity
  8
0
100
AcDbCircle
 62
7
  6
CONTINUOUS
 10
7.3352529027
 20
6.3749482995
 40
0.125
100
AcDbArc
 50
126.3667223255
 51
216.8459941103
  0
ARC
  5
2CD
100
AcDbEntity
  8
0
100
AcDbCircle
 62
7
  6
CONTINUOUS
 10
7.1914693897
 20
6.6363076884
 40
0.09
100
AcDbArc
 50
44.9999999998
 51
180.6659686837
  0
ARC
  5
2CE
100
AcDbEntity
  8
0
100
AcDbCircle
 62
7
  6
CONTINUOUS
 10
7.2621800678
 20
6.5655970103
 40
0.09
100
AcDbArc
 50
269.3340313162
 51
45.0000000001
  0
ARC
  5
2CF
100
AcDbEntity
  8
0
100
AcDbCircle
 62
7
  6
CONTINUOUS
 10
8.6428672762
 20
4.6419948968
 40
0.05
100
AcDbArc
 50
0.0
 51
90.0
  0
ARC
  5
2D0
100
AcDbEntity
  8
0
100
AcDbCircle
 62
7
  6
CONTINUOUS
 10
3.6178672762
 20
4.6419948968
 40
0.05
100
AcDbArc
 50
90.0
 51
180.0
  0
ARC
  5
2D1
100
AcDbEntity
  8
0
100
AcDbCircle
 62
7
  6
CONTINUOUS
 10
7.2552969975
 20
11.9099436147
 40
0.5
100
AcDbArc
 50
50.8044844304
 51
89.9999991135
  0
ARC
  5
2D2
100
AcDbEntity
  8
0
100
AcDbCircle
 62
7
  6
CONTINUOUS
 10
4.8864471702
 20
11.9099436147
 40
0.5
100
AcDbArc
 50
90.0000008865
 51
129.1955155696
  0
ARC
  5
2D3
100
AcDbEntity
  8
0
100
AcDbCircle
 62
7
  6
CONTINUOUS
 10
4.8864471702
 20
13.868276948
 40
0.5
100
AcDbArc
 50
230.8044844304
 51
269.9999991135
  0
ARC
  5
2D4
100
AcDbEntity
  8
0
100
AcDbCircle
 62
7
  6
CONTINUOUS
 10
7.2552969975
 20
13.868276948
 40
0.5
100
AcDbArc
 50
270.0000008865
 51
309.1955155696
  0
ARC
  5
2D5
100
AcDbEntity
  8
0
100
AcDbCircle
 62
7
  6
CONTINUOUS
 10
7.7271220839
 20
12.8891102814
 40
0.474608316
100
AcDbArc
 50
90.0
 51
168.9777197957
  0
ARC
  5
2D6
100
AcDbEntity
  8
0
100
AcDbCircle
 62
7
  6
CONTINUOUS
 10
7.7271220839
 20
12.8891102814
 40
0.474608316
100
AcDbArc
 50
191.1070608206
 51
270.0
  0
ARC
  5
2D7
100
AcDbEntity
  8
0
100
AcDbCircle
 62
7
  6
CONTINUOUS
 10
4.4146220839
 20
12.8891102814
 40
0.474608316
100
AcDbArc
 50
270.0
 51
90.0
  0
ARC
  5
2D8
100
AcDbEntity
  8
0
100
AcDbCircle
 62
7
  6
CONTINUOUS
 10
7.0702155663
 20
12.8890425518
 40
0.2582378887
100
AcDbArc
 50
179.9849726738
 51
195.2523073155
  0
ARC
  5
2D9
100
AcDbEntity
  8
0
100
AcDbCircle
 62
7
  6
CONTINUOUS
 10
7.0690395739
 20
12.8893351007
 40
0.2570584103
100
AcDbArc
 50
164.700910529
 51
180.0501094057
  0
ARC
  5
2DA
100
AcDbEntity
  8
0
100
AcDbCircle
 62
7
  6
CONTINUOUS
 10
8.1958720839
 20
12.8891102814
 40
0.1875
100
AcDbArc
 50
270.0
 51
90.0
  0
ARC
  5
2DB
100
AcDbEntity
  8
0
100
AcDbCircle
 62
7
  6
CONTINUOUS
 10
4.3208720839
 20
12.8891102814
 40
0.1875
100
AcDbArc
 50
270.0
 51
90.0
  0
ARC
  5
2DC
100
AcDbEntity
  8
0
100
AcDbCircle
 62
7
  6
CONTINUOUS
 10
3.9458720839
 20
12.8891102814
 40
0.1875
100
AcDbArc
 50
90.0
 51
270.0
  0
ARC
  5
2DD
100
AcDbEntity
  8
0
100
AcDbCircle
 62
7
  6
CONTINUOUS
 10
7.8208720839
 20
12.8891102814
 40
0.1875
100
AcDbArc
 50
90.0
 51
270.0
  0
ARC
  5
2DE
100
AcDbEntity
  8
0
100
AcDbCircle
 62
7
  6
CONTINUOUS
 10
7.0255952763
 20
12.9832746218
 40
0.1253342116
100
AcDbArc
 50
114.6879426872
 51
115.2325911916
  0
ARC
  5
2DF
100
AcDbEntity
  8
0
100
AcDbCircle
 62
7
  6
CONTINUOUS
 10
7.0255952763
 20
12.7949459409
 40
0.1253342116
100
AcDbArc
 50
244.7674088084
 51
245.312057313
  0
ARC
  5
2E0
100
AcDbEntity
  8
0
100
AcDbCircle
 62
7
  6
CONTINUOUS
 10
6.8958720839
 20
11.7172352814
 40
0.125
100
AcDbArc
 50
270.0
 51
360.0
  0
ARC
  5
2E1
100
AcDbEntity
  8
0
100
AcDbCircle
 62
7
  6
CONTINUOUS
 10
5.2458720839
 20
11.7172352814
 40
0.125
100
AcDbArc
 50
180.0
 51
270.0
  0
ARC
  5
2E2
100
AcDbEntity
  8
0
100
AcDbCircle
 62
7
  6
CONTINUOUS
 10
7.0248838893
 20
12.7933866208
 40
0.1236202903
100
AcDbArc
 50
245.309773745
 51
247.88051619
  0
ARC
  5
2E3
100
AcDbEntity
  8
0
100
AcDbCircle
 62
7
  6
CONTINUOUS
 10
7.0246869475
 20
12.9852889435
 40
0.1231246208
100
AcDbArc
 50
112.1146018466
 51
114.6954020095
  0
ARC
  5
2E4
100
AcDbEntity
  8
0
100
AcDbCircle
 62
7
  6
CONTINUOUS
 10
8.5833720839
 20
12.2203602814
 40
0.05
100
AcDbArc
 50
270.0
 51
360.0
  0
ARC
  5
2E5
100
AcDbEntity
  8
0
100
AcDbCircle
 62
7
  6
CONTINUOUS
 10
8.5833720839
 20
13.5578602814
 40
0.05
100
AcDbArc
 50
0.0
 51
90.0
  0
ARC
  5
2E6
100
AcDbEntity
  8
0
100
AcDbCircle
 62
7
  6
CONTINUOUS
 10
3.5583720839
 20
13.5578602814
 40
0.05
100
AcDbArc
 50
90.0
 51
180.0
  0
ARC
  5
2E7
100
AcDbEntity
  8
0
100
AcDbCircle
 62
7
  6
CONTINUOUS
 10
3.5583720839
 20
12.2203602814
 40
0.05
100
AcDbArc
 50
180.0
 51
270.0
  0
ARC
  5
2E8
100
AcDbEntity
  8
0
100
AcDbCircle
 62
7
  6
CONTINUOUS
 10
15.8494862958
 20
6.4443635504
 40
0.258258254
100
AcDbArc
 50
269.9847943122
 51
285.2506664555
  0
ARC
  5
2E9
100
AcDbEntity
  8
0
100
AcDbCircle
 62
7
  6
CONTINUOUS
 10
15.8492047614
 20
6.4432242279
 40
0.2571155161
100
AcDbArc
 50
254.7044200463
 51
270.0474634873
  0
ARC
  5
2EA
100
AcDbEntity
  8
0
100
AcDbCircle
 62
7
  6
CONTINUOUS
 10
15.7552534165
 20
6.3997228969
 40
0.1253342117
100
AcDbArc
 50
204.6879426877
 51
205.2325911916
  0
ARC
  5
2EB
100
AcDbEntity
  8
0
100
AcDbCircle
 62
7
  6
CONTINUOUS
 10
15.9435820973
 20
6.3997228969
 40
0.1253342117
100
AcDbArc
 50
334.7674088083
 51
335.3120573123
  0
ARC
  5
2EC
100
AcDbEntity
  8
0
100
AcDbCircle
 62
7
  6
CONTINUOUS
 10
14.6775427569
 20
6.2699997044
 40
0.125
100
AcDbArc
 50
90.0
 51
180.0
  0
ARC
  5
2ED
100
AcDbEntity
  8
0
100
AcDbCircle
 62
7
  6
CONTINUOUS
 10
14.6775427569
 20
4.6199997044
 40
0.125
100
AcDbArc
 50
180.0
 51
270.0
  0
ARC
  5
2EE
100
AcDbEntity
  8
0
100
AcDbCircle
 62
7
  6
CONTINUOUS
 10
15.9451412885
 20
6.3990115679
 40
0.1236204318
100
AcDbArc
 50
335.309774336
 51
337.8802219195
  0
ARC
  5
2EF
100
AcDbEntity
  8
0
100
AcDbCircle
 62
7
  6
CONTINUOUS
 10
15.7532389155
 20
6.3988144898
 40
0.1231244252
100
AcDbArc
 50
202.1143064282
 51
204.6954037691
  0
ARC
  5
2F0
100
AcDbEntity
  8
0
100
AcDbCircle
 62
7
  6
CONTINUOUS
 10
15.1806677569
 20
4.5824997044
 40
0.05
100
AcDbArc
 50
90.0
 51
180.0
  0
ARC
  5
2F1
100
AcDbEntity
  8
0
100
AcDbCircle
 62
7
  6
CONTINUOUS
 10
16.5181677569
 20
4.5824997044
 40
0.05
100
AcDbArc
 50
0.0
 51
90.0
  0
ARC
  5
2F2
100
AcDbEntity
  8
0
100
AcDbCircle
 62
7
  6
CONTINUOUS
 10
15.4202510903
 20
6.6762497044
 40
0.05
100
AcDbArc
 50
90.0
 51
180.0
  0
ARC
  5
2F3
100
AcDbEntity
  8
0
100
AcDbCircle
 62
7
  6
CONTINUOUS
 10
16.2785844236
 20
6.6762497044
 40
0.05
100
AcDbArc
 50
0.0
 51
90.0
  0
ARC
  5
2F4
100
AcDbEntity
  8
0
100
AcDbCircle
 62
7
  6
CONTINUOUS
 10
15.0303243713
 20
11.7889830826
 40
1.0449205916
100
AcDbArc
 50
47.8210020743
 51
48.1989785421
  0
ARC
  5
2F5
100
AcDbEntity
  8
0
100
AcDbCircle
 62
7
  6
CONTINUOUS
 10
15.0338017495
 20
11.792798552
 40
1.0397585368
100
AcDbArc
 50
47.8424645433
 51
48.2016821221
  0
ARC
  5
2F6
100
AcDbEntity
  8
0
100
AcDbCircle
 62
7
  6
CONTINUOUS
 10
15.0491233587
 20
11.8096503826
 40
1.0169825131
100
AcDbArc
 50
46.1139536092
 51
47.8240424775
  0
ARC
  5
2F7
100
AcDbEntity
  8
0
100
AcDbCircle
 62
7
  6
CONTINUOUS
 10
15.0504793338
 20
11.8111330592
 40
1.0149736103
100
AcDbArc
 50
46.1111046305
 51
47.8457123922
  0
ARC
  5
2F8
100
AcDbEntity
  8
0
100
AcDbCircle
 62
7
  6
CONTINUOUS
 10
15.1944410899
 20
11.9483874914
 40
0.8159566113
100
AcDbArc
 50
38.1922601325
 51
41.1591119329
  0
ARC
  5
2F9
100
AcDbEntity
  8
0
100
AcDbCircle
 62
7
  6
CONTINUOUS
 10
15.1955394894
 20
11.9492705152
 40
0.814547725
100
AcDbArc
 50
38.1911985004
 51
41.1632344575
  0
ARC
  5
2FA
100
AcDbEntity
  8
0
100
AcDbCircle
 62
7
  6
CONTINUOUS
 10
14.3474587224
 20
10.8756690836
 40
0.6874290712
100
AcDbArc
 50
106.6884372806
 51
119.7584298904
  0
ARC
  5
2FB
100
AcDbEntity
  8
0
100
AcDbCircle
 62
7
  6
CONTINUOUS
 10
15.3412938075
 20
12.0547060777
 40
0.6345171343
100
AcDbArc
 50
29.1935833247
 51
32.8744000535
  0
ARC
  5
2FC
100
AcDbEntity
  8
0
100
AcDbCircle
 62
7
  6
CONTINUOUS
 10
15.3427116594
 20
12.0555836304
 40
0.6328512755
100
AcDbArc
 50
29.1868296811
 51
32.8772913346
  0
ARC
  5
2FD
100
AcDbEntity
  8
0
100
AcDbCircle
 62
7
  6
CONTINUOUS
 10
15.3915611783
 20
12.083232847
 40
0.5767207476
100
AcDbArc
 50
26.046505542
 51
29.1553646114
  0
ARC
  5
2FE
100
AcDbEntity
  8
0
100
AcDbCircle
 62
7
  6
CONTINUOUS
 10
12.93719868
 20
11.6529440538
 40
0.0500034133
100
AcDbArc
 50
162.8293032211
 51
206.1369259322
  0
ARC
  5
2FF
100
AcDbEntity
  8
0
100
AcDbCircle
 62
7
  6
CONTINUOUS
 10
14.5505732925
 20
12.4042261974
 40
0.4892136716
100
AcDbArc
 50
123.6928628485
 51
125.2407529097
  0
ARC
  5
300
100
AcDbEntity
  8
0
100
AcDbCircle
 62
7
  6
CONTINUOUS
 10
14.5489134533
 20
12.4066960956
 40
0.4862381952
100
AcDbArc
 50
123.6916041788
 51
125.3316174769
  0
ARC
  5
301
100
AcDbEntity
  8
0
100
AcDbCircle
 62
7
  6
CONTINUOUS
 10
14.538483079
 20
12.4213690828
 40
0.4682362678
100
AcDbArc
 50
125.2428548365
 51
127.5744101984
  0
ARC
  5
302
100
AcDbEntity
  8
0
100
AcDbCircle
 62
7
  6
CONTINUOUS
 10
14.4718859213
 20
12.4950365859
 40
0.3687305512
100
AcDbArc
 50
137.4385899968
 51
141.9383528117
  0
ARC
  5
303
100
AcDbEntity
  8
0
100
AcDbCircle
 62
7
  6
CONTINUOUS
 10
14.5976227792
 20
12.6339937312
 40
0.3280781582
100
AcDbArc
 50
137.6807382464
 51
138.4277542595
  0
ARC
  5
304
100
AcDbEntity
  8
0
100
AcDbCircle
 62
7
  6
CONTINUOUS
 10
14.4293469837
 20
12.5239798762
 40
0.3171454367
100
AcDbArc
 50
153.2765708543
 51
156.8633161472
  0
ARC
  5
305
100
AcDbEntity
  8
0
100
AcDbCircle
 62
7
  6
CONTINUOUS
 10
14.4254114948
 20
12.5256959051
 40
0.312852208
100
AcDbArc
 50
156.8691131088
 51
162.8077648881
  0
ARC
  5
306
100
AcDbEntity
  8
0
100
AcDbCircle
 62
7
  6
CONTINUOUS
 10
13.7406635737
 20
12.270958889
 40
0.2099586202
100
AcDbArc
 50
270.022539917
 51
275.3120254891
  0
ARC
  5
307
100
AcDbEntity
  8
0
100
AcDbCircle
 62
7
  6
CONTINUOUS
 10
13.2609577046
 20
12.7006448051
 40
0.0499980047
100
AcDbArc
 50
90.0123383081
 51
162.8288243926
  0
ARC
  5
308
100
AcDbEntity
  8
0
100
AcDbCircle
 62
7
  6
CONTINUOUS
 10
15.4310160985
 20
12.1028060952
 40
0.5326752971
100
AcDbArc
 50
22.9979923235
 51
26.0242092979
  0
ARC
  5
309
100
AcDbEntity
  8
0
100
AcDbCircle
 62
7
  6
CONTINUOUS
 10
15.4312969626
 20
12.102984787
 40
0.5323470234
100
AcDbArc
 50
22.9920823305
 51
26.1483024747
  0
ARC
  5
30A
100
AcDbEntity
  8
0
100
AcDbCircle
 62
7
  6
CONTINUOUS
 10
16.824087439
 20
12.1034440725
 40
0.3535098664
100
AcDbArc
 50
162.8179335422
 51
165.2266768453
  0
ARC
  5
30B
100
AcDbEntity
  8
0
100
AcDbCircle
 62
7
  6
CONTINUOUS
 10
15.4723857811
 20
12.1205128387
 40
0.4876758302
100
AcDbArc
 50
18.4210112292
 51
22.9819608807
  0
ARC
  5
30C
100
AcDbEntity
  8
0
100
AcDbCircle
 62
7
  6
CONTINUOUS
 10
15.4734386206
 20
12.1208917076
 40
0.4865585559
100
AcDbArc
 50
18.4177897795
 51
22.9893124419
  0
ARC
  5
30D
100
AcDbEntity
  8
0
100
AcDbCircle
 62
7
  6
CONTINUOUS
 10
15.5583709959
 20
12.1459131448
 40
0.397928649
100
AcDbArc
 50
9.0513541104
 51
12.5235201316
  0
ARC
  5
30E
100
AcDbEntity
  8
0
100
AcDbCircle
 62
7
  6
CONTINUOUS
 10
15.5790127402
 20
12.1493577047
 40
0.3770025718
100
AcDbArc
 50
6.1784872848
 51
9.1261609663
  0
ARC
  5
30F
100
AcDbEntity
  8
0
100
AcDbCircle
 62
7
  6
CONTINUOUS
 10
15.6300683598
 20
12.1513062336
 40
0.3258132741
100
AcDbArc
 50
353.0004619645
 51
356.638105592
  0
ARC
  5
310
100
AcDbEntity
  8
0
100
AcDbCircle
 62
7
  6
CONTINUOUS
 10
15.6364660048
 20
12.1505986728
 40
0.319377095
100
AcDbArc
 50
352.236108469
 51
352.9865876252
  0
ARC
  5
311
100
AcDbEntity
  8
0
100
AcDbCircle
 62
7
  6
CONTINUOUS
 10
15.6415772811
 20
12.1497894376
 40
0.3142033721
100
AcDbArc
 50
342.8249632247
 51
352.2564095481
  0
ARC
  5
312
100
AcDbEntity
  8
0
100
AcDbCircle
 62
7
  6
CONTINUOUS
 10
15.6872589656
 20
13.3561454373
 40
0.1480025737
100
AcDbArc
 50
154.953405911
 51
162.877117369
  0
ARC
  5
313
100
AcDbEntity
  8
0
100
AcDbCircle
 62
7
  6
CONTINUOUS
 10
15.6521149836
 20
13.3199581366
 40
0.1446196783
100
AcDbArc
 50
162.8448224677
 51
167.2084337709
  0
ARC
  5
314
100
AcDbEntity
  8
0
100
AcDbCircle
 62
7
  6
CONTINUOUS
 10
15.6836991952
 20
13.3577646143
 40
0.1440920692
100
AcDbArc
 50
153.4362984848
 51
154.9374483462
  0
ARC
  5
315
100
AcDbEntity
  8
0
100
AcDbCircle
 62
7
  6
CONTINUOUS
 10
15.7903939279
 20
13.2517339224
 40
0.143477333
100
AcDbArc
 50
295.7060303761
 51
296.6970547194
  0
ARC
  5
316
100
AcDbEntity
  8
0
100
AcDbCircle
 62
7
  6
CONTINUOUS
 10
15.7909285636
 20
13.2506730529
 40
0.1422893607
100
AcDbArc
 50
296.6966438217
 51
298.0215124742
  0
ARC
  5
317
100
AcDbEntity
  8
0
100
AcDbCircle
 62
7
  6
CONTINUOUS
 10
15.6495890844
 20
13.3206936626
 40
0.1419892129
100
AcDbArc
 50
158.3851040042
 51
162.8277781883
  0
ARC
  5
318
100
AcDbEntity
  8
0
100
AcDbCircle
 62
7
  6
CONTINUOUS
 10
17.8892900358
 20
12.7006434459
 40
0.0500000071
100
AcDbArc
 50
26.1385183124
 51
89.9999949121
  0
SPLINE
  5
319
100
AcDbEntity
  8
0
100
AcDbSpline
 62
7
  6
CONTINUOUS
 70
0
 71
3
 72
31
 73
27
 74
0
 42
0.0000001
 43
0.0000001
 44
0.0000000001
 40
0.0
 40
0.0
 40
0.0
 40
0.0
 40
0.0634140763
 40
0.1265847404
 40
0.1580097624
 40
0.1893260534
 40
0.2516197664
 40
0.3136812661
 40
0.3447102014
 40
0.3757363479
 40
0.4067609904
 40
0.4377966955
 40
0.4688399978
 40
0.4998886489
 40
0.5618958719
 40
0.5929382443
 40
0.6239817934
 40
0.6550243507
 40
0.6860814408
 40
0.7171660592
 40
0.7482749646
 40
0.8106098335
 40
0.8419416495
 40
0.8733841955
 40
0.9365817451
 40
1.0
 40
1.0
 40
1.0
 40
1.0
 10
7.2926848755
 20
12.8891102814
 30
0.0
 10
7.2926848755
 20
12.8802870977
 30
0.0
 10
7.2912287342
 20
12.8626425934
 30
0.0
 10
7.285782224
 20
12.8412280644
 30
0.0
 10
7.2792694255
 20
12.8249417826
 30
0.0
 10
7.2713784807
 20
12.8094151006
 30
0.0
 10
7.258918839
 20
12.7915292375
 30
0.0
 10
7.2431939091
 20
12.776457594
 30
0.0
 10
7.2289934337
 20
12.7665820644
 30
0.0
 10
7.217609176
 20
12.7603537222
 30
0.0
 10
7.2056165499
 20
12.7553939629
 30
0.0
 10
7.1931445548
 20
12.7517965371
 30
0.0
 10
7.1803447752
 20
12.74960355
 30
0.0
 10
7.1630780829
 20
12.7486226237
 30
0.0
 10
7.145746326
 20
12.7505739576
 30
0.0
 10
7.1291316084
 20
12.7553684234
 30
0.0
 10
7.1171251434
 20
12.7603140629
 30
0.0
 10
7.1057313305
 20
12.7665418992
 30
0.0
 10
7.0950658685
 20
12.7739556718
 30
0.0
 10
7.0852184131
 20
12.7824404109
 30
0.0
 10
7.0732981283
 20
12.7950469882
 30
0.0
 10
7.0632933505
 20
12.8093897027
 30
0.0
 10
7.0553978876
 20
12.8249230441
 30
0.0
 10
7.0488799688
 20
12.8412168929
 30
0.0
 10
7.0434311399
 20
12.8626376534
 30
0.0
 10
7.0419741974
 20
12.8802865163
 30
0.0
 10
7.0419741974
 20
12.8891102814
 30
0.0
  0
SPLINE
  5
31A
100
AcDbEntity
  8
0
100
AcDbSpline
 62
7
  6
CONTINUOUS
 70
0
 71
3
 72
31
 73
27
 74
0
 42
0.0000001
 43
0.0000001
 44
0.0000000001
 40
0.0
 40
0.0
 40
0.0
 40
0.0
 40
0.0634140763
 40
0.1265847404
 40
0.1580097624
 40
0.1893260534
 40
0.2516197664
 40
0.3136812661
 40
0.3447102014
 40
0.3757363479
 40
0.4067609904
 40
0.4377966955
 40
0.4688399978
 40
0.4998886489
 40
0.5618958719
 40
0.5929382443
 40
0.6239817934
 40
0.6550243507
 40
0.6860814408
 40
0.7171660592
 40
0.7482749646
 40
0.8106098335
 40
0.8419416495
 40
0.8733841955
 40
0.9365817451
 40
1.0
 40
1.0
 40
1.0
 40
1.0
 10
7.0419741974
 20
12.8891102814
 30
0.0
 10
7.0419741974
 20
12.897933465
 30
0.0
 10
7.0434303387
 20
12.9155779694
 30
0.0
 10
7.0488768489
 20
12.9369924983
 30
0.0
 10
7.0553896473
 20
12.9532787802
 30
0.0
 10
7.0632805922
 20
12.9688054622
 30
0.0
 10
7.0757402338
 20
12.9866913253
 30
0.0
 10
7.0914651638
 20
13.0017629688
 30
0.0
 10
7.1056656392
 20
13.0116384984
 30
0.0
 10
7.1170498968
 20
13.0178668405
 30
0.0
 10
7.129042523
 20
13.0228265999
 30
0.0
 10
7.141514518
 20
13.0264240256
 30
0.0
 10
7.1543142977
 20
13.0286170127
 30
0.0
 10
7.17158099
 20
13.0295979391
 30
0.0
 10
7.1889127469
 20
13.0276466052
 30
0.0
 10
7.2055274644
 20
13.0228521393
 30
0.0
 10
7.2175339294
 20
13.0179064999
 30
0.0
 10
7.2289277423
 20
13.0116786635
 30
0.0
 10
7.2395932043
 20
13.0042648909
 30
0.0
 10
7.2494406598
 20
12.9957801519
 30
0.0
 10
7.2613609446
 20
12.9831735745
 30
0.0
 10
7.2713657223
 20
12.9688308601
 30
0.0
 10
7.2792611853
 20
12.9532975186
 30
0.0
 10
7.2857791041
 20
12.9370036698
 30
0.0
 10
7.291227933
 20
12.9155829094
 30
0.0
 10
7.2926848755
 20
12.8979340464
 30
0.0
 10
7.2926848755
 20
12.8891102814
 30
0.0
  0
SPLINE
  5
31B
100
AcDbEntity
  8
0
100
AcDbSpline
 62
7
  6
CONTINUOUS
 70
0
 71
3
 72
9
 73
5
 74
0
 42
0.0000001
 43
0.0000001
 44
0.0000000001
 40
0.0
 40
0.0
 40
0.0
 40
0.0
 40
0.4840244259
 40
1.0
 40
1.0
 40
1.0
 40
1.0
 10
7.0983866253
 20
12.6996672243
 30
0.0
 10
7.1068885241
 20
12.7066089956
 30
0.0
 10
7.1229335691
 20
12.7228704449
 30
0.0
 10
7.1357274648
 20
12.7417379924
 30
0.0
 10
7.1415174181
 20
12.7519054268
 30
0.0
  0
SPLINE
  5
31C
100
AcDbEntity
  8
0
100
AcDbSpline
 62
7
  6
CONTINUOUS
 70
0
 71
3
 72
15
 73
11
 74
0
 42
0.0000001
 43
0.0000001
 44
0.0000000001
 40
0.0
 40
0.0
 40
0.0
 40
0.0
 40
0.1331269471
 40
0.2622104898
 40
0.3877600591
 40
0.5107188417
 40
0.6322345119
 40
0.7534973369
 40
0.8756923224
 40
1.0
 40
1.0
 40
1.0
 40
1.0
 10
7.0983866253
 20
13.0785533384
 30
0.0
 10
7.0939835248
 20
13.0821484549
 30
0.0
 10
7.0849031854
 20
13.0887495875
 30
0.0
 10
7.0703976744
 20
13.0968183366
 30
0.0
 10
7.0553685218
 20
13.1027861946
 30
0.0
 10
7.039981299
 20
13.1065888846
 30
0.0
 10
7.0243930501
 20
13.1081761469
 30
0.0
 10
7.0087688324
 20
13.1075409089
 30
0.0
 10
6.9932777077
 20
13.1046824034
 30
0.0
 10
6.98325282
 20
13.1013535788
 30
0.0
 10
6.9783354063
 20
13.0993556209
 30
0.0
  0
SPLINE
  5
31D
100
AcDbEntity
  8
0
100
AcDbSpline
 62
7
  6
CONTINUOUS
 70
0
 71
3
 72
9
 73
5
 74
0
 42
0.0000001
 43
0.0000001
 44
0.0000000001
 40
0.0
 40
0.0
 40
0.0
 40
0.0
 40
0.4922453144
 40
1.0
 40
1.0
 40
1.0
 40
1.0
 10
6.9721660652
 20
13.0966500336
 30
0.0
 10
6.9671509875
 20
13.0942866665
 30
0.0
 10
6.9572719066
 20
13.088807183
 30
0.0
 10
6.9481367264
 20
13.0821701811
 30
0.0
 10
6.9437070169
 20
13.0785533384
 30
0.0
  0
SPLINE
  5
31E
100
AcDbEntity
  8
0
100
AcDbSpline
 62
7
  6
CONTINUOUS
 70
0
 71
3
 72
9
 73
5
 74
0
 42
0.0000001
 43
0.0000001
 44
0.0000000001
 40
0.0
 40
0.0
 40
0.0
 40
0.0
 40
0.5161300948
 40
1.0
 40
1.0
 40
1.0
 40
1.0
 10
7.141905078
 20
13.0256315876
 30
0.0
 10
7.136083023
 20
13.0359396825
 30
0.0
 10
7.1231962592
 20
13.0550636127
 30
0.0
 10
7.1069836164
 20
13.0715339246
 30
0.0
 10
7.0983866253
 20
13.0785533384
 30
0.0
  0
SPLINE
  5
31F
100
AcDbEntity
  8
0
100
AcDbSpline
 62
7
  6
CONTINUOUS
 70
0
 71
3
 72
9
 73
5
 74
0
 42
0.0000001
 43
0.0000001
 44
0.0000000001
 40
0.0
 40
0.0
 40
0.0
 40
0.0
 40
0.5077546856
 40
1.0
 40
1.0
 40
1.0
 40
1.0
 10
6.9437070169
 20
12.6996672243
 30
0.0
 10
6.9481367264
 20
12.6960503816
 30
0.0
 10
6.9572719066
 20
12.6894133798
 30
0.0
 10
6.9671509875
 20
12.6839338963
 30
0.0
 10
6.9721660652
 20
12.6815705291
 30
0.0
  0
SPLINE
  5
320
100
AcDbEntity
  8
0
100
AcDbSpline
 62
7
  6
CONTINUOUS
 70
0
 71
3
 72
15
 73
11
 74
0
 42
0.0000001
 43
0.0000001
 44
0.0000000001
 40
0.0
 40
0.0
 40
0.0
 40
0.0
 40
0.1243075827
 40
0.2465025227
 40
0.3677653418
 40
0.4892810336
 40
0.6122398541
 40
0.7377894648
 40
0.8668730391
 40
1.0
 40
1.0
 40
1.0
 40
1.0
 10
6.9783359901
 20
12.6788647047
 30
0.0
 10
6.9832533861
 20
12.6768667835
 30
0.0
 10
6.9932782353
 20
12.673538027
 30
0.0
 10
7.0087692901
 20
12.6706796062
 30
0.0
 10
7.0243934318
 20
12.6700444311
 30
0.0
 10
7.0399816011
 20
12.6716317344
 30
0.0
 10
7.055368743
 20
12.6754344429
 30
0.0
 10
7.0703978162
 20
12.6814022974
 30
0.0
 10
7.0849032515
 20
12.6894710215
 30
0.0
 10
7.0939835459
 20
12.6960721251
 30
0.0
 10
7.0983866253
 20
12.6996672243
 30
0.0
  0
SPLINE
  5
321
100
AcDbEntity
  8
0
100
AcDbSpline
 62
7
  6
CONTINUOUS
 70
0
 71
3
 72
15
 73
11
 74
0
 42
0.0000001
 43
0.0000001
 44
0.0000000001
 40
0.0
 40
0.0
 40
0.0
 40
0.0
 40
0.1354937069
 40
0.2699497245
 40
0.4020761527
 40
0.5309525127
 40
0.6557318145
 40
0.7163908292
 40
0.7758144437
 40
1.0
 40
1.0
 40
1.0
 40
1.0
 10
6.8663672127
 20
12.8891102814
 30
0.0
 10
6.8663672127
 20
12.8795860698
 30
0.0
 10
6.8672461303
 20
12.8605989097
 30
0.0
 10
6.8711671774
 20
12.8325693136
 30
0.0
 10
6.8776383907
 20
12.8054890237
 30
0.0
 10
6.8865479788
 20
12.7798282063
 30
0.0
 10
6.8959636189
 20
12.7597891839
 30
0.0
 10
6.9046011657
 20
12.7448872187
 30
0.0
 10
6.9179424617
 20
12.7247063203
 30
0.0
 10
6.9315004605
 20
12.7096338359
 30
0.0
 10
6.9437070169
 20
12.6996672243
 30
0.0
  0
SPLINE
  5
322
100
AcDbEntity
  8
0
100
AcDbSpline
 62
7
  6
CONTINUOUS
 70
0
 71
3
 72
15
 73
11
 74
0
 42
0.0000001
 43
0.0000001
 44
0.0000000001
 40
0.0
 40
0.0
 40
0.0
 40
0.0
 40
0.2241855563
 40
0.2836091708
 40
0.3442681855
 40
0.4690474873
 40
0.5979238473
 40
0.7300502755
 40
0.8645062931
 40
1.0
 40
1.0
 40
1.0
 40
1.0
 10
6.9437070169
 20
13.0785533384
 30
0.0
 10
6.9315004605
 20
13.0685867269
 30
0.0
 10
6.9179424617
 20
13.0535142424
 30
0.0
 10
6.9046011657
 20
13.033333344
 30
0.0
 10
6.8959636189
 20
13.0184313789
 30
0.0
 10
6.8865479788
 20
12.9983923565
 30
0.0
 10
6.8776383907
 20
12.972731539
 30
0.0
 10
6.8711671774
 20
12.9456512491
 30
0.0
 10
6.8672461303
 20
12.917621653
 30
0.0
 10
6.8663672127
 20
12.8986344929
 30
0.0
 10
6.8663672127
 20
12.8891102814
 30
0.0
  0
SPLINE
  5
323
100
AcDbEntity
  8
0
100
AcDbSpline
 62
7
  6
CONTINUOUS
 70
0
 71
3
 72
31
 73
27
 74
0
 42
0.0000001
 43
0.0000001
 44
0.0000000001
 40
0.0
 40
0.0
 40
0.0
 40
0.0
 40
0.0634140763
 40
0.1265847404
 40
0.1580097624
 40
0.1893260534
 40
0.2516197664
 40
0.3136812661
 40
0.3447102014
 40
0.3757363479
 40
0.4067609904
 40
0.4377966955
 40
0.4688399978
 40
0.4998886489
 40
0.5618958719
 40
0.5929382443
 40
0.6239817934
 40
0.6550243507
 40
0.6860814408
 40
0.7171660592
 40
0.7482749646
 40
0.8106098335
 40
0.8419416495
 40
0.8733841955
 40
0.9365817451
 40
1.0
 40
1.0
 40
1.0
 40
1.0
 10
15.8494177569
 20
6.416101818
 30
0.0
 10
15.8405945733
 20
6.416101818
 30
0.0
 10
15.8229500689
 20
6.4175579593
 30
0.0
 10
15.80153554
 20
6.4230044695
 30
0.0
 10
15.7852492581
 20
6.4295172679
 30
0.0
 10
15.7697225761
 20
6.4374082127
 30
0.0
 10
15.751836713
 20
6.4498678544
 30
0.0
 10
15.7367650695
 20
6.4655927844
 30
0.0
 10
15.7268895399
 20
6.4797932598
 30
0.0
 10
15.7206611978
 20
6.4911775174
 30
0.0
 10
15.7157014384
 20
6.5031701436
 30
0.0
 10
15.7121040127
 20
6.5156421386
 30
0.0
 10
15.7099110256
 20
6.5284419183
 30
0.0
 10
15.7089300992
 20
6.5457086106
 30
0.0
 10
15.7108814331
 20
6.5630403675
 30
0.0
 10
15.715675899
 20
6.579655085
 30
0.0
 10
15.7206215384
 20
6.59166155
 30
0.0
 10
15.7268493748
 20
6.6030553629
 30
0.0
 10
15.7342631474
 20
6.6137208249
 30
0.0
 10
15.7427478864
 20
6.6235682804
 30
0.0
 10
15.7553544638
 20
6.6354885651
 30
0.0
 10
15.7696971783
 20
6.6454933429
 30
0.0
 10
15.7852305197
 20
6.6533888059
 30
0.0
 10
15.8015243685
 20
6.6599067246
 30
0.0
 10
15.8229451289
 20
6.6653555536
 30
0.0
 10
15.8405939919
 20
6.6668124961
 30
0.0
 10
15.8494177569
 20
6.6668124961
 30
0.0
  0
SPLINE
  5
324
100
AcDbEntity
  8
0
100
AcDbSpline
 62
7
  6
CONTINUOUS
 70
0
 71
3
 72
31
 73
27
 74
0
 42
0.0000001
 43
0.0000001
 44
0.0000000001
 40
0.0
 40
0.0
 40
0.0
 40
0.0
 40
0.0634140763
 40
0.1265847404
 40
0.1580097624
 40
0.1893260534
 40
0.2516197664
 40
0.3136812661
 40
0.3447102014
 40
0.3757363479
 40
0.4067609904
 40
0.4377966955
 40
0.4688399978
 40
0.4998886489
 40
0.5618958719
 40
0.5929382443
 40
0.6239817934
 40
0.6550243507
 40
0.6860814408
 40
0.7171660592
 40
0.7482749646
 40
0.8106098335
 40
0.8419416495
 40
0.8733841955
 40
0.9365817451
 40
1.0
 40
1.0
 40
1.0
 40
1.0
 10
15.8494177569
 20
6.6668124961
 30
0.0
 10
15.8582409406
 20
6.6668124961
 30
0.0
 10
15.8758854449
 20
6.6653563548
 30
0.0
 10
15.8972999739
 20
6.6599098446
 30
0.0
 10
15.9135862557
 20
6.6533970461
 30
0.0
 10
15.9291129377
 20
6.6455061013
 30
0.0
 10
15.9469988008
 20
6.6330464596
 30
0.0
 10
15.9620704443
 20
6.6173215297
 30
0.0
 10
15.9719459739
 20
6.6031210543
 30
0.0
 10
15.9781743161
 20
6.5917367966
 30
0.0
 10
15.9831340754
 20
6.5797441705
 30
0.0
 10
15.9867315012
 20
6.5672721754
 30
0.0
 10
15.9889244883
 20
6.5544723957
 30
0.0
 10
15.9899054147
 20
6.5372057034
 30
0.0
 10
15.9879540808
 20
6.5198739465
 30
0.0
 10
15.9831596149
 20
6.503259229
 30
0.0
 10
15.9782139754
 20
6.491252764
 30
0.0
 10
15.9719861391
 20
6.4798589511
 30
0.0
 10
15.9645723665
 20
6.4691934891
 30
0.0
 10
15.9560876274
 20
6.4593460337
 30
0.0
 10
15.9434810501
 20
6.4474257489
 30
0.0
 10
15.9291383356
 20
6.4374209711
 30
0.0
 10
15.9136049942
 20
6.4295255082
 30
0.0
 10
15.8973111454
 20
6.4230075894
 30
0.0
 10
15.8758903849
 20
6.4175587605
 30
0.0
 10
15.858241522
 20
6.416101818
 30
0.0
 10
15.8494177569
 20
6.416101818
 30
0.0
  0
SPLINE
  5
325
100
AcDbEntity
  8
0
100
AcDbSpline
 62
7
  6
CONTINUOUS
 70
0
 71
3
 72
15
 73
11
 74
0
 42
0.0000001
 43
0.0000001
 44
0.0000000001
 40
0.0
 40
0.0
 40
0.0
 40
0.0
 40
0.1331269609
 40
0.2622105351
 40
0.3877601458
 40
0.5107189663
 40
0.6322346582
 40
0.7534974772
 40
0.8756924172
 40
1.0
 40
1.0
 40
1.0
 40
1.0
 10
15.6599746999
 20
6.4725142459
 30
0.0
 10
15.6563796006
 20
6.4681111665
 30
0.0
 10
15.6497784971
 20
6.4590308721
 30
0.0
 10
15.6417097729
 20
6.4445254367
 30
0.0
 10
15.6357419184
 20
6.4294963635
 30
0.0
 10
15.6319392099
 20
6.4141092215
 30
0.0
 10
15.6303519067
 20
6.3985210522
 30
0.0
 10
15.6309870818
 20
6.3828969105
 30
0.0
 10
15.6338455026
 20
6.3674058556
 30
0.0
 10
15.6371742591
 20
6.3573810065
 30
0.0
 10
15.6391721804
 20
6.3524636104
 30
0.0
  0
SPLINE
  5
326
100
AcDbEntity
  8
0
100
AcDbSpline
 62
7
  6
CONTINUOUS
 70
0
 71
3
 72
9
 73
5
 74
0
 42
0.0000001
 43
0.0000001
 44
0.0000000001
 40
0.0
 40
0.0
 40
0.0
 40
0.0
 40
0.4922453144
 40
1.0
 40
1.0
 40
1.0
 40
1.0
 10
15.6418780047
 20
6.3462936858
 30
0.0
 10
15.6442413718
 20
6.3412786081
 30
0.0
 10
15.6497208553
 20
6.3313995272
 30
0.0
 10
15.6563578572
 20
6.322264347
 30
0.0
 10
15.6599746999
 20
6.3178346375
 30
0.0
  0
SPLINE
  5
327
100
AcDbEntity
  8
0
100
AcDbSpline
 62
7
  6
CONTINUOUS
 70
0
 71
3
 72
9
 73
5
 74
0
 42
0.0000001
 43
0.0000001
 44
0.0000000001
 40
0.0
 40
0.0
 40
0.0
 40
0.0
 40
0.5161300948
 40
1.0
 40
1.0
 40
1.0
 40
1.0
 10
15.7128964507
 20
6.5160326986
 30
0.0
 10
15.7025883558
 20
6.5102106435
 30
0.0
 10
15.6834644256
 20
6.4973238797
 30
0.0
 10
15.6669941137
 20
6.481111237
 30
0.0
 10
15.6599746999
 20
6.4725142459
 30
0.0
  0
SPLINE
  5
328
100
AcDbEntity
  8
0
100
AcDbSpline
 62
7
  6
CONTINUOUS
 70
0
 71
3
 72
9
 73
5
 74
0
 42
0.0000001
 43
0.0000001
 44
0.0000000001
 40
0.0
 40
0.0
 40
0.0
 40
0.0
 40
0.4840244259
 40
1.0
 40
1.0
 40
1.0
 40
1.0
 10
16.038860814
 20
6.4725142459
 30
0.0
 10
16.0319190427
 20
6.4810161446
 30
0.0
 10
16.0156575934
 20
6.4970611897
 30
0.0
 10
15.9967900459
 20
6.5098550854
 30
0.0
 10
15.9866226115
 20
6.5156450387
 30
0.0
  0
SPLINE
  5
329
100
AcDbEntity
  8
0
100
AcDbSpline
 62
7
  6
CONTINUOUS
 70
0
 71
3
 72
15
 73
11
 74
0
 42
0.0000001
 43
0.0000001
 44
0.0000000001
 40
0.0
 40
0.0
 40
0.0
 40
0.0
 40
0.2241855562
 40
0.2836091708
 40
0.3442681855
 40
0.4690474873
 40
0.5979238473
 40
0.7300502755
 40
0.8645062931
 40
1.0
 40
1.0
 40
1.0
 40
1.0
 10
15.6599746999
 20
6.3178346375
 30
0.0
 10
15.6699413114
 20
6.3056280811
 30
0.0
 10
15.6850137959
 20
6.2920700823
 30
0.0
 10
15.7051946943
 20
6.2787287863
 30
0.0
 10
15.7200966594
 20
6.2700912395
 30
0.0
 10
15.7401356818
 20
6.2606755994
 30
0.0
 10
15.7657964993
 20
6.2517660113
 30
0.0
 10
15.7928767892
 20
6.245294798
 30
0.0
 10
15.8209063853
 20
6.2413737509
 30
0.0
 10
15.8398935454
 20
6.2404948333
 30
0.0
 10
15.8494177569
 20
6.2404948333
 30
0.0
  0
SPLINE
  5
32A
100
AcDbEntity
  8
0
100
AcDbSpline
 62
7
  6
CONTINUOUS
 70
0
 71
3
 72
9
 73
5
 74
0
 42
0.0000001
 43
0.0000001
 44
0.0000000001
 40
0.0
 40
0.0
 40
0.0
 40
0.0
 40
0.5077546856
 40
1.0
 40
1.0
 40
1.0
 40
1.0
 10
16.038860814
 20
6.3178346375
 30
0.0
 10
16.0424776567
 20
6.322264347
 30
0.0
 10
16.0491146586
 20
6.3313995272
 30
0.0
 10
16.054594142
 20
6.3412786081
 30
0.0
 10
16.0569575092
 20
6.3462936858
 30
0.0
  0
SPLINE
  5
32B
100
AcDbEntity
  8
0
100
AcDbSpline
 62
7
  6
CONTINUOUS
 70
0
 71
3
 72
15
 73
11
 74
0
 42
0.0000001
 43
0.0000001
 44
0.0000000001
 40
0.0
 40
0.0
 40
0.0
 40
0.0
 40
0.1243076775
 40
0.246502663
 40
0.367765488
 40
0.4892811583
 40
0.6122399408
 40
0.7377895102
 40
0.8668730529
 40
1.0
 40
1.0
 40
1.0
 40
1.0
 10
16.0596630965
 20
6.3524630271
 30
0.0
 10
16.0616610545
 20
6.3573804408
 30
0.0
 10
16.0649898791
 20
6.3674053285
 30
0.0
 10
16.0678483845
 20
6.3828964531
 30
0.0
 10
16.0684836224
 20
6.3985206708
 30
0.0
 10
16.0668963602
 20
6.4141089197
 30
0.0
 10
16.0630936701
 20
6.4294961424
 30
0.0
 10
16.0571258121
 20
6.444525295
 30
0.0
 10
16.049057063
 20
6.459030806
 30
0.0
 10
16.0424559305
 20
6.4681111454
 30
0.0
 10
16.038860814
 20
6.4725142459
 30
0.0
  0
SPLINE
  5
32C
100
AcDbEntity
  8
0
100
AcDbSpline
 62
7
  6
CONTINUOUS
 70
0
 71
3
 72
15
 73
11
 74
0
 42
0.0000001
 43
0.0000001
 44
0.0000000001
 40
0.0
 40
0.0
 40
0.0
 40
0.0
 40
0.1354937069
 40
0.2699497245
 40
0.4020761527
 40
0.5309525127
 40
0.6557318145
 40
0.7163908292
 40
0.7758144438
 40
1.0
 40
1.0
 40
1.0
 40
1.0
 10
15.8494177569
 20
6.2404948333
 30
0.0
 10
15.8589419685
 20
6.2404948333
 30
0.0
 10
15.8779291286
 20
6.2413737509
 30
0.0
 10
15.9059587247
 20
6.245294798
 30
0.0
 10
15.9330390146
 20
6.2517660113
 30
0.0
 10
15.9586998321
 20
6.2606755994
 30
0.0
 10
15.9787388544
 20
6.2700912395
 30
0.0
 10
15.9936408196
 20
6.2787287863
 30
0.0
 10
16.013821718
 20
6.2920700823
 30
0.0
 10
16.0288942024
 20
6.3056280811
 30
0.0
 10
16.038860814
 20
6.3178346375
 30
0.0
  0
SPLINE
  5
32D
100
AcDbEntity
  8
0
100
AcDbSpline
 62
7
  6
CONTINUOUS
 70
0
 71
3
 72
21
 73
17
 74
0
 42
0.0000001
 43
0.0000001
 44
0.0000000001
 40
0.0
 40
0.0
 40
0.0
 40
0.0
 40
0.123341642
 40
0.1854630775
 40
0.247865331
 40
0.3105483011
 40
0.3735265242
 40
0.4367038977
 40
0.4999999576
 40
0.5632976729
 40
0.626476796
 40
0.6894537573
 40
0.7521348642
 40
0.8145376388
 40
0.8766605104
 40
1.0
 40
1.0
 40
1.0
 40
1.0
 10
15.7026840804
 20
5.8806969918
 30
0.0
 10
15.7125871298
 20
5.8896001368
 30
0.0
 10
15.7284993742
 20
5.9019331902
 30
0.0
 10
15.7515561134
 20
5.9155683002
 30
0.0
 10
15.7698242088
 20
5.9242857139
 30
0.0
 10
15.7889112116
 20
5.9313001271
 30
0.0
 10
15.8086743014
 20
5.9364435211
 30
0.0
 10
15.8289192071
 20
5.9396032637
 30
0.0
 10
15.8494177866
 20
5.9406527832
 30
0.0
 10
15.8699162303
 20
5.9396004557
 30
0.0
 10
15.8901618377
 20
5.936444878
 30
0.0
 10
15.9099260233
 20
5.9313055768
 30
0.0
 10
15.9290117297
 20
5.9242877848
 30
0.0
 10
15.9472769023
 20
5.9155643437
 30
0.0
 10
15.9703326601
 20
5.9019282563
 30
0.0
 10
15.9862485569
 20
5.8895999815
 30
0.0
 10
15.9961514335
 20
5.8806969918
 30
0.0
  0
SPLINE
  5
32E
100
AcDbEntity
  8
0
100
AcDbSpline
 62
7
  6
CONTINUOUS
 70
0
 71
3
 72
15
 73
11
 74
0
 42
0.0000001
 43
0.0000001
 44
0.0000000001
 40
0.0
 40
0.0
 40
0.0
 40
0.0
 40
0.1303905959
 40
0.2584973103
 40
0.3847362353
 40
0.509466791
 40
0.6330782461
 40
0.7558045047
 40
0.8779134996
 40
1.0
 40
1.0
 40
1.0
 40
1.0
 10
13.9943805796
 20
11.739903119
 30
0.0
 10
13.9877623966
 20
11.7533895579
 30
0.0
 10
13.9756341313
 20
11.7806293884
 30
0.0
 10
13.9609119846
 20
11.8224924419
 30
0.0
 10
13.9500051857
 20
11.8648429614
 30
0.0
 10
13.9430851512
 20
11.9075060274
 30
0.0
 10
13.940344094
 20
11.9502393579
 30
0.0
 10
13.941877475
 20
11.9927367414
 30
0.0
 10
13.9477936302
 20
12.0346703669
 30
0.0
 10
13.9546695903
 20
12.0620169642
 30
0.0
 10
13.9588225543
 20
12.0754559605
 30
0.0
  0
SPLINE
  5
32F
100
AcDbEntity
  8
0
100
AcDbSpline
 62
7
  6
CONTINUOUS
 70
0
 71
3
 72
9
 73
5
 74
0
 42
0.0000001
 43
0.0000001
 44
0.0000000001
 40
0.0
 40
0.0
 40
0.0
 40
0.0
 40
0.2537378709
 40
1.0
 40
1.0
 40
1.0
 40
1.0
 10
15.9350731967
 20
12.2746169296
 30
0.0
 10
15.9362461421
 20
12.2710827059
 30
0.0
 10
15.9406990792
 20
12.257098522
 30
0.0
 10
15.9444585561
 20
12.2428918373
 30
0.0
 10
15.9468317587
 20
12.2322001398
 30
0.0
  0
SPLINE
  5
330
100
AcDbEntity
  8
0
100
AcDbSpline
 62
7
  6
CONTINUOUS
 70
0
 71
3
 72
11
 73
7
 74
0
 42
0.0000001
 43
0.0000001
 44
0.0000000001
 40
0.0
 40
0.0
 40
0.0
 40
0.0
 40
0.2577922733
 40
0.5090121794
 40
0.7556760065
 40
1.0
 40
1.0
 40
1.0
 40
1.0
 10
15.9513445307
 20
12.2085151467
 30
0.0
 10
15.9534066747
 20
12.1955327063
 30
0.0
 10
15.9561643035
 20
12.1696655218
 30
0.0
 10
15.955988551
 20
12.1310525739
 30
0.0
 10
15.9514395253
 20
12.0933960175
 30
0.0
 10
15.9454809169
 20
12.0690063606
 30
0.0
 10
15.9418028024
 20
12.0571032538
 30
0.0
  0
SPLINE
  5
331
100
AcDbEntity
  8
0
100
AcDbSpline
 62
7
  6
CONTINUOUS
 70
0
 71
3
 72
44
 73
40
 74
0
 42
0.0000001
 43
0.0000001
 44
0.0000000001
 40
0.0
 40
0.0
 40
0.0
 40
0.0
 40
0.012784037
 40
0.0255515394
 40
0.0383337769
 40
0.0511573343
 40
0.0640353564
 40
0.0769754339
 40
0.0899856885
 40
0.103084235
 40
0.1162884211
 40
0.1296125423
 40
0.1566789125
 40
0.1844111701
 40
0.2129080848
 40
0.2422422441
 40
0.2724567432
 40
0.303563822
 40
0.3355453995
 40
0.368355629
 40
0.4019246617
 40
0.4361605303
 40
0.4709550845
 40
0.5061845403
 40
0.5417156875
 40
0.5774076106
 40
0.6131160105
 40
0.6486958213
 40
0.6840053928
 40
0.7189091389
 40
0.7532812024
 40
0.7870093842
 40
0.8199972577
 40
0.8521712269
 40
0.8834786444
 40
0.9138921791
 40
0.9434208623
 40
0.9721136963
 40
1.0
 40
1.0
 40
1.0
 40
1.0
 10
15.7741221583
 20
11.5144859547
 30
0.0
 10
15.7714520604
 20
11.5058455146
 30
0.0
 10
15.7655207546
 20
11.4887531387
 30
0.0
 10
15.7548931012
 20
11.463782955
 30
0.0
 10
15.7425847338
 20
11.4395645135
 30
0.0
 10
15.7286424695
 20
11.4161585743
 30
0.0
 10
15.7131394681
 20
11.393621271
 30
0.0
 10
15.696149323
 20
11.3720153651
 30
0.0
 10
15.6777386209
 20
11.3513978862
 30
0.0
 10
15.6579856785
 20
11.3317982896
 30
0.0
 10
15.6369604322
 20
11.3132336547
 30
0.0
 10
15.6071663486
 20
11.2897601374
 30
0.0
 10
15.5669399729
 20
11.2630514111
 30
0.0
 10
15.5148000522
 20
11.2354202676
 30
0.0
 10
15.4589055945
 20
11.2119949014
 30
0.0
 10
15.399607955
 20
11.1927274877
 30
0.0
 10
15.3372325942
 20
11.1775818392
 30
0.0
 10
15.2721108006
 20
11.1665249165
 30
0.0
 10
15.2045869717
 20
11.159534641
 30
0.0
 10
15.1350274799
 20
11.1565843017
 30
0.0
 10
15.0638220239
 20
11.1576473824
 30
0.0
 10
14.9913821196
 20
11.162680226
 30
0.0
 10
14.9181399067
 20
11.1716316637
 30
0.0
 10
14.8445417488
 20
11.1844264701
 30
0.0
 10
14.7710457353
 20
11.2009747743
 30
0.0
 10
14.6981148095
 20
11.221165774
 30
0.0
 10
14.6262114821
 20
11.2448663338
 30
0.0
 10
14.5557948862
 20
11.2719307266
 30
0.0
 10
14.4873115693
 20
11.3021891929
 30
0.0
 10
14.4211959862
 20
11.3354647179
 30
0.0
 10
14.3578619982
 20
11.3715651906
 30
0.0
 10
14.2977023712
 20
11.4102929838
 30
0.0
 10
14.2410852822
 20
11.451449771
 30
0.0
 10
14.1883540105
 20
11.4948380865
 30
0.0
 10
14.1398322861
 20
11.5402700119
 30
0.0
 10
14.0958170939
 20
11.5875623605
 30
0.0
 10
14.0565964371
 20
11.6365656526
 30
0.0
 10
14.0224789808
 20
11.6871105223
 30
0.0
 10
14.0030712264
 20
11.7221934427
 30
0.0
 10
13.9943805796
 20
11.739903119
 30
0.0
  0
SPLINE
  5
332
100
AcDbEntity
  8
0
100
AcDbSpline
 62
7
  6
CONTINUOUS
 70
0
 71
3
 72
15
 73
11
 74
0
 42
0.0000001
 43
0.0000001
 44
0.0000000001
 40
0.0
 40
0.0
 40
0.0
 40
0.0
 40
0.1186939938
 40
0.2380363347
 40
0.3586561702
 40
0.4811500933
 40
0.6060700036
 40
0.733907346
 40
0.8650962729
 40
1.0
 40
1.0
 40
1.0
 40
1.0
 10
14.1265046291
 20
12.6180728175
 30
0.0
 10
14.1292753313
 20
12.6270393585
 30
0.0
 10
14.1356496004
 20
12.6447803052
 30
0.0
 10
14.1476186664
 20
12.6705284459
 30
0.0
 10
14.1619672751
 20
12.6953790927
 30
0.0
 10
14.1786557437
 20
12.719260289
 30
0.0
 10
14.1976374726
 20
12.7421068627
 30
0.0
 10
14.218855241
 20
12.7638617874
 30
0.0
 10
14.2422524126
 20
12.7844630884
 30
0.0
 10
14.2590163813
 20
12.7972093301
 30
0.0
 10
14.2677180614
 20
12.8033782531
 30
0.0
  0
SPLINE
  5
333
100
AcDbEntity
  8
0
100
AcDbSpline
 62
7
  6
CONTINUOUS
 70
0
 71
3
 72
34
 73
30
 74
0
 42
0.0000001
 43
0.0000001
 44
0.0000000001
 40
0.0
 40
0.0
 40
0.0
 40
0.0
 40
0.0477967261
 40
0.0729226911
 40
0.0988816412
 40
0.1256754811
 40
0.1532972109
 40
0.1817293031
 40
0.2109459893
 40
0.2409144392
 40
0.2715938479
 40
0.302938725
 40
0.334897033
 40
0.3674126522
 40
0.400425379
 40
0.4676730454
 40
0.5361064718
 40
0.5705933764
 40
0.6051591617
 40
0.6397297163
 40
0.6742307617
 40
0.7085883456
 40
0.7427297682
 40
0.8100695598
 40
0.8757129159
 40
0.9077456786
 40
0.9391714231
 40
0.9699383651
 40
1.0
 40
1.0
 40
1.0
 40
1.0
 10
14.2791861806
 20
12.8112634952
 30
0.0
 10
14.299782527
 20
12.8249991153
 30
0.0
 10
14.3328110664
 20
12.8436317605
 30
0.0
 10
14.3795820109
 20
12.8645404558
 30
0.0
 10
14.4173423687
 20
12.878799492
 30
0.0
 10
14.4570625005
 20
12.891328061
 30
0.0
 10
14.4986227017
 20
12.9020847097
 30
0.0
 10
14.5418885655
 20
12.9110385464
 30
0.0
 10
14.5867232547
 20
12.9181613956
 30
0.0
 10
14.6329841391
 20
12.9234284931
 30
0.0
 10
14.6805238559
 20
12.9268278237
 30
0.0
 10
14.7291912176
 20
12.9283435462
 30
0.0
 10
14.7788310077
 20
12.927975393
 30
0.0
 10
14.8292856696
 20
12.9257222013
 30
0.0
 10
14.897845934
 20
12.9201803442
 30
0.0
 10
14.9845174035
 20
12.9085489625
 30
0.0
 10
15.0709607783
 20
12.8910037648
 30
0.0
 10
15.1399849633
 20
12.8734497413
 30
0.0
 10
15.1915542546
 20
12.8585393921
 30
0.0
 10
15.2426200472
 20
12.841964626
 30
0.0
 10
15.2930211945
 20
12.823782233
 30
0.0
 10
15.3425959544
 20
12.804045835
 30
0.0
 10
15.4070810197
 20
12.7758789426
 30
0.0
 10
15.4846427213
 20
12.7372869339
 30
0.0
 10
15.5584005603
 20
12.6939451225
 30
0.0
 10
15.6140810288
 20
12.6568924131
 30
0.0
 10
15.6536533354
 20
12.6283064955
 30
0.0
 10
15.6912478547
 20
12.5987925918
 30
0.0
 10
15.7152045845
 20
12.5783123369
 30
0.0
 10
15.7268117615
 20
12.5679338885
 30
0.0
  0
SPLINE
  5
334
100
AcDbEntity
  8
0
100
AcDbSpline
 62
7
  6
CONTINUOUS
 70
0
 71
3
 72
9
 73
5
 74
0
 42
0.0000001
 43
0.0000001
 44
0.0000000001
 40
0.0
 40
0.0
 40
0.0
 40
0.0
 40
0.2547653482
 40
1.0
 40
1.0
 40
1.0
 40
1.0
 10
15.7541224112
 20
12.5426099777
 30
0.0
 10
15.7589638178
 20
12.5379514747
 30
0.0
 10
15.7777797308
 20
12.519472691
 30
0.0
 10
15.7958303095
 20
12.5002104716
 30
0.0
 10
15.8087624027
 20
12.485411249
 30
0.0
  0
SPLINE
  5
335
100
AcDbEntity
  8
0
100
AcDbSpline
 62
7
  6
CONTINUOUS
 70
0
 71
3
 72
9
 73
5
 74
0
 42
0.0000001
 43
0.0000001
 44
0.0000000001
 40
0.0
 40
0.0
 40
0.0
 40
0.0
 40
0.2548877426
 40
1.0
 40
1.0
 40
1.0
 40
1.0
 10
15.8357343753
 20
12.4528952848
 30
0.0
 10
15.8392056659
 20
12.4484774306
 30
0.0
 10
15.8526352033
 20
12.4309973716
 30
0.0
 10
15.8652894998
 20
12.4129182268
 30
0.0
 10
15.874200937
 20
12.3991215028
 30
0.0
  0
SPLINE
  5
336
100
AcDbEntity
  8
0
100
AcDbSpline
 62
7
  6
CONTINUOUS
 70
0
 71
3
 72
14
 73
10
 74
0
 42
0.0000001
 43
0.0000001
 44
0.0000000001
 40
0.0
 40
0.0
 40
0.0
 40
0.0
 40
0.136945521
 40
0.2706466069
 40
0.527106064
 40
0.6501065447
 40
0.7697469814
 40
0.8862884022
 40
1.0
 40
1.0
 40
1.0
 40
1.0
 10
16.5063836373
 20
11.5605755753
 30
0.0
 10
16.5193506559
 20
11.5605755753
 30
0.0
 10
16.5449918744
 20
11.5596510428
 30
0.0
 10
16.5946189146
 20
11.5540752534
 30
0.0
 10
16.6421980154
 20
11.5429092622
 30
0.0
 10
16.6863677287
 20
11.5259480129
 30
0.0
 10
16.7168720587
 20
11.5107804388
 30
0.0
 10
16.7449533062
 20
11.4930970183
 30
0.0
 10
16.7621190164
 20
11.4795741153
 30
0.0
 10
16.7701912741
 20
11.4724489347
 30
0.0
  0
SPLINE
  5
337
100
AcDbEntity
  8
0
100
AcDbSpline
 62
7
  6
CONTINUOUS
 70
0
 71
3
 72
14
 73
10
 74
0
 42
0.0000001
 43
0.0000001
 44
0.0000000001
 40
0.0
 40
0.0
 40
0.0
 40
0.0
 40
0.1243659272
 40
0.2535653244
 40
0.5160817521
 40
0.6454417844
 40
0.7086027454
 40
0.7704366632
 40
1.0
 40
1.0
 40
1.0
 40
1.0
 10
17.6716267398
 20
11.3729035032
 30
0.0
 10
17.674706975
 20
11.3729035032
 30
0.0
 10
17.6809971381
 20
11.3734430635
 30
0.0
 10
17.6934562378
 20
11.3764395291
 30
0.0
 10
17.7052599863
 20
11.3821564304
 30
0.0
 10
17.7141665925
 20
11.3891134569
 30
0.0
 10
17.7186608684
 20
11.3935412598
 30
0.0
 10
17.724411102
 20
11.400168953
 30
0.0
 10
17.7281044136
 20
11.4066375992
 30
0.0
 10
17.7297831057
 20
11.4120698487
 30
0.0
  0
SPLINE
  5
338
100
AcDbEntity
  8
0
100
AcDbSpline
 62
7
  6
CONTINUOUS
 70
0
 71
3
 72
11
 73
7
 74
0
 42
0.0000001
 43
0.0000001
 44
0.0000000001
 40
0.0
 40
0.0
 40
0.0
 40
0.0
 40
0.2640340299
 40
0.5170418852
 40
0.7609842547
 40
1.0
 40
1.0
 40
1.0
 40
1.0
 10
18.0535468132
 20
12.4597695903
 30
0.0
 10
18.0541332089
 20
12.4616671673
 30
0.0
 10
18.0549890361
 20
12.4654827654
 30
0.0
 10
18.0552539305
 20
12.4712326835
 30
0.0
 10
18.0544351403
 20
12.4767437565
 30
0.0
 10
18.0531723601
 20
12.4801826517
 30
0.0
 10
18.0523801483
 20
12.4817966315
 30
0.0
  0
SPLINE
  5
339
100
AcDbEntity
  8
0
100
AcDbSpline
 62
7
  6
CONTINUOUS
 70
0
 71
3
 72
33
 73
29
 74
0
 42
0.0000001
 43
0.0000001
 44
0.0000000001
 40
0.0
 40
0.0
 40
0.0
 40
0.0
 40
0.0620045025
 40
0.0930415661
 40
0.1240759664
 40
0.1551066811
 40
0.1861371019
 40
0.2171743984
 40
0.2482177992
 40
0.2792749949
 40
0.3103550866
 40
0.3414571955
 40
0.3725993275
 40
0.4037959396
 40
0.4350521247
 40
0.4663827842
 40
0.4977906579
 40
0.5607547488
 40
0.6239326048
 40
0.655580786
 40
0.6872144974
 40
0.7502869608
 40
0.8130760153
 40
0.8443830277
 40
0.8756194989
 40
0.9067948607
 40
0.9379310307
 40
1.0
 40
1.0
 40
1.0
 40
1.0
 10
15.9549197505
 20
13.3459515675
 30
0.0
 10
15.9523377008
 20
13.3375960516
 30
0.0
 10
15.9471140769
 20
13.3254148229
 30
0.0
 10
15.9377094281
 20
13.310628305
 30
0.0
 10
15.9294862435
 20
13.3003548059
 30
0.0
 10
15.920205431
 20
13.2910302983
 30
0.0
 10
15.909960952
 20
13.2827743646
 30
0.0
 10
15.8988865394
 20
13.2756686682
 30
0.0
 10
15.8871099306
 20
13.2697908394
 30
0.0
 10
15.8747680936
 20
13.2652027619
 30
0.0
 10
15.8620081101
 20
13.2619235719
 30
0.0
 10
15.8489655006
 20
13.2599830977
 30
0.0
 10
15.8357782414
 20
13.2593744282
 30
0.0
 10
15.82257433
 20
13.2600739189
 30
0.0
 10
15.8094765279
 20
13.2620629751
 30
0.0
 10
15.7965977181
 20
13.2652926104
 30
0.0
 10
15.7798547806
 20
13.2711896526
 30
0.0
 10
15.7599874553
 20
13.2814273756
 30
0.0
 10
15.7422111479
 20
13.295016463
 30
0.0
 10
15.7295558236
 20
13.3076135172
 30
0.0
 10
15.7180551614
 20
13.3212532714
 30
0.0
 10
15.7060125665
 20
13.3400651262
 30
0.0
 10
15.6975406863
 20
13.3606935969
 30
0.0
 10
15.6931596254
 20
13.377842811
 30
0.0
 10
15.691119863
 20
13.3909238595
 30
0.0
 10
15.6903597325
 20
13.4041196339
 30
0.0
 10
15.6911004747
 20
13.421666251
 30
0.0
 10
15.6936606995
 20
13.4346863535
 30
0.0
 10
15.6962454338
 20
13.4430505568
 30
0.0
  0
SPLINE
  5
33A
100
AcDbEntity
  8
0
100
AcDbSpline
 62
7
  6
CONTINUOUS
 70
0
 71
3
 72
33
 73
29
 74
0
 42
0.0000001
 43
0.0000001
 44
0.0000000001
 40
0.0
 40
0.0
 40
0.0
 40
0.0
 40
0.0620045025
 40
0.0930415661
 40
0.1240759664
 40
0.1551066811
 40
0.1861371019
 40
0.2171743984
 40
0.2482177992
 40
0.2792749949
 40
0.3103550866
 40
0.3414571955
 40
0.3725993275
 40
0.4037959396
 40
0.4350521247
 40
0.4663827842
 40
0.4977906579
 40
0.5607547488
 40
0.6239326048
 40
0.655580786
 40
0.6872144974
 40
0.7502869608
 40
0.8130760153
 40
0.8443830277
 40
0.8756194989
 40
0.9067948607
 40
0.9379310307
 40
1.0
 40
1.0
 40
1.0
 40
1.0
 10
15.6962454338
 20
13.4430505568
 30
0.0
 10
15.6988274836
 20
13.4514060728
 30
0.0
 10
15.7040511074
 20
13.4635873014
 30
0.0
 10
15.7134557562
 20
13.4783738193
 30
0.0
 10
15.7216789409
 20
13.4886473184
 30
0.0
 10
15.7309597533
 20
13.497971826
 30
0.0
 10
15.7412042324
 20
13.5062277597
 30
0.0
 10
15.7522786449
 20
13.5133334561
 30
0.0
 10
15.7640552538
 20
13.5192112849
 30
0.0
 10
15.7763970907
 20
13.5237993624
 30
0.0
 10
15.7891570742
 20
13.5270785524
 30
0.0
 10
15.8021996838
 20
13.5290190267
 30
0.0
 10
15.8153869429
 20
13.5296276961
 30
0.0
 10
15.8285908544
 20
13.5289282054
 30
0.0
 10
15.8416886565
 20
13.5269391492
 30
0.0
 10
15.8545674662
 20
13.523709514
 30
0.0
 10
15.8713104037
 20
13.5178124717
 30
0.0
 10
15.891177729
 20
13.5075747487
 30
0.0
 10
15.9089540365
 20
13.4939856613
 30
0.0
 10
15.9216093608
 20
13.4813886072
 30
0.0
 10
15.933110023
 20
13.4677488529
 30
0.0
 10
15.9451526179
 20
13.4489369981
 30
0.0
 10
15.953624498
 20
13.4283085274
 30
0.0
 10
15.9580055589
 20
13.4111593133
 30
0.0
 10
15.9600453213
 20
13.3980782648
 30
0.0
 10
15.9608054519
 20
13.3848824904
 30
0.0
 10
15.9600647096
 20
13.3673358733
 30
0.0
 10
15.9575044848
 20
13.3543157709
 30
0.0
 10
15.9549197505
 20
13.3459515675
 30
0.0
  0
SPLINE
  5
33B
100
AcDbEntity
  8
0
100
AcDbSpline
 62
7
  6
CONTINUOUS
 70
0
 71
3
 72
16
 73
12
 74
0
 42
0.0000001
 43
0.0000001
 44
0.0000000001
 40
0.0
 40
0.0
 40
0.0
 40
0.0
 40
0.0614389925
 40
0.1243432416
 40
0.2532222249
 40
0.3845524448
 40
0.515994042
 40
0.6451479438
 40
0.7698506863
 40
0.8884617274
 40
1.0
 40
1.0
 40
1.0
 40
1.0
 10
17.3098575223
 20
12.0610002851
 30
0.0
 10
17.3155733421
 20
12.0610002851
 30
0.0
 10
17.3271465431
 20
12.061492038
 30
0.0
 10
17.35054981
 20
12.0643478396
 30
0.0
 10
17.3798907234
 20
12.0714224125
 30
0.0
 10
17.4138353785
 20
12.0849838165
 30
0.0
 10
17.4455746856
 20
12.1031785323
 30
0.0
 10
17.4739131421
 20
12.1253350992
 30
0.0
 10
17.4978000439
 20
12.1506380512
 30
0.0
 10
17.5163177059
 20
12.178153565
 30
0.0
 10
17.5248802073
 20
12.1979599858
 30
0.0
 10
17.5279438943
 20
12.2078740806
 30
0.0
  0
SPLINE
  5
33C
100
AcDbEntity
  8
0
100
AcDbSpline
 62
7
  6
CONTINUOUS
 70
0
 71
3
 72
14
 73
10
 74
0
 42
0.0000001
 43
0.0000001
 44
0.0000000001
 40
0.0
 40
0.0
 40
0.0
 40
0.0
 40
0.2640966488
 40
0.3918604383
 40
0.5169364325
 40
0.6397510525
 40
0.7608190775
 40
0.8807065102
 40
1.0
 40
1.0
 40
1.0
 40
1.0
 10
17.5279438943
 20
12.2078740806
 30
0.0
 10
17.5301453888
 20
12.2149981195
 30
0.0
 10
17.53258798
 20
12.2258601275
 30
0.0
 10
17.5338731716
 20
12.2404135114
 30
0.0
 10
17.5338247953
 20
12.251036272
 30
0.0
 10
17.5327777276
 20
12.2614168612
 30
0.0
 10
17.530738429
 20
12.2715009533
 30
0.0
 10
17.5277137482
 20
12.2812297574
 30
0.0
 10
17.5250513033
 20
12.2874511414
 30
0.0
 10
17.5235678872
 20
12.2904749796
 30
0.0
  0
SPLINE
  5
33D
100
AcDbEntity
  8
0
100
AcDbSpline
 62
7
  6
CONTINUOUS
 70
0
 71
3
 72
30
 73
26
 74
0
 42
0.0000001
 43
0.0000001
 44
0.0000000001
 40
0.0
 40
0.0
 40
0.0
 40
0.0
 40
0.0300501526
 40
0.0608264824
 40
0.1242909609
 40
0.1899321648
 40
0.2234292878
 40
0.2572850189
 40
0.3257785939
 40
0.394843941
 40
0.4294115855
 40
0.4639005522
 40
0.532337561
 40
0.5995887316
 40
0.6326026697
 40
0.6651200634
 40
0.7284137827
 40
0.7590949082
 40
0.7890644414
 40
0.8182819826
 40
0.8467154761
 40
0.9011144552
 40
0.9270746378
 40
0.9522018253
 40
1.0
 40
1.0
 40
1.0
 40
1.0
 10
15.7268118189
 20
12.5679339328
 30
0.0
 10
15.715209249
 20
12.5783074101
 30
0.0
 10
15.691253162
 20
12.5987847001
 30
0.0
 10
15.640608336
 20
12.6385454104
 30
0.0
 10
15.5724316312
 20
12.6857014773
 30
0.0
 10
15.4997594198
 20
12.7284055242
 30
0.0
 10
15.4386309521
 20
12.7601774456
 30
0.0
 10
15.3751228896
 20
12.7904873327
 30
0.0
 10
15.293114649
 20
12.8246733932
 30
0.0
 10
15.2087125427
 20
12.8535784647
 30
0.0
 10
15.1399797381
 20
12.8734497789
 30
0.0
 10
15.0709550977
 20
12.8910049659
 30
0.0
 10
14.98451121
 20
12.9085481008
 30
0.0
 10
14.8978408351
 20
12.9201822179
 30
0.0
 10
14.829279183
 20
12.9257207756
 30
0.0
 10
14.7626137617
 20
12.9286988571
 30
0.0
 10
14.6970258546
 20
12.928004433
 30
0.0
 10
14.6329805121
 20
12.9234281665
 30
0.0
 10
14.5867199535
 20
12.9181608163
 30
0.0
 10
14.5418845768
 20
12.9110360783
 30
0.0
 10
14.4850416842
 20
12.8992740263
 30
0.0
 10
14.4307208031
 20
12.8838497333
 30
0.0
 10
14.3795818611
 20
12.8645389731
 30
0.0
 10
14.3328092294
 20
12.8436324688
 30
0.0
 10
14.2997833616
 20
12.8249972628
 30
0.0
 10
14.2791865142
 20
12.811263337
 30
0.0
  0
SPLINE
  5
33E
100
AcDbEntity
  8
0
100
AcDbSpline
 62
7
  6
CONTINUOUS
 70
0
 71
3
 72
15
 73
11
 74
0
 42
0.0000001
 43
0.0000001
 44
0.0000000001
 40
0.0
 40
0.0
 40
0.0
 40
0.0
 40
0.1127784282
 40
0.2270860552
 40
0.344224796
 40
0.4653167524
 40
0.5911991537
 40
0.7224073401
 40
0.858881044
 40
1.0
 40
1.0
 40
1.0
 40
1.0
 10
13.0105121763
 20
11.3900428076
 30
0.0
 10
13.0111575413
 20
11.388728
 30
0.0
 10
13.0126867851
 20
11.3861869026
 30
0.0
 10
13.0156075183
 20
11.3827776137
 30
0.0
 10
13.0191161877
 20
11.3798068623
 30
0.0
 10
13.0231609731
 20
11.3773250284
 30
0.0
 10
13.027677923
 20
11.3753588196
 30
0.0
 10
13.0326029191
 20
11.3739422465
 30
0.0
 10
13.0378541822
 20
11.3730894052
 30
0.0
 10
13.0414625309
 20
11.3729035032
 30
0.0
 10
13.0432952449
 20
11.3729035032
 30
0.0
  0
SPLINE
  5
33F
100
AcDbEntity
  8
0
100
AcDbSpline
 62
7
  6
CONTINUOUS
 70
0
 71
3
 72
9
 73
5
 74
0
 42
0.0000001
 43
0.0000001
 44
0.0000000001
 40
0.0
 40
0.0
 40
0.0
 40
0.0
 40
0.5019918567
 40
1.0
 40
1.0
 40
1.0
 40
1.0
 10
13.8021161074
 20
12.6392705436
 30
0.0
 10
13.8030031595
 20
12.6589496214
 30
0.0
 10
13.8071906877
 20
12.698084711
 30
0.0
 10
13.816354135
 20
12.7363685424
 30
0.0
 10
13.8221240752
 20
12.7550400758
 30
0.0
  0
SPLINE
  5
340
100
AcDbEntity
  8
0
100
AcDbSpline
 62
7
  6
CONTINUOUS
 70
0
 71
3
 72
36
 73
32
 74
0
 42
0.0000001
 43
0.0000001
 44
0.0000000001
 40
0.0
 40
0.0
 40
0.0
 40
0.0
 40
0.0313387037
 40
0.0636178425
 40
0.0967447877
 40
0.1306397886
 40
0.1652234438
 40
0.2003990326
 40
0.2360582347
 40
0.2720882274
 40
0.308372328
 40
0.34479109
 40
0.4175285864
 40
0.4893487145
 40
0.559329639
 40
0.5933768024
 40
0.6266645438
 40
0.6591143972
 40
0.690658828
 40
0.721246932
 40
0.750843693
 40
0.7794336052
 40
0.8070228229
 40
0.833639045
 40
0.8593350645
 40
0.8841880035
 40
0.9082991533
 40
0.9317930271
 40
0.9547993199
 40
0.9774740053
 40
1.0
 40
1.0
 40
1.0
 40
1.0
 10
16.2276730284
 20
13.3451898083
 30
0.0
 10
16.2089855612
 20
13.3633942508
 30
0.0
 10
16.1699401027
 20
13.3992249934
 30
0.0
 10
16.1076822494
 20
13.4503723574
 30
0.0
 10
16.0411447748
 20
13.4994877699
 30
0.0
 10
15.9706794671
 20
13.5463345535
 30
0.0
 10
15.8966288947
 20
13.5906934423
 30
0.0
 10
15.8193607505
 20
13.6323616346
 30
0.0
 10
15.7392592651
 20
13.6711305369
 30
0.0
 10
15.6567296377
 20
13.7068093708
 30
0.0
 10
15.5721853332
 20
13.7392237598
 30
0.0
 10
15.4574063611
 20
13.77784846
 30
0.0
 10
15.3117384859
 20
13.817039786
 30
0.0
 10
15.1358130483
 20
13.8489687709
 30
0.0
 10
14.9898366481
 20
13.8625654676
 30
0.0
 10
14.8755163806
 20
13.8651478409
 30
0.0
 10
14.7924406528
 20
13.8629748541
 30
0.0
 10
14.7116605213
 20
13.8567173
 30
0.0
 10
14.633562465
 20
13.8463833141
 30
0.0
 10
14.5585195204
 20
13.8320055083
 30
0.0
 10
14.4868866651
 20
13.8136238551
 30
0.0
 10
14.4190030761
 20
13.7912888318
 30
0.0
 10
14.35519228
 20
13.7650630014
 30
0.0
 10
14.2957689348
 20
13.7350121659
 30
0.0
 10
14.2410385925
 20
13.7012197736
 30
0.0
 10
14.191311626
 20
13.6637758005
 30
0.0
 10
14.14689922
 20
13.6227995137
 30
0.0
 10
14.1081384375
 20
13.5784487868
 30
0.0
 10
14.0753281272
 20
13.5309616681
 30
0.0
 10
14.0487999972
 20
13.4806084553
 30
0.0
 10
14.0354342593
 20
13.4453120845
 30
0.0
 10
14.0298976695
 20
13.4273956733
 30
0.0
  0
SPLINE
  5
341
100
AcDbEntity
  8
0
100
AcDbSpline
 62
7
  6
CONTINUOUS
 70
0
 71
3
 72
9
 73
5
 74
0
 42
0.0000001
 43
0.0000001
 44
0.0000000001
 40
0.0
 40
0.0
 40
0.0
 40
0.0
 40
0.2546750975
 40
1.0
 40
1.0
 40
1.0
 40
1.0
 10
15.7541221348
 20
12.5426098108
 30
0.0
 10
15.7589615906
 20
12.5379527757
 30
0.0
 10
15.7777764472
 20
12.5194731539
 30
0.0
 10
15.7958269686
 20
12.5002112204
 30
0.0
 10
15.8087614985
 20
12.4854111347
 30
0.0
  0
SPLINE
  5
342
100
AcDbEntity
  8
0
100
AcDbSpline
 62
7
  6
CONTINUOUS
 70
0
 71
3
 72
9
 73
5
 74
0
 42
0.0000001
 43
0.0000001
 44
0.0000000001
 40
0.0
 40
0.0
 40
0.0
 40
0.0
 40
0.2549343617
 40
1.0
 40
1.0
 40
1.0
 40
1.0
 10
15.8357348058
 20
12.452895329
 30
0.0
 10
15.8392067061
 20
12.4484765956
 30
0.0
 10
15.8526358719
 20
12.4309960514
 30
0.0
 10
15.8652908273
 20
12.4129172277
 30
0.0
 10
15.8742023616
 20
12.3991216494
 30
0.0
  0
SPLINE
  5
343
100
AcDbEntity
  8
0
100
AcDbSpline
 62
7
  6
CONTINUOUS
 70
0
 71
3
 72
14
 73
10
 74
0
 42
0.0000001
 43
0.0000001
 44
0.0000000001
 40
0.0
 40
0.0
 40
0.0
 40
0.0
 40
0.141343828
 40
0.2778485696
 40
0.5343708611
 40
0.6555568316
 40
0.7727894068
 40
0.8871476749
 40
1.0
 40
1.0
 40
1.0
 40
1.0
 10
13.3953482978
 20
12.0610002851
 30
0.0
 10
13.388468209
 20
12.0610002851
 30
0.0
 10
13.3749269284
 20
12.0616945108
 30
0.0
 10
13.3492226783
 20
12.0658621293
 30
0.0
 10
13.3252751414
 20
12.0742394403
 30
0.0
 10
13.3046847133
 20
12.0868898955
 30
0.0
 10
13.2915112864
 20
12.0980182405
 30
0.0
 10
13.2805608322
 20
12.1108087317
 30
0.0
 10
13.2748308038
 20
12.1203407561
 30
0.0
 10
13.2724110784
 20
12.1252723374
 30
0.0
  0
SPLINE
  5
344
100
AcDbEntity
  8
0
100
AcDbSpline
 62
7
  6
CONTINUOUS
 70
0
 71
3
 72
20
 73
16
 74
0
 42
0.0000001
 43
0.0000001
 44
0.0000000001
 40
0.0
 40
0.0
 40
0.0
 40
0.0
 40
0.0627390671
 40
0.1271392913
 40
0.1927784474
 40
0.2593012065
 40
0.3263639785
 40
0.3935818596
 40
0.5267495124
 40
0.655878846
 40
0.7784957768
 40
0.8369271204
 40
0.8932752586
 40
0.9475849672
 40
1.0
 40
1.0
 40
1.0
 40
1.0
 10
13.5306084413
 20
12.2640964225
 30
0.0
 10
13.5241135433
 20
12.2640964225
 30
0.0
 10
13.5109450907
 20
12.2634603351
 30
0.0
 10
13.4911520461
 20
12.2607281995
 30
0.0
 10
13.4712840306
 20
12.2562191902
 30
0.0
 10
13.4515960527
 20
12.250000314
 30
0.0
 10
13.432325181
 20
12.2421422705
 30
0.0
 10
13.4075847425
 20
12.2296615851
 30
0.0
 10
13.3790458495
 20
12.2106757111
 30
0.0
 10
13.3498299774
 20
12.1833092288
 30
0.0
 10
13.330580672
 20
12.1573318296
 30
0.0
 10
13.3191620038
 20
12.1355232246
 30
0.0
 10
13.312787107
 20
12.1191783178
 30
0.0
 10
13.3085385328
 20
12.1027988856
 30
0.0
 10
13.3071487512
 20
12.0917993254
 30
0.0
 10
13.3068431867
 20
12.0863818066
 30
0.0
  0
SPLINE
  5
345
100
AcDbEntity
  8
0
100
AcDbSpline
 62
7
  6
CONTINUOUS
 70
0
 71
3
 72
14
 73
10
 74
0
 42
0.0000001
 43
0.0000001
 44
0.0000000001
 40
0.0
 40
0.0
 40
0.0
 40
0.0
 40
0.141343828
 40
0.2778485696
 40
0.5343708611
 40
0.6555568316
 40
0.7727894068
 40
0.8871476749
 40
1.0
 40
1.0
 40
1.0
 40
1.0
 10
16.9644596495
 20
12.0610002851
 30
0.0
 10
16.9575795608
 20
12.0610002851
 30
0.0
 10
16.9440382802
 20
12.0616945108
 30
0.0
 10
16.91833403
 20
12.0658621293
 30
0.0
 10
16.8943864931
 20
12.0742394403
 30
0.0
 10
16.8737960651
 20
12.0868898955
 30
0.0
 10
16.8606226382
 20
12.0980182405
 30
0.0
 10
16.8496721839
 20
12.1108087317
 30
0.0
 10
16.8439421556
 20
12.1203407561
 30
0.0
 10
16.8415224302
 20
12.1252723374
 30
0.0
  0
SPLINE
  5
346
100
AcDbEntity
  8
0
100
AcDbSpline
 62
7
  6
CONTINUOUS
 70
0
 71
3
 72
20
 73
16
 74
0
 42
0.0000001
 43
0.0000001
 44
0.0000000001
 40
0.0
 40
0.0
 40
0.0
 40
0.0
 40
0.0627390671
 40
0.1271392913
 40
0.1927784474
 40
0.2593012065
 40
0.3263639785
 40
0.3935818596
 40
0.5267495124
 40
0.655878846
 40
0.7784957768
 40
0.8369271204
 40
0.8932752586
 40
0.9475849672
 40
1.0
 40
1.0
 40
1.0
 40
1.0
 10
17.099719793
 20
12.2640964225
 30
0.0
 10
17.093224895
 20
12.2640964225
 30
0.0
 10
17.0800564425
 20
12.2634603351
 30
0.0
 10
17.0602633979
 20
12.2607281995
 30
0.0
 10
17.0403953824
 20
12.2562191902
 30
0.0
 10
17.0207074045
 20
12.250000314
 30
0.0
 10
17.0014365327
 20
12.2421422705
 30
0.0
 10
16.9766960943
 20
12.2296615851
 30
0.0
 10
16.9481572012
 20
12.2106757111
 30
0.0
 10
16.9189413292
 20
12.1833092288
 30
0.0
 10
16.8996920237
 20
12.1573318296
 30
0.0
 10
16.8882733556
 20
12.1355232246
 30
0.0
 10
16.8818984588
 20
12.1191783178
 30
0.0
 10
16.8776498845
 20
12.1027988856
 30
0.0
 10
16.8762601029
 20
12.0917993254
 30
0.0
 10
16.8759545384
 20
12.0863818066
 30
0.0
  0
SPLINE
  5
347
100
AcDbEntity
  8
0
100
AcDbSpline
 62
7
  6
CONTINUOUS
 70
0
 71
3
 72
11
 73
7
 74
0
 42
0.0000001
 43
0.0000001
 44
0.0000000001
 40
0.0
 40
0.0
 40
0.0
 40
0.0
 40
0.267799962
 40
0.5239320372
 40
0.7676719975
 40
1.0
 40
1.0
 40
1.0
 40
1.0
 10
17.4451176658
 20
12.2640964225
 30
0.0
 10
17.4534882877
 20
12.2640964225
 30
0.0
 10
17.4698879964
 20
12.2630809009
 30
0.0
 10
17.4934910001
 20
12.2583316456
 30
0.0
 10
17.5150787117
 20
12.2504614264
 30
0.0
 10
17.5280940548
 20
12.2430632413
 30
0.0
 10
17.534046245
 20
12.2389031618
 30
0.0
  0
SPLINE
  5
348
100
AcDbEntity
  8
0
100
AcDbSpline
 62
7
  6
CONTINUOUS
 70
0
 71
3
 72
22
 73
18
 74
0
 42
0.0000001
 43
0.0000001
 44
0.0000000001
 40
0.0
 40
0.0
 40
0.0
 40
0.0
 40
0.0766113357
 40
0.1527985419
 40
0.2281165514
 40
0.3021199993
 40
0.444320408
 40
0.5117753228
 40
0.5763031487
 40
0.6377548947
 40
0.6961295523
 40
0.7516425333
 40
0.8045966954
 40
0.8554683926
 40
0.9047164784
 40
0.9527748246
 40
1.0
 40
1.0
 40
1.0
 40
1.0
 10
16.091499455
 20
12.8688255195
 30
0.0
 10
16.0898648435
 20
12.8754415565
 30
0.0
 10
16.0868506846
 20
12.8886997895
 30
0.0
 10
16.083204307
 20
12.9086681851
 30
0.0
 10
16.0805841355
 20
12.928568003
 30
0.0
 10
16.0786648176
 20
12.954436097
 30
0.0
 10
16.0792229978
 20
12.979775901
 30
0.0
 10
16.0828625837
 20
13.0039232348
 30
0.0
 10
16.0870592146
 20
13.0206410783
 30
0.0
 10
16.0927082295
 20
13.0360726602
 30
0.0
 10
16.0997625883
 20
13.0500260342
 30
0.0
 10
16.1080622185
 20
13.0623785538
 30
0.0
 10
16.11746873
 20
13.0730374523
 30
0.0
 10
16.1277876698
 20
13.0819837501
 30
0.0
 10
16.1388380422
 20
13.0892402967
 30
0.0
 10
16.150439171
 20
13.0948587305
 30
0.0
 10
16.1584876567
 20
13.0975917912
 30
0.0
 10
16.1625380182
 20
13.0987063942
 30
0.0
  0
SPLINE
  5
349
100
AcDbEntity
  8
0
100
AcDbSpline
 62
7
  6
CONTINUOUS
 70
0
 71
3
 72
23
 73
19
 74
0
 42
0.0000001
 43
0.0000001
 44
0.0000000001
 40
0.0
 40
0.0
 40
0.0
 40
0.0
 40
0.0548768672
 40
0.1116051155
 40
0.1700855296
 40
0.23023096
 40
0.2919185278
 40
0.3549532296
 40
0.4191027915
 40
0.484106192
 40
0.5496839051
 40
0.6155403121
 40
0.6813726741
 40
0.7468731459
 40
0.8117450061
 40
0.8757329396
 40
0.9385864901
 40
1.0
 40
1.0
 40
1.0
 40
1.0
 10
16.4863544097
 20
12.2078740806
 30
0.0
 10
16.4901724797
 20
12.2202293599
 30
0.0
 10
16.4992939715
 20
12.2449544932
 30
0.0
 10
16.5168109219
 20
12.2810682821
 30
0.0
 10
16.5382425035
 20
12.3164647633
 30
0.0
 10
16.5633579064
 20
12.3508013924
 30
0.0
 10
16.5919266801
 20
12.3837525886
 30
0.0
 10
16.6236647967
 20
12.4150187123
 30
0.0
 10
16.6582805277
 20
12.4442875855
 30
0.0
 10
16.6954309348
 20
12.4712930569
 30
0.0
 10
16.734769918
 20
12.4957656194
 30
0.0
 10
16.7759139812
 20
12.5174848153
 30
0.0
 10
16.8184764419
 20
12.5362278564
 30
0.0
 10
16.8620414834
 20
12.5518317041
 30
0.0
 10
16.9062014872
 20
12.5641336698
 30
0.0
 10
16.9505390805
 20
12.5730261276
 30
0.0
 10
16.9946165387
 20
12.5784052631
 30
0.0
 10
17.0239121769
 20
12.5796475461
 30
0.0
 10
17.0383843071
 20
12.5796475461
 30
0.0
  0
SPLINE
  5
34A
100
AcDbEntity
  8
0
100
AcDbSpline
 62
7
  6
CONTINUOUS
 70
0
 71
3
 72
11
 73
7
 74
0
 42
0.0000001
 43
0.0000001
 44
0.0000000001
 40
0.0
 40
0.0
 40
0.0
 40
0.0
 40
0.2391887584
 40
0.4854250334
 40
0.7389510163
 40
1.0
 40
1.0
 40
1.0
 40
1.0
 10
15.9251227518
 20
13.2074198816
 30
0.0
 10
15.9273088611
 20
13.2144941338
 30
0.0
 10
15.9307037602
 20
13.2291917254
 30
0.0
 10
15.932805074
 20
13.2520332293
 30
0.0
 10
15.9319452753
 20
13.275628591
 30
0.0
 10
15.9294495492
 20
13.2914040059
 30
0.0
 10
15.9277415754
 20
13.2993024853
 30
0.0
  0
SPLINE
  5
34B
100
AcDbEntity
  8
0
100
AcDbSpline
 62
7
  6
CONTINUOUS
 70
0
 71
3
 72
15
 73
11
 74
0
 42
0.0000001
 43
0.0000001
 44
0.0000000001
 40
0.0
 40
0.0
 40
0.0
 40
0.0
 40
0.1301938154
 40
0.2605194082
 40
0.5173943576
 40
0.6428465251
 40
0.7045134873
 40
0.7653883268
 40
0.8845512316
 40
1.0
 40
1.0
 40
1.0
 40
1.0
 10
15.594785302
 20
13.2032496169
 30
0.0
 10
15.6008053539
 20
13.1958672421
 30
0.0
 10
15.6136318726
 20
13.1817092468
 30
0.0
 10
15.6418081147
 20
13.1563622296
 30
0.0
 10
15.6734886269
 20
13.1356639418
 30
0.0
 10
15.7032622384
 20
13.122527059
 30
0.0
 10
15.7204382668
 20
13.1166456534
 30
0.0
 10
15.7374817252
 20
13.1118952813
 30
0.0
 10
15.7587963591
 20
13.1079597596
 30
0.0
 10
15.7759921438
 20
13.1069926026
 30
0.0
 10
15.7844384123
 20
13.1070992304
 30
0.0
  0
SPLINE
  5
34C
100
AcDbEntity
  8
0
100
AcDbSpline
 62
7
  6
CONTINUOUS
 70
0
 71
3
 72
15
 73
11
 74
0
 42
0.0000001
 43
0.0000001
 44
0.0000000001
 40
0.0
 40
0.0
 40
0.0
 40
0.0
 40
0.1129531978
 40
0.2294698078
 40
0.3496878673
 40
0.4736956513
 40
0.60125187
 40
0.731912929
 40
0.8651418248
 40
1.0
 40
1.0
 40
1.0
 40
1.0
 10
15.5458165312
 20
13.3997206546
 30
0.0
 10
15.5434766274
 20
13.3921487232
 30
0.0
 10
15.5399171309
 20
13.3763741016
 30
0.0
 10
15.538005731
 20
13.3518374928
 30
0.0
 10
15.539479316
 20
13.3264948458
 30
0.0
 10
15.544299724
 20
13.300791624
 30
0.0
 10
15.552367309
 20
13.2751520551
 30
0.0
 10
15.5635535655
 20
13.2500051337
 30
0.0
 10
15.5776621248
 20
13.2257864635
 30
0.0
 10
15.5888054505
 20
13.2105826941
 30
0.0
 10
15.594785302
 20
13.2032496169
 30
0.0
  0
SPLINE
  5
34D
100
AcDbEntity
  8
0
100
AcDbSpline
 62
7
  6
CONTINUOUS
 70
0
 71
3
 72
15
 73
11
 74
0
 42
0.0000001
 43
0.0000001
 44
0.0000000001
 40
0.0
 40
0.0
 40
0.0
 40
0.0
 40
0.1327529121
 40
0.2621446057
 40
0.3883876997
 40
0.5121557245
 40
0.6342782574
 40
0.7556318153
 40
0.877201717
 40
1.0
 40
1.0
 40
1.0
 40
1.0
 10
15.6865008707
 20
13.5000413058
 30
0.0
 10
15.6793740382
 20
13.4999513348
 30
0.0
 10
15.6652950352
 20
13.4989525141
 30
0.0
 10
15.6447826986
 20
13.4949123893
 30
0.0
 10
15.6254251437
 20
13.4883749837
 30
0.0
 10
15.6074872983
 20
13.47943041
 30
0.0
 10
15.5912060322
 20
13.4681900972
 30
0.0
 10
15.5767967026
 20
13.4548025228
 30
0.0
 10
15.5644577657
 20
13.4394439348
 30
0.0
 10
15.5577662614
 20
13.4280984219
 30
0.0
 10
15.5548178126
 20
13.4222015107
 30
0.0
  0
SPLINE
  5
34E
100
AcDbEntity
  8
0
100
AcDbSpline
 62
7
  6
CONTINUOUS
 70
0
 71
3
 72
17
 73
13
 74
0
 42
0.0000001
 43
0.0000001
 44
0.0000000001
 40
0.0
 40
0.0
 40
0.0
 40
0.0
 40
0.0563405913
 40
0.1128706302
 40
0.1697777862
 40
0.2272385772
 40
0.3443782008
 40
0.4654828534
 40
0.5913101642
 40
0.7223416224
 40
0.8587315198
 40
1.0
 40
1.0
 40
1.0
 40
1.0
 10
17.5235678872
 20
12.2904749796
 30
0.0
 10
17.5223591417
 20
12.2929389212
 30
0.0
 10
17.5197282611
 20
12.2977755864
 30
0.0
 10
17.5151726503
 20
12.3046889779
 30
0.0
 10
17.5100228689
 20
12.3112423492
 30
0.0
 10
17.5023479496
 20
12.3195193864
 30
0.0
 10
17.4912979428
 20
12.328860076
 30
0.0
 10
17.4761323857
 20
12.3381707432
 30
0.0
 10
17.4591971289
 20
12.3455359405
 30
0.0
 10
17.4407435344
 20
12.3508581104
 30
0.0
 10
17.4210514733
 20
12.3540562177
 30
0.0
 10
17.4075138628
 20
12.3547478762
 30
0.0
 10
17.4006323936
 20
12.3547478762
 30
0.0
  0
SPLINE
  5
34F
100
AcDbEntity
  8
0
100
AcDbSpline
 62
7
  6
CONTINUOUS
 70
0
 71
3
 72
23
 73
19
 74
0
 42
0.0000001
 43
0.0000001
 44
0.0000000001
 40
0.0
 40
0.0
 40
0.0
 40
0.0
 40
0.0504532811
 40
0.101735401
 40
0.1545816499
 40
0.2095512255
 40
0.2670012419
 40
0.3270728129
 40
0.3580963279
 40
0.3897384876
 40
0.4547182609
 40
0.5899503994
 40
0.6593682775
 40
0.7291494057
 40
0.7986674445
 40
0.8673485866
 40
0.9346650384
 40
1.0
 40
1.0
 40
1.0
 40
1.0
 10
16.8415224302
 20
12.1252723374
 30
0.0
 10
16.8388272445
 20
12.1307653275
 30
0.0
 10
16.8344330715
 20
12.1423855347
 30
0.0
 10
16.8311364639
 20
12.1609398509
 30
0.0
 10
16.8311603667
 20
12.180329451
 30
0.0
 10
16.8344777927
 20
12.2001789741
 30
0.0
 10
16.8410061606
 20
12.2201275934
 30
0.0
 10
16.8489312209
 20
12.2363671923
 30
0.0
 10
16.8566830353
 20
12.2490822658
 30
0.0
 10
16.8655306228
 20
12.2617960739
 30
0.0
 10
16.8836013599
 20
12.2834078709
 30
0.0
 10
16.9086072742
 20
12.3049084639
 30
0.0
 10
16.9367840502
 20
12.3226866471
 30
0.0
 10
16.9594455143
 20
12.3340600049
 30
0.0
 10
16.983018593
 20
12.3431401355
 30
0.0
 10
17.007090003
 20
12.3497659027
 30
0.0
 10
17.0312126317
 20
12.3538015803
 30
0.0
 10
17.0473112127
 20
12.3547478762
 30
0.0
 10
17.0552345208
 20
12.3547478762
 30
0.0
  0
SPLINE
  5
350
100
AcDbEntity
  8
0
100
AcDbSpline
 62
7
  6
CONTINUOUS
 70
0
 71
3
 72
11
 73
7
 74
0
 42
0.0000001
 43
0.0000001
 44
0.0000000001
 40
0.0
 40
0.0
 40
0.0
 40
0.0
 40
0.2580038481
 40
0.5104808163
 40
0.7575596753
 40
1.0
 40
1.0
 40
1.0
 40
1.0
 10
15.7844384123
 20
13.1070992304
 30
0.0
 10
15.7904941311
 20
13.1071756794
 30
0.0
 10
15.8024778558
 20
13.107921307
 30
0.0
 10
15.8200480577
 20
13.1108660981
 30
0.0
 10
15.8368416104
 20
13.1156141495
 30
0.0
 10
15.8475001529
 20
13.1199878524
 30
0.0
 10
15.8526277836
 20
13.1224563439
 30
0.0
  0
SPLINE
  5
351
100
AcDbEntity
  8
0
100
AcDbSpline
 62
7
  6
CONTINUOUS
 70
0
 71
3
 72
14
 73
10
 74
0
 42
0.0000001
 43
0.0000001
 44
0.0000000001
 40
0.0
 40
0.0
 40
0.0
 40
0.0
 40
0.1251298541
 40
0.2493265839
 40
0.3730193769
 40
0.4966822948
 40
0.6208196282
 40
0.7459182687
 40
1.0
 40
1.0
 40
1.0
 40
1.0
 10
15.8577765384
 20
13.1250640945
 30
0.0
 10
15.8617949059
 20
13.1272027296
 30
0.0
 10
15.8696015025
 20
13.1318538549
 30
0.0
 10
15.8805384289
 20
13.1399221985
 30
0.0
 10
15.8905805854
 20
13.1490037141
 30
0.0
 10
15.8996601915
 20
13.1590434229
 30
0.0
 10
15.9077273511
 20
13.1699793496
 30
0.0
 10
15.917098982
 20
13.1857337668
 30
0.0
 10
15.9223937471
 20
13.1985888191
 30
0.0
 10
15.9251227518
 20
13.2074198816
 30
0.0
  0
SPLINE
  5
352
100
AcDbEntity
  8
0
100
AcDbSpline
 62
7
  6
CONTINUOUS
 70
0
 71
3
 72
9
 73
5
 74
0
 42
0.0000001
 43
0.0000001
 44
0.0000000001
 40
0.0
 40
0.0
 40
0.0
 40
0.0
 40
0.2552158306
 40
1.0
 40
1.0
 40
1.0
 40
1.0
 10
15.7294340101
 20
13.495804077
 30
0.0
 10
15.7258358219
 20
13.4965471339
 30
0.0
 10
15.7116661732
 20
13.4990966376
 30
0.0
 10
15.6972219992
 20
13.5001766521
 30
0.0
 10
15.6865008707
 20
13.5000413058
 30
0.0
  0
SPLINE
  5
353
100
AcDbEntity
  8
0
100
AcDbSpline
 62
7
  6
CONTINUOUS
 70
0
 71
3
 72
23
 73
19
 74
0
 42
0.0000001
 43
0.0000001
 44
0.0000000001
 40
0.0
 40
0.0
 40
0.0
 40
0.0
 40
0.0504532811
 40
0.101735401
 40
0.1545816499
 40
0.2095512255
 40
0.2670012419
 40
0.3270728129
 40
0.3580963279
 40
0.3897384876
 40
0.4547182609
 40
0.5899503994
 40
0.6593682775
 40
0.7291494057
 40
0.7986674445
 40
0.8673485866
 40
0.9346650384
 40
1.0
 40
1.0
 40
1.0
 40
1.0
 10
13.2724110784
 20
12.1252723374
 30
0.0
 10
13.2697158927
 20
12.1307653275
 30
0.0
 10
13.2653217198
 20
12.1423855347
 30
0.0
 10
13.2620251121
 20
12.1609398509
 30
0.0
 10
13.2620490149
 20
12.180329451
 30
0.0
 10
13.265366441
 20
12.2001789741
 30
0.0
 10
13.2718948089
 20
12.2201275934
 30
0.0
 10
13.2798198692
 20
12.2363671923
 30
0.0
 10
13.2875716835
 20
12.2490822658
 30
0.0
 10
13.296419271
 20
12.2617960739
 30
0.0
 10
13.3144900081
 20
12.2834078709
 30
0.0
 10
13.3394959224
 20
12.3049084639
 30
0.0
 10
13.3676726984
 20
12.3226866471
 30
0.0
 10
13.3903341625
 20
12.3340600049
 30
0.0
 10
13.4139072413
 20
12.3431401355
 30
0.0
 10
13.4379786513
 20
12.3497659027
 30
0.0
 10
13.4621012799
 20
12.3538015803
 30
0.0
 10
13.4781998609
 20
12.3547478762
 30
0.0
 10
13.4861231691
 20
12.3547478762
 30
0.0
  0
SPLINE
  5
354
100
AcDbEntity
  8
0
100
AcDbSpline
 62
7
  6
CONTINUOUS
 70
0
 71
3
 72
9
 73
5
 74
0
 42
0.0000001
 43
0.0000001
 44
0.0000000001
 40
0.0
 40
0.0
 40
0.0
 40
0.0
 40
0.5046254295
 40
1.0
 40
1.0
 40
1.0
 40
1.0
 10
15.9538254715
 20
12.1899330123
 30
0.0
 10
15.9548692123
 20
12.1802663035
 30
0.0
 10
15.9561784048
 20
12.1610193879
 30
0.0
 10
15.9558814562
 20
12.1417279193
 30
0.0
 10
15.9553209256
 20
12.1321997407
 30
0.0
  0
SPLINE
  5
355
100
AcDbEntity
  8
0
100
AcDbSpline
 62
7
  6
CONTINUOUS
 70
0
 71
3
 72
9
 73
5
 74
0
 42
0.0000001
 43
0.0000001
 44
0.0000000001
 40
0.0
 40
0.0
 40
0.0
 40
0.0
 40
0.507634013
 40
1.0
 40
1.0
 40
1.0
 40
1.0
 10
14.252956702
 20
12.7924753889
 30
0.0
 10
14.2433905262
 20
12.7851113324
 30
0.0
 10
14.2251141883
 20
12.7698474685
 30
0.0
 10
14.2082143488
 20
12.7530648133
 30
0.0
 10
14.2002963972
 20
12.7444385702
 30
0.0
  0
ELLIPSE
  5
356
100
AcDbEntity
  8
0
100
AcDbEllipse
 62
7
  6
CONTINUOUS
 10
4.5354331331
 20
4.6419948968
 30
0.0
 11
0.061315857
 21
-0.0
 31
0.0
 40
0.8154497461
 41
1.5707963268
 42
3.1415926536
  0
ELLIPSE
  5
357
100
AcDbEntity
  8
0
100
AcDbEllipse
 62
7
  6
CONTINUOUS
 10
7.7253014192
 20
4.6419948968
 30
0.0
 11
0.061315857
 21
-0.0
 31
0.0
 40
0.8154497461
 41
0.0
 42
1.5707963268
  0
ELLIPSE
  5
358
100
AcDbEntity
  8
0
100
AcDbEllipse
 62
7
  6
CONTINUOUS
 10
4.4677906634
 20
12.2782332174
 30
0.0
 11
0.0427602265
 21
0.0348688159
 31
0.0
 40
0.9062089103
 41
2.5051896051
 42
4.7123889804
  0
ELLIPSE
  5
359
100
AcDbEntity
  8
0
100
AcDbEllipse
 62
7
  6
CONTINUOUS
 10
4.4677906634
 20
13.4999873453
 30
0.0
 11
0.0427602265
 21
-0.0348688159
 31
0.0
 40
0.9062089103
 41
1.5707963268
 42
3.7779957021
  0
ELLIPSE
  5
35A
100
AcDbEntity
  8
0
100
AcDbEllipse
 62
7
  6
CONTINUOUS
 10
7.6739535043
 20
13.4999873453
 30
0.0
 11
0.0427602265
 21
0.0348688159
 31
0.0
 40
0.9062089103
 41
-0.6364030485
 42
1.5707963268
  0
ELLIPSE
  5
35B
100
AcDbEntity
  8
0
100
AcDbEllipse
 62
7
  6
CONTINUOUS
 10
7.6739535043
 20
12.2782332174
 30
0.0
 11
0.0427602265
 21
-0.0348688159
 31
0.0
 40
0.9062089103
 41
-1.5707963268
 42
0.6364030485
  0
ELLIPSE
  5
35C
100
AcDbEntity
  8
0
100
AcDbEllipse
 62
7
  6
CONTINUOUS
 10
15.8494177569
 20
4.6324997044
 30
0.0
 11
0.0
 21
1.3125
 31
0.0
 40
0.361606336
 41
-1.5707963268
 42
-0.3143179857
  0
ELLIPSE
  5
35D
100
AcDbEntity
  8
0
100
AcDbEllipse
 62
7
  6
CONTINUOUS
 10
15.8494177569
 20
4.6324997044
 30
0.0
 11
0.0
 21
1.3125
 31
0.0
 40
0.361606336
 41
0.3143179857
 42
1.5707963268
  0
ELLIPSE
  5
35E
100
AcDbEntity
  8
0
100
AcDbEllipse
 62
7
  6
CONTINUOUS
 10
17.0441559199
 20
12.700643453
 30
0.0
 11
0.0680216704
 21
0.040198862
 31
0.0
 40
0.4371107509
 41
0.6368427252
 42
1.4269255296
  0
ELLIPSE
  5
35F
100
AcDbEntity
  8
0
100
AcDbEllipse
 62
7
  6
CONTINUOUS
 10
16.923497617
 20
12.2078740806
 30
0.0
 11
-0.8074678511
 21
0.8656587383
 31
0.0
 40
0.2890715709
 41
-1.4066039972
 42
-0.1501256561
  0
ELLIPSE
  5
360
100
AcDbEntity
  8
0
100
AcDbEllipse
 62
7
  6
CONTINUOUS
 10
16.923497617
 20
12.2078740806
 30
0.0
 11
-0.8074678511
 21
0.8656587383
 31
0.0
 40
0.2890715709
 41
0.4785103152
 42
1.7349886564
  0
ELLIPSE
  5
361
100
AcDbEntity
  8
0
100
AcDbEllipse
 62
7
  6
CONTINUOUS
 10
17.0223988771
 20
12.6863905233
 30
0.0
 11
0.0490207693
 21
0.0252548345
 31
0.0
 40
0.654559594
 41
-0.5704812464
 42
0.414470071
  0
ELLIPSE
  5
362
100
AcDbEntity
  8
0
100
AcDbEllipse
 62
7
  6
CONTINUOUS
 10
16.7203922124
 20
11.6529437114
 30
0.0
 11
-0.0461533409
 21
0.0493721298
 31
0.0
 40
0.1711449518
 41
-2.6294391579
 42
-1.0586428311
  0
ELLIPSE
  5
363
100
AcDbEntity
  8
0
100
AcDbEllipse
 62
7
  6
CONTINUOUS
 10
16.7266533473
 20
11.729357638
 30
0.0
 11
0.0475154638
 21
0.0172689141
 31
0.0
 40
0.7787415818
 41
-2.740180675
 42
-0.5329812997
  0
ELLIPSE
  5
364
100
AcDbEntity
  8
0
100
AcDbEllipse
 62
7
  6
CONTINUOUS
 10
13.7823289581
 20
11.6529437114
 30
0.0
 11
0.0680216704
 21
0.040198862
 31
0.0
 40
0.4371107509
 41
1.5368427704
 42
3.1076390972
  0
ELLIPSE
  5
365
100
AcDbEntity
  8
0
100
AcDbEllipse
 62
7
  6
CONTINUOUS
 10
13.7735818142
 20
11.729357638
 30
0.0
 11
0.0490207693
 21
0.0252548345
 31
0.0
 40
0.654559594
 41
2.7271227864
 42
4.7783107824
  0
ENDSEC
  0
SECTION
  2
OBJECTS
  0
DICTIONARY
  5
C
100
AcDbDictionary
280
0
281
1
  3
ACAD_GROUP
350
D
  3
ACAD_MLINESTYLE
350
17
  3
ACAD_LAYOUT
350
1A
  3
ACAD_PLOTSETTINGS
350
19
  3
ACAD_PLOTSTYLENAME
350
E
  0
DICTIONARY
  5
D
102
{ACAD_REACTORS
330
C
102
}
100
AcDbDictionary
280
0
281
1
  0
ACDBDICTIONARYWDFLT
  5
E
102
{ACAD_REACTORS
330
C
102
}
100
AcDbDictionary
281
1
  3
Normal
350
F
100
AcDbDictionaryWithDefault
340
F
  0
DICTIONARY
  5
17
102
{ACAD_REACTORS
330
C
102
}
100
AcDbDictionary
280
0
281
1
  3
Standard
350
18
  0
DICTIONARY
  5
19
102
{ACAD_REACTORS
330
C
102
}
100
AcDbDictionary
281
1
  0
DICTIONARY
  5
1A
102
{ACAD_REACTORS
330
C
102
}
100
AcDbDictionary
281
1
  3
Model
350
366
  3
Layout1
350
367
  0
ACDBPLACEHOLDER
  5
F
102
{ACAD_REACTORS
330
E
102
}
  0
MLINESTYLE
  5
18
102
{ACAD_REACTORS
330
17
102
}
100
AcDbMlineStyle
  2
STANDARD
 70
0
  3

 62
256
 51
90.0
 52
90.0
 71
2
 49
0.5
 62
256
  6
BYLAYER
 49
-0.5
 62
256
  6
BYLAYER
  0
LAYOUT
  5
366
102
{ACAD_REACTORS
330
1A
102
}
100
AcDbPlotSettings
  1

  2
none_device
  4
ANSI_C_(22.00_x_17.00_Inches)
  6

 40
0.0
 41
0.0
 42
0.0
 43
0.0
 44
558.8
 45
431.8
 46
0.0
 47
0.0
 48
0.0
 49
0.0
140
0.0
141
0.0
142
1.0
143
1.0
 70
1024
 72
0
 73
0
 74
0
  7

 75
0
147
1.0
148
0.0
149
0.0
100
AcDbLayout
  1
Model
 70
0
 71
0
 10
0.0
 20
0.0
 11
22.0
 21
17.0
 12
0.0
 22
0.0
 32
0.0
 14
0.0
 24
0.0
 34
0.0
 15
0.0
 25
0.0
 35
0.0
146
0.0
 13
0.0
 23
0.0
 33
0.0
 16
1.0
 26
0.0
 36
0.0
 17
0.0
 27
1.0
 37
0.0
 76
0
330
232
345
0
346
0
  0
LAYOUT
  5
367
102
{ACAD_REACTORS
330
1A
102
}
100
AcDbPlotSettings
  1

  2
none_device
  4
ANSI_C_(22.00_x_17.00_Inches)
  6

 40
0.0
 41
0.0
 42
0.0
 43
0.0
 44
558.8
 45
431.8
 46
0.0
 47
0.0
 48
0.0
 49
0.0
140
0.0
141
0.0
142
1.0
143
1.0
 70
0
 72
0
 73
0
 74
0
  7

 75
0
147
1.0
148
0.0
149
0.0
100
AcDbLayout
  1
Layout1
 70
0
 71
1
 10
0.0
 20
0.0
 11
22.0
 21
17.0
 12
0.0
 22
0.0
 32
0.0
 14
0.0
 24
0.0
 34
0.0
 15
0.0
 25
0.0
 35
0.0
146
0.0
 13
0.0
 23
0.0
 33
0.0
 16
1.0
 26
0.0
 36
0.0
 17
0.0
 27
1.0
 37
0.0
 76
0
330
233
345
0
346
0
  0
ENDSEC
  0
EOF