999
DXF file: _cgs_temp_output.dxf
999
Pro/ENGINEER 2016360 by Parametric Technology Corporation
  0
SECTION
  2
HEADER
  9
$ACADVER
  1
AC1021
  9
$DWGCODEPAGE
  3
ANSI_1252
  9
$EXTMAX
 10
22.0
 20
17.0
 30
0.0
  9
$EXTMIN
 10
0.0
 20
0.0
 30
0.0
  9
$LIMMIN
 10
0.0
 20
0.0
  9
$LIMMAX
 10
22.0
 20
17.0
  9
$VIEWCTR
 10
11.0
 20
8.5
  9
$VIEWSIZE
 40
17.0
  9
$CLAYER
  8
0
  9
$LTSCALE
 40
1.21
  9
$CELTYPE
  6
BYLAYER
  9
$DIMSCALE
 40
1.0
  9
$DIMASZ
 40
0.1875
  9
$DIMEXO
 40
0.0625
  9
$DIMDLI
 40
0.836
  9
$DIMEXE
 40
0.125
  9
$DIMCEN
 40
0.198
  9
$DIMLFAC
 40
1.0
  9
$DIMBLK
  1
_CLOSED
  9
$DIMALT
 70
0
  9
$DIMALTF
 40
25.4
  9
$DIMTXT
 40
0.15625
  9
$DIMTOL
 70
0
  9
$DIMLIM
 70
0
  9
$DIMTFAC
 40
1.0
  9
$DIMGAP
 40
0.09
  9
$DIMDSEP
 70
46
  9
$AUNITS
 70
0
  9
$PDMODE
 70
3
  9
$PDSIZE
 40
0.3125
  9
$HANDSEED
  5
4DA
  9
$TILEMODE
 70
1
  9
$MEASUREMENT
 70
0
  9
$INSUNITS
 70
1
  0
ENDSEC
  0
SECTION
  2
CLASSES
  0
CLASS
  1
ACDBDICTIONARYWDFLT
  2
AcDbDictionaryWithDefault
  3
AutoCAD 2000
 90
0
 91
1
280
0
281
0
  0
CLASS
  1
ACDBPLACEHOLDER
  2
AcDbPlaceHolder
  3
AutoCAD 2000
 90
0
 91
1
280
0
281
0
  0
CLASS
  1
LAYOUT
  2
AcDbLayout
  3
AutoCAD 2000
 90
0
 91
0
280
0
281
0
  0
ENDSEC
  0
SECTION
  2
TABLES
  0
TABLE
  2
VPORT
  5
8
100
AcDbSymbolTable
 70
2
  0
VPORT
  5
1F4
100
AcDbSymbolTableRecord
100
AcDbViewportTableRecord
  2
*ACTIVE
 70
0
 10
0.0
 20
0.0
 11
1.0
 21
1.0
 12
11.0
 22
8.5
 13
0.0
 23
0.0
 14
1.0
 24
1.0
 15
0.0
 25
0.0
 16
0.0
 26
0.0
 36
1.0
 17
0.0
 27
0.0
 37
0.0
 40
17.0
 41
1.2941176471
 42
50.0
 43
0.0
 44
0.0
 50
0.0
 51
0.0
 71
0
 72
100
 73
1
 74
1
 75
0
 76
0
 77
0
 78
0
  0
ENDTAB
  0
TABLE
  2
LTYPE
  5
5
100
AcDbSymbolTable
 70
6
  0
LTYPE
  5
14
100
AcDbSymbolTableRecord
100
AcDbLinetypeTableRecord
  2
BYBLOCK
 70
0
  3

 72
65
 73
0
 40
0.0
  0
LTYPE
  5
15
100
AcDbSymbolTableRecord
100
AcDbLinetypeTableRecord
  2
BYLAYER
 70
0
  3

 72
65
 73
0
 40
0.0
  0
LTYPE
  5
16
100
AcDbSymbolTableRecord
100
AcDbLinetypeTableRecord
  2
CONTINUOUS
 70
64
  3
Solid line
 72
65
 73
0
 40
0.0
  0
LTYPE
  5
1F5
100
AcDbSymbolTableRecord
100
AcDbLinetypeTableRecord
  2
CENTER
 70
64
  3
____ _ ____ _ ____ _ ____ _ ____ _ ____ _ ____
 72
65
 73
4
 40
0.6
 49
0.375
 74
0
 49
-0.075
 74
0
 49
0.075
 74
0
 49
-0.075
 74
0
  0
LTYPE
  5
1F6
100
AcDbSymbolTableRecord
100
AcDbLinetypeTableRecord
  2
HIDDEN
 70
64
  3
- - - - - - - - - - - - - - - - - - - -
 72
65
 73
2
 40
0.2
 49
0.1
 74
0
 49
-0.1
 74
0
  0
LTYPE
  5
1F7
100
AcDbSymbolTableRecord
100
AcDbLinetypeTableRecord
  2
PHANTOM
 70
64
  3
_____ _ _ _____ _ _ _____ _ _ _____
 72
65
 73
6
 40
0.8
 49
0.45
 74
0
 49
-0.05
 74
0
 49
0.1
 74
0
 49
-0.05
 74
0
 49
0.1
 74
0
 49
-0.05
 74
0
  0
LTYPE
  5
1F8
100
AcDbSymbolTableRecord
100
AcDbLinetypeTableRecord
  2
DOT
 70
64
  3
. . . . . . . . . . . . . . . . . . . .
 72
65
 73
2
 40
0.2
 49
0.1
 74
0
 49
-0.1
 74
0
  0
LTYPE
  5
1F9
100
AcDbSymbolTableRecord
100
AcDbLinetypeTableRecord
  2
DASHED
 70
64
  3
- - - - - - - - - - - - - - - - - - - -
 72
65
 73
2
 40
0.2
 49
0.1
 74
0
 49
-0.1
 74
0
  0
ENDTAB
  0
TABLE
  2
LAYER
  5
2
100
AcDbSymbolTable
 70
36
  0
LAYER
  5
10
100
AcDbSymbolTableRecord
100
AcDbLayerTableRecord
  2
0
 70
0
 62
7
  6
CONTINUOUS
370
-3
390
F
  0
LAYER
  5
1FA
100
AcDbSymbolTableRecord
100
AcDbLayerTableRecord
  2
DEFAULT_1
 70
0
 62
7
  6
CENTER
370
-3
390
F
  0
LAYER
  5
1FB
100
AcDbSymbolTableRecord
100
AcDbLayerTableRecord
  2
DEFAULT_2
 70
0
 62
8
  6
HIDDEN
370
-3
390
F
  0
LAYER
  5
1FC
100
AcDbSymbolTableRecord
100
AcDbLayerTableRecord
  2
DEFAULT_3
 70
0
 62
7
  6
PHANTOM
370
-3
390
F
  0
LAYER
  5
1FD
100
AcDbSymbolTableRecord
100
AcDbLayerTableRecord
  2
01_ALL_DTM_PLN
 70
0
 62
7
  6
CONTINUOUS
370
-3
390
F
  0
LAYER
  5
1FE
100
AcDbSymbolTableRecord
100
AcDbLayerTableRecord
  2
01__ASM_ALL_DTM_PLN
 70
0
 62
7
  6
CONTINUOUS
370
-3
390
F
  0
LAYER
  5
1FF
100
AcDbSymbolTableRecord
100
AcDbLayerTableRecord
  2
01__ASM_DEF_DTM_PLN
 70
0
 62
7
  6
CONTINUOUS
370
-3
390
F
  0
LAYER
  5
200
100
AcDbSymbolTableRecord
100
AcDbLayerTableRecord
  2
01___PRT_ALL_DTM_PLN
 70
0
 62
7
  6
CONTINUOUS
370
-3
390
F
  0
LAYER
  5
201
100
AcDbSymbolTableRecord
100
AcDbLayerTableRecord
  2
01___PRT_DEF_DTM_PLN
 70
0
 62
7
  6
CONTINUOUS
370
-3
390
F
  0
LAYER
  5
202
100
AcDbSymbolTableRecord
100
AcDbLayerTableRecord
  2
02_ALL_AXES
 70
0
 62
7
  6
CONTINUOUS
370
-3
390
F
  0
LAYER
  5
203
100
AcDbSymbolTableRecord
100
AcDbLayerTableRecord
  2
02__ASM_ALL_AXES
 70
0
 62
7
  6
CONTINUOUS
370
-3
390
F
  0
LAYER
  5
204
100
AcDbSymbolTableRecord
100
AcDbLayerTableRecord
  2
02___PRT_ALL_AXES
 70
0
 62
7
  6
CONTINUOUS
370
-3
390
F
  0
LAYER
  5
205
100
AcDbSymbolTableRecord
100
AcDbLayerTableRecord
  2
03_ALL_CURVES
 70
0
 62
7
  6
CONTINUOUS
370
-3
390
F
  0
LAYER
  5
206
100
AcDbSymbolTableRecord
100
AcDbLayerTableRecord
  2
03__ASM_ALL_CURVES
 70
0
 62
7
  6
CONTINUOUS
370
-3
390
F
  0
LAYER
  5
207
100
AcDbSymbolTableRecord
100
AcDbLayerTableRecord
  2
03___PRT_ALL_CURVES
 70
0
 62
7
  6
CONTINUOUS
370
-3
390
F
  0
LAYER
  5
208
100
AcDbSymbolTableRecord
100
AcDbLayerTableRecord
  2
04_ALL_DTM_PNT
 70
0
 62
7
  6
CONTINUOUS
370
-3
390
F
  0
LAYER
  5
209
100
AcDbSymbolTableRecord
100
AcDbLayerTableRecord
  2
04__ASM_ALL_DTM_PNT
 70
0
 62
7
  6
CONTINUOUS
370
-3
390
F
  0
LAYER
  5
20A
100
AcDbSymbolTableRecord
100
AcDbLayerTableRecord
  2
04___PRT_ALL_DTM_PNT
 70
0
 62
7
  6
CONTINUOUS
370
-3
390
F
  0
LAYER
  5
20B
100
AcDbSymbolTableRecord
100
AcDbLayerTableRecord
  2
05_ALL_DTM_CSYS
 70
0
 62
7
  6
CONTINUOUS
370
-3
390
F
  0
LAYER
  5
20C
100
AcDbSymbolTableRecord
100
AcDbLayerTableRecord
  2
05__ASM_ALL_DTM_CSYS
 70
0
 62
7
  6
CONTINUOUS
370
-3
390
F
  0
LAYER
  5
20D
100
AcDbSymbolTableRecord
100
AcDbLayerTableRecord
  2
05__ASM_DEF_DTM_CSYS
 70
0
 62
7
  6
CONTINUOUS
370
-3
390
F
  0
LAYER
  5
20E
100
AcDbSymbolTableRecord
100
AcDbLayerTableRecord
  2
05___PRT_ALL_DTM_CSYS
 70
0
 62
7
  6
CONTINUOUS
370
-3
390
F
  0
LAYER
  5
20F
100
AcDbSymbolTableRecord
100
AcDbLayerTableRecord
  2
05___PRT_DEF_DTM_CSYS
 70
0
 62
7
  6
CONTINUOUS
370
-3
390
F
  0
LAYER
  5
210
100
AcDbSymbolTableRecord
100
AcDbLayerTableRecord
  2
06_ALL_SURFS
 70
0
 62
7
  6
CONTINUOUS
370
-3
390
F
  0
LAYER
  5
211
100
AcDbSymbolTableRecord
100
AcDbLayerTableRecord
  2
06__ASM_ALL_SURFS
 70
0
 62
7
  6
CONTINUOUS
370
-3
390
F
  0
LAYER
  5
212
100
AcDbSymbolTableRecord
100
AcDbLayerTableRecord
  2
06___PRT_ALL_SURFS
 70
0
 62
7
  6
CONTINUOUS
370
-3
390
F
  0
LAYER
  5
213
100
AcDbSymbolTableRecord
100
AcDbLayerTableRecord
  2
07__ASM_ALL_SKELETONS
 70
0
 62
7
  6
CONTINUOUS
370
-3
390
F
  0
LAYER
  5
214
100
AcDbSymbolTableRecord
100
AcDbLayerTableRecord
  2
COLOR1
 70
0
 62
7
  6
CONTINUOUS
370
-3
390
F
  0
LAYER
  5
215
100
AcDbSymbolTableRecord
100
AcDbLayerTableRecord
  2
COLOR2
 70
0
 62
7
  6
CONTINUOUS
370
-3
390
F
  0
LAYER
  5
216
100
AcDbSymbolTableRecord
100
AcDbLayerTableRecord
  2
INTFCLR_11137
 70
0
 62
7
  6
CONTINUOUS
370
-3
390
F
  0
LAYER
  5
217
100
AcDbSymbolTableRecord
100
AcDbLayerTableRecord
  2
INTFCLR_11137_1
 70
0
 62
7
  6
CONTINUOUS
370
-3
390
F
  0
LAYER
  5
218
100
AcDbSymbolTableRecord
100
AcDbLayerTableRecord
  2
INTFCLR_11137_10
 70
0
 62
7
  6
CONTINUOUS
370
-3
390
F
  0
LAYER
  5
219
100
AcDbSymbolTableRecord
100
AcDbLayerTableRecord
  2
INTFCLR_11137_11
 70
0
 62
7
  6
CONTINUOUS
370
-3
390
F
  0
LAYER
  5
21A
100
AcDbSymbolTableRecord
100
AcDbLayerTableRecord
  2
INTFCLR_11137_2
 70
0
 62
7
  6
CONTINUOUS
370
-3
390
F
  0
LAYER
  5
21B
100
AcDbSymbolTableRecord
100
AcDbLayerTableRecord
  2
INTFCLR_11137_3
 70
0
 62
7
  6
CONTINUOUS
370
-3
390
F
  0
LAYER
  5
21C
100
AcDbSymbolTableRecord
100
AcDbLayerTableRecord
  2
INTFCLR_11137_4
 70
0
 62
7
  6
CONTINUOUS
370
-3
390
F
  0
LAYER
  5
21D
100
AcDbSymbolTableRecord
100
AcDbLayerTableRecord
  2
INTFCLR_11137_5
 70
0
 62
7
  6
CONTINUOUS
370
-3
390
F
  0
LAYER
  5
21E
100
AcDbSymbolTableRecord
100
AcDbLayerTableRecord
  2
INTFCLR_11137_6
 70
0
 62
7
  6
CONTINUOUS
370
-3
390
F
  0
LAYER
  5
21F
100
AcDbSymbolTableRecord
100
AcDbLayerTableRecord
  2
INTFCLR_11137_7
 70
0
 62
7
  6
CONTINUOUS
370
-3
390
F
  0
LAYER
  5
220
100
AcDbSymbolTableRecord
100
AcDbLayerTableRecord
  2
INTFCLR_11137_8
 70
0
 62
7
  6
CONTINUOUS
370
-3
390
F
  0
LAYER
  5
221
100
AcDbSymbolTableRecord
100
AcDbLayerTableRecord
  2
INTFCLR_11137_9
 70
0
 62
7
  6
CONTINUOUS
370
-3
390
F
  0
LAYER
  5
222
100
AcDbSymbolTableRecord
100
AcDbLayerTableRecord
  2
INTFCLR_6901
 70
0
 62
7
  6
CONTINUOUS
370
-3
390
F
  0
LAYER
  5
223
100
AcDbSymbolTableRecord
100
AcDbLayerTableRecord
  2
INTFCLR_6901_1
 70
0
 62
7
  6
CONTINUOUS
370
-3
390
F
  0
LAYER
  5
224
100
AcDbSymbolTableRecord
100
AcDbLayerTableRecord
  2
INTFCLR_6901_2
 70
0
 62
7
  6
CONTINUOUS
370
-3
390
F
  0
LAYER
  5
225
100
AcDbSymbolTableRecord
100
AcDbLayerTableRecord
  2
INTFCLR_6901_3
 70
0
 62
7
  6
CONTINUOUS
370
-3
390
F
  0
LAYER
  5
226
100
AcDbSymbolTableRecord
100
AcDbLayerTableRecord
  2
INTFCLR_6901_4
 70
0
 62
7
  6
CONTINUOUS
370
-3
390
F
  0
LAYER
  5
227
100
AcDbSymbolTableRecord
100
AcDbLayerTableRecord
  2
INTFCLR_6901_5
 70
0
 62
7
  6
CONTINUOUS
370
-3
390
F
  0
LAYER
  5
228
100
AcDbSymbolTableRecord
100
AcDbLayerTableRecord
  2
INTFCLR_6901_6
 70
0
 62
7
  6
CONTINUOUS
370
-3
390
F
  0
LAYER
  5
229
100
AcDbSymbolTableRecord
100
AcDbLayerTableRecord
  2
INTFCLR_6901_7
 70
0
 62
7
  6
CONTINUOUS
370
-3
390
F
  0
LAYER
  5
22A
100
AcDbSymbolTableRecord
100
AcDbLayerTableRecord
  2
KARTHIII
 70
0
 62
7
  6
CONTINUOUS
370
-3
390
F
  0
LAYER
  5
22B
100
AcDbSymbolTableRecord
100
AcDbLayerTableRecord
  2
NONE
 70
0
 62
7
  6
CONTINUOUS
370
-3
390
F
  0
LAYER
  5
22C
100
AcDbSymbolTableRecord
100
AcDbLayerTableRecord
  2
NONE_1
 70
0
 62
7
  6
CONTINUOUS
370
-3
390
F
  0
LAYER
  5
22D
100
AcDbSymbolTableRecord
100
AcDbLayerTableRecord
  2
NONE_10
 70
0
 62
7
  6
CONTINUOUS
370
-3
390
F
  0
LAYER
  5
22E
100
AcDbSymbolTableRecord
100
AcDbLayerTableRecord
  2
NONE_11
 70
0
 62
7
  6
CONTINUOUS
370
-3
390
F
  0
LAYER
  5
22F
100
AcDbSymbolTableRecord
100
AcDbLayerTableRecord
  2
NONE_2
 70
0
 62
7
  6
CONTINUOUS
370
-3
390
F
  0
LAYER
  5
230
100
AcDbSymbolTableRecord
100
AcDbLayerTableRecord
  2
NONE_3
 70
0
 62
7
  6
CONTINUOUS
370
-3
390
F
  0
LAYER
  5
231
100
AcDbSymbolTableRecord
100
AcDbLayerTableRecord
  2
NONE_4
 70
0
 62
7
  6
CONTINUOUS
370
-3
390
F
  0
LAYER
  5
232
100
AcDbSymbolTableRecord
100
AcDbLayerTableRecord
  2
NONE_5
 70
0
 62
7
  6
CONTINUOUS
370
-3
390
F
  0
LAYER
  5
233
100
AcDbSymbolTableRecord
100
AcDbLayerTableRecord
  2
NONE_6
 70
0
 62
7
  6
CONTINUOUS
370
-3
390
F
  0
LAYER
  5
234
100
AcDbSymbolTableRecord
100
AcDbLayerTableRecord
  2
NONE_7
 70
0
 62
7
  6
CONTINUOUS
370
-3
390
F
  0
LAYER
  5
235
100
AcDbSymbolTableRecord
100
AcDbLayerTableRecord
  2
NONE_8
 70
0
 62
7
  6
CONTINUOUS
370
-3
390
F
  0
LAYER
  5
236
100
AcDbSymbolTableRecord
100
AcDbLayerTableRecord
  2
NONE_9
 70
0
 62
7
  6
CONTINUOUS
370
-3
390
F
  0
LAYER
  5
237
100
AcDbSymbolTableRecord
100
AcDbLayerTableRecord
  2
_1064
 70
0
 62
7
  6
CONTINUOUS
370
-3
390
F
  0
LAYER
  5
238
100
AcDbSymbolTableRecord
100
AcDbLayerTableRecord
  2
_1064_1
 70
0
 62
7
  6
CONTINUOUS
370
-3
390
F
  0
LAYER
  5
239
100
AcDbSymbolTableRecord
100
AcDbLayerTableRecord
  2
_1245
 70
0
 62
7
  6
CONTINUOUS
370
-3
390
F
  0
LAYER
  5
23A
100
AcDbSymbolTableRecord
100
AcDbLayerTableRecord
  2
_1245_1
 70
0
 62
7
  6
CONTINUOUS
370
-3
390
F
  0
LAYER
  5
23B
100
AcDbSymbolTableRecord
100
AcDbLayerTableRecord
  2
_1953
 70
0
 62
7
  6
CONTINUOUS
370
-3
390
F
  0
LAYER
  5
23C
100
AcDbSymbolTableRecord
100
AcDbLayerTableRecord
  2
_1953_1
 70
0
 62
7
  6
CONTINUOUS
370
-3
390
F
  0
LAYER
  5
23D
100
AcDbSymbolTableRecord
100
AcDbLayerTableRecord
  2
_3223
 70
0
 62
7
  6
CONTINUOUS
370
-3
390
F
  0
LAYER
  5
23E
100
AcDbSymbolTableRecord
100
AcDbLayerTableRecord
  2
_3223_1
 70
0
 62
7
  6
CONTINUOUS
370
-3
390
F
  0
LAYER
  5
23F
100
AcDbSymbolTableRecord
100
AcDbLayerTableRecord
  2
_3908
 70
0
 62
7
  6
CONTINUOUS
370
-3
390
F
  0
LAYER
  5
240
100
AcDbSymbolTableRecord
100
AcDbLayerTableRecord
  2
_3908_1
 70
0
 62
7
  6
CONTINUOUS
370
-3
390
F
  0
LAYER
  5
241
100
AcDbSymbolTableRecord
100
AcDbLayerTableRecord
  2
_3988
 70
0
 62
7
  6
CONTINUOUS
370
-3
390
F
  0
LAYER
  5
242
100
AcDbSymbolTableRecord
100
AcDbLayerTableRecord
  2
_3988_1
 70
0
 62
7
  6
CONTINUOUS
370
-3
390
F
  0
LAYER
  5
243
100
AcDbSymbolTableRecord
100
AcDbLayerTableRecord
  2
_4418
 70
0
 62
7
  6
CONTINUOUS
370
-3
390
F
  0
LAYER
  5
244
100
AcDbSymbolTableRecord
100
AcDbLayerTableRecord
  2
_4418_1
 70
0
 62
7
  6
CONTINUOUS
370
-3
390
F
  0
LAYER
  5
245
100
AcDbSymbolTableRecord
100
AcDbLayerTableRecord
  2
_4973
 70
0
 62
7
  6
CONTINUOUS
370
-3
390
F
  0
LAYER
  5
246
100
AcDbSymbolTableRecord
100
AcDbLayerTableRecord
  2
_4973_1
 70
0
 62
7
  6
CONTINUOUS
370
-3
390
F
  0
LAYER
  5
247
100
AcDbSymbolTableRecord
100
AcDbLayerTableRecord
  2
_5372
 70
0
 62
7
  6
CONTINUOUS
370
-3
390
F
  0
LAYER
  5
248
100
AcDbSymbolTableRecord
100
AcDbLayerTableRecord
  2
_5372_1
 70
0
 62
7
  6
CONTINUOUS
370
-3
390
F
  0
LAYER
  5
249
100
AcDbSymbolTableRecord
100
AcDbLayerTableRecord
  2
_5953
 70
0
 62
7
  6
CONTINUOUS
370
-3
390
F
  0
LAYER
  5
24A
100
AcDbSymbolTableRecord
100
AcDbLayerTableRecord
  2
_5953_1
 70
0
 62
7
  6
CONTINUOUS
370
-3
390
F
  0
LAYER
  5
24B
100
AcDbSymbolTableRecord
100
AcDbLayerTableRecord
  2
_6082
 70
0
 62
7
  6
CONTINUOUS
370
-3
390
F
  0
LAYER
  5
24C
100
AcDbSymbolTableRecord
100
AcDbLayerTableRecord
  2
_6082_1
 70
0
 62
7
  6
CONTINUOUS
370
-3
390
F
  0
LAYER
  5
24D
100
AcDbSymbolTableRecord
100
AcDbLayerTableRecord
  2
_6138
 70
0
 62
7
  6
CONTINUOUS
370
-3
390
F
  0
LAYER
  5
24E
100
AcDbSymbolTableRecord
100
AcDbLayerTableRecord
  2
_6138_1
 70
0
 62
7
  6
CONTINUOUS
370
-3
390
F
  0
LAYER
  5
24F
100
AcDbSymbolTableRecord
100
AcDbLayerTableRecord
  2
_6733
 70
0
 62
7
  6
CONTINUOUS
370
-3
390
F
  0
LAYER
  5
250
100
AcDbSymbolTableRecord
100
AcDbLayerTableRecord
  2
_6733_1
 70
0
 62
7
  6
CONTINUOUS
370
-3
390
F
  0
LAYER
  5
251
100
AcDbSymbolTableRecord
100
AcDbLayerTableRecord
  2
_7015
 70
0
 62
7
  6
CONTINUOUS
370
-3
390
F
  0
LAYER
  5
252
100
AcDbSymbolTableRecord
100
AcDbLayerTableRecord
  2
_7015_1
 70
0
 62
7
  6
CONTINUOUS
370
-3
390
F
  0
LAYER
  5
253
100
AcDbSymbolTableRecord
100
AcDbLayerTableRecord
  2
_7798
 70
0
 62
7
  6
CONTINUOUS
370
-3
390
F
  0
LAYER
  5
254
100
AcDbSymbolTableRecord
100
AcDbLayerTableRecord
  2
_7798_1
 70
0
 62
7
  6
CONTINUOUS
370
-3
390
F
  0
LAYER
  5
255
100
AcDbSymbolTableRecord
100
AcDbLayerTableRecord
  2
_8448
 70
0
 62
7
  6
CONTINUOUS
370
-3
390
F
  0
LAYER
  5
256
100
AcDbSymbolTableRecord
100
AcDbLayerTableRecord
  2
_8448_1
 70
0
 62
7
  6
CONTINUOUS
370
-3
390
F
  0
LAYER
  5
257
100
AcDbSymbolTableRecord
100
AcDbLayerTableRecord
  2
_8688
 70
0
 62
7
  6
CONTINUOUS
370
-3
390
F
  0
LAYER
  5
258
100
AcDbSymbolTableRecord
100
AcDbLayerTableRecord
  2
_8688_1
 70
0
 62
7
  6
CONTINUOUS
370
-3
390
F
  0
LAYER
  5
259
100
AcDbSymbolTableRecord
100
AcDbLayerTableRecord
  2
_8827
 70
0
 62
7
  6
CONTINUOUS
370
-3
390
F
  0
LAYER
  5
25A
100
AcDbSymbolTableRecord
100
AcDbLayerTableRecord
  2
_8827_1
 70
0
 62
7
  6
CONTINUOUS
370
-3
390
F
  0
LAYER
  5
25B
100
AcDbSymbolTableRecord
100
AcDbLayerTableRecord
  2
_9583
 70
0
 62
7
  6
CONTINUOUS
370
-3
390
F
  0
LAYER
  5
25C
100
AcDbSymbolTableRecord
100
AcDbLayerTableRecord
  2
_9583_1
 70
0
 62
7
  6
CONTINUOUS
370
-3
390
F
  0
LAYER
  5
25D
100
AcDbSymbolTableRecord
100
AcDbLayerTableRecord
  2
_9866
 70
0
 62
7
  6
CONTINUOUS
370
-3
390
F
  0
LAYER
  5
25E
100
AcDbSymbolTableRecord
100
AcDbLayerTableRecord
  2
_9866_1
 70
0
 62
7
  6
CONTINUOUS
370
-3
390
F
  0
LAYER
  5
25F
100
AcDbSymbolTableRecord
100
AcDbLayerTableRecord
  2
___SHELL
 70
0
 62
7
  6
CONTINUOUS
370
-3
390
F
  0
ENDTAB
  0
TABLE
  2
STYLE
  5
3
100
AcDbSymbolTable
 70
1
  0
STYLE
  5
11
100
AcDbSymbolTableRecord
100
AcDbTextStyleTableRecord
  2
STANDARD
 70
0
 40
0.0
 41
0.8
 50
0.0
 71
0
 42
0.2
  3
txt
  4

  0
STYLE
  5
260
100
AcDbSymbolTableRecord
100
AcDbTextStyleTableRecord
  2
TEXTSTYLE_1
 70
0
 40
0.0
 41
0.8
 50
0.0
 71
0
 42
0.2
  3
gdt
  4

  0
ENDTAB
  0
TABLE
  2
VIEW
  5
6
100
AcDbSymbolTable
 70
0
  0
ENDTAB
  0
TABLE
  2
UCS
  5
7
100
AcDbSymbolTable
 70
0
  0
ENDTAB
  0
TABLE
  2
APPID
  5
9
100
AcDbSymbolTable
 70
1
  0
APPID
  5
261
100
AcDbSymbolTableRecord
100
AcDbRegAppTableRecord
  2
ACAD
 70
0
  0
ENDTAB
  0
TABLE
  2
BLOCK_RECORD
  5
1
100
AcDbSymbolTable
 70
0
  0
BLOCK_RECORD
  5
262
100
AcDbSymbolTableRecord
100
AcDbBlockTableRecord
  2
*Model_Space
  0
BLOCK_RECORD
  5
263
100
AcDbSymbolTableRecord
100
AcDbBlockTableRecord
  2
*Paper_Space
  0
BLOCK_RECORD
  5
264
100
AcDbSymbolTableRecord
100
AcDbBlockTableRecord
  2
_NONE
  0
ENDTAB
  0
TABLE
  2
DIMSTYLE
  5
A
100
AcDbSymbolTable
 70
1
100
AcDbDimStyleTable
 71
0
  0
DIMSTYLE
105
265
100
AcDbSymbolTableRecord
100
AcDbDimStyleTableRecord
  2
STANDARD
 70
0
  3

  4

 40
1.0
 41
0.1875
 42
0.0625
 43
0.38
 44
0.125
 45
0.0
 46
0.0
 47
0.0001
 48
0.0001
140
0.15625
141
0.09
142
0.0
143
25.4
144
1.0
145
0.0
146
1.0
147
0.09
 71
0.0
 72
0.0
 73
1
 74
1
 75
0
 76
0
 77
0
 78
4
 79
1
170
0
171
3
172
0
173
0
174
0
175
0
176
0
177
0
178
0
270
2
179
4
271
4
272
4
273
2
274
2
275
0
280
0
281
0
282
0
283
1
284
4
285
0
286
0
287
3
288
0
340
11
278
46
  0
ENDTAB
  0
ENDSEC
  0
SECTION
  2
BLOCKS
  0
BLOCK
  5
20
100
AcDbEntity
  8
0
100
AcDbBlockBegin
  2
*Model_Space
 70
0
 10
0.0
 20
0.0
 30
0.0
  3
*Model_Space
  1

  0
ENDBLK
  5
21
100
AcDbEntity
  8
0
100
AcDbBlockEnd
  0
BLOCK
  5
1C
100
AcDbEntity
  8
0
100
AcDbBlockBegin
  2
*Paper_Space
 70
0
 10
0.0
 20
0.0
 30
0.0
  3
*Paper_Space
  1

  0
ENDBLK
  5
1D
100
AcDbEntity
  8
0
100
AcDbBlockEnd
  0
BLOCK
  5
266
100
AcDbEntity
  8
0
100
AcDbBlockBegin
  2
_NONE
 70
64
 10
0.0
 20
0.0
  3
_NONE
  1

  0
ENDBLK
  5
267
100
AcDbEntity
  8
0
  6
BYBLOCK
 62
0
100
AcDbBlockEnd
  0
ENDSEC
  0
SECTION
  2
ENTITIES
  0
MTEXT
  5
268
100
AcDbEntity
  8
0
100
AcDbMText
 62
7
  6
CONTINUOUS
  7
STANDARD
 71
1
 72
1
 10
15.9560215477
 20
0.9479130325
 30
0.0
 11
1.0
 21
0.0
 31
0.0
 44
0.9
  1
SCALE: 1:0.250
 40
0.3
 41
3.36
  0
LEADER
  5
269
100
AcDbEntity
  8
0
100
AcDbLeader
 62
2
  6
CONTINUOUS
  3
STANDARD
 71
1
 72
0
 73
0
 75
0
 40
0.15625
 41
1.5
 76
3
 10
4.3803672762
 20
5.1138698968
 30
0.0
 10
7.2861318461
 20
4.1278881707
 30
0.0
 10
7.5361318461
 20
4.1278881707
 30
0.0
340
26A
1001
ACAD
1000
DSTYLE
1002
{
1070
77
1070
0
1070
341
1005
264
1002
}
  0
MTEXT
  5
26A
102
{ACAD_REACTORS
330
269
102
}
100
AcDbEntity
  8
0
100
AcDbMText
 62
2
  6
CONTINUOUS
  7
STANDARD
 71
1
 72
1
 10
7.5361318461
 20
4.2060131707
 30
0.0
 11
1.0
 21
0.0
 31
0.0
 44
0.9
  1
 0.375 BOLTS
 40
0.15625
 41
1.5
  0
LINE
  5
26B
100
AcDbEntity
  8
0
100
AcDbLine
 62
7
  6
CONTINUOUS
 10
0.0
 20
0.0
 11
0.0
 21
17.0
  0
LINE
  5
26C
100
AcDbEntity
  8
0
100
AcDbLine
 62
7
  6
CONTINUOUS
 10
0.0
 20
0.0
 11
22.0
 21
0.0
  0
LINE
  5
26D
100
AcDbEntity
  8
0
100
AcDbLine
 62
7
  6
CONTINUOUS
 10
0.0
 20
17.0
 11
22.0
 21
17.0
  0
LINE
  5
26E
100
AcDbEntity
  8
0
100
AcDbLine
 62
7
  6
CONTINUOUS
 10
22.0
 20
0.0
 11
22.0
 21
17.0
  0
LINE
  5
26F
100
AcDbEntity
  8
0
100
AcDbLine
 62
7
  6
CONTINUOUS
 10
4.2241172762
 20
4.4576198968
 11
4.2241172762
 21
5.0701198968
  0
LINE
  5
270
100
AcDbEntity
  8
0
100
AcDbLine
 62
7
  6
CONTINUOUS
 10
4.2819085628
 20
5.1076198968
 11
4.2819085628
 21
5.0826198968
  0
LINE
  5
271
100
AcDbEntity
  8
0
100
AcDbLine
 62
7
  6
CONTINUOUS
 10
4.4991172886
 20
5.1076198968
 11
4.4991172762
 21
5.0826198968
  0
LINE
  5
272
100
AcDbEntity
  8
0
100
AcDbLine
 62
7
  6
CONTINUOUS
 10
4.9131585628
 20
5.0871041964
 11
4.9131585628
 21
5.1076198968
  0
LINE
  5
273
100
AcDbEntity
  8
0
100
AcDbLine
 62
7
  6
CONTINUOUS
 10
5.1040710857
 20
5.7951151322
 11
4.9156410483
 21
5.0918846587
  0
LINE
  5
274
100
AcDbEntity
  8
0
100
AcDbLine
 62
7
  6
CONTINUOUS
 10
8.0366172762
 20
4.4576198968
 11
4.2241172762
 21
4.4576198968
  0
LINE
  5
275
100
AcDbEntity
  8
0
100
AcDbLine
 62
7
  6
CONTINUOUS
 10
6.0572422762
 20
6.2257448968
 11
6.0522422762
 21
6.2207448968
  0
LINE
  5
276
100
AcDbEntity
  8
0
100
AcDbLine
 62
7
  6
CONTINUOUS
 10
8.0241172762
 20
5.0826198968
 11
7.3571675769
 21
5.0826198968
  0
LINE
  5
277
100
AcDbEntity
  8
0
100
AcDbLine
 62
7
  6
CONTINUOUS
 10
4.2366172762
 20
5.0826198968
 11
4.9035669754
 21
5.0826198968
  0
LINE
  5
278
100
AcDbEntity
  8
0
100
AcDbLine
 62
7
  6
CONTINUOUS
 10
7.972560143
 20
5.1138698968
 11
7.3399150562
 21
5.1138698968
  0
LINE
  5
279
100
AcDbEntity
  8
0
100
AcDbLine
 62
7
  6
CONTINUOUS
 10
4.2881744093
 20
5.1138698968
 11
4.9208194961
 21
5.1138698968
  0
LINE
  5
27A
100
AcDbEntity
  8
03__ASM_ALL_CURVES
100
AcDbLine
 62
4
  6
CONTINUOUS
 10
5.8153684017
 20
5.1326198968
 11
5.8803672762
 21
5.1326198968
  0
LINE
  5
27B
100
AcDbEntity
  8
03__ASM_ALL_CURVES
100
AcDbLine
 62
4
  6
CONTINUOUS
 10
6.3803672762
 20
5.1326198968
 11
6.4453661507
 21
5.1326198968
  0
LINE
  5
27C
100
AcDbEntity
  8
0
100
AcDbLine
 62
7
  6
CONTINUOUS
 10
6.0522422762
 20
6.2188923404
 11
6.0522422762
 21
6.2207448968
  0
LINE
  5
27D
100
AcDbEntity
  8
0
100
AcDbLine
 62
7
  6
CONTINUOUS
 10
6.1053672762
 20
6.3381016981
 11
6.1053672762
 21
6.2257448968
  0
LINE
  5
27E
100
AcDbEntity
  8
0
100
AcDbLine
 62
7
  6
CONTINUOUS
 10
6.1053672762
 20
4.8174394818
 11
6.1053672762
 21
4.7021380954
  0
LINE
  5
27F
100
AcDbEntity
  8
0
100
AcDbLine
 62
7
  6
CONTINUOUS
 10
6.5177075417
 20
6.2410129165
 11
6.4600568486
 21
6.1411589869
  0
LINE
  5
280
100
AcDbEntity
  8
0
100
AcDbLine
 62
7
  6
CONTINUOUS
 10
5.7573764336
 20
4.9240808066
 11
5.6997257404
 21
4.824226877
  0
LINE
  5
281
100
AcDbEntity
  8
0
100
AcDbLine
 62
7
  6
CONTINUOUS
 10
6.8738016682
 20
6.3961368103
 11
6.8153769704
 21
6.3377121125
  0
LINE
  5
282
100
AcDbEntity
  8
0
100
AcDbLine
 62
7
  6
CONTINUOUS
 10
6.9064009273
 20
6.3854578614
 11
6.8954407722
 21
6.3744977063
  0
LINE
  5
283
100
AcDbEntity
  8
0
100
AcDbLine
 62
7
  6
CONTINUOUS
 10
6.8463128921
 20
6.3067761908
 11
6.8454805407
 21
6.3059438394
  0
LINE
  5
284
100
AcDbEntity
  8
0
100
AcDbLine
 62
7
  6
CONTINUOUS
 10
6.8485226008
 20
6.3045664821
 11
6.9069472986
 21
6.3629911799
  0
LINE
  5
285
100
AcDbEntity
  8
0
100
AcDbLine
 62
7
  6
CONTINUOUS
 10
6.9177668506
 20
6.3521716279
 11
6.9287270057
 21
6.3631317831
  0
LINE
  5
286
100
AcDbEntity
  8
0
100
AcDbLine
 62
7
  6
CONTINUOUS
 10
6.826260296
 20
5.9507614325
 11
6.7264063663
 21
5.8931107393
  0
LINE
  5
287
100
AcDbEntity
  8
0
100
AcDbLine
 62
7
  6
CONTINUOUS
 10
5.509328186
 20
5.1904303243
 11
5.4094742564
 21
5.1327796312
  0
LINE
  5
288
100
AcDbEntity
  8
0
100
AcDbLine
 62
7
  6
CONTINUOUS
 10
6.8291385191
 20
5.4419948968
 11
6.8309922762
 21
5.4419948968
  0
LINE
  5
289
100
AcDbEntity
  8
0
100
AcDbLine
 62
7
  6
CONTINUOUS
 10
5.4276868612
 20
5.4951198968
 11
5.3123854748
 21
5.4951198968
  0
LINE
  5
28A
100
AcDbEntity
  8
0
100
AcDbLine
 62
7
  6
CONTINUOUS
 10
6.8359922762
 20
5.4951198968
 11
6.9483490775
 21
5.4951198968
  0
LINE
  5
28B
100
AcDbEntity
  8
0
100
AcDbLine
 62
7
  6
CONTINUOUS
 10
5.4094742564
 20
5.9074601623
 11
5.509328186
 21
5.8498094692
  0
LINE
  5
28C
100
AcDbEntity
  8
0
100
AcDbLine
 62
7
  6
CONTINUOUS
 10
6.7264063663
 20
5.1471290542
 11
6.826260296
 21
5.089478361
  0
LINE
  5
28D
100
AcDbEntity
  8
0
100
AcDbLine
 62
7
  6
CONTINUOUS
 10
5.6997257404
 20
6.2160129165
 11
5.7573764336
 21
6.1161589869
  0
LINE
  5
28E
100
AcDbEntity
  8
0
100
AcDbLine
 62
7
  6
CONTINUOUS
 10
6.4600568486
 20
4.8990808066
 11
6.5177075417
 21
4.799226877
  0
LINE
  5
28F
100
AcDbEntity
  8
0
100
AcDbLine
 62
7
  6
CONTINUOUS
 10
6.1553672762
 20
6.3381016981
 11
6.1553672762
 21
6.2257448968
  0
LINE
  5
290
100
AcDbEntity
  8
0
100
AcDbLine
 62
7
  6
CONTINUOUS
 10
6.1553672762
 20
4.8174394818
 11
6.1553672762
 21
4.7021380954
  0
LINE
  5
291
100
AcDbEntity
  8
0
100
AcDbLine
 62
7
  6
CONTINUOUS
 10
6.2084922762
 20
6.21889114
 11
6.2084922762
 21
6.2207448968
  0
LINE
  5
292
100
AcDbEntity
  8
0
100
AcDbLine
 62
7
  6
CONTINUOUS
 10
5.7430270106
 20
4.799226877
 11
5.8006777038
 21
4.8990808066
  0
LINE
  5
293
100
AcDbEntity
  8
0
100
AcDbLine
 62
7
  6
CONTINUOUS
 10
6.5033581188
 20
6.1161589869
 11
6.5610088119
 21
6.2160129165
  0
LINE
  5
294
100
AcDbEntity
  8
0
100
AcDbLine
 62
7
  6
CONTINUOUS
 10
6.9733791625
 20
6.3184796263
 11
6.9624190074
 21
6.3075194712
  0
LINE
  5
295
100
AcDbEntity
  8
0
100
AcDbLine
 62
7
  6
CONTINUOUS
 10
6.9732385593
 20
6.2966999192
 11
6.9148138615
 21
6.2382752214
  0
LINE
  5
296
100
AcDbEntity
  8
0
100
AcDbLine
 62
7
  6
CONTINUOUS
 10
6.9161912188
 20
6.2352331613
 11
6.9170235702
 21
6.2360655127
  0
LINE
  5
297
100
AcDbEntity
  8
0
100
AcDbLine
 62
7
  6
CONTINUOUS
 10
6.9957052409
 20
6.2961535479
 11
6.9847450857
 21
6.2851933928
  0
LINE
  5
298
100
AcDbEntity
  8
0
100
AcDbLine
 62
7
  6
CONTINUOUS
 10
7.0063841897
 20
6.2635542888
 11
6.9479594919
 21
6.205129591
  0
LINE
  5
299
100
AcDbEntity
  8
0
100
AcDbLine
 62
7
  6
CONTINUOUS
 10
5.4344742564
 20
5.089478361
 11
5.534328186
 21
5.1471290542
  0
LINE
  5
29A
100
AcDbEntity
  8
0
100
AcDbLine
 62
7
  6
CONTINUOUS
 10
6.7514063663
 20
5.8498094692
 11
6.851260296
 21
5.9074601623
  0
LINE
  5
29B
100
AcDbEntity
  8
0
100
AcDbLine
 62
7
  6
CONTINUOUS
 10
6.9483490775
 20
5.5451198968
 11
6.8359922762
 21
5.5451198968
  0
LINE
  5
29C
100
AcDbEntity
  8
0
100
AcDbLine
 62
7
  6
CONTINUOUS
 10
5.3123854748
 20
5.5451198968
 11
5.4276868612
 21
5.5451198968
  0
LINE
  5
29D
100
AcDbEntity
  8
0
100
AcDbLine
 62
7
  6
CONTINUOUS
 10
6.8291385191
 20
5.5982448968
 11
6.8309922762
 21
5.5982448968
  0
LINE
  5
29E
100
AcDbEntity
  8
0
100
AcDbLine
 62
7
  6
CONTINUOUS
 10
6.851260296
 20
5.1327796312
 11
6.7514063663
 21
5.1904303243
  0
LINE
  5
29F
100
AcDbEntity
  8
0
100
AcDbLine
 62
7
  6
CONTINUOUS
 10
5.534328186
 20
5.8931107393
 11
5.4344742564
 21
5.9507614325
  0
LINE
  5
2A0
100
AcDbEntity
  8
0
100
AcDbLine
 62
7
  6
CONTINUOUS
 10
6.5610088119
 20
4.824226877
 11
6.5033581188
 21
4.9240808066
  0
LINE
  5
2A1
100
AcDbEntity
  8
0
100
AcDbLine
 62
7
  6
CONTINUOUS
 10
5.8006777038
 20
6.1411589869
 11
5.7430270106
 21
6.2410129165
  0
LINE
  5
2A2
100
AcDbEntity
  8
0
100
AcDbLine
 62
7
  6
CONTINUOUS
 10
6.8359922762
 20
5.4469948968
 11
6.8309922762
 21
5.4419948968
  0
LINE
  5
2A3
100
AcDbEntity
  8
0
100
AcDbLine
 62
7
  6
CONTINUOUS
 10
6.2034922762
 20
6.2257448968
 11
6.2084922762
 21
6.2207448968
  0
LINE
  5
2A4
100
AcDbEntity
  8
0
100
AcDbLine
 62
7
  6
CONTINUOUS
 10
6.8359922762
 20
5.5932448968
 11
6.8309922762
 21
5.5982448968
  0
LINE
  5
2A5
100
AcDbEntity
  8
0
100
AcDbLine
 62
7
  6
CONTINUOUS
 10
6.8309922762
 20
5.4419948968
 11
6.8309922762
 21
5.4608799187
  0
LINE
  5
2A6
100
AcDbEntity
  8
0
100
AcDbLine
 62
7
  6
CONTINUOUS
 10
6.8309922762
 20
5.5793598748
 11
6.8309922762
 21
5.5982448968
  0
LINE
  5
2A7
100
AcDbEntity
  8
0
100
AcDbLine
 62
7
  6
CONTINUOUS
 10
6.8359922762
 20
5.4470046682
 11
6.8359922762
 21
5.5932351253
  0
LINE
  5
2A8
100
AcDbEntity
  8
0
100
AcDbLine
 62
7
  6
CONTINUOUS
 10
6.0522422762
 20
6.2207448968
 11
6.0711272981
 21
6.2207448968
  0
LINE
  5
2A9
100
AcDbEntity
  8
0
100
AcDbLine
 62
7
  6
CONTINUOUS
 10
6.1896072542
 20
6.2207448968
 11
6.2084922762
 21
6.2207448968
  0
LINE
  5
2AA
100
AcDbEntity
  8
0
100
AcDbLine
 62
7
  6
CONTINUOUS
 10
6.2034825047
 20
6.2257448968
 11
6.0572520476
 21
6.2257448968
  0
LINE
  5
2AB
100
AcDbEntity
  8
0
100
AcDbLine
 62
7
  6
CONTINUOUS
 10
6.9479594919
 20
6.205129591
 11
6.8153769704
 21
6.3377121125
  0
LINE
  5
2AC
100
AcDbEntity
  8
0
100
AcDbLine
 62
7
  6
CONTINUOUS
 10
7.0063841897
 20
6.2635542888
 11
6.8738016682
 21
6.3961368103
  0
LINE
  5
2AD
100
AcDbEntity
  8
0
100
AcDbLine
 62
7
  6
CONTINUOUS
 10
6.9957052409
 20
6.2961535479
 11
6.9064009273
 21
6.3854578614
  0
LINE
  5
2AE
100
AcDbEntity
  8
0
100
AcDbLine
 62
7
  6
CONTINUOUS
 10
7.3450935041
 20
5.0918846587
 11
7.1566634666
 21
5.7951151322
  0
LINE
  5
2AF
100
AcDbEntity
  8
0
100
AcDbLine
 62
7
  6
CONTINUOUS
 10
7.3475759895
 20
5.1076198968
 11
7.3475759895
 21
5.0871041964
  0
LINE
  5
2B0
100
AcDbEntity
  8
0
100
AcDbLine
 62
7
  6
CONTINUOUS
 10
6.9956060093
 20
6.3466341376
 11
6.956881517
 21
6.3853586299
  0
LINE
  5
2B1
100
AcDbEntity
  8
0
100
AcDbLine
 62
7
  6
CONTINUOUS
 10
7.0129249274
 20
6.3849998785
 11
6.9952472579
 21
6.402677548
  0
LINE
  5
2B2
100
AcDbEntity
  8
0
100
AcDbLine
 62
7
  6
CONTINUOUS
 10
7.7616172637
 20
5.0826198968
 11
7.7616172512
 21
5.1076198968
  0
LINE
  5
2B3
100
AcDbEntity
  8
0
100
AcDbLine
 62
7
  6
CONTINUOUS
 10
7.9788259895
 20
5.1076198968
 11
7.9788259895
 21
5.0826198968
  0
LINE
  5
2B4
100
AcDbEntity
  8
0
100
AcDbLine
 62
7
  6
CONTINUOUS
 10
8.0366172762
 20
4.4576198968
 11
8.0366172762
 21
5.0701198968
  0
LINE
  5
2B5
100
AcDbEntity
  8
0
100
AcDbLine
 62
7
  6
CONTINUOUS
 10
4.1646220839
 20
12.1977040314
 11
4.1646220839
 21
13.2445790314
  0
LINE
  5
2B6
100
AcDbEntity
  8
0
100
AcDbLine
 62
7
  6
CONTINUOUS
 10
4.4400363703
 20
12.9627316644
 11
4.439622089
 21
12.9689816644
  0
LINE
  5
2B7
100
AcDbEntity
  8
0
100
AcDbLine
 62
7
  6
CONTINUOUS
 10
4.439622089
 20
12.4733013984
 11
4.4400363683
 21
12.4795513982
  0
LINE
  5
2B8
100
AcDbEntity
  8
0
100
AcDbLine
 62
7
  6
CONTINUOUS
 10
4.1646220839
 20
12.1977040314
 11
4.1771220839
 21
12.2102040314
  0
LINE
  5
2B9
100
AcDbEntity
  8
0
100
AcDbLine
 62
7
  6
CONTINUOUS
 10
5.3802470839
 20
11.9555165314
 11
5.3677470839
 21
11.9680165314
  0
LINE
  5
2BA
100
AcDbEntity
  8
0
100
AcDbLine
 62
7
  6
CONTINUOUS
 10
4.1646220839
 20
13.2445790314
 11
4.1771220839
 21
13.2320790314
  0
LINE
  5
2BB
100
AcDbEntity
  8
0
100
AcDbLine
 62
7
  6
CONTINUOUS
 10
5.3677470839
 20
12.1927040314
 11
5.3677470839
 21
11.9680165314
  0
LINE
  5
2BC
100
AcDbEntity
  8
0
100
AcDbLine
 62
7
  6
CONTINUOUS
 10
5.5083720839
 20
12.1977040314
 11
5.5083720839
 21
12.1927040314
  0
LINE
  5
2BD
100
AcDbEntity
  8
0
100
AcDbLine
 62
7
  6
CONTINUOUS
 10
5.3802470839
 20
11.9555165314
 11
6.7614970839
 21
11.9555165314
  0
LINE
  5
2BE
100
AcDbEntity
  8
0
100
AcDbLine
 62
7
  6
CONTINUOUS
 10
5.3677470839
 20
11.9680165314
 11
6.7739970839
 21
11.9680165314
  0
LINE
  5
2BF
100
AcDbEntity
  8
0
100
AcDbLine
 62
7
  6
CONTINUOUS
 10
6.7739970839
 20
12.1927040314
 11
5.3677470839
 21
12.1927040314
  0
LINE
  5
2C0
100
AcDbEntity
  8
0
100
AcDbLine
 62
7
  6
CONTINUOUS
 10
4.1646220839
 20
12.1977040314
 11
7.9771220839
 21
12.1977040314
  0
LINE
  5
2C1
100
AcDbEntity
  8
0
100
AcDbLine
 62
7
  6
CONTINUOUS
 10
6.0102470839
 20
12.0391084213
 11
6.0708720839
 21
12.0041065612
  0
LINE
  5
2C2
100
AcDbEntity
  8
0
100
AcDbLine
 62
7
  6
CONTINUOUS
 10
6.1314970839
 20
12.1091121414
 11
6.0708720839
 21
12.1441140015
  0
LINE
  5
2C3
100
AcDbEntity
  8
0
100
AcDbLine
 62
7
  6
CONTINUOUS
 10
7.7021220589
 20
12.4733013984
 11
7.2880807972
 21
12.4733013984
  0
LINE
  5
2C4
100
AcDbEntity
  8
0
100
AcDbLine
 62
7
  6
CONTINUOUS
 10
4.8536633705
 20
12.4733013984
 11
4.4396220963
 21
12.4733013984
  0
LINE
  5
2C5
100
AcDbEntity
  8
0
100
AcDbLine
 62
7
  6
CONTINUOUS
 10
6.0102470839
 20
12.0391084213
 11
6.0102470839
 21
12.1091121414
  0
LINE
  5
2C6
100
AcDbEntity
  8
0
100
AcDbLine
 62
7
  6
CONTINUOUS
 10
7.6958720839
 20
12.5961415314
 11
7.3833720839
 21
12.5961415314
  0
LINE
  5
2C7
100
AcDbEntity
  8
0
100
AcDbLine
 62
7
  6
CONTINUOUS
 10
4.7583720839
 20
12.5961415314
 11
4.4458720839
 21
12.5961415314
  0
LINE
  5
2C8
100
AcDbEntity
  8
0
100
AcDbLine
 62
7
  6
CONTINUOUS
 10
6.1314970839
 20
12.1091121414
 11
6.1314970839
 21
12.0391084213
  0
LINE
  5
2C9
100
AcDbEntity
  8
0
100
AcDbLine
 62
7
  6
CONTINUOUS
 10
6.7890274085
 20
12.6399516498
 11
6.913743367
 21
12.6399516498
  0
LINE
  5
2CA
100
AcDbEntity
  8
0
100
AcDbLine
 62
7
  6
CONTINUOUS
 10
6.8582716583
 20
12.6664540314
 11
6.8874180039
 21
12.6664540314
  0
LINE
  5
2CB
100
AcDbEntity
  8
0
100
AcDbLine
 62
7
  6
CONTINUOUS
 10
6.8956977797
 20
12.6664540314
 11
6.9138839702
 21
12.6664540314
  0
LINE
  5
2CC
100
AcDbEntity
  8
0
100
AcDbLine
 62
7
  6
CONTINUOUS
 10
6.846905735
 20
12.7211415314
 11
6.8359455799
 21
12.7211415314
  0
LINE
  5
2CD
100
AcDbEntity
  8
0
100
AcDbLine
 62
7
  6
CONTINUOUS
 10
6.8143064759
 20
12.7211415314
 11
6.7558817781
 21
12.7211415314
  0
LINE
  5
2CE
100
AcDbEntity
  8
0
100
AcDbLine
 62
7
  6
CONTINUOUS
 10
6.9138839702
 20
12.7758290314
 11
6.8956977797
 21
12.7758290314
  0
LINE
  5
2CF
100
AcDbEntity
  8
0
100
AcDbLine
 62
7
  6
CONTINUOUS
 10
6.8874180039
 20
12.7758290314
 11
6.8582716583
 21
12.7758290314
  0
LINE
  5
2D0
100
AcDbEntity
  8
0
100
AcDbLine
 62
7
  6
CONTINUOUS
 10
6.913743367
 20
12.802331413
 11
6.7890274085
 21
12.802331413
  0
LINE
  5
2D1
100
AcDbEntity
  8
0
100
AcDbLine
 62
7
  6
CONTINUOUS
 10
4.4458720839
 20
12.8461415314
 11
4.7583720839
 21
12.8461415314
  0
LINE
  5
2D2
100
AcDbEntity
  8
0
100
AcDbLine
 62
7
  6
CONTINUOUS
 10
7.3833720839
 20
12.8461415314
 11
7.6958720839
 21
12.8461415314
  0
LINE
  5
2D3
100
AcDbEntity
  8
0
100
AcDbLine
 62
7
  6
CONTINUOUS
 10
6.7764970839
 20
12.1472352814
 11
6.7737517332
 21
12.149980632
  0
LINE
  5
2D4
100
AcDbEntity
  8
0
100
AcDbLine
 62
7
  6
CONTINUOUS
 10
6.0708720839
 20
12.1441140015
 11
6.0102470839
 21
12.1091121414
  0
LINE
  5
2D5
100
AcDbEntity
  8
0
100
AcDbLine
 62
7
  6
CONTINUOUS
 10
4.8536633705
 20
12.9689816644
 11
4.4396221088
 21
12.9689816644
  0
LINE
  5
2D6
100
AcDbEntity
  8
0
100
AcDbLine
 62
7
  6
CONTINUOUS
 10
7.2880807972
 20
12.9689816644
 11
7.7021220714
 21
12.9689816644
  0
LINE
  5
2D7
100
AcDbEntity
  8
0
100
AcDbLine
 62
7
  6
CONTINUOUS
 10
6.0708720839
 20
12.0041065612
 11
6.1314970839
 21
12.0391084213
  0
LINE
  5
2D8
100
AcDbEntity
  8
0
100
AcDbLine
 62
7
  6
CONTINUOUS
 10
6.7739970839
 20
11.9959852814
 11
6.7732472944
 21
12.0030491361
  0
LINE
  5
2D9
100
AcDbEntity
  8
0
100
AcDbLine
 62
7
  6
CONTINUOUS
 10
6.7738024624
 20
11.997756715
 11
6.7732472944
 21
12.0030491361
  0
LINE
  5
2DA
100
AcDbEntity
  8
0
100
AcDbLine
 62
7
  6
CONTINUOUS
 10
6.6333720839
 20
12.1927040314
 11
6.6333720839
 21
12.1977040314
  0
LINE
  5
2DB
100
AcDbEntity
  8
0
100
AcDbLine
 62
7
  6
CONTINUOUS
 10
6.7890274085
 20
12.802331413
 11
6.7558817781
 21
12.7211415314
  0
LINE
  5
2DC
100
AcDbEntity
  8
0
100
AcDbLine
 62
7
  6
CONTINUOUS
 10
6.8143064759
 20
12.7211415314
 11
6.8474521063
 21
12.802331413
  0
LINE
  5
2DD
100
AcDbEntity
  8
0
100
AcDbLine
 62
7
  6
CONTINUOUS
 10
6.8582716583
 20
12.7758290314
 11
6.8359455799
 21
12.7211415314
  0
LINE
  5
2DE
100
AcDbEntity
  8
0
100
AcDbLine
 62
7
  6
CONTINUOUS
 10
6.846905735
 20
12.7211415314
 11
6.8559988302
 21
12.7434149749
  0
LINE
  5
2DF
100
AcDbEntity
  8
0
100
AcDbLine
 62
7
  6
CONTINUOUS
 10
6.8601387181
 20
12.7535555878
 11
6.8692318134
 21
12.7758290314
  0
LINE
  5
2E0
100
AcDbEntity
  8
0
100
AcDbLine
 62
7
  6
CONTINUOUS
 10
4.1646220839
 20
13.2445790314
 11
7.9771220839
 21
13.2445790314
  0
LINE
  5
2E1
100
AcDbEntity
  8
0
100
AcDbLine
 62
7
  6
CONTINUOUS
 10
6.7558817781
 20
12.7211415314
 11
6.7890274085
 21
12.6399516498
  0
LINE
  5
2E2
100
AcDbEntity
  8
0
100
AcDbLine
 62
7
  6
CONTINUOUS
 10
6.7714970839
 20
12.0231775745
 11
6.7714970839
 21
12.1250429882
  0
LINE
  5
2E3
100
AcDbEntity
  8
0
100
AcDbLine
 62
7
  6
CONTINUOUS
 10
6.7739970839
 20
11.9680165314
 11
6.7739970839
 21
11.9959852814
  0
LINE
  5
2E4
100
AcDbEntity
  8
0
100
AcDbLine
 62
7
  6
CONTINUOUS
 10
6.7739970839
 20
12.1522352814
 11
6.7739970839
 21
12.1927040314
  0
LINE
  5
2E5
100
AcDbEntity
  8
0
100
AcDbLine
 62
7
  6
CONTINUOUS
 10
6.7764970839
 20
12.0009852814
 11
6.7764970839
 21
12.1472352814
  0
LINE
  5
2E6
100
AcDbEntity
  8
0
100
AcDbLine
 62
7
  6
CONTINUOUS
 10
6.7738007533
 20
12.1504481117
 11
6.7739970839
 21
12.1522352814
  0
LINE
  5
2E7
100
AcDbEntity
  8
0
100
AcDbLine
 62
7
  6
CONTINUOUS
 10
6.9222235865
 20
12.686881836
 11
6.9138839702
 21
12.6664540314
  0
LINE
  5
2E8
100
AcDbEntity
  8
0
100
AcDbLine
 62
7
  6
CONTINUOUS
 10
6.9327435423
 20
12.6864923842
 11
6.913743367
 21
12.6399516498
  0
LINE
  5
2E9
100
AcDbEntity
  8
0
100
AcDbLine
 62
7
  6
CONTINUOUS
 10
6.8474521063
 20
12.6399516498
 11
6.8143064759
 21
12.7211415314
  0
LINE
  5
2EA
100
AcDbEntity
  8
0
100
AcDbLine
 62
7
  6
CONTINUOUS
 10
6.8359455799
 20
12.7211415314
 11
6.8582716583
 21
12.6664540314
  0
LINE
  5
2EB
100
AcDbEntity
  8
0
100
AcDbLine
 62
7
  6
CONTINUOUS
 10
6.8692318134
 20
12.6664540314
 11
6.8601387181
 21
12.6887274749
  0
LINE
  5
2EC
100
AcDbEntity
  8
0
100
AcDbLine
 62
7
  6
CONTINUOUS
 10
6.8559988302
 20
12.6988680878
 11
6.846905735
 21
12.7211415314
  0
LINE
  5
2ED
100
AcDbEntity
  8
0
100
AcDbLine
 62
7
  6
CONTINUOUS
 10
7.9771220839
 20
13.2445790314
 11
7.9646220839
 21
13.2320790314
  0
LINE
  5
2EE
100
AcDbEntity
  8
0
100
AcDbLine
 62
7
  6
CONTINUOUS
 10
6.7737517699
 20
11.9982399674
 11
6.7764970839
 21
12.0009852814
  0
LINE
  5
2EF
100
AcDbEntity
  8
0
100
AcDbLine
 62
7
  6
CONTINUOUS
 10
6.7739970839
 20
11.9680165314
 11
6.7614970839
 21
11.9555165314
  0
LINE
  5
2F0
100
AcDbEntity
  8
0
100
AcDbLine
 62
7
  6
CONTINUOUS
 10
6.9138839702
 20
12.7758290314
 11
6.9222629026
 21
12.7553049222
  0
LINE
  5
2F1
100
AcDbEntity
  8
0
100
AcDbLine
 62
7
  6
CONTINUOUS
 10
6.913743367
 20
12.802331413
 11
6.9327779922
 21
12.7557062939
  0
LINE
  5
2F2
100
AcDbEntity
  8
0
100
AcDbLine
 62
7
  6
CONTINUOUS
 10
7.9771220839
 20
12.1977040314
 11
7.9646220839
 21
12.2102040314
  0
LINE
  5
2F3
100
AcDbEntity
  8
0
100
AcDbLine
 62
7
  6
CONTINUOUS
 10
7.7017077974
 20
12.4795513984
 11
7.7021220787
 21
12.4733013984
  0
LINE
  5
2F4
100
AcDbEntity
  8
0
100
AcDbLine
 62
7
  6
CONTINUOUS
 10
7.7021220589
 20
12.9689816644
 11
7.7017077994
 21
12.9627316646
  0
LINE
  5
2F5
100
AcDbEntity
  8
0
100
AcDbLine
 62
7
  6
CONTINUOUS
 10
7.9771220839
 20
12.1977040314
 11
7.9771220839
 21
13.2445790314
  0
LINE
  5
2F6
100
AcDbEntity
  8
0
100
AcDbLine
 62
7
  6
CONTINUOUS
 10
16.2048865069
 20
4.3981247044
 11
15.1580115069
 21
4.3981247044
  0
LINE
  5
2F7
100
AcDbEntity
  8
0
100
AcDbLine
 62
7
  6
CONTINUOUS
 10
14.9158240069
 20
6.1512497044
 11
14.9283240069
 21
6.1637497044
  0
LINE
  5
2F8
100
AcDbEntity
  8
0
100
AcDbLine
 62
7
  6
CONTINUOUS
 10
14.958547302
 20
6.1635042495
 11
14.9612927569
 21
6.1662497044
  0
LINE
  5
2F9
100
AcDbEntity
  8
0
100
AcDbLine
 62
7
  6
CONTINUOUS
 10
14.9158240069
 20
4.7699997044
 11
14.9283240069
 21
4.7574997044
  0
LINE
  5
2FA
100
AcDbEntity
  8
0
100
AcDbLine
 62
7
  6
CONTINUOUS
 10
15.6002591253
 20
6.3034959876
 11
15.6468842444
 21
6.3225306128
  0
LINE
  5
2FB
100
AcDbEntity
  8
0
100
AcDbLine
 62
7
  6
CONTINUOUS
 10
15.6267615069
 20
6.3036365907
 11
15.6472856161
 21
6.3120155232
  0
LINE
  5
2FC
100
AcDbEntity
  8
0
100
AcDbLine
 62
7
  6
CONTINUOUS
 10
15.7361365069
 20
6.258984434
 11
15.7138630634
 21
6.2498913387
  0
LINE
  5
2FD
100
AcDbEntity
  8
0
100
AcDbLine
 62
7
  6
CONTINUOUS
 10
15.7037224505
 20
6.2457514508
 11
15.6814490069
 21
6.2366583556
  0
LINE
  5
2FE
100
AcDbEntity
  8
0
100
AcDbLine
 62
7
  6
CONTINUOUS
 10
15.6814490069
 20
6.2256982005
 11
15.7361365069
 21
6.2480242789
  0
LINE
  5
2FF
100
AcDbEntity
  8
0
100
AcDbLine
 62
7
  6
CONTINUOUS
 10
15.1530115069
 20
4.7574997044
 11
14.9283240069
 21
4.7574997044
  0
LINE
  5
300
100
AcDbEntity
  8
0
100
AcDbLine
 62
7
  6
CONTINUOUS
 10
14.9158240069
 20
6.1512384908
 11
14.9158240069
 21
4.770010918
  0
LINE
  5
301
100
AcDbEntity
  8
0
100
AcDbLine
 62
7
  6
CONTINUOUS
 10
14.9283240069
 20
6.1637497044
 11
14.9283240069
 21
4.7574997044
  0
LINE
  5
302
100
AcDbEntity
  8
0
100
AcDbLine
 62
7
  6
CONTINUOUS
 10
15.7626388885
 20
6.2372047269
 11
15.6814490069
 21
6.2040590965
  0
LINE
  5
303
100
AcDbEntity
  8
0
100
AcDbLine
 62
7
  6
CONTINUOUS
 10
15.7626388885
 20
6.1787800291
 11
15.6814490069
 21
6.1456343987
  0
LINE
  5
304
100
AcDbEntity
  8
0
100
AcDbLine
 62
7
  6
CONTINUOUS
 10
14.9994158969
 20
5.5212497044
 11
14.9644140368
 21
5.4606247044
  0
LINE
  5
305
100
AcDbEntity
  8
0
100
AcDbLine
 62
7
  6
CONTINUOUS
 10
15.1580115069
 20
4.8981247044
 11
15.1530115069
 21
4.8981247044
  0
LINE
  5
306
100
AcDbEntity
  8
0
100
AcDbLine
 62
7
  6
CONTINUOUS
 10
14.9644140368
 20
5.4606247044
 11
14.9994158969
 21
5.3999997044
  0
LINE
  5
307
100
AcDbEntity
  8
0
100
AcDbLine
 62
7
  6
CONTINUOUS
 10
15.1530115069
 20
4.7575111764
 11
15.1530115069
 21
6.1637382325
  0
LINE
  5
308
100
AcDbEntity
  8
0
100
AcDbLine
 62
7
  6
CONTINUOUS
 10
15.1705115069
 20
5.0231247044
 11
16.1923865069
 21
5.0231247044
  0
LINE
  5
309
100
AcDbEntity
  8
0
100
AcDbLine
 62
7
  6
CONTINUOUS
 10
15.9230391399
 20
5.0543747044
 11
15.4398588739
 21
5.0543747044
  0
LINE
  5
30A
100
AcDbEntity
  8
0
100
AcDbLine
 62
7
  6
CONTINUOUS
 10
15.1580115069
 20
4.3981247044
 11
15.1580115069
 21
6.5106240502
  0
LINE
  5
30B
100
AcDbEntity
  8
0
100
AcDbLine
 62
7
  6
CONTINUOUS
 10
15.069419617
 20
5.3999997044
 11
15.1044214771
 21
5.4606247044
  0
LINE
  5
30C
100
AcDbEntity
  8
0
100
AcDbLine
 62
7
  6
CONTINUOUS
 10
15.1044214771
 20
5.4606247044
 11
15.069419617
 21
5.5212497044
  0
LINE
  5
30D
100
AcDbEntity
  8
0
100
AcDbLine
 62
7
  6
CONTINUOUS
 10
15.4336088739
 20
5.0231247044
 11
15.4336088739
 21
5.0481247044
  0
LINE
  5
30E
100
AcDbEntity
  8
0
100
AcDbLine
 62
7
  6
CONTINUOUS
 10
15.069419617
 20
5.3999997044
 11
14.9994158969
 21
5.3999997044
  0
LINE
  5
30F
100
AcDbEntity
  8
0
100
AcDbLine
 62
7
  6
CONTINUOUS
 10
15.6002591253
 20
6.3034959876
 11
15.6002591253
 21
6.1787800291
  0
LINE
  5
310
100
AcDbEntity
  8
0
100
AcDbLine
 62
7
  6
CONTINUOUS
 10
15.6267615069
 20
6.3036365907
 11
15.6267615069
 21
6.2854504003
  0
LINE
  5
311
100
AcDbEntity
  8
0
100
AcDbLine
 62
7
  6
CONTINUOUS
 10
15.6267615069
 20
6.2771706245
 11
15.6267615069
 21
6.2480242789
  0
LINE
  5
312
100
AcDbEntity
  8
0
100
AcDbLine
 62
7
  6
CONTINUOUS
 10
14.9994158969
 20
5.5212497044
 11
15.069419617
 21
5.5212497044
  0
LINE
  5
313
100
AcDbEntity
  8
0
100
AcDbLine
 62
7
  6
CONTINUOUS
 10
15.6814490069
 20
6.2366583556
 11
15.6814490069
 21
6.2256982005
  0
LINE
  5
314
100
AcDbEntity
  8
0
100
AcDbLine
 62
7
  6
CONTINUOUS
 10
15.6814490069
 20
6.2040590965
 11
15.6814490069
 21
6.1456343987
  0
LINE
  5
315
100
AcDbEntity
  8
0
100
AcDbLine
 62
7
  6
CONTINUOUS
 10
15.7361365069
 20
6.2480242789
 11
15.7361365069
 21
6.2771706245
  0
LINE
  5
316
100
AcDbEntity
  8
0
100
AcDbLine
 62
7
  6
CONTINUOUS
 10
15.7361365069
 20
6.2854504003
 11
15.7361365069
 21
6.3036365907
  0
LINE
  5
317
100
AcDbEntity
  8
0
100
AcDbLine
 62
7
  6
CONTINUOUS
 10
15.7626388885
 20
6.1787800291
 11
15.7626388885
 21
6.3034959876
  0
LINE
  5
318
100
AcDbEntity
  8
0
100
AcDbLine
 62
7
  6
CONTINUOUS
 10
15.1075427569
 20
6.1662497044
 11
15.110288225
 21
6.1635042364
  0
LINE
  5
319
100
AcDbEntity
  8
0
100
AcDbLine
 62
7
  6
CONTINUOUS
 10
15.9292891399
 20
5.0481247044
 11
15.9292891399
 21
5.0231247044
  0
LINE
  5
31A
100
AcDbEntity
  8
0
100
AcDbLine
 62
7
  6
CONTINUOUS
 10
15.1580115069
 20
6.0231247044
 11
15.1530115069
 21
6.0231247044
  0
LINE
  5
31B
100
AcDbEntity
  8
0
100
AcDbLine
 62
7
  6
CONTINUOUS
 10
16.2048865069
 20
4.3981247044
 11
16.2048865069
 21
6.5106240502
  0
LINE
  5
31C
100
AcDbEntity
  8
0
100
AcDbLine
 62
7
  6
CONTINUOUS
 10
14.9594807619
 20
6.1634026233
 11
14.9562927572
 21
6.1637497044
  0
LINE
  5
31D
100
AcDbEntity
  8
0
100
AcDbLine
 62
7
  6
CONTINUOUS
 10
15.1125427569
 20
6.1637497044
 11
15.1093642276
 21
6.1634036337
  0
LINE
  5
31E
100
AcDbEntity
  8
0
100
AcDbLine
 62
7
  6
CONTINUOUS
 10
14.9834850501
 20
6.1612497044
 11
15.0853504638
 21
6.1612497044
  0
LINE
  5
31F
100
AcDbEntity
  8
0
100
AcDbLine
 62
7
  6
CONTINUOUS
 10
15.1530115069
 20
6.1637497044
 11
15.1125427569
 21
6.1637497044
  0
LINE
  5
320
100
AcDbEntity
  8
0
100
AcDbLine
 62
7
  6
CONTINUOUS
 10
14.9562927569
 20
6.1637497044
 11
14.9283240069
 21
6.1637497044
  0
LINE
  5
321
100
AcDbEntity
  8
0
100
AcDbLine
 62
7
  6
CONTINUOUS
 10
15.1075427569
 20
6.1662497044
 11
14.9612927569
 21
6.1662497044
  0
LINE
  5
322
100
AcDbEntity
  8
0
100
AcDbLine
 62
7
  6
CONTINUOUS
 10
15.6814490069
 20
6.1456343987
 11
15.6002591253
 21
6.1787800291
  0
LINE
  5
323
100
AcDbEntity
  8
0
100
AcDbLine
 62
7
  6
CONTINUOUS
 10
15.6814490069
 20
6.2040590965
 11
15.6002591253
 21
6.2372047269
  0
LINE
  5
324
100
AcDbEntity
  8
0
100
AcDbLine
 62
7
  6
CONTINUOUS
 10
15.6267615069
 20
6.2480242789
 11
15.6814490069
 21
6.2256982005
  0
LINE
  5
325
100
AcDbEntity
  8
0
100
AcDbLine
 62
7
  6
CONTINUOUS
 10
15.6814490069
 20
6.2366583556
 11
15.6591755634
 21
6.2457514508
  0
LINE
  5
326
100
AcDbEntity
  8
0
100
AcDbLine
 62
7
  6
CONTINUOUS
 10
15.6490349505
 20
6.2498913387
 11
15.6267615069
 21
6.258984434
  0
LINE
  5
327
100
AcDbEntity
  8
0
100
AcDbLine
 62
7
  6
CONTINUOUS
 10
15.7157087023
 20
6.3119762071
 11
15.7361365069
 21
6.3036365907
  0
LINE
  5
328
100
AcDbEntity
  8
0
100
AcDbLine
 62
7
  6
CONTINUOUS
 10
15.7160981541
 20
6.3224961629
 11
15.7626388885
 21
6.3034959876
  0
LINE
  5
329
100
AcDbEntity
  8
0
100
AcDbLine
 62
7
  6
CONTINUOUS
 10
15.1705115069
 20
6.5231247044
 11
16.1923865069
 21
6.5231247044
  0
LINE
  5
32A
100
AcDbEntity
  8
0
100
AcDbLine
 62
7
  6
CONTINUOUS
 10
13.6822750195
 20
11.4428525778
 11
13.4954368762
 21
11.8235886834
  0
LINE
  5
32B
100
AcDbEntity
  8
0
100
AcDbLine
 62
7
  6
CONTINUOUS
 10
13.6697660324
 20
12.1467860593
 11
13.677392079
 21
12.13124581
  0
LINE
  5
32C
100
AcDbEntity
  8
0
100
AcDbLine
 62
7
  6
CONTINUOUS
 10
13.4953704749
 20
11.8284542574
 11
13.7480574635
 21
12.6461496523
  0
LINE
  5
32D
100
AcDbEntity
  8
0
100
AcDbLine
 62
7
  6
CONTINUOUS
 10
13.8040024324
 20
12.062781891
 11
13.8116284676
 21
12.0472416418
  0
LINE
  5
32E
100
AcDbEntity
  8
0
100
AcDbLine
 62
7
  6
CONTINUOUS
 10
13.9616071284
 20
12.2139400045
 11
13.9402831378
 21
12.306871624
  0
LINE
  5
32F
100
AcDbEntity
  8
0
100
AcDbLine
 62
7
  6
CONTINUOUS
 10
14.1284214685
 20
11.8437322752
 11
14.0874622898
 21
12.2808673475
  0
LINE
  5
330
100
AcDbEntity
  8
0
100
AcDbLine
 62
7
  6
CONTINUOUS
 10
13.9616071284
 20
12.2139400045
 11
13.9458317728
 21
12.1628909351
  0
LINE
  5
331
100
AcDbEntity
  8
0
100
AcDbLine
 62
7
  6
CONTINUOUS
 10
14.101831738
 20
12.4268050877
 11
14.3491932623
 21
13.2272672735
  0
LINE
  5
332
100
AcDbEntity
  8
0
100
AcDbLine
 62
7
  6
CONTINUOUS
 10
14.3324051141
 20
12.3460451134
 11
14.331799117
 21
12.3440877393
  0
LINE
  5
333
100
AcDbEntity
  8
0
100
AcDbLine
 62
7
  6
CONTINUOUS
 10
14.332671064
 20
12.3468878005
 11
14.3324051141
 21
12.3460451134
  0
LINE
  5
334
100
AcDbEntity
  8
0
100
AcDbLine
 62
7
  6
CONTINUOUS
 10
13.7480575146
 20
12.6461498177
 11
13.7483188687
 21
12.6463425163
  0
LINE
  5
335
100
AcDbEntity
  8
0
100
AcDbLine
 62
7
  6
CONTINUOUS
 10
17.1938200591
 20
11.4428525778
 11
13.6822750195
 21
11.4428525778
  0
LINE
  5
336
100
AcDbEntity
  8
0
100
AcDbLine
 62
7
  6
CONTINUOUS
 10
14.4419498271
 20
12.3102134067
 11
14.4421601745
 21
12.3109090082
  0
LINE
  5
337
100
AcDbEntity
  8
0
100
AcDbLine
 62
7
  6
CONTINUOUS
 10
14.4419468142
 20
12.3102143343
 11
14.4421602765
 21
12.3109089767
  0
LINE
  5
338
100
AcDbEntity
  8
0
100
AcDbLine
 62
7
  6
CONTINUOUS
 10
14.3687606375
 20
12.0897312372
 11
14.3681554717
 21
12.0877729199
  0
LINE
  5
339
100
AcDbEntity
  8
0
100
AcDbLine
 62
7
  6
CONTINUOUS
 10
14.4409499433
 20
12.3069923427
 11
14.3865606662
 21
12.1309885777
  0
LINE
  5
33A
100
AcDbEntity
  8
0
100
AcDbLine
 62
7
  6
CONTINUOUS
 10
14.4421695718
 20
12.3108197764
 11
14.4419491407
 21
12.3101446828
  0
LINE
  5
33B
100
AcDbEntity
  8
0
100
AcDbLine
 62
7
  6
CONTINUOUS
 10
14.3327125544
 20
12.3468748651
 11
14.3320587739
 21
12.3449329144
  0
LINE
  5
33C
100
AcDbEntity
  8
0
100
AcDbLine
 62
7
  6
CONTINUOUS
 10
14.5891815289
 20
12.4757753263
 11
14.5885763631
 21
12.473817009
  0
LINE
  5
33D
100
AcDbEntity
  8
0
100
AcDbLine
 62
7
  6
CONTINUOUS
 10
14.4426957687
 20
12.3106538687
 11
14.4423875706
 21
12.3100069353
  0
LINE
  5
33E
100
AcDbEntity
  8
0
100
AcDbLine
 62
7
  6
CONTINUOUS
 10
14.8044654099
 20
12.4177044939
 11
14.821410953
 21
12.4725402916
  0
LINE
  5
33F
100
AcDbEntity
  8
0
100
AcDbLine
 62
7
  6
CONTINUOUS
 10
14.823698767
 20
12.4678782169
 11
14.8076281699
 21
12.4158737455
  0
LINE
  5
340
100
AcDbEntity
  8
0
100
AcDbLine
 62
7
  6
CONTINUOUS
 10
15.7350826107
 20
11.9297777382
 11
15.7301001414
 21
11.9283738589
  0
LINE
  5
341
100
AcDbEntity
  8
0
100
AcDbLine
 62
7
  6
CONTINUOUS
 10
14.8003091824
 20
12.4073008934
 11
14.8034099874
 21
12.4021173831
  0
LINE
  5
342
100
AcDbEntity
  8
0
100
AcDbLine
 62
7
  6
CONTINUOUS
 10
14.8001674281
 20
12.4075969438
 11
14.8034099874
 21
12.4021173831
  0
LINE
  5
343
100
AcDbEntity
  8
0
100
AcDbLine
 62
7
  6
CONTINUOUS
 10
14.8003119465
 20
12.4073024463
 11
14.8001674281
 21
12.4075969438
  0
LINE
  5
344
100
AcDbEntity
  8
0
100
AcDbLine
 62
7
  6
CONTINUOUS
 10
14.823698767
 20
12.4678782169
 11
14.821410953
 21
12.4725402916
  0
LINE
  5
345
100
AcDbEntity
  8
0
100
AcDbLine
 62
7
  6
CONTINUOUS
 10
14.8771722515
 20
12.5420646369
 11
14.8765670857
 21
12.5401063196
  0
LINE
  5
346
100
AcDbEntity
  8
0
100
AcDbLine
 62
7
  6
CONTINUOUS
 10
14.9330895985
 20
12.4725402916
 11
14.9161440554
 21
12.4177044939
  0
LINE
  5
347
100
AcDbEntity
  8
0
100
AcDbLine
 62
7
  6
CONTINUOUS
 10
14.5062651931
 20
12.5365406695
 11
14.5050169293
 21
12.5358872071
  0
LINE
  5
348
100
AcDbEntity
  8
0
100
AcDbLine
 62
7
  6
CONTINUOUS
 10
14.5062861028
 20
12.5365257624
 11
14.5050169293
 21
12.5358872071
  0
LINE
  5
349
100
AcDbEntity
  8
0
100
AcDbLine
 62
7
  6
CONTINUOUS
 10
15.7540043125
 20
11.9962316535
 11
15.76091227
 21
11.9962316535
  0
LINE
  5
34A
100
AcDbEntity
  8
0
100
AcDbLine
 62
7
  6
CONTINUOUS
 10
16.816589949
 20
12.0472416418
 11
16.4440671185
 21
12.0472416418
  0
LINE
  5
34B
100
AcDbEntity
  8
0
100
AcDbLine
 62
7
  6
CONTINUOUS
 10
13.8116284676
 20
12.0472416418
 11
14.1093528166
 21
12.0472416418
  0
LINE
  5
34C
100
AcDbEntity
  8
0
100
AcDbLine
 62
7
  6
CONTINUOUS
 10
15.7439839209
 20
12.0613346567
 11
15.7508918784
 21
12.0613346567
  0
LINE
  5
34D
100
AcDbEntity
  8
0
100
AcDbLine
 62
7
  6
CONTINUOUS
 10
14.331799117
 20
12.3440877393
 11
14.4413565518
 21
12.3082514938
  0
LINE
  5
34E
100
AcDbEntity
  8
0
100
AcDbLine
 62
7
  6
CONTINUOUS
 10
15.7780849242
 20
11.8710075377
 11
15.8862641704
 21
11.8356220978
  0
LINE
  5
34F
100
AcDbEntity
  8
0
100
AcDbLine
 62
7
  6
CONTINUOUS
 10
14.4419617176
 20
12.3102098111
 11
14.3324042828
 21
12.3460460566
  0
LINE
  5
350
100
AcDbEntity
  8
0
100
AcDbLine
 62
7
  6
CONTINUOUS
 10
15.77869009
 20
11.872965855
 11
15.8868693363
 21
11.837580415
  0
LINE
  5
351
100
AcDbEntity
  8
0
100
AcDbLine
 62
7
  6
CONTINUOUS
 10
15.896081995
 20
11.8625385989
 11
15.7865245602
 21
11.8983748445
  0
LINE
  5
352
100
AcDbEntity
  8
0
100
AcDbLine
 62
7
  6
CONTINUOUS
 10
14.4511743763
 20
12.335167995
 11
14.3416169416
 21
12.3710042405
  0
LINE
  5
353
100
AcDbEntity
  8
0
100
AcDbLine
 62
7
  6
CONTINUOUS
 10
15.7170007921
 20
11.9516630611
 11
15.7439667268
 21
11.9413958557
  0
LINE
  5
354
100
AcDbEntity
  8
0
100
AcDbLine
 62
7
  6
CONTINUOUS
 10
14.5050169293
 20
12.5358872071
 11
14.5885763631
 21
12.473817009
  0
LINE
  5
355
100
AcDbEntity
  8
0
100
AcDbLine
 62
7
  6
CONTINUOUS
 10
14.5069494654
 20
12.5368595179
 11
14.5891815289
 21
12.4757753263
  0
LINE
  5
356
100
AcDbEntity
  8
0
100
AcDbLine
 62
7
  6
CONTINUOUS
 10
15.7228641827
 20
11.6707391312
 11
15.7123760096
 21
11.6785300287
  0
LINE
  5
357
100
AcDbEntity
  8
0
100
AcDbLine
 62
7
  6
CONTINUOUS
 10
14.6208334274
 20
12.4893572582
 11
14.5372739936
 21
12.5514274563
  0
LINE
  5
358
100
AcDbEntity
  8
0
100
AcDbLine
 62
7
  6
CONTINUOUS
 10
14.940437999
 20
12.4764317421
 11
14.9371954397
 21
12.4819113028
  0
LINE
  5
359
100
AcDbEntity
  8
0
100
AcDbLine
 62
7
  6
CONTINUOUS
 10
14.8880108614
 20
12.4952961158
 11
14.8857230474
 21
12.4999581905
  0
LINE
  5
35A
100
AcDbEntity
  8
0
100
AcDbLine
 62
7
  6
CONTINUOUS
 10
14.8413953356
 20
12.6117788107
 11
14.8765670857
 21
12.5401063196
  0
LINE
  5
35B
100
AcDbEntity
  8
0
100
AcDbLine
 62
7
  6
CONTINUOUS
 10
14.8429535763
 20
12.6117949656
 11
14.8771722515
 21
12.5420646369
  0
LINE
  5
35C
100
AcDbEntity
  8
0
100
AcDbLine
 62
7
  6
CONTINUOUS
 10
14.9405825173
 20
12.4761372446
 11
14.940437999
 21
12.4764317421
  0
LINE
  5
35D
100
AcDbEntity
  8
0
100
AcDbLine
 62
7
  6
CONTINUOUS
 10
14.8874483853
 20
12.6117788107
 11
14.9226201354
 21
12.5401063196
  0
LINE
  5
35E
100
AcDbEntity
  8
0
100
AcDbLine
 62
7
  6
CONTINUOUS
 10
15.6581737328
 20
13.0578766942
 11
15.7184670211
 21
13.100871259
  0
LINE
  5
35F
100
AcDbEntity
  8
0
100
AcDbLine
 62
7
  6
CONTINUOUS
 10
15.6914571652
 20
13.0512385532
 11
15.7079978859
 21
13.0630335822
  0
LINE
  5
360
100
AcDbEntity
  8
0
100
AcDbLine
 62
7
  6
CONTINUOUS
 10
15.7155285152
 20
13.0684036016
 11
15.7320692359
 21
13.0801986307
  0
LINE
  5
361
100
AcDbEntity
  8
0
100
AcDbLine
 62
7
  6
CONTINUOUS
 10
14.5904255917
 20
12.4715135337
 11
14.5892698141
 21
12.4709076062
  0
LINE
  5
362
100
AcDbEntity
  8
0
100
AcDbLine
 62
7
  6
CONTINUOUS
 10
14.6240777759
 20
12.4853870759
 11
14.6228451119
 21
12.4848383324
  0
LINE
  5
363
100
AcDbEntity
  8
0
100
AcDbLine
 62
7
  6
CONTINUOUS
 10
14.5913821422
 20
12.4708320023
 11
14.5901494782
 21
12.4702832588
  0
LINE
  5
364
100
AcDbEntity
  8
0
100
AcDbLine
 62
7
  6
CONTINUOUS
 10
14.6224628683
 20
12.4866626755
 11
14.6212094704
 21
12.486125232
  0
LINE
  5
365
100
AcDbEntity
  8
0
100
AcDbLine
 62
7
  6
CONTINUOUS
 10
14.3797221702
 20
12.0877729199
 11
14.3681554717
 21
12.0877729199
  0
LINE
  5
366
100
AcDbEntity
  8
0
100
AcDbLine
 62
7
  6
CONTINUOUS
 10
15.7687781242
 20
12.0877729199
 11
15.8749777337
 21
12.0877729199
  0
LINE
  5
367
100
AcDbEntity
  8
0
100
AcDbLine
 62
7
  6
CONTINUOUS
 10
14.3800320566
 20
12.0897312372
 11
14.3687606375
 21
12.0897312372
  0
LINE
  5
368
100
AcDbEntity
  8
0
100
AcDbLine
 62
7
  6
CONTINUOUS
 10
15.76938329
 20
12.0897312372
 11
15.8740758442
 21
12.0897312372
  0
LINE
  5
369
100
AcDbEntity
  8
0
100
AcDbLine
 62
7
  6
CONTINUOUS
 10
15.8597256403
 20
12.1188534183
 11
15.7535260308
 21
12.1188534183
  0
LINE
  5
36A
100
AcDbEntity
  8
0
100
AcDbLine
 62
7
  6
CONTINUOUS
 10
14.3529033783
 20
12.1188534183
 11
14.3846403845
 21
12.1188534183
  0
LINE
  5
36B
100
AcDbEntity
  8
0
100
AcDbLine
 62
7
  6
CONTINUOUS
 10
16.8310362303
 20
12.1628909351
 11
16.5432046697
 21
12.1628909351
  0
LINE
  5
36C
100
AcDbEntity
  8
0
100
AcDbLine
 62
7
  6
CONTINUOUS
 10
14.0985165777
 20
12.1628909351
 11
13.8375879998
 21
12.1628909351
  0
LINE
  5
36D
100
AcDbEntity
  8
0
100
AcDbLine
 62
7
  6
CONTINUOUS
 10
14.093733324
 20
12.2139400045
 11
13.9616071284
 21
12.2139400045
  0
LINE
  5
36E
100
AcDbEntity
  8
0
100
AcDbLine
 62
7
  6
CONTINUOUS
 10
16.4837347202
 20
12.2139400045
 11
16.9469733866
 21
12.2139400045
  0
LINE
  5
36F
100
AcDbEntity
  8
0
100
AcDbLine
 62
7
  6
CONTINUOUS
 10
15.723051303
 20
12.0693046933
 11
15.7439839209
 21
12.0613346567
  0
LINE
  5
370
100
AcDbEntity
  8
0
100
AcDbLine
 62
7
  6
CONTINUOUS
 10
15.7508918784
 20
12.0613346567
 11
15.7239259437
 21
12.0716018621
  0
LINE
  5
371
100
AcDbEntity
  8
0
100
AcDbLine
 62
7
  6
CONTINUOUS
 10
14.8044654099
 20
12.4177044939
 11
14.851831961
 21
12.390286595
  0
LINE
  5
372
100
AcDbEntity
  8
0
100
AcDbLine
 62
7
  6
CONTINUOUS
 10
14.8880108614
 20
12.4952961158
 11
14.9316424291
 21
12.470040194
  0
LINE
  5
373
100
AcDbEntity
  8
0
100
AcDbLine
 62
7
  6
CONTINUOUS
 10
14.9330895985
 20
12.4725402916
 11
14.8857230474
 21
12.4999581905
  0
LINE
  5
374
100
AcDbEntity
  8
0
100
AcDbLine
 62
7
  6
CONTINUOUS
 10
15.2508020136
 20
12.5514274563
 11
15.228161838
 21
12.4893572582
  0
LINE
  5
375
100
AcDbEntity
  8
0
100
AcDbLine
 62
7
  6
CONTINUOUS
 10
15.2756709956
 20
12.473817009
 11
15.2983111713
 21
12.5358872071
  0
LINE
  5
376
100
AcDbEntity
  8
0
100
AcDbLine
 62
7
  6
CONTINUOUS
 10
15.6581737328
 20
13.0578766942
 11
15.6221830014
 21
13.0215593197
  0
LINE
  5
377
100
AcDbEntity
  8
0
100
AcDbLine
 62
7
  6
CONTINUOUS
 10
15.6914571652
 20
13.0512385532
 11
15.6847055001
 21
13.0444256115
  0
LINE
  5
378
100
AcDbEntity
  8
0
100
AcDbLine
 62
7
  6
CONTINUOUS
 10
15.6431696175
 20
12.9373574464
 11
15.6791603489
 21
12.9736748209
  0
LINE
  5
379
100
AcDbEntity
  8
0
100
AcDbLine
 62
7
  6
CONTINUOUS
 10
15.6988415666
 20
12.9877093082
 11
15.7055932318
 21
12.9945222499
  0
LINE
  5
37A
100
AcDbEntity
  8
0
100
AcDbLine
 62
7
  6
CONTINUOUS
 10
15.8009534395
 20
12.9957261017
 11
15.7844127189
 21
12.9839310726
  0
LINE
  5
37B
100
AcDbEntity
  8
0
100
AcDbLine
 62
7
  6
CONTINUOUS
 10
15.7768820896
 20
12.9785610532
 11
15.7603413689
 21
12.9667660242
  0
LINE
  5
37C
100
AcDbEntity
  8
0
100
AcDbLine
 62
7
  6
CONTINUOUS
 10
15.7535897037
 20
12.9599530825
 11
15.7942017744
 21
12.98891316
  0
LINE
  5
37D
100
AcDbEntity
  8
0
100
AcDbLine
 62
7
  6
CONTINUOUS
 10
15.8207335416
 20
12.9754620773
 11
15.7604402533
 21
12.9324675125
  0
LINE
  5
37E
100
AcDbEntity
  8
0
100
AcDbLine
 62
7
  6
CONTINUOUS
 10
15.7847428103
 20
12.9391447027
 11
15.7244495219
 21
12.8961501379
  0
LINE
  5
37F
100
AcDbEntity
  8
0
100
AcDbLine
 62
7
  6
CONTINUOUS
 10
14.8857230474
 20
12.4999581905
 11
14.821410953
 21
12.4725402916
  0
LINE
  5
380
100
AcDbEntity
  8
0
100
AcDbLine
 62
7
  6
CONTINUOUS
 10
14.823698767
 20
12.4678782169
 11
14.8880108614
 21
12.4952961158
  0
LINE
  5
381
100
AcDbEntity
  8
0
100
AcDbLine
 62
7
  6
CONTINUOUS
 10
14.851831961
 20
12.390286595
 11
14.9161440554
 21
12.4177044939
  0
LINE
  5
382
100
AcDbEntity
  8
0
100
AcDbLine
 62
7
  6
CONTINUOUS
 10
16.9221359292
 20
12.306871624
 11
16.6343043686
 21
12.306871624
  0
LINE
  5
383
100
AcDbEntity
  8
0
100
AcDbLine
 62
7
  6
CONTINUOUS
 10
13.9286876987
 20
12.306871624
 11
14.0866540534
 21
12.306871624
  0
LINE
  5
384
100
AcDbEntity
  8
0
100
AcDbLine
 62
7
  6
CONTINUOUS
 10
13.8981045807
 20
12.3587226625
 11
14.088636124
 21
12.3587226625
  0
LINE
  5
385
100
AcDbEntity
  8
0
100
AcDbLine
 62
7
  6
CONTINUOUS
 10
16.6037212505
 20
12.3587226625
 11
16.8915528112
 21
12.3587226625
  0
LINE
  5
386
100
AcDbEntity
  8
0
100
AcDbLine
 62
7
  6
CONTINUOUS
 10
15.7603413689
 20
12.9667660242
 11
15.7535897037
 21
12.9599530825
  0
LINE
  5
387
100
AcDbEntity
  8
0
100
AcDbLine
 62
7
  6
CONTINUOUS
 10
15.8009534395
 20
12.9957261017
 11
15.7942017744
 21
12.98891316
  0
LINE
  5
388
100
AcDbEntity
  8
0
100
AcDbLine
 62
7
  6
CONTINUOUS
 10
15.7604402533
 20
12.9324675125
 11
15.7244495219
 21
12.8961501379
  0
LINE
  5
389
100
AcDbEntity
  8
0
100
AcDbLine
 62
7
  6
CONTINUOUS
 10
15.8207335416
 20
12.9754620773
 11
15.7847428103
 21
12.9391447027
  0
LINE
  5
38A
100
AcDbEntity
  8
0
100
AcDbLine
 62
7
  6
CONTINUOUS
 10
13.9225592745
 20
12.4524157888
 11
14.1097460432
 21
12.4524157888
  0
LINE
  5
38B
100
AcDbEntity
  8
0
100
AcDbLine
 62
7
  6
CONTINUOUS
 10
16.5378117701
 20
12.4524157888
 11
16.9273562303
 21
12.4524157888
  0
LINE
  5
38C
100
AcDbEntity
  8
0
100
AcDbLine
 62
7
  6
CONTINUOUS
 10
15.5461448494
 20
12.3307842468
 11
15.5456430481
 21
12.3311283668
  0
LINE
  5
38D
100
AcDbEntity
  8
0
100
AcDbLine
 62
7
  6
CONTINUOUS
 10
15.547543092
 20
12.3315307696
 11
15.5470470607
 21
12.3318799537
  0
LINE
  5
38E
100
AcDbEntity
  8
0
100
AcDbLine
 62
7
  6
CONTINUOUS
 10
15.6597719997
 20
12.3440877393
 11
15.6592123886
 21
12.3445128858
  0
LINE
  5
38F
100
AcDbEntity
  8
0
100
AcDbLine
 62
7
  6
CONTINUOUS
 10
15.6597719997
 20
12.3440877393
 11
15.6592201055
 21
12.3445162994
  0
LINE
  5
390
100
AcDbEntity
  8
0
100
AcDbLine
 62
7
  6
CONTINUOUS
 10
15.5829328232
 20
12.3053060682
 11
15.5822536914
 21
12.3058352394
  0
LINE
  5
391
100
AcDbEntity
  8
0
100
AcDbLine
 62
7
  6
CONTINUOUS
 10
15.5827239655
 20
12.3052146122
 11
15.5820954088
 21
12.3057656504
  0
LINE
  5
392
100
AcDbEntity
  8
0
100
AcDbLine
 62
7
  6
CONTINUOUS
 10
15.5859914809
 20
12.3102098111
 11
15.5853863151
 21
12.3082514938
  0
LINE
  5
393
100
AcDbEntity
  8
0
100
AcDbLine
 62
7
  6
CONTINUOUS
 10
13.9224758461
 20
12.4524112467
 11
13.9225591767
 21
12.4524157888
  0
LINE
  5
394
100
AcDbEntity
  8
0
100
AcDbLine
 62
7
  6
CONTINUOUS
 10
14.8420173682
 20
12.6117915935
 11
14.8413953356
 21
12.6117788107
  0
LINE
  5
395
100
AcDbEntity
  8
0
100
AcDbLine
 62
7
  6
CONTINUOUS
 10
14.8420207368
 20
12.6117852945
 11
14.8413953356
 21
12.6117788107
  0
LINE
  5
396
100
AcDbEntity
  8
0
100
AcDbLine
 62
7
  6
CONTINUOUS
 10
17.2548746549
 20
12.6463424556
 11
16.6315546537
 21
12.6463424556
  0
LINE
  5
397
100
AcDbEntity
  8
0
100
AcDbLine
 62
7
  6
CONTINUOUS
 10
14.1696739158
 20
12.6463424556
 11
13.7483188436
 21
12.6463424556
  0
LINE
  5
398
100
AcDbEntity
  8
0
100
AcDbLine
 62
7
  6
CONTINUOUS
 10
16.9274885667
 20
12.4524081005
 11
16.9273563541
 21
12.4524157888
  0
LINE
  5
399
100
AcDbEntity
  8
0
100
AcDbLine
 62
7
  6
CONTINUOUS
 10
15.7498140642
 20
12.1165767516
 11
15.7491067059
 21
12.1177300562
  0
LINE
  5
39A
100
AcDbEntity
  8
0
100
AcDbLine
 62
7
  6
CONTINUOUS
 10
15.7513950578
 20
12.116619471
 11
15.7507566032
 21
12.1177776763
  0
LINE
  5
39B
100
AcDbEntity
  8
0
100
AcDbLine
 62
7
  6
CONTINUOUS
 10
15.7069804005
 20
12.0167660643
 11
15.7170007921
 21
11.9516630611
  0
LINE
  5
39C
100
AcDbEntity
  8
0
100
AcDbLine
 62
7
  6
CONTINUOUS
 10
15.6235367746
 20
12.3710042405
 11
15.54915109
 21
12.335167995
  0
LINE
  5
39D
100
AcDbEntity
  8
0
100
AcDbLine
 62
7
  6
CONTINUOUS
 10
15.6584294324
 20
12.3451077115
 11
15.5859914809
 21
12.3102098111
  0
LINE
  5
39E
100
AcDbEntity
  8
0
100
AcDbLine
 62
7
  6
CONTINUOUS
 10
15.5853863151
 20
12.3082514938
 11
15.6597719997
 21
12.3440877393
  0
LINE
  5
39F
100
AcDbEntity
  8
0
100
AcDbLine
 62
7
  6
CONTINUOUS
 10
15.8743395571
 20
12.0891586245
 11
15.8749777337
 21
12.0877729199
  0
LINE
  5
3A0
100
AcDbEntity
  8
0
100
AcDbLine
 62
7
  6
CONTINUOUS
 10
15.8743578346
 20
12.0891582842
 11
15.8749777337
 21
12.0877729199
  0
LINE
  5
3A1
100
AcDbEntity
  8
0
100
AcDbLine
 62
7
  6
CONTINUOUS
 10
15.6221830014
 20
13.0215593197
 11
15.6431696175
 21
12.9373574464
  0
LINE
  5
3A2
100
AcDbEntity
  8
0
100
AcDbLine
 62
7
  6
CONTINUOUS
 10
15.6791603489
 20
12.9736748209
 11
15.6581737328
 21
13.0578766942
  0
LINE
  5
3A3
100
AcDbEntity
  8
0
100
AcDbLine
 62
7
  6
CONTINUOUS
 10
15.7439839209
 20
12.0613346567
 11
15.7540043125
 21
11.9962316535
  0
LINE
  5
3A4
100
AcDbEntity
  8
0
100
AcDbLine
 62
7
  6
CONTINUOUS
 10
15.76091227
 20
11.9962316535
 11
15.7508918784
 21
12.0613346567
  0
LINE
  5
3A5
100
AcDbEntity
  8
0
100
AcDbLine
 62
7
  6
CONTINUOUS
 10
15.7845092154
 20
11.8918011247
 11
15.7846052731
 21
11.8924033655
  0
LINE
  5
3A6
100
AcDbEntity
  8
0
100
AcDbLine
 62
7
  6
CONTINUOUS
 10
15.7854680365
 20
11.8978125244
 11
15.7855817132
 21
11.898525229
  0
LINE
  5
3A7
100
AcDbEntity
  8
0
100
AcDbLine
 62
7
  6
CONTINUOUS
 10
15.7862157901
 20
11.8975884815
 11
15.7864081865
 21
11.8982785182
  0
LINE
  5
3A8
100
AcDbEntity
  8
0
100
AcDbLine
 62
7
  6
CONTINUOUS
 10
15.7069804005
 20
12.0167660643
 11
15.7239259437
 21
12.0716018621
  0
LINE
  5
3A9
100
AcDbEntity
  8
0
100
AcDbLine
 62
7
  6
CONTINUOUS
 10
15.76938329
 20
12.0897312372
 11
15.7687781242
 21
12.0877729199
  0
LINE
  5
3AA
100
AcDbEntity
  8
0
100
AcDbLine
 62
7
  6
CONTINUOUS
 10
15.7540043125
 20
11.9962316535
 11
15.737660943
 21
11.9433444903
  0
LINE
  5
3AB
100
AcDbEntity
  8
0
100
AcDbLine
 62
7
  6
CONTINUOUS
 10
15.76091227
 20
11.9962316535
 11
15.7439667268
 21
11.9413958557
  0
LINE
  5
3AC
100
AcDbEntity
  8
0
100
AcDbLine
 62
7
  6
CONTINUOUS
 10
15.7244495219
 20
12.8961501379
 11
15.6431696175
 21
12.9373574464
  0
LINE
  5
3AD
100
AcDbEntity
  8
0
100
AcDbLine
 62
7
  6
CONTINUOUS
 10
15.6847055001
 20
13.0444256115
 11
15.6988415666
 21
12.9877093082
  0
LINE
  5
3AE
100
AcDbEntity
  8
0
100
AcDbLine
 62
7
  6
CONTINUOUS
 10
15.7055932318
 20
12.9945222499
 11
15.6998358123
 21
13.0176219962
  0
LINE
  5
3AF
100
AcDbEntity
  8
0
100
AcDbLine
 62
7
  6
CONTINUOUS
 10
15.6972145848
 20
13.0281388068
 11
15.6914571652
 21
13.0512385532
  0
LINE
  5
3B0
100
AcDbEntity
  8
0
100
AcDbLine
 62
7
  6
CONTINUOUS
 10
15.79519602
 20
13.018825848
 11
15.8009534395
 21
12.9957261017
  0
LINE
  5
3B1
100
AcDbEntity
  8
0
100
AcDbLine
 62
7
  6
CONTINUOUS
 10
15.7997469256
 20
13.0596639506
 11
15.8011607509
 21
13.0539914427
  0
LINE
  5
3B2
100
AcDbEntity
  8
0
100
AcDbLine
 62
7
  6
CONTINUOUS
 10
15.8021337417
 20
13.0500876382
 11
15.8207335416
 21
12.9754620773
  0
LINE
  5
3B3
100
AcDbEntity
  8
0
100
AcDbLine
 62
7
  6
CONTINUOUS
 10
15.7865245602
 20
11.8983748445
 11
15.7857209375
 21
11.89571733
  0
LINE
  5
3B4
100
AcDbEntity
  8
0
100
AcDbLine
 62
7
  6
CONTINUOUS
 10
15.8958223381
 20
11.8616934239
 11
15.896081995
 21
11.8625385989
  0
LINE
  5
3B5
100
AcDbEntity
  8
0
100
AcDbLine
 62
7
  6
CONTINUOUS
 10
15.7846877612
 20
11.8923779534
 11
15.7301212285
 21
11.7157969615
  0
LINE
  5
3B6
100
AcDbEntity
  8
0
100
AcDbLine
 62
7
  6
CONTINUOUS
 10
15.7422037986
 20
11.9356999384
 11
15.7350826107
 21
11.9297777382
  0
LINE
  5
3B7
100
AcDbEntity
  8
0
100
AcDbLine
 62
7
  6
CONTINUOUS
 10
15.6791603489
 20
12.9736748209
 11
15.7604402533
 21
12.9324675125
  0
LINE
  5
3B8
100
AcDbEntity
  8
0
100
AcDbLine
 62
7
  6
CONTINUOUS
 10
15.6988415666
 20
12.9877093082
 11
15.7535897037
 21
12.9599530825
  0
LINE
  5
3B9
100
AcDbEntity
  8
0
100
AcDbLine
 62
7
  6
CONTINUOUS
 10
15.7055932318
 20
12.9945222499
 11
15.7278913719
 21
12.9832175326
  0
LINE
  5
3BA
100
AcDbEntity
  8
0
100
AcDbLine
 62
7
  6
CONTINUOUS
 10
15.7380432287
 20
12.9780707415
 11
15.7603413689
 21
12.9667660242
  0
LINE
  5
3BB
100
AcDbEntity
  8
0
100
AcDbLine
 62
7
  6
CONTINUOUS
 10
15.7462310034
 20
13.0730188938
 11
15.7320692359
 21
13.0801986307
  0
LINE
  5
3BC
100
AcDbEntity
  8
0
100
AcDbLine
 62
7
  6
CONTINUOUS
 10
15.7997469256
 20
13.0596639506
 11
15.7985269124
 21
13.0602824732
  0
LINE
  5
3BD
100
AcDbEntity
  8
0
100
AcDbLine
 62
7
  6
CONTINUOUS
 10
15.7604594517
 20
13.0795819249
 11
15.7184670211
 21
13.100871259
  0
LINE
  5
3BE
100
AcDbEntity
  8
0
100
AcDbLine
 62
7
  6
CONTINUOUS
 10
16.4276066348
 20
12.062781891
 11
16.4338647823
 21
12.0500291272
  0
LINE
  5
3BF
100
AcDbEntity
  8
0
100
AcDbLine
 62
7
  6
CONTINUOUS
 10
16.6130083205
 20
12.6536592349
 11
16.2249380266
 21
13.0907943072
  0
LINE
  5
3C0
100
AcDbEntity
  8
0
100
AcDbLine
 62
7
  6
CONTINUOUS
 10
16.816589949
 20
12.0472416418
 11
16.8089638908
 21
12.062781891
  0
LINE
  5
3C1
100
AcDbEntity
  8
0
100
AcDbLine
 62
7
  6
CONTINUOUS
 10
17.1938200591
 20
11.4428525778
 11
17.0069819158
 21
11.8235886834
  0
LINE
  5
3C2
100
AcDbEntity
  8
0
100
AcDbLine
 62
7
  6
CONTINUOUS
 10
17.0631878019
 20
12.3670574137
 11
17.0708138486
 21
12.3515171645
  0
LINE
  5
3C3
100
AcDbEntity
  8
0
100
AcDbLine
 62
7
  6
CONTINUOUS
 10
17.2603950981
 20
12.6436340419
 11
17.4472332414
 21
12.2628979364
  0
LINE
  5
3C4
100
AcDbEntity
  8
0
100
AcDbLine
 62
7
  6
CONTINUOUS
 10
17.4472332414
 20
12.2628979364
 11
17.1938200591
 21
11.4428525778
  0
ARC
  5
3C5
100
AcDbEntity
  8
0
100
AcDbCircle
 62
7
  6
CONTINUOUS
 10
6.1303672762
 20
5.5201198968
 40
1.0625
100
AcDbArc
 50
15.0
 51
165.0
  0
ARC
  5
3C6
100
AcDbEntity
  8
0
100
AcDbCircle
 62
7
  6
CONTINUOUS
 10
6.1303672762
 20
5.5201198968
 40
0.81836375
100
AcDbArc
 50
28.2494124734
 51
31.7505875266
  0
ARC
  5
3C7
100
AcDbEntity
  8
0
100
AcDbCircle
 62
7
  6
CONTINUOUS
 10
6.1303672762
 20
5.5201198968
 40
0.81836375
100
AcDbArc
 50
58.2494124734
 51
61.7505875266
  0
ARC
  5
3C8
100
AcDbEntity
  8
0
100
AcDbCircle
 62
7
  6
CONTINUOUS
 10
6.1303672762
 20
5.5201198968
 40
0.81836375
100
AcDbArc
 50
88.2494124734
 51
91.7505875266
  0
ARC
  5
3C9
100
AcDbEntity
  8
0
100
AcDbCircle
 62
7
  6
CONTINUOUS
 10
6.1303672762
 20
5.5201198968
 40
0.81836375
100
AcDbArc
 50
118.2494124734
 51
121.7505875266
  0
ARC
  5
3CA
100
AcDbEntity
  8
0
100
AcDbCircle
 62
7
  6
CONTINUOUS
 10
6.1303672762
 20
5.5201198968
 40
0.81836375
100
AcDbArc
 50
328.2494124734
 51
331.7505875266
  0
ARC
  5
3CB
100
AcDbEntity
  8
0
100
AcDbCircle
 62
7
  6
CONTINUOUS
 10
6.1303672762
 20
5.5201198968
 40
0.81836375
100
AcDbArc
 50
298.2494124734
 51
301.7505875266
  0
ARC
  5
3CC
100
AcDbEntity
  8
0
100
AcDbCircle
 62
7
  6
CONTINUOUS
 10
6.1303672762
 20
5.5201198968
 40
0.81836375
100
AcDbArc
 50
268.2494124734
 51
271.7505875266
  0
ARC
  5
3CD
100
AcDbEntity
  8
0
100
AcDbCircle
 62
7
  6
CONTINUOUS
 10
6.1303672762
 20
5.5201198968
 40
0.81836375
100
AcDbArc
 50
238.2494124734
 51
241.7505875266
  0
ARC
  5
3CE
100
AcDbEntity
  8
0
100
AcDbCircle
 62
7
  6
CONTINUOUS
 10
6.1303672762
 20
5.5201198968
 40
0.81836375
100
AcDbArc
 50
208.2494124734
 51
211.7505875266
  0
ARC
  5
3CF
100
AcDbEntity
  8
0
100
AcDbCircle
 62
7
  6
CONTINUOUS
 10
6.1303672762
 20
5.5201198968
 40
0.81836375
100
AcDbArc
 50
148.2494124734
 51
151.7505875266
  0
ARC
  5
3D0
100
AcDbEntity
  8
0
100
AcDbCircle
 62
7
  6
CONTINUOUS
 10
6.1303672762
 20
5.5201198968
 40
0.81836375
100
AcDbArc
 50
358.2494124734
 51
1.7505875266
  0
ARC
  5
3D1
100
AcDbEntity
  8
0
100
AcDbCircle
 62
7
  6
CONTINUOUS
 10
6.1303672762
 20
5.5201198968
 40
0.81836375
100
AcDbArc
 50
178.2494124734
 51
181.7505875266
  0
CIRCLE
  5
3D2
100
AcDbEntity
  8
0
100
AcDbCircle
 62
7
  6
CONTINUOUS
 10
6.1303672762
 20
5.5201198968
 40
0.703125
  0
CIRCLE
  5
3D3
100
AcDbEntity
  8
0
100
AcDbCircle
 62
7
  6
CONTINUOUS
 10
6.1303672762
 20
5.5201198968
 40
0.690625
  0
CIRCLE
  5
3D4
100
AcDbEntity
  8
0
100
AcDbCircle
 62
7
  6
CONTINUOUS
 10
6.1303672762
 20
5.5201198968
 40
0.5625
  0
CIRCLE
  5
3D5
100
AcDbEntity
  8
0
100
AcDbCircle
 62
7
  6
CONTINUOUS
 10
6.1303672762
 20
5.5201198968
 40
0.5
  0
ARC
  5
3D6
100
AcDbEntity
  8
0
100
AcDbCircle
 62
7
  6
CONTINUOUS
 10
7.0225089397
 20
6.3205097747
 40
0.0375
100
AcDbArc
 50
135.8411786232
 51
209.7268152428
  0
ARC
  5
3D7
100
AcDbEntity
  8
0
100
AcDbCircle
 62
7
  6
CONTINUOUS
 10
6.9307571541
 20
6.4122615603
 40
0.0375
100
AcDbArc
 50
240.2731847572
 51
314.1588213772
  0
ARC
  5
3D8
100
AcDbEntity
  8
0
100
AcDbCircle
 62
7
  6
CONTINUOUS
 10
6.9793373553
 20
6.3867676454
 40
0.0225
100
AcDbArc
 50
44.9999999998
 51
183.5903778905
  0
ARC
  5
3D9
100
AcDbEntity
  8
0
100
AcDbCircle
 62
7
  6
CONTINUOUS
 10
6.9970150249
 20
6.3690899759
 40
0.0225
100
AcDbArc
 50
266.4096221093
 51
45.0000000002
  0
ARC
  5
3DA
100
AcDbEntity
  8
0
100
AcDbCircle
 62
7
  6
CONTINUOUS
 10
7.3571675769
 20
5.0951198968
 40
0.0125
100
AcDbArc
 50
195.0
 51
270.0
  0
ARC
  5
3DB
100
AcDbEntity
  8
0
100
AcDbCircle
 62
7
  6
CONTINUOUS
 10
8.0241172762
 20
5.0701198968
 40
0.0125
100
AcDbArc
 50
0.0
 51
90.0
  0
ARC
  5
3DC
100
AcDbEntity
  8
0
100
AcDbCircle
 62
7
  6
CONTINUOUS
 10
4.2366172762
 20
5.0701198968
 40
0.0125
100
AcDbArc
 50
90.0
 51
180.0
  0
ARC
  5
3DD
100
AcDbEntity
  8
0
100
AcDbCircle
 62
7
  6
CONTINUOUS
 10
4.9035669754
 20
5.0951198968
 40
0.0125
100
AcDbArc
 50
270.0
 51
345.0
  0
ARC
  5
3DE
100
AcDbEntity
  8
0
100
AcDbCircle
 62
7
  6
CONTINUOUS
 10
4.2881585628
 20
5.1076198968
 40
0.00625
100
AcDbArc
 50
90.0
 51
180.0
  0
ARC
  5
3DF
100
AcDbEntity
  8
0
100
AcDbCircle
 62
7
  6
CONTINUOUS
 10
7.9725759895
 20
5.1076198968
 40
0.00625
100
AcDbArc
 50
0.0
 51
90.0
  0
ARC
  5
3E0
100
AcDbEntity
  8
0
100
AcDbCircle
 62
7
  6
CONTINUOUS
 10
4.4724133705
 20
12.7211415314
 40
0.25
100
AcDbArc
 50
97.5369239863
 51
262.4630760137
  0
ARC
  5
3E1
100
AcDbEntity
  8
0
100
AcDbCircle
 62
7
  6
CONTINUOUS
 10
4.8208720839
 20
12.7211415314
 40
0.25
100
AcDbArc
 50
277.5369268538
 51
82.4630731462
  0
ARC
  5
3E2
100
AcDbEntity
  8
0
100
AcDbCircle
 62
7
  6
CONTINUOUS
 10
4.7583720839
 20
12.7211415314
 40
0.125
100
AcDbArc
 50
270.0
 51
90.0
  0
ARC
  5
3E3
100
AcDbEntity
  8
0
100
AcDbCircle
 62
7
  6
CONTINUOUS
 10
4.4458720839
 20
12.7211415314
 40
0.125
100
AcDbArc
 50
90.0
 51
270.0
  0
ARC
  5
3E4
100
AcDbEntity
  8
0
100
AcDbCircle
 62
7
  6
CONTINUOUS
 10
7.485341579
 20
12.0751039237
 40
0.7157306121
100
AcDbArc
 50
184.1604715163
 51
185.0854266675
  0
ARC
  5
3E5
100
AcDbEntity
  8
0
100
AcDbCircle
 62
7
  6
CONTINUOUS
 10
7.4846951419
 20
12.0750509484
 40
0.7150820237
100
AcDbArc
 50
185.0857899548
 51
185.7789214946
  0
ARC
  5
3E6
100
AcDbEntity
  8
0
100
AcDbCircle
 62
7
  6
CONTINUOUS
 10
7.4831063845
 20
12.0732973767
 40
0.7134881955
100
AcDbArc
 50
174.9162025273
 51
175.8409818021
  0
ARC
  5
3E7
100
AcDbEntity
  8
0
100
AcDbCircle
 62
7
  6
CONTINUOUS
 10
7.4822933338
 20
12.0733977323
 40
0.712669451
100
AcDbArc
 50
174.2230005452
 51
174.9184467236
  0
ARC
  5
3E8
100
AcDbEntity
  8
0
100
AcDbCircle
 62
7
  6
CONTINUOUS
 10
7.4806089632
 20
12.0736450258
 40
0.7109687473
100
AcDbArc
 50
173.7984663505
 51
174.2291650632
  0
ARC
  5
3E9
100
AcDbEntity
  8
0
100
AcDbCircle
 62
7
  6
CONTINUOUS
 10
7.4702683271
 20
12.0741102814
 40
0.7006250003
100
AcDbArc
 50
175.8311427507
 51
184.1688572493
  0
CIRCLE
  5
3EA
100
AcDbEntity
  8
0
100
AcDbCircle
 62
7
  6
CONTINUOUS
 10
6.0708720839
 20
12.0741102814
 40
0.078125
  0
CIRCLE
  5
3EB
100
AcDbEntity
  8
0
100
AcDbCircle
 62
7
  6
CONTINUOUS
 10
6.0708720839
 20
12.0741102814
 40
0.073125
  0
ARC
  5
3EC
100
AcDbEntity
  8
0
100
AcDbCircle
 62
7
  6
CONTINUOUS
 10
7.3208720839
 20
12.7211415314
 40
0.25
100
AcDbArc
 50
97.5369268538
 51
262.4630731462
  0
ARC
  5
3ED
100
AcDbEntity
  8
0
100
AcDbCircle
 62
7
  6
CONTINUOUS
 10
7.6693307972
 20
12.7211415314
 40
0.25
100
AcDbArc
 50
277.5369239863
 51
82.4630760137
  0
ARC
  5
3EE
100
AcDbEntity
  8
0
100
AcDbCircle
 62
7
  6
CONTINUOUS
 10
7.6958720839
 20
12.7211415314
 40
0.125
100
AcDbArc
 50
270.0
 51
90.0
  0
ARC
  5
3EF
100
AcDbEntity
  8
0
100
AcDbCircle
 62
7
  6
CONTINUOUS
 10
7.3833720839
 20
12.7211415314
 40
0.125
100
AcDbArc
 50
90.0
 51
270.0
  0
ARC
  5
3F0
100
AcDbEntity
  8
0
100
AcDbCircle
 62
7
  6
CONTINUOUS
 10
6.8915578918
 20
12.6937194323
 40
0.0275779035
100
AcDbArc
 50
261.3663439789
 51
278.6336560211
  0
ARC
  5
3F1
100
AcDbEntity
  8
0
100
AcDbCircle
 62
7
  6
CONTINUOUS
 10
6.8915578918
 20
12.7485636304
 40
0.0275779035
100
AcDbArc
 50
81.3663439789
 51
98.6336560211
  0
ARC
  5
3F2
100
AcDbEntity
  8
0
100
AcDbCircle
 62
7
  6
CONTINUOUS
 10
15.0331237366
 20
6.878665471
 40
0.7193142659
100
AcDbArc
 50
274.1636966999
 51
275.3390396577
  0
ARC
  5
3F3
100
AcDbEntity
  8
0
100
AcDbCircle
 62
7
  6
CONTINUOUS
 10
15.0353619883
 20
6.8744571396
 40
0.7150916461
100
AcDbArc
 50
264.6582348002
 51
265.8397738218
  0
ARC
  5
3F4
100
AcDbEntity
  8
0
100
AcDbCircle
 62
7
  6
CONTINUOUS
 10
15.0341577547
 20
6.8626508619
 40
0.7032245391
100
AcDbArc
 50
263.9041387463
 51
264.6663727609
  0
ARC
  5
3F5
100
AcDbEntity
  8
0
100
AcDbCircle
 62
7
  6
CONTINUOUS
 10
15.0344177569
 20
6.8600209531
 40
0.7006250057
100
AcDbArc
 50
265.8311427831
 51
274.1688572169
  0
ARC
  5
3F6
100
AcDbEntity
  8
0
100
AcDbCircle
 62
7
  6
CONTINUOUS
 10
15.0352237152
 20
6.8570931321
 40
0.697640122
100
AcDbArc
 50
275.3321751686
 51
276.0090542693
  0
CIRCLE
  5
3F7
100
AcDbEntity
  8
0
100
AcDbCircle
 62
7
  6
CONTINUOUS
 10
15.0344177569
 20
5.4606247044
 40
0.078125
  0
CIRCLE
  5
3F8
100
AcDbEntity
  8
0
100
AcDbCircle
 62
7
  6
CONTINUOUS
 10
15.0344177569
 20
5.4606247044
 40
0.073125
  0
ARC
  5
3F9
100
AcDbEntity
  8
0
100
AcDbCircle
 62
7
  6
CONTINUOUS
 10
15.6540269079
 20
6.2813105124
 40
0.0275779035
100
AcDbArc
 50
171.3663439789
 51
188.6336560211
  0
ARC
  5
3FA
100
AcDbEntity
  8
0
100
AcDbCircle
 62
7
  6
CONTINUOUS
 10
15.708871106
 20
6.2813105124
 40
0.0275779035
100
AcDbArc
 50
351.3663439788
 51
8.6336560212
  0
ARC
  5
3FB
100
AcDbEntity
  8
0
100
AcDbCircle
 62
7
  6
CONTINUOUS
 10
16.1923865069
 20
6.5106247044
 40
0.0125
100
AcDbArc
 50
0.0
 51
90.0
  0
ARC
  5
3FC
100
AcDbEntity
  8
0
100
AcDbCircle
 62
7
  6
CONTINUOUS
 10
15.1705115069
 20
6.5106247044
 40
0.0125
100
AcDbArc
 50
90.0
 51
180.0000000003
  0
ARC
  5
3FD
100
AcDbEntity
  8
0
100
AcDbCircle
 62
7
  6
CONTINUOUS
 10
15.1705115069
 20
5.0106247044
 40
0.0125
100
AcDbArc
 50
90.0
 51
180.0
  0
ARC
  5
3FE
100
AcDbEntity
  8
0
100
AcDbCircle
 62
7
  6
CONTINUOUS
 10
16.1923865069
 20
5.0106247044
 40
0.0125
100
AcDbArc
 50
0.0
 51
90.0
  0
ARC
  5
3FF
100
AcDbEntity
  8
0
100
AcDbCircle
 62
7
  6
CONTINUOUS
 10
15.9230391399
 20
5.0481247044
 40
0.00625
100
AcDbArc
 50
0.0
 51
89.999998068
  0
ARC
  5
400
100
AcDbEntity
  8
0
100
AcDbCircle
 62
7
  6
CONTINUOUS
 10
15.4398588739
 20
5.0481247044
 40
0.00625
100
AcDbArc
 50
90.0000000035
 51
179.9999968862
  0
ARC
  5
401
100
AcDbEntity
  8
0
100
AcDbCircle
 62
7
  6
CONTINUOUS
 10
14.8308327427
 20
11.1871188334
 40
1.4274845733
100
AcDbArc
 50
70.8838615168
 51
72.890288936
  0
ARC
  5
402
100
AcDbEntity
  8
0
100
AcDbCircle
 62
7
  6
CONTINUOUS
 10
14.8704789408
 20
11.3154685645
 40
1.2271722455
100
AcDbArc
 50
70.7200850652
 51
73.0540653876
  0
ARC
  5
403
100
AcDbEntity
  8
0
100
AcDbCircle
 62
7
  6
CONTINUOUS
 10
14.86938955
 20
11.3118668992
 40
1.2268345615
100
AcDbArc
 50
70.7176605117
 51
73.0558826266
  0
ARC
  5
404
100
AcDbEntity
  8
0
100
AcDbCircle
 62
7
  6
CONTINUOUS
 10
14.8713455621
 20
11.3182261949
 40
1.2263314323
100
AcDbArc
 50
70.7192848275
 51
73.0548656253
  0
ARC
  5
405
100
AcDbEntity
  8
0
100
AcDbCircle
 62
7
  6
CONTINUOUS
 10
14.8644170437
 20
11.4892881525
 40
1.1227269127
100
AcDbArc
 50
88.8245661335
 51
91.1431916475
  0
ARC
  5
406
100
AcDbEntity
  8
0
100
AcDbCircle
 62
7
  6
CONTINUOUS
 10
14.9001937843
 20
11.5786299903
 40
0.9637096602
100
AcDbArc
 50
88.7247156513
 51
91.3688377391
  0
ARC
  5
407
100
AcDbEntity
  8
0
100
AcDbCircle
 62
7
  6
CONTINUOUS
 10
14.8995936106
 20
11.5866499178
 40
0.9537344132
100
AcDbArc
 50
88.6165426343
 51
91.3834573657
  0
ARC
  5
408
100
AcDbEntity
  8
0
100
AcDbCircle
 62
7
  6
CONTINUOUS
 10
14.7512644752
 20
12.0659520272
 40
0.530545303
100
AcDbArc
 50
113.7871847719
 51
117.5025232119
  0
ARC
  5
409
100
AcDbEntity
  8
0
100
AcDbCircle
 62
7
  6
CONTINUOUS
 10
14.8029383728
 20
12.0635258295
 40
0.4600170094
100
AcDbArc
 50
113.2689816763
 51
117.5141219331
  0
ARC
  5
40A
100
AcDbEntity
  8
0
100
AcDbCircle
 62
7
  6
CONTINUOUS
 10
14.802046647
 20
12.0751458802
 40
0.453668945
100
AcDbArc
 50
113.7408155158
 51
117.9829012021
  0
ARC
  5
40B
100
AcDbEntity
  8
0
100
AcDbCircle
 62
7
  6
CONTINUOUS
 10
14.798253614
 20
12.0798359532
 40
0.4463021644
100
AcDbArc
 50
113.4240934357
 51
118.0219684424
  0
ARC
  5
40C
100
AcDbEntity
  8
0
100
AcDbCircle
 62
7
  6
CONTINUOUS
 10
14.7707115541
 20
12.086119514
 40
0.3915581265
100
AcDbArc
 50
204.2985448705
 51
206.1418144686
  0
ARC
  5
40D
100
AcDbEntity
  8
0
100
AcDbCircle
 62
7
  6
CONTINUOUS
 10
14.7010303661
 20
12.0432766046
 40
0.1857232806
100
AcDbArc
 50
164.8811166475
 51
168.7102845151
  0
ARC
  5
40E
100
AcDbEntity
  8
0
100
AcDbCircle
 62
7
  6
CONTINUOUS
 10
14.7900791826
 20
12.3141055736
 40
0.4787964996
100
AcDbArc
 50
204.066570407
 51
208.2104560422
  0
ARC
  5
40F
100
AcDbEntity
  8
0
100
AcDbCircle
 62
7
  6
CONTINUOUS
 10
14.7847193736
 20
12.3131494689
 40
0.472162447
100
AcDbArc
 50
204.29920009
 51
208.240971806
  0
ARC
  5
410
100
AcDbEntity
  8
0
100
AcDbCircle
 62
7
  6
CONTINUOUS
 10
14.7852844495
 20
12.1072838054
 40
0.4172702816
100
AcDbArc
 50
206.1485558993
 51
207.830747566
  0
ARC
  5
411
100
AcDbEntity
  8
0
100
AcDbCircle
 62
7
  6
CONTINUOUS
 10
13.9544983055
 20
12.1588135303
 40
0.2953388976
100
AcDbArc
 50
96.2246212932
 51
96.5925227581
  0
ARC
  5
412
100
AcDbEntity
  8
0
100
AcDbCircle
 62
7
  6
CONTINUOUS
 10
14.58950158
 20
12.2653351899
 40
0.2694675161
100
AcDbArc
 50
156.9122642515
 51
162.3835486506
  0
ARC
  5
413
100
AcDbEntity
  8
0
100
AcDbCircle
 62
7
  6
CONTINUOUS
 10
14.6651734683
 20
12.2372860577
 40
0.2348277694
100
AcDbArc
 50
154.9868987575
 51
155.4828896654
  0
ARC
  5
414
100
AcDbEntity
  8
0
100
AcDbCircle
 62
7
  6
CONTINUOUS
 10
14.6629291202
 20
12.2382867611
 40
0.2323705216
100
AcDbArc
 50
155.4777490336
 51
161.3155880545
  0
ARC
  5
415
100
AcDbEntity
  8
0
100
AcDbCircle
 62
7
  6
CONTINUOUS
 10
14.6629821311
 20
12.2426608211
 40
0.2311278915
100
AcDbArc
 50
156.4066692485
 51
162.8254871558
  0
ARC
  5
416
100
AcDbEntity
  8
0
100
AcDbCircle
 62
7
  6
CONTINUOUS
 10
14.6623658623
 20
12.2428600835
 40
0.2304802636
100
AcDbArc
 50
163.0082290262
 51
163.5177646586
  0
ARC
  5
417
100
AcDbEntity
  8
0
100
AcDbCircle
 62
7
  6
CONTINUOUS
 10
14.6609029371
 20
12.2390252578
 40
0.2302145477
100
AcDbArc
 50
161.3281509226
 51
161.8286913095
  0
ARC
  5
418
100
AcDbEntity
  8
0
100
AcDbCircle
 62
7
  6
CONTINUOUS
 10
14.6606529139
 20
12.2391064578
 40
0.2299516673
100
AcDbArc
 50
162.0055335022
 51
162.829406282
  0
ARC
  5
419
100
AcDbEntity
  8
0
100
AcDbCircle
 62
7
  6
CONTINUOUS
 10
14.8885580421
 20
12.4020364288
 40
0.1001949085
100
AcDbArc
 50
127.1369325067
 51
133.6800273696
  0
ARC
  5
41A
100
AcDbEntity
  8
0
100
AcDbCircle
 62
7
  6
CONTINUOUS
 10
14.8523124553
 20
12.4816586001
 40
0.0997688906
100
AcDbArc
 50
307.1312604935
 51
314.8845595905
  0
ARC
  5
41B
100
AcDbEntity
  8
0
100
AcDbCircle
 62
7
  6
CONTINUOUS
 10
14.8857242323
 20
12.4051123202
 40
0.0960133135
100
AcDbArc
 50
133.7247060756
 51
134.6468927068
  0
ARC
  5
41C
100
AcDbEntity
  8
0
100
AcDbCircle
 62
7
  6
CONTINUOUS
 10
14.8869144793
 20
12.4063377146
 40
0.0955044577
100
AcDbArc
 50
127.2154838045
 51
127.8959125735
  0
ARC
  5
41D
100
AcDbEntity
  8
0
100
AcDbCircle
 62
7
  6
CONTINUOUS
 10
14.8506288187
 20
12.4750889323
 40
0.0927179772
100
AcDbArc
 50
269.8779743189
 51
270.6110624318
  0
ARC
  5
41E
100
AcDbEntity
  8
0
100
AcDbCircle
 62
7
  6
CONTINUOUS
 10
14.8830570645
 20
12.4077739757
 40
0.092245366
100
AcDbArc
 50
134.6300480741
 51
139.8055155005
  0
ARC
  5
41F
100
AcDbEntity
  8
0
100
AcDbCircle
 62
7
  6
CONTINUOUS
 10
14.8632642848
 20
12.4744793792
 40
0.0874808758
100
AcDbArc
 50
312.725729404
 51
315.8273746543
  0
ARC
  5
420
100
AcDbEntity
  8
0
100
AcDbCircle
 62
7
  6
CONTINUOUS
 10
14.8372539876
 20
12.4257592505
 40
0.0412923798
100
AcDbArc
 50
194.8200031011
 51
206.092258417
  0
ARC
  5
421
100
AcDbEntity
  8
0
100
AcDbCircle
 62
7
  6
CONTINUOUS
 10
14.8379265598
 20
12.430077946
 40
0.0388067498
100
AcDbArc
 50
215.48510683
 51
217.8380604966
  0
ARC
  5
422
100
AcDbEntity
  8
0
100
AcDbCircle
 62
7
  6
CONTINUOUS
 10
14.837596743
 20
12.4298414153
 40
0.038400887
100
AcDbArc
 50
212.1357101957
 51
215.483401001
  0
ARC
  5
423
100
AcDbEntity
  8
0
100
AcDbCircle
 62
7
  6
CONTINUOUS
 10
14.9000553626
 20
12.4604755713
 40
0.0382804529
100
AcDbArc
 50
21.185100878
 51
30.7388248412
  0
ARC
  5
424
100
AcDbEntity
  8
0
100
AcDbCircle
 62
7
  6
CONTINUOUS
 10
15.0179294596
 20
11.5178786
 40
1.046223484
100
AcDbArc
 50
52.1963339944
 51
54.6302444764
  0
ARC
  5
425
100
AcDbEntity
  8
0
100
AcDbCircle
 62
7
  6
CONTINUOUS
 10
15.0252225479
 20
11.5920025543
 40
0.9092832284
100
AcDbArc
 50
51.9717584123
 51
54.816322698
  0
ARC
  5
426
100
AcDbEntity
  8
0
100
AcDbCircle
 62
7
  6
CONTINUOUS
 10
15.028448594
 20
11.5940065647
 40
0.9018874933
100
AcDbArc
 50
52.2833537918
 51
54.8608202032
  0
ARC
  5
427
100
AcDbEntity
  8
0
100
AcDbCircle
 62
7
  6
CONTINUOUS
 10
15.0335556694
 20
11.6043361433
 40
0.8963497982
100
AcDbArc
 50
51.9523060358
 51
54.7282037203
  0
ARC
  5
428
100
AcDbEntity
  8
0
100
AcDbCircle
 62
7
  6
CONTINUOUS
 10
15.0467683518
 20
11.6178961519
 40
0.8717825056
100
AcDbArc
 50
52.1031442237
 51
52.275279676
  0
ARC
  5
429
100
AcDbEntity
  8
0
100
AcDbCircle
 62
7
  6
CONTINUOUS
 10
15.0460432703
 20
11.5075948749
 40
0.7693085353
100
AcDbArc
 50
47.2240020115
 51
49.2305478241
  0
ARC
  5
42A
100
AcDbEntity
  8
0
100
AcDbCircle
 62
7
  6
CONTINUOUS
 10
15.4369527384
 20
11.8920806997
 40
0.4797528453
100
AcDbArc
 50
24.2544596668
 51
28.2088282881
  0
ARC
  5
42B
100
AcDbEntity
  8
0
100
AcDbCircle
 62
7
  6
CONTINUOUS
 10
15.3813569958
 20
11.916530699
 40
0.4236086323
100
AcDbArc
 50
26.9467661304
 51
28.5298852619
  0
ARC
  5
42C
100
AcDbEntity
  8
0
100
AcDbCircle
 62
7
  6
CONTINUOUS
 10
15.3844785654
 20
11.9148774065
 40
0.4187213548
100
AcDbArc
 50
26.1468187736
 51
28.8033593631
  0
ARC
  5
42D
100
AcDbEntity
  8
0
100
AcDbCircle
 62
7
  6
CONTINUOUS
 10
15.386851425
 20
11.921065391
 40
0.4180820695
100
AcDbArc
 50
25.5276787176
 51
28.2347775531
  0
ARC
  5
42E
100
AcDbEntity
  8
0
100
AcDbCircle
 62
7
  6
CONTINUOUS
 10
15.3968203994
 20
11.9243465309
 40
0.4062822826
100
AcDbArc
 50
25.3245935125
 51
26.9524329403
  0
ARC
  5
42F
100
AcDbEntity
  8
0
100
AcDbCircle
 62
7
  6
CONTINUOUS
 10
15.4049810887
 20
11.9249314454
 40
0.3958863584
100
AcDbArc
 50
24.3145415535
 51
26.1482252886
  0
ARC
  5
430
100
AcDbEntity
  8
0
100
AcDbCircle
 62
7
  6
CONTINUOUS
 10
15.40896326
 20
11.9317830063
 40
0.3935101545
100
AcDbArc
 50
23.6646561848
 51
25.5069594141
  0
ARC
  5
431
100
AcDbEntity
  8
0
100
AcDbCircle
 62
7
  6
CONTINUOUS
 10
15.4117771353
 20
11.9313807728
 40
0.3897540375
100
AcDbArc
 50
23.6568812746
 51
25.3303910777
  0
ARC
  5
432
100
AcDbEntity
  8
0
100
AcDbCircle
 62
7
  6
CONTINUOUS
 10
15.4123733633
 20
11.928294878
 40
0.3877649092
100
AcDbArc
 50
24.0627633112
 51
24.31138614
  0
ARC
  5
433
100
AcDbEntity
  8
0
100
AcDbCircle
 62
7
  6
CONTINUOUS
 10
15.6384614558
 20
11.9412583413
 40
0.269379289
100
AcDbArc
 50
336.9118503073
 51
342.8206401333
  0
ARC
  5
434
100
AcDbEntity
  8
0
100
AcDbCircle
 62
7
  6
CONTINUOUS
 10
15.5641953045
 20
11.9598637892
 40
0.2305890512
100
AcDbArc
 50
344.5095332942
 51
345.0102743584
  0
ARC
  5
435
100
AcDbEntity
  8
0
100
AcDbCircle
 62
7
  6
CONTINUOUS
 10
15.5654799521
 20
11.9637772909
 40
0.230517246
100
AcDbArc
 50
341.9585880248
 51
342.8275457396
  0
ARC
  5
436
100
AcDbEntity
  8
0
100
AcDbCircle
 62
7
  6
CONTINUOUS
 10
15.5644497194
 20
11.9597929227
 40
0.2303249501
100
AcDbArc
 50
343.8306551613
 51
344.3314173602
  0
ARC
  5
437
100
AcDbEntity
  8
0
100
AcDbCircle
 62
7
  6
CONTINUOUS
 10
15.5646458622
 20
11.9597359189
 40
0.2301206919
100
AcDbArc
 50
342.9799028119
 51
343.8306869131
  0
ARC
  5
438
100
AcDbEntity
  8
0
100
AcDbCircle
 62
7
  6
CONTINUOUS
 10
15.8975561858
 20
12.0064739816
 40
0.1986383072
100
AcDbArc
 50
174.5248550103
 51
180.8791854072
  0
ARC
  5
439
100
AcDbEntity
  8
0
100
AcDbCircle
 62
7
  6
CONTINUOUS
 10
15.5752888108
 20
12.0065092423
 40
0.1871335064
100
AcDbArc
 50
356.7312519987
 51
0.9973172185
  0
ARC
  5
43A
100
AcDbEntity
  8
0
100
AcDbCircle
 62
7
  6
CONTINUOUS
 10
15.4211745506
 20
11.8207230176
 40
0.185530378
100
AcDbArc
 50
336.9861921169
 51
338.9768855884
  0
ARC
  5
43B
100
AcDbEntity
  8
0
100
AcDbCircle
 62
7
  6
CONTINUOUS
 10
15.795010373
 20
11.9854467191
 40
0.091551614
100
AcDbArc
 50
203.4928375627
 51
204.6813317367
  0
ARC
  5
43C
100
AcDbEntity
  8
0
100
AcDbCircle
 62
7
  6
CONTINUOUS
 10
15.7871783738
 20
11.9818233922
 40
0.0829221192
100
AcDbArc
 50
204.6662002314
 51
206.1317503495
  0
ARC
  5
43D
100
AcDbEntity
  8
0
100
AcDbCircle
 62
7
  6
CONTINUOUS
 10
15.6940678859
 20
12.0355323307
 40
0.0641351302
100
AcDbArc
 50
24.49144702
 51
26.131591779
  0
ARC
  5
43E
100
AcDbEntity
  8
0
100
AcDbCircle
 62
7
  6
CONTINUOUS
 10
15.6957090153
 20
12.0408134224
 40
0.0610801299
100
AcDbArc
 50
22.5109603302
 51
26.1118141686
  0
ARC
  5
43F
100
AcDbEntity
  8
0
100
AcDbCircle
 62
7
  6
CONTINUOUS
 10
15.7695479719
 20
11.9753657296
 40
0.0593707114
100
AcDbArc
 50
206.1302542708
 51
207.5389933528
  0
ARC
  5
440
100
AcDbEntity
  8
0
100
AcDbCircle
 62
7
  6
CONTINUOUS
 10
15.6997761798
 20
12.0383575284
 40
0.0577660008
100
AcDbArc
 50
26.1094816407
 51
28.2902409642
  0
ARC
  5
441
100
AcDbEntity
  8
0
100
AcDbCircle
 62
7
  6
CONTINUOUS
 10
15.7050285403
 20
12.0412044382
 40
0.0517917358
100
AcDbArc
 50
28.2707982392
 51
30.4641847063
  0
ARC
  5
442
100
AcDbEntity
  8
0
100
AcDbCircle
 62
7
  6
CONTINUOUS
 10
15.7301031924
 20
12.069499851
 40
0.0151237496
100
AcDbArc
 50
90.0228534793
 51
92.7683065472
  0
ARC
  5
443
100
AcDbEntity
  8
0
100
AcDbCircle
 62
7
  6
CONTINUOUS
 10
15.7300938131
 20
11.9374078189
 40
0.0090337082
100
AcDbArc
 50
265.3533590343
 51
270.0212060815
  0
ARC
  5
444
100
AcDbEntity
  8
0
100
AcDbCircle
 62
7
  6
CONTINUOUS
 10
14.9685848247
 20
12.2225793594
 40
0.6327490798
100
AcDbArc
 50
221.4605701376
 51
222.4219294174
  0
ARC
  5
445
100
AcDbEntity
  8
0
100
AcDbCircle
 62
7
  6
CONTINUOUS
 10
15.3018744642
 20
12.1171469308
 40
0.630039026
100
AcDbArc
 50
283.2320347118
 51
284.1967040526
  0
ARC
  5
446
100
AcDbEntity
  8
0
100
AcDbCircle
 62
7
  6
CONTINUOUS
 10
15.4832357247
 20
12.130458508
 40
0.5169700946
100
AcDbArc
 50
295.4418571174
 51
297.4526827189
  0
ARC
  5
447
100
AcDbEntity
  8
0
100
AcDbCircle
 62
7
  6
CONTINUOUS
 10
15.4830593082
 20
12.1276019638
 40
0.5159748304
100
AcDbArc
 50
295.3907007519
 51
297.6947424762
  0
ARC
  5
448
100
AcDbEntity
  8
0
100
AcDbCircle
 62
7
  6
CONTINUOUS
 10
15.7429010641
 20
13.0112271199
 40
0.0528441395
100
AcDbArc
 50
8.2675120377
 51
12.5106683805
  0
SPLINE
  5
449
100
AcDbEntity
  8
0
100
AcDbSpline
 62
7
  6
CONTINUOUS
 70
0
 71
3
 72
15
 73
11
 74
0
 42
0.0000001
 43
0.0000001
 44
0.0000000001
 40
0.0
 40
0.0
 40
0.0
 40
0.0
 40
0.0080488285
 40
0.0237856358
 40
0.0814724047
 40
0.1735681608
 40
0.2972600906
 40
0.4478453814
 40
0.6202308108
 40
1.0
 40
1.0
 40
1.0
 40
1.0
 10
7.7612029897
 20
5.1138698968
 30
0.0
 10
7.7612198825
 20
5.1138698967
 30
0.0
 10
7.761258586
 20
5.1138248014
 30
0.0
 10
7.7613118833
 20
5.1136694787
 30
0.0
 10
7.7613794274
 20
5.1133207372
 30
0.0
 10
7.7614435502
 20
5.112754147
 30
0.0
 10
7.7615035667
 20
5.1119858031
 30
0.0
 10
7.761552823
 20
5.1110501592
 30
0.0
 10
7.7616032025
 20
5.1095758167
 30
0.0
 10
7.761617271
 20
5.1084169544
 30
0.0
 10
7.761617271
 20
5.1076198971
 30
0.0
  0
SPLINE
  5
44A
100
AcDbEntity
  8
0
100
AcDbSpline
 62
7
  6
CONTINUOUS
 70
0
 71
3
 72
13
 73
9
 74
0
 42
0.0000001
 43
0.0000001
 44
0.0000000001
 40
0.0
 40
0.0
 40
0.0
 40
0.0
 40
0.1250221259
 40
0.187594083
 40
0.2502138489
 40
0.500495126
 40
0.7504141218
 40
1.0
 40
1.0
 40
1.0
 40
1.0
 10
7.3475759895
 20
5.1076198968
 30
0.0
 10
7.3475759895
 20
5.1079839949
 30
0.0
 10
7.3471883714
 20
5.1084882074
 30
0.0
 10
7.346604943
 20
5.1089024987
 30
0.0
 10
7.3456536257
 20
5.1094538647
 30
0.0
 10
7.3441235493
 20
5.1100547331
 30
0.0
 10
7.3420353495
 20
5.1106949698
 30
0.0
 10
7.3406228657
 20
5.1110455619
 30
0.0
 10
7.3399150562
 20
5.1112108892
 30
0.0
  0
SPLINE
  5
44B
100
AcDbEntity
  8
0
100
AcDbSpline
 62
7
  6
CONTINUOUS
 70
0
 71
3
 72
13
 73
9
 74
0
 42
0.0000001
 43
0.0000001
 44
0.0000000001
 40
0.0
 40
0.0
 40
0.0
 40
0.0
 40
0.2495797141
 40
0.4994869117
 40
0.7497668702
 40
0.81237258
 40
0.8749390711
 40
1.0
 40
1.0
 40
1.0
 40
1.0
 10
4.9208194961
 20
5.1112108892
 30
0.0
 10
4.9201117103
 20
5.1110455674
 30
0.0
 10
4.9186991832
 20
5.110695462
 30
0.0
 10
4.9166111068
 20
5.110054814
 30
0.0
 10
4.9150814595
 20
5.1094535359
 30
0.0
 10
4.9141296918
 20
5.1089029939
 30
0.0
 10
4.913546779
 20
5.1084879628
 30
0.0
 10
4.9131585628
 20
5.1079841047
 30
0.0
 10
4.9131585628
 20
5.1076198968
 30
0.0
  0
SPLINE
  5
44C
100
AcDbEntity
  8
0
100
AcDbSpline
 62
7
  6
CONTINUOUS
 70
0
 71
3
 72
15
 73
11
 74
0
 42
0.0000001
 43
0.0000001
 44
0.0000000001
 40
0.0
 40
0.0
 40
0.0
 40
0.0
 40
0.3797687809
 40
0.5521539752
 40
0.7027391105
 40
0.8264309925
 40
0.9185268477
 40
0.9762139226
 40
0.9919509711
 40
1.0
 40
1.0
 40
1.0
 40
1.0
 10
4.4991172813
 20
5.1076198971
 30
0.0
 10
4.499117281
 20
5.1084169544
 30
0.0
 10
4.4991313346
 20
5.1095758166
 30
0.0
 10
4.499181697
 20
5.1110501596
 30
0.0
 10
4.4992309492
 20
5.1119858039
 30
0.0
 10
4.499290968
 20
5.1127541482
 30
0.0
 10
4.4993551012
 20
5.1133207388
 30
0.0
 10
4.4994226566
 20
5.1136694801
 30
0.0
 10
4.4994759624
 20
5.1138248019
 30
0.0
 10
4.4995146673
 20
5.1138698967
 30
0.0
 10
4.4995315606
 20
5.1138698968
 30
0.0
  0
SPLINE
  5
44D
100
AcDbEntity
  8
0
100
AcDbSpline
 62
7
  6
CONTINUOUS
 70
0
 71
3
 72
9
 73
5
 74
0
 42
0.0000001
 43
0.0000001
 44
0.0000000001
 40
0.0
 40
0.0
 40
0.0
 40
0.0
 40
0.2549277235
 40
1.0
 40
1.0
 40
1.0
 40
1.0
 10
6.8559988302
 20
12.6988680878
 30
0.0
 10
6.8562771992
 20
12.6979792679
 30
0.0
 10
6.8574401266
 20
12.6945155555
 30
0.0
 10
6.8588907855
 20
12.6911467348
 30
0.0
 10
6.8601387181
 20
12.6887274749
 30
0.0
  0
SPLINE
  5
44E
100
AcDbEntity
  8
0
100
AcDbSpline
 62
7
  6
CONTINUOUS
 70
0
 71
3
 72
23
 73
19
 74
0
 42
0.0000001
 43
0.0000001
 44
0.0000000001
 40
0.0
 40
0.0
 40
0.0
 40
0.0
 40
0.0634855871
 40
0.1266733044
 40
0.1894175291
 40
0.2517656351
 40
0.3138740599
 40
0.3758953791
 40
0.4379062551
 40
0.4999407018
 40
0.5619805226
 40
0.624007433
 40
0.6860494365
 40
0.7481824863
 40
0.8105504089
 40
0.873312267
 40
0.9365116449
 40
1.0
 40
1.0
 40
1.0
 40
1.0
 10
6.9600198326
 20
12.7211415314
 30
0.0
 10
6.9600198326
 20
12.7189347211
 30
0.0
 10
6.9596565117
 20
12.7145226512
 30
0.0
 10
6.9580243448
 20
12.7081125127
 30
0.0
 10
6.9553194141
 20
12.702113895
 30
0.0
 10
6.9515749932
 20
12.6967434314
 30
0.0
 10
6.9468635191
 20
12.6922263412
 30
0.0
 10
6.9413230825
 20
12.6887891466
 30
0.0
 10
6.93516885
 20
12.6866330215
 30
0.0
 10
6.9286870582
 20
12.6858965053
 30
0.0
 10
6.9222043395
 20
12.6866302025
 30
0.0
 10
6.9160479507
 20
12.6887846991
 30
0.0
 10
6.9105044979
 20
12.692221179
 30
0.0
 10
6.9057905409
 20
12.6967390604
 30
0.0
 10
6.9020441867
 20
12.7021108334
 30
0.0
 10
6.8993380949
 20
12.7081108428
 30
0.0
 10
6.8977055667
 20
12.7145220569
 30
0.0
 10
6.897342163
 20
12.7189346249
 30
0.0
 10
6.897342163
 20
12.7211415314
 30
0.0
  0
SPLINE
  5
44F
100
AcDbEntity
  8
0
100
AcDbSpline
 62
7
  6
CONTINUOUS
 70
0
 71
3
 72
23
 73
19
 74
0
 42
0.0000001
 43
0.0000001
 44
0.0000000001
 40
0.0
 40
0.0
 40
0.0
 40
0.0
 40
0.0634855871
 40
0.1266733044
 40
0.1894175291
 40
0.2517656351
 40
0.3138740599
 40
0.3758953791
 40
0.4379062551
 40
0.4999407018
 40
0.5619805226
 40
0.624007433
 40
0.6860494365
 40
0.7481824863
 40
0.8105504089
 40
0.873312267
 40
0.9365116449
 40
1.0
 40
1.0
 40
1.0
 40
1.0
 10
6.897342163
 20
12.7211415314
 30
0.0
 10
6.897342163
 20
12.7233483416
 30
0.0
 10
6.8977054839
 20
12.7277604115
 30
0.0
 10
6.8993376508
 20
12.73417055
 30
0.0
 10
6.9020425815
 20
12.7401691678
 30
0.0
 10
6.9057870024
 20
12.7455396314
 30
0.0
 10
6.9104984765
 20
12.7500567215
 30
0.0
 10
6.916038913
 20
12.7534939162
 30
0.0
 10
6.9221931455
 20
12.7556500413
 30
0.0
 10
6.9286749374
 20
12.7563865574
 30
0.0
 10
6.9351576561
 20
12.7556528603
 30
0.0
 10
6.9413140449
 20
12.7534983637
 30
0.0
 10
6.9468574976
 20
12.7500618838
 30
0.0
 10
6.9515714546
 20
12.7455440023
 30
0.0
 10
6.9553178089
 20
12.7401722293
 30
0.0
 10
6.9580239007
 20
12.73417222
 30
0.0
 10
6.9596564289
 20
12.7277610058
 30
0.0
 10
6.9600198326
 20
12.7233484378
 30
0.0
 10
6.9600198326
 20
12.7211415314
 30
0.0
  0
SPLINE
  5
450
100
AcDbEntity
  8
0
100
AcDbSpline
 62
7
  6
CONTINUOUS
 70
0
 71
3
 72
9
 73
5
 74
0
 42
0.0000001
 43
0.0000001
 44
0.0000000001
 40
0.0
 40
0.0
 40
0.0
 40
0.0
 40
0.2450481775
 40
1.0
 40
1.0
 40
1.0
 40
1.0
 10
6.8601387181
 20
12.7535555878
 30
0.0
 10
6.8597282757
 20
12.7527598984
 30
0.0
 10
6.8581280719
 20
12.7494745937
 30
0.0
 10
6.8568232171
 20
12.7460472056
 30
0.0
 10
6.8559988302
 20
12.7434149749
 30
0.0
  0
SPLINE
  5
451
100
AcDbEntity
  8
0
100
AcDbSpline
 62
7
  6
CONTINUOUS
 70
0
 71
3
 72
9
 73
5
 74
0
 42
0.0000001
 43
0.0000001
 44
0.0000000001
 40
0.0
 40
0.0
 40
0.0
 40
0.0
 40
0.2456639173
 40
1.0
 40
1.0
 40
1.0
 40
1.0
 10
6.8559988302
 20
12.7434149749
 30
0.0
 10
6.8554464471
 20
12.7416512399
 30
0.0
 10
6.8534891492
 20
12.7343828089
 30
0.0
 10
6.8526670188
 20
12.7268166552
 30
0.0
 10
6.8526670188
 20
12.7211415314
 30
0.0
  0
SPLINE
  5
452
100
AcDbEntity
  8
0
100
AcDbSpline
 62
7
  6
CONTINUOUS
 70
0
 71
3
 72
9
 73
5
 74
0
 42
0.0000001
 43
0.0000001
 44
0.0000000001
 40
0.0
 40
0.0
 40
0.0
 40
0.0
 40
0.2537149426
 40
1.0
 40
1.0
 40
1.0
 40
1.0
 10
6.8526670188
 20
12.7211415314
 30
0.0
 10
6.8526670188
 20
12.7192328369
 30
0.0
 10
6.8529434324
 20
12.711713518
 30
0.0
 10
6.8543208621
 20
12.704225766
 30
0.0
 10
6.8559988302
 20
12.6988680878
 30
0.0
  0
SPLINE
  5
453
100
AcDbEntity
  8
0
100
AcDbSpline
 62
7
  6
CONTINUOUS
 70
0
 71
3
 72
11
 73
7
 74
0
 42
0.0000001
 43
0.0000001
 44
0.0000000001
 40
0.0
 40
0.0
 40
0.0
 40
0.0
 40
0.2751179275
 40
0.5318907665
 40
0.7719720164
 40
1.0
 40
1.0
 40
1.0
 40
1.0
 10
6.9220223915
 20
12.7553293196
 30
0.0
 10
6.9204753054
 20
12.7580856666
 30
0.0
 10
6.9170293691
 20
12.7631807048
 30
0.0
 10
6.9106708744
 20
12.7694569229
 30
0.0
 10
6.9035131237
 20
12.7738657942
 30
0.0
 10
6.8982880837
 20
12.7754368552
 30
0.0
 10
6.8956977797
 20
12.7758290314
 30
0.0
  0
SPLINE
  5
454
100
AcDbEntity
  8
0
100
AcDbSpline
 62
7
  6
CONTINUOUS
 70
0
 71
3
 72
11
 73
7
 74
0
 42
0.0000001
 43
0.0000001
 44
0.0000000001
 40
0.0
 40
0.0
 40
0.0
 40
0.0
 40
0.2763402569
 40
0.5336934648
 40
0.7732869948
 40
1.0
 40
1.0
 40
1.0
 40
1.0
 10
6.8601387181
 20
12.6887274749
 30
0.0
 10
6.8616788187
 20
12.6857418142
 30
0.0
 10
6.865158728
 20
12.6802129034
 30
0.0
 10
6.871715336
 20
12.6733740311
 30
0.0
 10
6.8791899939
 20
12.6685663511
 30
0.0
 10
6.8846929037
 20
12.6668666159
 30
0.0
 10
6.8874180039
 20
12.6664540314
 30
0.0
  0
SPLINE
  5
455
100
AcDbEntity
  8
0
100
AcDbSpline
 62
7
  6
CONTINUOUS
 70
0
 71
3
 72
11
 73
7
 74
0
 42
0.0000001
 43
0.0000001
 44
0.0000000001
 40
0.0
 40
0.0
 40
0.0
 40
0.0
 40
0.2280932476
 40
0.4681996043
 40
0.7249448638
 40
1.0
 40
1.0
 40
1.0
 40
1.0
 10
6.8956977797
 20
12.6664540314
 30
0.0
 10
6.8982814852
 20
12.6668452086
 30
0.0
 10
6.9034929422
 20
12.6684101026
 30
0.0
 10
6.910634981
 20
12.6727998486
 30
0.0
 10
6.9169833048
 20
12.6790489705
 30
0.0
 10
6.9204271465
 20
12.6841229957
 30
0.0
 10
6.9219742874
 20
12.6868682137
 30
0.0
  0
SPLINE
  5
456
100
AcDbEntity
  8
0
100
AcDbSpline
 62
7
  6
CONTINUOUS
 70
0
 71
3
 72
11
 73
7
 74
0
 42
0.0000001
 43
0.0000001
 44
0.0000000001
 40
0.0
 40
0.0
 40
0.0
 40
0.0
 40
0.2267130052
 40
0.4663065352
 40
0.7236597431
 40
1.0
 40
1.0
 40
1.0
 40
1.0
 10
6.8874180039
 20
12.7758290314
 30
0.0
 10
6.8846929037
 20
12.7754164468
 30
0.0
 10
6.8791899939
 20
12.7737167117
 30
0.0
 10
6.871715336
 20
12.7689090316
 30
0.0
 10
6.865158728
 20
12.7620701593
 30
0.0
 10
6.8616788187
 20
12.7565412485
 30
0.0
 10
6.8601387181
 20
12.7535555878
 30
0.0
  0
SPLINE
  5
457
100
AcDbEntity
  8
0
100
AcDbSpline
 62
7
  6
CONTINUOUS
 70
0
 71
3
 72
23
 73
19
 74
0
 42
0.0000001
 43
0.0000001
 44
0.0000000001
 40
0.0
 40
0.0
 40
0.0
 40
0.0
 40
0.0634855871
 40
0.1266733044
 40
0.1894175291
 40
0.2517656351
 40
0.3138740599
 40
0.3758953791
 40
0.4379062551
 40
0.4999407018
 40
0.5619805226
 40
0.624007433
 40
0.6860494365
 40
0.7481824863
 40
0.8105504089
 40
0.873312267
 40
0.9365116449
 40
1.0
 40
1.0
 40
1.0
 40
1.0
 10
15.6814490069
 20
6.2870947836
 30
0.0
 10
15.6792421967
 20
6.2870947836
 30
0.0
 10
15.6748301268
 20
6.2874581045
 30
0.0
 10
15.6684199883
 20
6.2890902713
 30
0.0
 10
15.6624213705
 20
6.2917952021
 30
0.0
 10
15.6570509069
 20
6.295539623
 30
0.0
 10
15.6525338168
 20
6.3002510971
 30
0.0
 10
15.6490966221
 20
6.3057915336
 30
0.0
 10
15.646940497
 20
6.3119457661
 30
0.0
 10
15.6462039809
 20
6.318427558
 30
0.0
 10
15.646937678
 20
6.3249102767
 30
0.0
 10
15.6490921746
 20
6.3310666655
 30
0.0
 10
15.6525286545
 20
6.3366101182
 30
0.0
 10
15.657046536
 20
6.3413240752
 30
0.0
 10
15.662418309
 20
6.3450704295
 30
0.0
 10
15.6684183183
 20
6.3477765212
 30
0.0
 10
15.6748295325
 20
6.3494090495
 30
0.0
 10
15.6792421005
 20
6.3497724531
 30
0.0
 10
15.6814490069
 20
6.3497724531
 30
0.0
  0
SPLINE
  5
458
100
AcDbEntity
  8
0
100
AcDbSpline
 62
7
  6
CONTINUOUS
 70
0
 71
3
 72
23
 73
19
 74
0
 42
0.0000001
 43
0.0000001
 44
0.0000000001
 40
0.0
 40
0.0
 40
0.0
 40
0.0
 40
0.0634855871
 40
0.1266733044
 40
0.1894175291
 40
0.2517656351
 40
0.3138740599
 40
0.3758953791
 40
0.4379062551
 40
0.4999407018
 40
0.5619805226
 40
0.624007433
 40
0.6860494365
 40
0.7481824863
 40
0.8105504089
 40
0.873312267
 40
0.9365116449
 40
1.0
 40
1.0
 40
1.0
 40
1.0
 10
15.6814490069
 20
6.3497724531
 30
0.0
 10
15.6836558172
 20
6.3497724531
 30
0.0
 10
15.6880678871
 20
6.3494091322
 30
0.0
 10
15.6944780256
 20
6.3477769654
 30
0.0
 10
15.7004766433
 20
6.3450720347
 30
0.0
 10
15.7058471069
 20
6.3413276137
 30
0.0
 10
15.7103641971
 20
6.3366161397
 30
0.0
 10
15.7138013917
 20
6.3310757031
 30
0.0
 10
15.7159575168
 20
6.3249214706
 30
0.0
 10
15.716694033
 20
6.3184396788
 30
0.0
 10
15.7159603358
 20
6.3119569601
 30
0.0
 10
15.7138058392
 20
6.3058005713
 30
0.0
 10
15.7103693593
 20
6.3002571185
 30
0.0
 10
15.7058514779
 20
6.2955431615
 30
0.0
 10
15.7004797049
 20
6.2917968073
 30
0.0
 10
15.6944796955
 20
6.2890907155
 30
0.0
 10
15.6880684814
 20
6.2874581872
 30
0.0
 10
15.6836559134
 20
6.2870947836
 30
0.0
 10
15.6814490069
 20
6.2870947836
 30
0.0
  0
SPLINE
  5
459
100
AcDbEntity
  8
0
100
AcDbSpline
 62
7
  6
CONTINUOUS
 70
0
 71
3
 72
9
 73
5
 74
0
 42
0.0000001
 43
0.0000001
 44
0.0000000001
 40
0.0
 40
0.0
 40
0.0
 40
0.0
 40
0.2450481775
 40
1.0
 40
1.0
 40
1.0
 40
1.0
 10
15.6490349505
 20
6.2498913387
 30
0.0
 10
15.6498306399
 20
6.2494808963
 30
0.0
 10
15.6531159446
 20
6.2478806925
 30
0.0
 10
15.6565433327
 20
6.2465758376
 30
0.0
 10
15.6591755634
 20
6.2457514508
 30
0.0
  0
SPLINE
  5
45A
100
AcDbEntity
  8
0
100
AcDbSpline
 62
7
  6
CONTINUOUS
 70
0
 71
3
 72
9
 73
5
 74
0
 42
0.0000001
 43
0.0000001
 44
0.0000000001
 40
0.0
 40
0.0
 40
0.0
 40
0.0
 40
0.2549277235
 40
1.0
 40
1.0
 40
1.0
 40
1.0
 10
15.7037224505
 20
6.2457514508
 30
0.0
 10
15.7046112704
 20
6.2460298198
 30
0.0
 10
15.7080749829
 20
6.2471927472
 30
0.0
 10
15.7114438035
 20
6.2486434061
 30
0.0
 10
15.7138630634
 20
6.2498913387
 30
0.0
  0
SPLINE
  5
45B
100
AcDbEntity
  8
0
100
AcDbSpline
 62
7
  6
CONTINUOUS
 70
0
 71
3
 72
11
 73
7
 74
0
 42
0.0000001
 43
0.0000001
 44
0.0000000001
 40
0.0
 40
0.0
 40
0.0
 40
0.0
 40
0.2763402569
 40
0.5336934648
 40
0.7732869948
 40
1.0
 40
1.0
 40
1.0
 40
1.0
 10
15.7138630634
 20
6.2498913387
 30
0.0
 10
15.7168487241
 20
6.2514314393
 30
0.0
 10
15.7223776349
 20
6.2549113486
 30
0.0
 10
15.7292165072
 20
6.2614679565
 30
0.0
 10
15.7340241872
 20
6.2689426145
 30
0.0
 10
15.7357239224
 20
6.2744455243
 30
0.0
 10
15.7361365069
 20
6.2771706245
 30
0.0
  0
SPLINE
  5
45C
100
AcDbEntity
  8
0
100
AcDbSpline
 62
7
  6
CONTINUOUS
 70
0
 71
3
 72
11
 73
7
 74
0
 42
0.0000001
 43
0.0000001
 44
0.0000000001
 40
0.0
 40
0.0
 40
0.0
 40
0.0
 40
0.2751179275
 40
0.5318907665
 40
0.7719720164
 40
1.0
 40
1.0
 40
1.0
 40
1.0
 10
15.6472612187
 20
6.3117750121
 30
0.0
 10
15.6445048717
 20
6.310227926
 30
0.0
 10
15.6394098335
 20
6.3067819897
 30
0.0
 10
15.6331336154
 20
6.300423495
 30
0.0
 10
15.6287247441
 20
6.2932657442
 30
0.0
 10
15.6271536831
 20
6.2880407043
 30
0.0
 10
15.6267615069
 20
6.2854504003
 30
0.0
  0
SPLINE
  5
45D
100
AcDbEntity
  8
0
100
AcDbSpline
 62
7
  6
CONTINUOUS
 70
0
 71
3
 72
11
 73
7
 74
0
 42
0.0000001
 43
0.0000001
 44
0.0000000001
 40
0.0
 40
0.0
 40
0.0
 40
0.0
 40
0.2280932476
 40
0.4681996043
 40
0.7249448638
 40
1.0
 40
1.0
 40
1.0
 40
1.0
 10
15.7361365069
 20
6.2854504003
 30
0.0
 10
15.7357453297
 20
6.2880341058
 30
0.0
 10
15.7341804357
 20
6.2932455628
 30
0.0
 10
15.7297906897
 20
6.3003876016
 30
0.0
 10
15.7235415679
 20
6.3067359254
 30
0.0
 10
15.7184675426
 20
6.3101797671
 30
0.0
 10
15.7157223246
 20
6.311726908
 30
0.0
  0
SPLINE
  5
45E
100
AcDbEntity
  8
0
100
AcDbSpline
 62
7
  6
CONTINUOUS
 70
0
 71
3
 72
11
 73
7
 74
0
 42
0.0000001
 43
0.0000001
 44
0.0000000001
 40
0.0
 40
0.0
 40
0.0
 40
0.0
 40
0.2267130052
 40
0.4663065352
 40
0.7236597431
 40
1.0
 40
1.0
 40
1.0
 40
1.0
 10
15.6267615069
 20
6.2771706245
 30
0.0
 10
15.6271740915
 20
6.2744455243
 30
0.0
 10
15.6288738266
 20
6.2689426145
 30
0.0
 10
15.6336815067
 20
6.2614679565
 30
0.0
 10
15.640520379
 20
6.2549113486
 30
0.0
 10
15.6460492898
 20
6.2514314393
 30
0.0
 10
15.6490349505
 20
6.2498913387
 30
0.0
  0
SPLINE
  5
45F
100
AcDbEntity
  8
0
100
AcDbSpline
 62
7
  6
CONTINUOUS
 70
0
 71
3
 72
9
 73
5
 74
0
 42
0.0000001
 43
0.0000001
 44
0.0000000001
 40
0.0
 40
0.0
 40
0.0
 40
0.0
 40
0.2456639173
 40
1.0
 40
1.0
 40
1.0
 40
1.0
 10
15.6591755634
 20
6.2457514508
 30
0.0
 10
15.6609392984
 20
6.2451990677
 30
0.0
 10
15.6682077294
 20
6.2432417698
 30
0.0
 10
15.6757738831
 20
6.2424196394
 30
0.0
 10
15.6814490069
 20
6.2424196394
 30
0.0
  0
SPLINE
  5
460
100
AcDbEntity
  8
0
100
AcDbSpline
 62
7
  6
CONTINUOUS
 70
0
 71
3
 72
9
 73
5
 74
0
 42
0.0000001
 43
0.0000001
 44
0.0000000001
 40
0.0
 40
0.0
 40
0.0
 40
0.0
 40
0.2537149426
 40
1.0
 40
1.0
 40
1.0
 40
1.0
 10
15.6814490069
 20
6.2424196394
 30
0.0
 10
15.6833577014
 20
6.2424196394
 30
0.0
 10
15.6908770203
 20
6.242696053
 30
0.0
 10
15.6983647723
 20
6.2440734827
 30
0.0
 10
15.7037224505
 20
6.2457514508
 30
0.0
  0
LINE
  5
461
100
AcDbEntity
  8
0
100
AcDbLine
 62
7
  6
CONTINUOUS
 10
15.1093642276
 20
6.1634036337
 11
15.108256606
 21
6.1632862881
  0
SPLINE
  5
462
100
AcDbEntity
  8
0
100
AcDbSpline
 62
7
  6
CONTINUOUS
 70
0
 71
3
 72
19
 73
15
 74
0
 42
0.0000001
 43
0.0000001
 44
0.0000000001
 40
0.0
 40
0.0
 40
0.0
 40
0.0
 40
0.1238204074
 40
0.2478024437
 40
0.310263103
 40
0.3731267167
 40
0.4364187863
 40
0.4999987136
 40
0.5635787736
 40
0.6268702897
 40
0.6897339084
 40
0.7521948693
 40
0.8761781426
 40
1.0
 40
1.0
 40
1.0
 40
1.0
 10
15.5698398425
 20
5.7356199399
 30
0.0
 10
15.5755646509
 20
5.7462793944
 30
0.0
 10
15.5884324689
 20
5.7669025366
 30
0.0
 10
15.6090286808
 20
5.7895158451
 30
0.0
 10
15.6286385973
 20
5.8041000533
 30
0.0
 10
15.6450165222
 20
5.8127409178
 30
0.0
 10
15.6628061634
 20
5.8183542496
 30
0.0
 10
15.6814486386
 20
5.8203141161
 30
0.0
 10
15.700091081
 20
5.8183544268
 30
0.0
 10
15.7178807245
 20
5.8127412385
 30
0.0
 10
15.7342586924
 20
5.8041005049
 30
0.0
 10
15.7538688192
 20
5.7895163262
 30
0.0
 10
15.7744653598
 20
5.7669029045
 30
0.0
 10
15.7873332959
 20
5.7462795193
 30
0.0
 10
15.7930581714
 20
5.7356199399
 30
0.0
  0
SPLINE
  5
463
100
AcDbEntity
  8
0
100
AcDbSpline
 62
7
  6
CONTINUOUS
 70
0
 71
3
 72
9
 73
5
 74
0
 42
0.0000001
 43
0.0000001
 44
0.0000000001
 40
0.0
 40
0.0
 40
0.0
 40
0.0
 40
0.245773414
 40
1.0
 40
1.0
 40
1.0
 40
1.0
 10
15.6972145848
 20
13.0281388068
 30
0.0
 10
15.6973422296
 20
13.0272592723
 30
0.0
 10
15.6979538002
 20
13.0236943944
 30
0.0
 10
15.6989265118
 20
13.0201933349
 30
0.0
 10
15.6998358123
 20
13.0176219962
 30
0.0
  0
SPLINE
  5
464
100
AcDbEntity
  8
0
100
AcDbSpline
 62
7
  6
CONTINUOUS
 70
0
 71
3
 72
21
 73
17
 74
0
 42
0.0000001
 43
0.0000001
 44
0.0000000001
 40
0.0
 40
0.0
 40
0.0
 40
0.0
 40
0.0621128572
 40
0.1241948536
 40
0.1862729624
 40
0.2483656035
 40
0.310518461
 40
0.3727934455
 40
0.4352761813
 40
0.4980473743
 40
0.6239197419
 40
0.7499591122
 40
0.8128663136
 40
0.8754662524
 40
0.9378094002
 40
1.0
 40
1.0
 40
1.0
 40
1.0
 10
15.8014081354
 20
13.0344210465
 30
0.0
 10
15.8007626369
 20
13.0323322128
 30
0.0
 10
15.7990257804
 20
13.0282779926
 30
0.0
 10
15.7951853127
 20
13.0229030508
 30
0.0
 10
15.7902740429
 20
13.018481519
 30
0.0
 10
15.7845258861
 20
13.0152196603
 30
0.0
 10
15.7782130481
 20
13.0132466253
 30
0.0
 10
15.771619462
 20
13.0126111136
 30
0.0
 10
15.7650109666
 20
13.0132951584
 30
0.0
 10
15.756505804
 20
13.015861321
 30
0.0
 10
15.7469450044
 20
13.0219303524
 30
0.0
 10
15.7400256334
 20
13.0308939667
 30
0.0
 10
15.7366445039
 20
13.0391228889
 30
0.0
 10
15.7352982417
 20
13.0456392541
 30
0.0
 10
15.7352386076
 20
13.0522669769
 30
0.0
 10
15.7360932498
 20
13.0566043456
 30
0.0
 10
15.7367395562
 20
13.0586957938
 30
0.0
  0
SPLINE
  5
465
100
AcDbEntity
  8
0
100
AcDbSpline
 62
7
  6
CONTINUOUS
 70
0
 71
3
 72
9
 73
5
 74
0
 42
0.0000001
 43
0.0000001
 44
0.0000000001
 40
0.0
 40
0.0
 40
0.0
 40
0.0
 40
0.2528483002
 40
1.0
 40
1.0
 40
1.0
 40
1.0
 10
15.7278913719
 20
12.9832175326
 30
0.0
 10
15.7287064418
 20
12.9827103079
 30
0.0
 10
15.7319726381
 20
12.9807738595
 30
0.0
 10
15.7354078567
 20
12.979120533
 30
0.0
 10
15.7380432287
 20
12.9780707415
 30
0.0
  0
SPLINE
  5
466
100
AcDbEntity
  8
0
100
AcDbSpline
 62
7
  6
CONTINUOUS
 70
0
 71
3
 72
9
 73
5
 74
0
 42
0.0000001
 43
0.0000001
 44
0.0000000001
 40
0.0
 40
0.0
 40
0.0
 40
0.0
 40
0.2521050434
 40
1.0
 40
1.0
 40
1.0
 40
1.0
 10
15.7768820896
 20
12.9785610532
 30
0.0
 10
15.7775702748
 20
12.9789251457
 30
0.0
 10
15.7802523049
 20
12.9804576617
 30
0.0
 10
15.7827300042
 20
12.9823489429
 30
0.0
 10
15.7844127189
 20
12.9839310726
 30
0.0
  0
SPLINE
  5
467
100
AcDbEntity
  8
0
100
AcDbSpline
 62
7
  6
CONTINUOUS
 70
0
 71
3
 72
21
 73
17
 74
0
 42
0.0000001
 43
0.0000001
 44
0.0000000001
 40
0.0
 40
0.0
 40
0.0
 40
0.0
 40
0.0621128572
 40
0.1241948536
 40
0.1862729624
 40
0.2483656035
 40
0.310518461
 40
0.3727934455
 40
0.4352761813
 40
0.4980473743
 40
0.6239197419
 40
0.7499591122
 40
0.8128663136
 40
0.8754662524
 40
0.9378094002
 40
1.0
 40
1.0
 40
1.0
 40
1.0
 10
15.7367395562
 20
13.0586957938
 30
0.0
 10
15.7373850546
 20
13.0607846276
 30
0.0
 10
15.7391219112
 20
13.0648388477
 30
0.0
 10
15.7429623789
 20
13.0702137896
 30
0.0
 10
15.7478736486
 20
13.0746353213
 30
0.0
 10
15.7536218054
 20
13.0778971801
 30
0.0
 10
15.7599346434
 20
13.0798702151
 30
0.0
 10
15.7665282295
 20
13.0805057268
 30
0.0
 10
15.7731367249
 20
13.079821682
 30
0.0
 10
15.7816418875
 20
13.0772555193
 30
0.0
 10
15.7912026872
 20
13.071186488
 30
0.0
 10
15.7981220582
 20
13.0622228736
 30
0.0
 10
15.8015031877
 20
13.0539939514
 30
0.0
 10
15.8028494499
 20
13.0474775862
 30
0.0
 10
15.802909084
 20
13.0408498635
 30
0.0
 10
15.8020544417
 20
13.0365124947
 30
0.0
 10
15.8014081354
 20
13.0344210465
 30
0.0
  0
SPLINE
  5
468
100
AcDbEntity
  8
0
100
AcDbSpline
 62
7
  6
CONTINUOUS
 70
0
 71
3
 72
9
 73
5
 74
0
 42
0.0000001
 43
0.0000001
 44
0.0000000001
 40
0.0
 40
0.0
 40
0.0
 40
0.0
 40
0.2521050434
 40
1.0
 40
1.0
 40
1.0
 40
1.0
 10
15.7155285152
 20
13.0684036016
 30
0.0
 10
15.71484033
 20
13.0680395091
 30
0.0
 10
15.7121582999
 20
13.0665069932
 30
0.0
 10
15.7096806006
 20
13.0646157119
 30
0.0
 10
15.7079978859
 20
13.0630335822
 30
0.0
  0
SPLINE
  5
469
100
AcDbEntity
  8
0
100
AcDbSpline
 62
7
  6
CONTINUOUS
 70
0
 71
3
 72
9
 73
5
 74
0
 42
0.0000001
 43
0.0000001
 44
0.0000000001
 40
0.0
 40
0.0
 40
0.0
 40
0.0
 40
0.4944671808
 40
1.0
 40
1.0
 40
1.0
 40
1.0
 10
15.7844127189
 20
12.9839310726
 30
0.0
 10
15.7866000421
 20
12.9859876477
 30
0.0
 10
15.7904822545
 20
12.9907617703
 30
0.0
 10
15.7929832507
 20
12.9963747072
 30
0.0
 10
15.793889513
 20
12.9993073731
 30
0.0
  0
SPLINE
  5
46A
100
AcDbEntity
  8
0
100
AcDbSpline
 62
7
  6
CONTINUOUS
 70
0
 71
3
 72
9
 73
5
 74
0
 42
0.0000001
 43
0.0000001
 44
0.0000000001
 40
0.0
 40
0.0
 40
0.0
 40
0.0
 40
0.4875339393
 40
1.0
 40
1.0
 40
1.0
 40
1.0
 10
15.793889513
 20
12.9993073731
 30
0.0
 10
15.7948339257
 20
13.0023634937
 30
0.0
 10
15.795990238
 20
13.0088916299
 30
0.0
 10
15.7956789234
 20
13.01549841
 30
0.0
 10
15.79519602
 20
13.018825848
 30
0.0
  0
SPLINE
  5
46B
100
AcDbEntity
  8
0
100
AcDbSpline
 62
7
  6
CONTINUOUS
 70
0
 71
3
 72
11
 73
7
 74
0
 42
0.0000001
 43
0.0000001
 44
0.0000000001
 40
0.0
 40
0.0
 40
0.0
 40
0.0
 40
0.2642523521
 40
0.5183853275
 40
0.7631638633
 40
1.0
 40
1.0
 40
1.0
 40
1.0
 10
15.7449089069
 20
13.0717691045
 30
0.0
 10
15.7423115043
 20
13.0723172291
 30
0.0
 10
15.7371272373
 20
13.073020405
 30
0.0
 10
15.7294283815
 20
13.0728233776
 30
0.0
 10
15.7221459232
 20
13.0713529627
 30
0.0
 10
15.7176315203
 20
13.0695162212
 30
0.0
 10
15.7155285152
 20
13.0684036016
 30
0.0
  0
SPLINE
  5
46C
100
AcDbEntity
  8
0
100
AcDbSpline
 62
7
  6
CONTINUOUS
 70
0
 71
3
 72
9
 73
5
 74
0
 42
0.0000001
 43
0.0000001
 44
0.0000000001
 40
0.0
 40
0.0
 40
0.0
 40
0.0
 40
0.4947319475
 40
1.0
 40
1.0
 40
1.0
 40
1.0
 10
15.6998358123
 20
13.0176219962
 30
0.0
 10
15.7023105329
 20
13.0106239302
 30
0.0
 10
15.7099852986
 20
12.9973476416
 30
0.0
 10
15.7214550702
 20
12.9872228969
 30
0.0
 10
15.7278913719
 20
12.9832175326
 30
0.0
  0
SPLINE
  5
46D
100
AcDbEntity
  8
0
100
AcDbSpline
 62
7
  6
CONTINUOUS
 70
0
 71
3
 72
11
 73
7
 74
0
 42
0.0000001
 43
0.0000001
 44
0.0000000001
 40
0.0
 40
0.0
 40
0.0
 40
0.0
 40
0.268126188
 40
0.5240292746
 40
0.7673514679
 40
1.0
 40
1.0
 40
1.0
 40
1.0
 10
15.7380432287
 20
12.9780707415
 30
0.0
 10
15.7413640167
 20
12.9767479168
 30
0.0
 10
15.7480998925
 20
12.974724883
 30
0.0
 10
15.7583507504
 20
12.9737231695
 30
0.0
 10
15.768119937
 20
12.9748724813
 30
0.0
 10
15.7741405477
 20
12.9771106082
 30
0.0
 10
15.7768820896
 20
12.9785610532
 30
0.0
  0
SPLINE
  5
46E
100
AcDbEntity
  8
0
100
AcDbSpline
 62
7
  6
CONTINUOUS
 70
0
 71
3
 72
9
 73
5
 74
0
 42
0.0000001
 43
0.0000001
 44
0.0000000001
 40
0.0
 40
0.0
 40
0.0
 40
0.0
 40
0.4944671808
 40
1.0
 40
1.0
 40
1.0
 40
1.0
 10
15.7079978859
 20
13.0630335822
 30
0.0
 10
15.7058105627
 20
13.0609770071
 30
0.0
 10
15.7019283503
 20
13.0562028845
 30
0.0
 10
15.6994273541
 20
13.0505899476
 30
0.0
 10
15.6985210918
 20
13.0476572817
 30
0.0
  0
SPLINE
  5
46F
100
AcDbEntity
  8
0
100
AcDbSpline
 62
7
  6
CONTINUOUS
 70
0
 71
3
 72
9
 73
5
 74
0
 42
0.0000001
 43
0.0000001
 44
0.0000000001
 40
0.0
 40
0.0
 40
0.0
 40
0.0
 40
0.4875339393
 40
1.0
 40
1.0
 40
1.0
 40
1.0
 10
15.6985210918
 20
13.0476572817
 30
0.0
 10
15.6975766791
 20
13.0446011611
 30
0.0
 10
15.6964203668
 20
13.0380730249
 30
0.0
 10
15.6967316814
 20
13.0314662448
 30
0.0
 10
15.6972145848
 20
13.0281388068
 30
0.0
  0
SPLINE
  5
470
100
AcDbEntity
  8
0
100
AcDbSpline
 62
7
  6
CONTINUOUS
 70
0
 71
3
 72
11
 73
7
 74
0
 42
0.0000001
 43
0.0000001
 44
0.0000000001
 40
0.0
 40
0.0
 40
0.0
 40
0.0
 40
0.2336985128
 40
0.4744525156
 40
0.7284652344
 40
1.0
 40
1.0
 40
1.0
 40
1.0
 10
15.538698428
 20
11.7843368887
 30
0.0
 10
15.5421947502
 20
11.795654912
 30
0.0
 10
15.5467881096
 20
11.8194856893
 30
0.0
 10
15.5459797884
 20
11.8566461035
 30
0.0
 10
15.5376409247
 20
11.8947984247
 30
0.0
 10
15.5275825013
 20
11.9196043823
 30
0.0
 10
15.5215190448
 20
11.9319604077
 30
0.0
  0
SPLINE
  5
471
100
AcDbEntity
  8
0
100
AcDbSpline
 62
7
  6
CONTINUOUS
 70
0
 71
3
 72
11
 73
7
 74
0
 42
0.0000001
 43
0.0000001
 44
0.0000000001
 40
0.0
 40
0.0
 40
0.0
 40
0.0
 40
0.2153875582
 40
0.4591456529
 40
0.7236047217
 40
1.0
 40
1.0
 40
1.0
 40
1.0
 10
15.7524323401
 20
12.0621200236
 30
0.0
 10
15.7540292383
 20
12.0586178143
 30
0.0
 10
15.7568235823
 20
12.0508716478
 30
0.0
 10
15.7598104261
 20
12.0382703592
 30
0.0
 10
15.7617594621
 20
12.0243668909
 30
0.0
 10
15.7623078616
 20
12.0147050012
 30
0.0
 10
15.7623939686
 20
12.0097664114
 30
0.0
  0
SPLINE
  5
472
100
AcDbEntity
  8
0
100
AcDbSpline
 62
7
  6
CONTINUOUS
 70
0
 71
3
 72
13
 73
9
 74
0
 42
0.0000001
 43
0.0000001
 44
0.0000000001
 40
0.0
 40
0.0
 40
0.0
 40
0.0
 40
0.2975535988
 40
0.5708801794
 40
0.694500674
 40
0.8076804426
 40
0.9096213088
 40
1.0
 40
1.0
 40
1.0
 40
1.0
 10
15.7621178634
 20
11.9958389885
 30
0.0
 10
15.7617846686
 20
11.9900273729
 30
0.0
 10
15.7606170159
 20
11.9789000443
 30
0.0
 10
15.7577650337
 20
11.9655785769
 30
0.0
 10
15.754670972
 20
11.9560817216
 30
0.0
 10
15.7521160159
 20
11.9499574034
 30
0.0
 10
15.7492895352
 20
11.9446802357
 30
0.0
 10
15.7471190154
 20
11.9415889572
 30
0.0
 10
15.7459857605
 20
11.9402317684
 30
0.0
  0
SPLINE
  5
473
100
AcDbEntity
  8
0
100
AcDbSpline
 62
7
  6
CONTINUOUS
 70
0
 71
3
 72
13
 73
9
 74
0
 42
0.0000001
 43
0.0000001
 44
0.0000000001
 40
0.0
 40
0.0
 40
0.0
 40
0.0
 40
0.0885199143
 40
0.1831650722
 40
0.2872095655
 40
0.4029261041
 40
0.6739391933
 40
1.0
 40
1.0
 40
1.0
 40
1.0
 10
15.7293619896
 20
11.9284038021
 30
0.0
 10
15.7286377408
 20
11.9284626232
 30
0.0
 10
15.7271496815
 20
11.9287676624
 30
0.0
 10
15.7249816354
 20
11.9297297544
 30
0.0
 10
15.7228371954
 20
11.9311861519
 30
0.0
 10
15.7198583657
 20
11.9339145344
 30
0.0
 10
15.7162876003
 20
11.9385996861
 30
0.0
 10
15.7139113794
 20
11.9428986335
 30
0.0
 10
15.7127322512
 20
11.9453014441
 30
0.0
  0
SPLINE
  5
474
100
AcDbEntity
  8
0
100
AcDbSpline
 62
7
  6
CONTINUOUS
 70
0
 71
3
 72
21
 73
17
 74
0
 42
0.0000001
 43
0.0000001
 44
0.0000000001
 40
0.0
 40
0.0
 40
0.0
 40
0.0
 40
0.0555805454
 40
0.1137580904
 40
0.1742881293
 40
0.2368642708
 40
0.3011338246
 40
0.3667042256
 40
0.5000009992
 40
0.6332981599
 40
0.6988692484
 40
0.7631392222
 40
0.8257145332
 40
0.8862443303
 40
0.9444225928
 40
1.0
 40
1.0
 40
1.0
 40
1.0
 10
15.4460873562
 20
11.5038347622
 30
0.0
 10
15.4275451302
 20
11.4994735861
 30
0.0
 10
15.3891823899
 20
11.4922346232
 30
0.0
 10
15.3297460151
 20
11.4858018855
 30
0.0
 10
15.2676055049
 20
11.4835955394
 30
0.0
 10
15.2033768419
 20
11.485630629
 30
0.0
 10
15.1376875324
 20
11.4918925801
 30
0.0
 10
15.04854995
 20
11.5058650753
 30
0.0
 10
14.9378074053
 20
11.533351406
 30
0.0
 10
14.8308648205
 20
11.5731351389
 30
0.0
 10
14.7493843852
 20
11.6118878392
 30
0.0
 10
14.6916147894
 20
11.6437780099
 30
0.0
 10
14.6374357821
 20
11.6783333009
 30
0.0
 10
14.587374065
 20
11.7152131796
 30
0.0
 10
14.5419306475
 20
11.75405702
 30
0.0
 10
14.5143398418
 20
11.7816755395
 30
0.0
 10
14.5014912234
 20
11.7957363373
 30
0.0
  0
SPLINE
  5
475
100
AcDbEntity
  8
0
100
AcDbSpline
 62
7
  6
CONTINUOUS
 70
0
 71
3
 72
9
 73
5
 74
0
 42
0.0000001
 43
0.0000001
 44
0.0000000001
 40
0.0
 40
0.0
 40
0.0
 40
0.0
 40
0.5178264036
 40
1.0
 40
1.0
 40
1.0
 40
1.0
 10
14.4944930161
 20
11.8033946103
 30
0.0
 10
14.4788329095
 20
11.8205321778
 30
0.0
 10
14.450316455
 20
11.8552679282
 30
0.0
 10
14.426370441
 20
11.8933596614
 30
0.0
 10
14.4162795864
 20
11.9124764676
 30
0.0
  0
SPLINE
  5
476
100
AcDbEntity
  8
0
100
AcDbSpline
 62
7
  6
CONTINUOUS
 70
0
 71
3
 72
15
 73
11
 74
0
 42
0.0000001
 43
0.0000001
 44
0.0000000001
 40
0.0
 40
0.0
 40
0.0
 40
0.0
 40
0.1080517152
 40
0.2181258338
 40
0.3320700142
 40
0.4514123717
 40
0.5773001755
 40
0.710491052
 40
0.8513677111
 40
1.0
 40
1.0
 40
1.0
 40
1.0
 10
15.7301212197
 20
11.7157969642
 30
0.0
 10
15.7262853655
 20
11.7033831308
 30
0.0
 10
15.716384258
 20
11.6789356963
 30
0.0
 10
15.695370708
 20
11.6447845644
 30
0.0
 10
15.6683759929
 20
11.6133316658
 30
0.0
 10
15.6357080871
 20
11.5848727151
 30
0.0
 10
15.5977015706
 20
11.5596402669
 30
0.0
 10
15.5547190354
 20
11.5378475877
 30
0.0
 10
15.5071694304
 20
11.5196646152
 30
0.0
 10
15.4735843105
 20
11.5103014039
 30
0.0
 10
15.4561863899
 20
11.50620934
 30
0.0
  0
SPLINE
  5
477
100
AcDbEntity
  8
0
100
AcDbSpline
 62
7
  6
CONTINUOUS
 70
0
 71
3
 72
11
 73
7
 74
0
 42
0.0000001
 43
0.0000001
 44
0.0000000001
 40
0.0
 40
0.0
 40
0.0
 40
0.0
 40
0.2351713352
 40
0.4771289546
 40
0.730850662
 40
1.0
 40
1.0
 40
1.0
 40
1.0
 10
15.7869379227
 20
11.9002228927
 30
0.0
 10
15.790806683
 20
11.9146716277
 30
0.0
 10
15.7957936454
 20
11.9448300185
 30
0.0
 10
15.7946331432
 20
11.991545213
 30
0.0
 10
15.7849967166
 20
12.0394474977
 30
0.0
 10
15.7734212052
 20
12.0707698141
 30
0.0
 10
15.7664412536
 20
12.0864010256
 30
0.0
  0
SPLINE
  5
478
100
AcDbEntity
  8
0
100
AcDbSpline
 62
7
  6
CONTINUOUS
 70
0
 71
3
 72
27
 73
23
 74
0
 42
0.0000001
 43
0.0000001
 44
0.0000000001
 40
0.0
 40
0.0
 40
0.0
 40
0.0
 40
0.0543357764
 40
0.083510493
 40
0.1139767027
 40
0.1785403088
 40
0.247356014
 40
0.3194073959
 40
0.393479617
 40
0.4682416082
 40
0.542324568
 40
0.6143969977
 40
0.6832423176
 40
0.747843659
 40
0.8074827639
 40
0.8618611601
 40
0.8871689214
 40
0.9113196593
 40
0.9344607146
 40
0.95678759
 40
0.9785417267
 40
1.0
 40
1.0
 40
1.0
 40
1.0
 10
15.5215190448
 20
11.9319604077
 30
0.0
 10
15.5127019881
 20
11.9499276801
 30
0.0
 10
15.4962801977
 20
11.9761920543
 30
0.0
 10
15.4699543455
 20
12.0089177996
 30
0.0
 10
15.4386817891
 20
12.0423674217
 30
0.0
 10
15.3929779523
 20
12.0820523849
 30
0.0
 10
15.3303069951
 20
12.1247185624
 30
0.0
 10
15.2604215893
 20
12.1622120755
 30
0.0
 10
15.1851956579
 20
12.1935310065
 30
0.0
 10
15.106639676
 20
12.2178386667
 30
0.0
 10
15.0268603374
 20
12.2344833389
 30
0.0
 10
14.9479922129
 20
12.2430188963
 30
0.0
 10
14.8721384469
 20
12.2432163545
 30
0.0
 10
14.8012953821
 20
12.23505597
 30
0.0
 10
14.7373318958
 20
12.2187314627
 30
0.0
 10
14.6900039333
 20
12.1981027567
 30
0.0
 10
14.6575767031
 20
12.1777023743
 30
0.0
 10
14.6365719127
 20
12.1610581493
 30
0.0
 10
14.6184570837
 20
12.1428159905
 30
0.0
 10
14.6033671775
 20
12.1230908047
 30
0.0
 10
14.5914270431
 20
12.1020225929
 30
0.0
 10
14.5856115518
 20
12.0871357588
 30
0.0
 10
14.5832786675
 20
12.0795839266
 30
0.0
  0
SPLINE
  5
479
100
AcDbEntity
  8
0
100
AcDbSpline
 62
7
  6
CONTINUOUS
 70
0
 71
3
 72
13
 73
9
 74
0
 42
0.0000001
 43
0.0000001
 44
0.0000000001
 40
0.0
 40
0.0
 40
0.0
 40
0.0
 40
0.1164905144
 40
0.2338817607
 40
0.353041321
 40
0.4747883606
 40
0.7286402254
 40
1.0
 40
1.0
 40
1.0
 40
1.0
 10
15.5927384145
 20
11.7475248195
 30
0.0
 10
15.5947003027
 20
11.7538757383
 30
0.0
 10
15.5979502326
 20
11.7668510601
 30
0.0
 10
15.6007279587
 20
11.7868397948
 30
0.0
 10
15.6014015667
 20
11.8073111083
 30
0.0
 10
15.5994736834
 20
11.8355185559
 30
0.0
 10
15.5915491656
 20
11.8717999108
 30
0.0
 10
15.580233294
 20
11.8997006997
 30
0.0
 10
15.5734119274
 20
11.9136011832
 30
0.0
  0
SPLINE
  5
47A
100
AcDbEntity
  8
0
100
AcDbSpline
 62
7
  6
CONTINUOUS
 70
0
 71
3
 72
11
 73
7
 74
0
 42
0.0000001
 43
0.0000001
 44
0.0000000001
 40
0.0
 40
0.0
 40
0.0
 40
0.0
 40
0.2516926175
 40
0.5064463308
 40
0.7578241793
 40
1.0
 40
1.0
 40
1.0
 40
1.0
 10
14.9125372535
 20
12.4021173831
 30
0.0
 10
14.9080740355
 20
12.3989980359
 30
0.0
 10
14.8985723304
 20
12.3934411637
 30
0.0
 10
14.8833140362
 20
12.3872963359
 30
0.0
 10
14.8675376821
 20
12.3834342046
 30
0.0
 10
14.8568566942
 20
12.3824320144
 30
0.0
 10
14.851617642
 20
12.3823762281
 30
0.0
  0
SPLINE
  5
47B
100
AcDbEntity
  8
0
100
AcDbSpline
 62
7
  6
CONTINUOUS
 70
0
 71
3
 72
11
 73
7
 74
0
 42
0.0000001
 43
0.0000001
 44
0.0000000001
 40
0.0
 40
0.0
 40
0.0
 40
0.0
 40
0.2816531696
 40
0.540801564
 40
0.7783404083
 40
1.0
 40
1.0
 40
1.0
 40
1.0
 10
14.8504313528
 20
12.3823711654
 30
0.0
 10
14.8454733776
 20
12.3823818111
 30
0.0
 10
14.8359280917
 20
12.3831628432
 30
0.0
 10
14.8226401058
 20
12.3868932674
 30
0.0
 10
14.8114706575
 20
12.3930996043
 30
0.0
 10
14.8056791124
 20
12.3989431158
 30
0.0
 10
14.8034099874
 20
12.4021173831
 30
0.0
  0
SPLINE
  5
47C
100
AcDbEntity
  8
0
100
AcDbSpline
 62
7
  6
CONTINUOUS
 70
0
 71
3
 72
15
 73
11
 74
0
 42
0.0000001
 43
0.0000001
 44
0.0000000001
 40
0.0
 40
0.0
 40
0.0
 40
0.0
 40
0.1078011572
 40
0.2235339601
 40
0.3468219372
 40
0.4760742273
 40
0.6088880496
 40
0.7423901273
 40
0.8736699827
 40
1.0
 40
1.0
 40
1.0
 40
1.0
 10
13.7702312846
 20
12.1862680298
 30
0.0
 10
13.7711764827
 20
12.1939296366
 30
0.0
 10
13.7752627548
 20
12.2095964449
 30
0.0
 10
13.786744773
 20
12.2318024465
 30
0.0
 10
13.8032018345
 20
12.2525984242
 30
0.0
 10
13.8238713636
 20
12.2710691573
 30
0.0
 10
13.8478219187
 20
12.286409262
 30
0.0
 10
13.8739805073
 20
12.2979416011
 30
0.0
 10
13.9011635315
 20
12.3051385104
 30
0.0
 10
13.9196411482
 20
12.306871624
 30
0.0
 10
13.9286876987
 20
12.306871624
 30
0.0
  0
SPLINE
  5
47D
100
AcDbEntity
  8
0
100
AcDbSpline
 62
7
  6
CONTINUOUS
 70
0
 71
3
 72
14
 73
10
 74
0
 42
0.0000001
 43
0.0000001
 44
0.0000000001
 40
0.0
 40
0.0
 40
0.0
 40
0.0
 40
0.11364907
 40
0.2278782007
 40
0.3444570131
 40
0.4648857668
 40
0.5902457656
 40
0.7212510037
 40
1.0
 40
1.0
 40
1.0
 40
1.0
 10
13.7524765846
 20
12.2133495803
 30
0.0
 10
13.7537721228
 20
12.2095660674
 30
0.0
 10
13.757074735
 20
12.2021996799
 30
0.0
 10
13.7640273736
 20
12.1921914767
 30
0.0
 10
13.7728318406
 20
12.183425289
 30
0.0
 10
13.7833104345
 20
12.1760600787
 30
0.0
 10
13.7952705373
 20
12.1702155759
 30
0.0
 10
13.8132509964
 20
12.1644615496
 30
0.0
 10
13.8277791593
 20
12.1628909351
 30
0.0
 10
13.8375879998
 20
12.1628909351
 30
0.0
  0
SPLINE
  5
47E
100
AcDbEntity
  8
0
100
AcDbSpline
 62
7
  6
CONTINUOUS
 70
0
 71
3
 72
19
 73
15
 74
0
 42
0.0000001
 43
0.0000001
 44
0.0000000001
 40
0.0
 40
0.0
 40
0.0
 40
0.0
 40
0.1355834867
 40
0.2743724006
 40
0.4123502542
 40
0.5455982942
 40
0.6095475485
 40
0.6713075155
 40
0.7307657411
 40
0.7879537457
 40
0.8430568394
 40
0.8964214518
 40
0.9485497824
 40
1.0
 40
1.0
 40
1.0
 40
1.0
 10
13.9205911815
 20
12.4521995753
 30
0.0
 10
13.9002631818
 20
12.4498503043
 30
0.0
 10
13.8595280991
 20
12.4408618141
 30
0.0
 10
13.8019582712
 20
12.416374524
 30
0.0
 10
13.7500180284
 20
12.3821114573
 30
0.0
 10
13.7135205466
 20
12.3465469811
 30
0.0
 10
13.6901784228
 20
12.3151134518
 30
0.0
 10
13.6761178824
 20
12.2908853228
 30
0.0
 10
13.6655097633
 20
12.266057985
 30
0.0
 10
13.6585474212
 20
12.2410028162
 30
0.0
 10
13.655368168
 20
12.2161097182
 30
0.0
 10
13.6560715028
 20
12.1917745799
 30
0.0
 10
13.6606854779
 20
12.1684304504
 30
0.0
 10
13.666345103
 20
12.1537571803
 30
0.0
 10
13.6697660324
 20
12.1467860592
 30
0.0
  0
SPLINE
  5
47F
100
AcDbEntity
  8
0
100
AcDbSpline
 62
7
  6
CONTINUOUS
 70
0
 71
3
 72
9
 73
5
 74
0
 42
0.0000001
 43
0.0000001
 44
0.0000000001
 40
0.0
 40
0.0
 40
0.0
 40
0.0
 40
0.4445669348
 40
1.0
 40
1.0
 40
1.0
 40
1.0
 10
16.6130083205
 20
12.6536592349
 30
0.0
 10
16.6133792655
 20
12.6532413902
 30
0.0
 10
16.6142914615
 20
12.6523709708
 30
0.0
 10
16.6152910462
 20
12.6516051068
 30
0.0
 10
16.6158662521
 20
12.651209559
 30
0.0
  0
SPLINE
  5
480
100
AcDbEntity
  8
0
100
AcDbSpline
 62
7
  6
CONTINUOUS
 70
0
 71
3
 72
9
 73
5
 74
0
 42
0.0000001
 43
0.0000001
 44
0.0000000001
 40
0.0
 40
0.0
 40
0.0
 40
0.0
 40
0.2331055809
 40
1.0
 40
1.0
 40
1.0
 40
1.0
 10
16.6158662521
 20
12.651209559
 30
0.0
 10
16.6162006106
 20
12.650979633
 30
0.0
 10
16.6176642131
 20
12.6500361776
 30
0.0
 10
16.619225236
 20
12.6492465813
 30
0.0
 10
16.6204537241
 20
12.6487240653
 30
0.0
  0
SPLINE
  5
481
100
AcDbEntity
  8
0
100
AcDbSpline
 62
7
  6
CONTINUOUS
 70
0
 71
3
 72
9
 73
5
 74
0
 42
0.0000001
 43
0.0000001
 44
0.0000000001
 40
0.0
 40
0.0
 40
0.0
 40
0.0
 40
0.5187927352
 40
1.0
 40
1.0
 40
1.0
 40
1.0
 10
16.6204537241
 20
12.6487240653
 30
0.0
 10
16.6222690732
 20
12.6479519381
 30
0.0
 10
16.6259196927
 20
12.6468047485
 30
0.0
 10
16.6297248417
 20
12.6463424556
 30
0.0
 10
16.6315546537
 20
12.6463424556
 30
0.0
  0
SPLINE
  5
482
100
AcDbEntity
  8
0
100
AcDbSpline
 62
7
  6
CONTINUOUS
 70
0
 71
3
 72
32
 73
28
 74
0
 42
0.0000001
 43
0.0000001
 44
0.0000000001
 40
0.0
 40
0.0
 40
0.0
 40
0.0
 40
0.03024819
 40
0.0615905747
 40
0.093943104
 40
0.1272306722
 40
0.1962401909
 40
0.2677890364
 40
0.3408922315
 40
0.4144897326
 40
0.4874982525
 40
0.5588621941
 40
0.6276058455
 40
0.6607369791
 40
0.6929136321
 40
0.7240616107
 40
0.754125801
 40
0.7830684533
 40
0.8108762673
 40
0.8375590483
 40
0.8631563753
 40
0.887736861
 40
0.9114015887
 40
0.9342840962
 40
0.9565483132
 40
0.9783853592
 40
1.0
 40
1.0
 40
1.0
 40
1.0
 10
16.2249380266
 20
13.0907943072
 30
0.0
 10
16.2105978734
 20
13.1069475248
 30
0.0
 10
16.18028233
 20
13.1388611327
 30
0.0
 10
16.1311676608
 20
13.1846100064
 30
0.0
 10
16.0778410105
 20
13.2288557324
 30
0.0
 10
16.0006158218
 20
13.2862054216
 30
0.0
 10
15.8953614718
 20
13.3524398137
 30
0.0
 10
15.7590742193
 20
13.4214704555
 30
0.0
 10
15.6142286923
 20
13.4795250534
 30
0.0
 10
15.4639781654
 20
13.5253441458
 30
0.0
 10
15.3115762263
 20
13.5579354717
 30
0.0
 10
15.1603373097
 20
13.5765849405
 30
0.0
 10
15.0364610119
 20
13.5802120841
 30
0.0
 10
14.9408092452
 20
13.5755612517
 30
0.0
 10
14.8722580376
 20
13.5684802603
 30
0.0
 10
14.8063917126
 20
13.5577897174
 30
0.0
 10
14.7435616598
 20
13.5435482072
 30
0.0
 10
14.6841068222
 20
13.5258113564
 30
0.0
 10
14.628343861
 20
13.5046695606
 30
0.0
 10
14.5765775
 20
13.480207199
 30
0.0
 10
14.5290883519
 20
13.4525416828
 30
0.0
 10
14.486152411
 20
13.4217855429
 30
0.0
 10
14.44801985
 20
13.3880882671
 30
0.0
 10
14.4149461587
 20
13.3516028667
 30
0.0
 10
14.3871499299
 20
13.3125282275
 30
0.0
 10
14.3648619022
 20
13.2710950592
 30
0.0
 10
14.3537503922
 20
13.2420141515
 30
0.0
 10
14.3491932623
 20
13.2272672735
 30
0.0
  0
SPLINE
  5
483
100
AcDbEntity
  8
0
100
AcDbSpline
 62
7
  6
CONTINUOUS
 70
0
 71
3
 72
11
 73
7
 74
0
 42
0.0000001
 43
0.0000001
 44
0.0000000001
 40
0.0
 40
0.0
 40
0.0
 40
0.0
 40
0.2462026625
 40
0.4939503489
 40
0.7447489534
 40
1.0
 40
1.0
 40
1.0
 40
1.0
 10
14.101831738
 20
12.4268050877
 30
0.0
 10
14.0982567816
 20
12.4152365245
 30
0.0
 10
14.0922651863
 20
12.3916433003
 30
0.0
 10
14.086879703
 20
12.3553544403
 30
0.0
 10
14.0850953722
 20
12.318267881
 30
0.0
 10
14.0862911817
 20
12.2933659474
 30
0.0
 10
14.0874622898
 20
12.2808673475
 30
0.0
  0
SPLINE
  5
484
100
AcDbEntity
  8
0
100
AcDbSpline
 62
7
  6
CONTINUOUS
 70
0
 71
3
 72
15
 73
11
 74
0
 42
0.0000001
 43
0.0000001
 44
0.0000000001
 40
0.0
 40
0.0
 40
0.0
 40
0.0
 40
0.1078011572
 40
0.2235339601
 40
0.3468219372
 40
0.4760742273
 40
0.6088880496
 40
0.7423901273
 40
0.8736699827
 40
1.0
 40
1.0
 40
1.0
 40
1.0
 10
16.4758479545
 20
12.1862680298
 30
0.0
 10
16.4767931525
 20
12.1939296366
 30
0.0
 10
16.4808794247
 20
12.2095964449
 30
0.0
 10
16.4923614429
 20
12.2318024465
 30
0.0
 10
16.5088185044
 20
12.2525984242
 30
0.0
 10
16.5294880335
 20
12.2710691573
 30
0.0
 10
16.5534385886
 20
12.286409262
 30
0.0
 10
16.5795971772
 20
12.2979416011
 30
0.0
 10
16.6067802013
 20
12.3051385104
 30
0.0
 10
16.625257818
 20
12.306871624
 30
0.0
 10
16.6343043686
 20
12.306871624
 30
0.0
  0
SPLINE
  5
485
100
AcDbEntity
  8
0
100
AcDbSpline
 62
7
  6
CONTINUOUS
 70
0
 71
3
 72
14
 73
10
 74
0
 42
0.0000001
 43
0.0000001
 44
0.0000000001
 40
0.0
 40
0.0
 40
0.0
 40
0.0
 40
0.11364907
 40
0.2278782007
 40
0.3444570131
 40
0.4648857668
 40
0.5902457656
 40
0.7212510037
 40
1.0
 40
1.0
 40
1.0
 40
1.0
 10
16.4580932544
 20
12.2133495803
 30
0.0
 10
16.4593887926
 20
12.2095660674
 30
0.0
 10
16.4626914048
 20
12.2021996799
 30
0.0
 10
16.4696440435
 20
12.1921914767
 30
0.0
 10
16.4784485105
 20
12.183425289
 30
0.0
 10
16.4889271044
 20
12.1760600787
 30
0.0
 10
16.5008872072
 20
12.1702155759
 30
0.0
 10
16.5188676663
 20
12.1644615496
 30
0.0
 10
16.5333958292
 20
12.1628909351
 30
0.0
 10
16.5432046697
 20
12.1628909351
 30
0.0
  0
SPLINE
  5
486
100
AcDbEntity
  8
0
100
AcDbSpline
 62
7
  6
CONTINUOUS
 70
0
 71
3
 72
13
 73
9
 74
0
 42
0.0000001
 43
0.0000001
 44
0.0000000001
 40
0.0
 40
0.0
 40
0.0
 40
0.0
 40
0.1160284357
 40
0.2331688087
 40
0.3522755616
 40
0.4741919486
 40
0.7286236071
 40
1.0
 40
1.0
 40
1.0
 40
1.0
 10
17.0631878019
 20
12.3670574137
 30
0.0
 10
17.0603420038
 20
12.3728565406
 30
0.0
 10
17.0537571738
 20
12.3841065479
 30
0.0
 10
17.0414843276
 20
12.3994854518
 30
0.0
 10
17.0269325896
 20
12.4132136539
 30
0.0
 10
17.0044667202
 20
12.4293412458
 30
0.0
 10
16.971355734
 20
12.4445309247
 30
0.0
 10
16.9424947247
 20
12.4506543636
 30
0.0
 10
16.9274882708
 20
12.4524080998
 30
0.0
  0
SPLINE
  5
487
100
AcDbEntity
  8
0
100
AcDbSpline
 62
7
  6
CONTINUOUS
 70
0
 71
3
 72
9
 73
5
 74
0
 42
0.0000001
 43
0.0000001
 44
0.0000000001
 40
0.0
 40
0.0
 40
0.0
 40
0.0
 40
0.2361623818
 40
1.0
 40
1.0
 40
1.0
 40
1.0
 10
15.74598563
 20
12.0727652402
 30
0.0
 10
15.7463113457
 20
12.0723745948
 30
0.0
 10
15.7476503253
 20
12.0706869764
 30
0.0
 10
15.7488359316
 20
12.0688806432
 30
0.0
 10
15.7496702329
 20
12.0674628309
 30
0.0
  0
SPLINE
  5
488
100
AcDbEntity
  8
0
100
AcDbSpline
 62
7
  6
CONTINUOUS
 70
0
 71
3
 72
11
 73
7
 74
0
 42
0.0000001
 43
0.0000001
 44
0.0000000001
 40
0.0
 40
0.0
 40
0.0
 40
0.0
 40
0.2760747635
 40
0.5339221616
 40
0.7738516565
 40
1.0
 40
1.0
 40
1.0
 40
1.0
 10
14.812594689
 20
12.4673076737
 30
0.0
 10
14.809256388
 20
12.4633480909
 30
0.0
 10
14.8034558602
 20
12.4550944129
 30
0.0
 10
14.7976588341
 20
12.4416597453
 30
0.0
 10
14.7953210424
 20
12.4281394336
 30
0.0
 10
14.7962492908
 20
12.4192984609
 30
0.0
 10
14.7973352339
 20
12.4151973501
 30
0.0
  0
SPLINE
  5
489
100
AcDbEntity
  8
0
100
AcDbSpline
 62
7
  6
CONTINUOUS
 70
0
 71
3
 72
18
 73
14
 74
0
 42
0.0000001
 43
0.0000001
 44
0.0000000001
 40
0.0
 40
0.0
 40
0.0
 40
0.0
 40
0.1337639443
 40
0.2731856956
 40
0.4132280067
 40
0.548678548
 40
0.6753407513
 40
0.7347648869
 40
0.7914781843
 40
0.8457439746
 40
0.8980755659
 40
0.9492021957
 40
1.0
 40
1.0
 40
1.0
 40
1.0
 10
16.8310362303
 20
12.1628909351
 30
0.0
 10
16.8422072072
 20
12.1628909351
 30
0.0
 10
16.8650782366
 20
12.1657042036
 30
0.0
 10
16.8979023905
 20
12.1770553953
 30
0.0
 10
16.9279513186
 20
12.1947949907
 30
0.0
 10
16.9529405768
 20
12.2175999893
 30
0.0
 10
16.968328813
 20
12.2399887096
 30
0.0
 10
16.9761518869
 20
12.2587639146
 30
0.0
 10
16.9796252277
 20
12.2726256556
 30
0.0
 10
16.9807322972
 20
12.2862859721
 30
0.0
 10
16.9794395125
 20
12.2994709672
 30
0.0
 10
16.9757544107
 20
12.3118960241
 30
0.0
 10
16.971754381
 20
12.3194827609
 30
0.0
 10
16.9694207261
 20
12.3230254723
 30
0.0
  0
SPLINE
  5
48A
100
AcDbEntity
  8
0
100
AcDbSpline
 62
7
  6
CONTINUOUS
 70
0
 71
3
 72
10
 73
6
 74
0
 42
0.0000001
 43
0.0000001
 44
0.0000000001
 40
0.0
 40
0.0
 40
0.0
 40
0.0
 40
0.2661308499
 40
0.5221119838
 40
1.0
 40
1.0
 40
1.0
 40
1.0
 10
16.9221359292
 20
12.306871624
 30
0.0
 10
16.9274885742
 20
12.306871624
 30
0.0
 10
16.9380065404
 20
12.3062809643
 30
0.0
 10
16.957826833
 20
12.3027382873
 30
0.0
 10
16.9718293306
 20
12.2972652401
 30
0.0
 10
16.980087297
 20
12.2923468657
 30
0.0
  0
SPLINE
  5
48B
100
AcDbEntity
  8
0
100
AcDbSpline
 62
7
  6
CONTINUOUS
 70
0
 71
3
 72
9
 73
5
 74
0
 42
0.0000001
 43
0.0000001
 44
0.0000000001
 40
0.0
 40
0.0
 40
0.0
 40
0.0
 40
0.2577175075
 40
1.0
 40
1.0
 40
1.0
 40
1.0
 10
15.7235994499
 20
12.0832199796
 30
0.0
 10
15.724068486
 20
12.0834243181
 30
0.0
 10
15.7259197353
 20
12.0841421189
 30
0.0
 10
15.7279009139
 20
12.0845348256
 30
0.0
 10
15.7293727566
 20
12.0846059513
 30
0.0
  0
LINE
  5
48C
100
AcDbEntity
  8
0
100
AcDbLine
 62
7
  6
CONTINUOUS
 10
15.7110474801
 20
11.948951094
 11
15.7079356957
 21
11.9569719299
  0
SPLINE
  5
48D
100
AcDbEntity
  8
0
100
AcDbSpline
 62
7
  6
CONTINUOUS
 70
0
 71
3
 72
10
 73
6
 74
0
 42
0.0000001
 43
0.0000001
 44
0.0000000001
 40
0.0
 40
0.0
 40
0.0
 40
0.0
 40
0.2289570802
 40
0.4756772085
 40
1.0
 40
1.0
 40
1.0
 40
1.0
 10
15.7079356957
 20
11.9569719299
 30
0.0
 10
15.7067501244
 20
11.9603920746
 30
0.0
 10
15.7045798632
 20
11.967601619
 30
0.0
 10
15.7010604699
 20
11.9830216476
 30
0.0
 10
15.6994883352
 20
11.9951546093
 30
0.0
 10
15.6989412637
 20
12.0034260599
 30
0.0
  0
SPLINE
  5
48E
100
AcDbEntity
  8
0
100
AcDbSpline
 62
7
  6
CONTINUOUS
 70
0
 71
3
 72
28
 73
24
 74
0
 42
0.0000001
 43
0.0000001
 44
0.0000000001
 40
0.0
 40
0.0
 40
0.0
 40
0.0
 40
0.0543339661
 40
0.0835078018
 40
0.1139732129
 40
0.1456862418
 40
0.1785676369
 40
0.2473804638
 40
0.3194301569
 40
0.3935011341
 40
0.4682614561
 40
0.5423423033
 40
0.6144121956
 40
0.6832547724
 40
0.7478534059
 40
0.8074900392
 40
0.8618663336
 40
0.8871732217
 40
0.9113232099
 40
0.9344635745
 40
0.9567895509
 40
0.978542624
 40
1.0
 40
1.0
 40
1.0
 40
1.0
 10
15.5734119274
 20
11.9136011832
 30
0.0
 10
15.5634927521
 20
11.9338143374
 30
0.0
 10
15.5450181843
 20
11.9633621969
 30
0.0
 10
15.515401713
 20
12.0001774376
 30
0.0
 10
15.4895241972
 20
12.0278597799
 30
0.0
 10
15.4606988908
 20
12.0547488278
 30
0.0
 10
15.4179471466
 20
12.0898486459
 30
0.0
 10
15.3582916958
 20
12.1304572916
 30
0.0
 10
15.2796781964
 20
12.172633553
 30
0.0
 10
15.1950457721
 20
12.207868735
 30
0.0
 10
15.1066699764
 20
12.2352145015
 30
0.0
 10
15.0169176942
 20
12.2539396023
 30
0.0
 10
14.9281912738
 20
12.2635417239
 30
0.0
 10
14.8428563654
 20
12.2637635534
 30
0.0
 10
14.7631586775
 20
12.2545829328
 30
0.0
 10
14.6912004365
 20
12.2362178147
 30
0.0
 10
14.6379569435
 20
12.2130105297
 30
0.0
 10
14.6014764269
 20
12.1900602169
 30
0.0
 10
14.5778461664
 20
12.1713352974
 30
0.0
 10
14.5574670164
 20
12.1508129066
 30
0.0
 10
14.5404910257
 20
12.1286222299
 30
0.0
 10
14.5270583781
 20
12.1049208402
 30
0.0
 10
14.5205162736
 20
12.0881732799
 30
0.0
 10
14.5178918221
 20
12.079677547
 30
0.0
  0
SPLINE
  5
48F
100
AcDbEntity
  8
0
100
AcDbSpline
 62
7
  6
CONTINUOUS
 70
0
 71
3
 72
13
 73
9
 74
0
 42
0.0000001
 43
0.0000001
 44
0.0000000001
 40
0.0
 40
0.0
 40
0.0
 40
0.0
 40
0.271374067
 40
0.5252059319
 40
0.6469516097
 40
0.7661144816
 40
0.8835090333
 40
1.0
 40
1.0
 40
1.0
 40
1.0
 10
14.4107199359
 20
11.9233927696
 30
0.0
 10
14.4021927666
 20
11.9407693138
 30
0.0
 10
14.3880464217
 20
11.9756444845
 30
0.0
 10
14.3781434213
 20
12.0209962098
 30
0.0
 10
14.3757323052
 20
12.0562542143
 30
0.0
 10
14.3765758512
 20
12.081843701
 30
0.0
 10
14.3800457375
 20
12.1068303767
 30
0.0
 10
14.3841076909
 20
12.123050073
 30
0.0
 10
14.386560675
 20
12.1309885749
 30
0.0
  0
SPLINE
  5
490
100
AcDbEntity
  8
0
100
AcDbSpline
 62
7
  6
CONTINUOUS
 70
0
 71
3
 72
11
 73
7
 74
0
 42
0.0000001
 43
0.0000001
 44
0.0000000001
 40
0.0
 40
0.0
 40
0.0
 40
0.0
 40
0.2282205616
 40
0.471295983
 40
0.7288598776
 40
1.0
 40
1.0
 40
1.0
 40
1.0
 10
15.7507566032
 20
12.1177776763
 30
0.0
 10
15.7414315128
 20
12.1346339349
 30
0.0
 10
15.7198811992
 20
12.1682068073
 30
0.0
 10
15.6810246819
 20
12.2160398647
 30
0.0
 10
15.6351091891
 20
12.2623831427
 30
0.0
 10
15.6009790059
 20
12.2912303277
 30
0.0
 10
15.5829328232
 20
12.3053060682
 30
0.0
  0
SPLINE
  5
491
100
AcDbEntity
  8
0
100
AcDbSpline
 62
7
  6
CONTINUOUS
 70
0
 71
3
 72
11
 73
7
 74
0
 42
0.0000001
 43
0.0000001
 44
0.0000000001
 40
0.0
 40
0.0
 40
0.0
 40
0.0
 40
0.2408077173
 40
0.489060844
 40
0.742818832
 40
1.0
 40
1.0
 40
1.0
 40
1.0
 10
15.5470470607
 20
12.3318799537
 30
0.0
 10
15.5269330075
 20
12.3460296614
 30
0.0
 10
15.4849460272
 20
12.3731788573
 30
0.0
 10
15.4184060232
 20
12.4097310448
 30
0.0
 10
15.3480225946
 20
12.4423822876
 30
0.0
 10
15.2993102079
 20
12.461205884
 30
0.0
 10
15.2745191104
 20
12.4698794556
 30
0.0
  0
SPLINE
  5
492
100
AcDbEntity
  8
0
100
AcDbSpline
 62
7
  6
CONTINUOUS
 70
0
 71
3
 72
15
 73
11
 74
0
 42
0.0000001
 43
0.0000001
 44
0.0000000001
 40
0.0
 40
0.0
 40
0.0
 40
0.0
 40
0.1381704212
 40
0.2749046884
 40
0.4088863062
 40
0.5388841254
 40
0.6637965202
 40
0.782698001
 40
0.8948959964
 40
1.0
 40
1.0
 40
1.0
 40
1.0
 10
15.2269368007
 20
12.485443912
 30
0.0
 10
15.1998094422
 20
12.4937094495
 30
0.0
 10
15.1452488298
 20
12.5082937673
 30
0.0
 10
15.0627926012
 20
12.524262798
 30
0.0
 10
14.9810574674
 20
12.5340533774
 30
0.0
 10
14.9012336974
 20
12.5375234498
 30
0.0
 10
14.8244749401
 20
12.5346226881
 30
0.0
 10
14.7518819761
 20
12.5253852579
 30
0.0
 10
14.6845099781
 20
12.5099378034
 30
0.0
 10
14.6423010054
 20
12.4951360365
 30
0.0
 10
14.6224628683
 20
12.4866626755
 30
0.0
  0
SPLINE
  5
493
100
AcDbEntity
  8
0
100
AcDbSpline
 62
7
  6
CONTINUOUS
 70
0
 71
3
 72
11
 73
7
 74
0
 42
0.0000001
 43
0.0000001
 44
0.0000000001
 40
0.0
 40
0.0
 40
0.0
 40
0.0
 40
0.2712860098
 40
0.526188835
 40
0.7676931056
 40
1.0
 40
1.0
 40
1.0
 40
1.0
 10
14.5892698141
 20
12.4709076062
 30
0.0
 10
14.5736625676
 20
12.4626949534
 30
0.0
 10
14.5443274479
 20
12.4448626391
 30
0.0
 10
14.5057376767
 20
12.4129073225
 30
0.0
 10
14.4745286237
 20
12.3769680874
 30
0.0
 10
14.4587554774
 20
12.350262962
 30
0.0
 10
14.4523699306
 20
12.3365772237
 30
0.0
  0
SPLINE
  5
494
100
AcDbEntity
  8
0
100
AcDbSpline
 62
7
  6
CONTINUOUS
 70
0
 71
3
 72
9
 73
5
 74
0
 42
0.0000001
 43
0.0000001
 44
0.0000000001
 40
0.0
 40
0.0
 40
0.0
 40
0.0
 40
0.4685629973
 40
1.0
 40
1.0
 40
1.0
 40
1.0
 10
13.4954368762
 20
11.8235886834
 30
0.0
 10
13.4950960864
 20
11.8242831398
 30
0.0
 10
13.4947864832
 20
11.8259735376
 30
0.0
 10
13.4951115604
 20
11.8276159723
 30
0.0
 10
13.4953705023
 20
11.8284542595
 30
0.0
  0
SPLINE
  5
495
100
AcDbEntity
  8
0
100
AcDbSpline
 62
7
  6
CONTINUOUS
 70
0
 71
3
 72
11
 73
7
 74
0
 42
0.0000001
 43
0.0000001
 44
0.0000000001
 40
0.0
 40
0.0
 40
0.0
 40
0.0
 40
0.2344886326
 40
0.4733432369
 40
0.7274911309
 40
1.0
 40
1.0
 40
1.0
 40
1.0
 10
17.2603950981
 20
12.6436340419
 30
0.0
 10
17.260172278
 20
12.6440881016
 30
0.0
 10
17.2595478582
 20
12.6449306848
 30
0.0
 10
17.2582027383
 20
12.6457905417
 30
0.0
 10
17.2566020688
 20
12.6462570427
 30
0.0
 10
17.2554624479
 20
12.6463424666
 30
0.0
 10
17.2548746537
 20
12.6463424524
 30
0.0
  0
SPLINE
  5
496
100
AcDbEntity
  8
0
100
AcDbSpline
 62
7
  6
CONTINUOUS
 70
0
 71
3
 72
13
 73
9
 74
0
 42
0.0000001
 43
0.0000001
 44
0.0000000001
 40
0.0
 40
0.0
 40
0.0
 40
0.0
 40
0.293380414
 40
0.5676431845
 40
0.6923572443
 40
0.8065152085
 40
0.9091334283
 40
1.0
 40
1.0
 40
1.0
 40
1.0
 10
15.6989412637
 20
12.0034260599
 30
0.0
 10
15.6984401641
 20
12.0110024387
 30
0.0
 10
15.6983222333
 20
12.025733184
 30
0.0
 10
15.7006065765
 20
12.0435878979
 30
0.0
 10
15.7040652304
 20
12.0564299654
 30
0.0
 10
15.7072560772
 20
12.0646937378
 30
0.0
 10
15.7110441201
 20
12.071722685
 30
0.0
 10
15.7140967086
 20
12.0757326692
 30
0.0
 10
15.7157105883
 20
12.0774431957
 30
0.0
  0
SPLINE
  5
497
100
AcDbEntity
  8
0
100
AcDbSpline
 62
7
  6
CONTINUOUS
 70
0
 71
3
 72
9
 73
5
 74
0
 42
0.0000001
 43
0.0000001
 44
0.0000000001
 40
0.0
 40
0.0
 40
0.0
 40
0.0
 40
0.2704035723
 40
1.0
 40
1.0
 40
1.0
 40
1.0
 10
15.7157105883
 20
12.0774431957
 30
0.0
 10
15.7163175945
 20
12.0780865524
 30
0.0
 10
15.7186544074
 20
12.080372132
 30
0.0
 10
15.7214114943
 20
12.0822667831
 30
0.0
 10
15.7235994499
 20
12.0832199796
 30
0.0
  0
SPLINE
  5
498
100
AcDbEntity
  8
0
100
AcDbSpline
 62
7
  6
CONTINUOUS
 70
0
 71
3
 72
13
 73
9
 74
0
 42
0.0000001
 43
0.0000001
 44
0.0000000001
 40
0.0
 40
0.0
 40
0.0
 40
0.0
 40
0.0515394116
 40
0.1274731946
 40
0.2266371393
 40
0.3468578879
 40
0.6422006026
 40
1.0
 40
1.0
 40
1.0
 40
1.0
 10
13.7483188457
 20
12.6463424524
 30
0.0
 10
13.748440867
 20
12.6463424368
 30
0.0
 10
13.7487345421
 20
12.6462333485
 30
0.0
 10
13.7491878786
 20
12.645951637
 30
0.0
 10
13.7497414826
 20
12.6455205304
 30
0.0
 10
13.7506519945
 20
12.6447110051
 30
0.0
 10
13.7519376985
 20
12.643404461
 30
0.0
 10
13.7529696235
 20
12.642252681
 30
0.0
 10
13.7535244685
 20
12.6416125802
 30
0.0
  0
SPLINE
  5
499
100
AcDbEntity
  8
0
100
AcDbSpline
 62
7
  6
CONTINUOUS
 70
0
 71
3
 72
21
 73
17
 74
0
 42
0.0000001
 43
0.0000001
 44
0.0000000001
 40
0.0
 40
0.0
 40
0.0
 40
0.0
 40
0.0558402757
 40
0.1177036463
 40
0.1846446797
 40
0.2556487249
 40
0.4052403342
 40
0.5564848388
 40
0.6295198938
 40
0.6991774932
 40
0.7643381074
 40
0.8240755268
 40
0.8776511277
 40
0.9246828478
 40
0.9652063673
 40
1.0
 40
1.0
 40
1.0
 40
1.0
 10
15.7162452353
 20
11.9492180786
 30
0.0
 10
15.7151240361
 20
11.9515028425
 30
0.0
 10
15.7130526656
 20
11.9564637508
 30
0.0
 10
15.7105189737
 20
11.964497639
 30
0.0
 10
15.7084524757
 20
11.9733752006
 30
0.0
 10
15.706335541
 20
11.9863159732
 30
0.0
 10
15.7051288144
 20
12.0032595446
 30
0.0
 10
15.7057512911
 20
12.0203250354
 30
0.0
 10
15.7074007632
 20
12.0336270051
 30
0.0
 10
15.7091490354
 20
12.0429447743
 30
0.0
 10
15.7113917007
 20
12.0515321325
 30
0.0
 10
15.7140769602
 20
12.0592218375
 30
0.0
 10
15.7171588884
 20
12.0658636692
 30
0.0
 10
15.7205765217
 20
12.0713395177
 30
0.0
 10
15.7242810077
 20
12.0755461052
 30
0.0
 10
15.7271066319
 20
12.0775799708
 30
0.0
 10
15.728526282
 20
12.07828661
 30
0.0
  0
SPLINE
  5
49A
100
AcDbEntity
  8
0
100
AcDbSpline
 62
7
  6
CONTINUOUS
 70
0
 71
3
 72
12
 73
8
 74
0
 42
0.0000001
 43
0.0000001
 44
0.0000000001
 40
0.0
 40
0.0
 40
0.0
 40
0.0
 40
0.2325311962
 40
0.3449665932
 40
0.4595202679
 40
0.7079493498
 40
1.0
 40
1.0
 40
1.0
 40
1.0
 10
15.728526282
 20
12.07828661
 30
0.0
 10
15.7299054532
 20
12.0789731006
 30
0.0
 10
15.7321589035
 20
12.0796650671
 30
0.0
 10
15.7352206864
 20
12.0796257723
 30
0.0
 10
15.7383192783
 20
12.0789539417
 30
0.0
 10
15.7421949944
 20
12.0768127478
 30
0.0
 10
15.7447465315
 20
12.0742513466
 30
0.0
 10
15.74598563
 20
12.0727652402
 30
0.0
  0
SPLINE
  5
49B
100
AcDbEntity
  8
0
100
AcDbSpline
 62
7
  6
CONTINUOUS
 70
0
 71
3
 72
10
 73
6
 74
0
 42
0.0000001
 43
0.0000001
 44
0.0000000001
 40
0.0
 40
0.0
 40
0.0
 40
0.0
 40
0.2356612937
 40
0.4867765137
 40
1.0
 40
1.0
 40
1.0
 40
1.0
 10
13.4953705023
 20
11.8284542595
 30
0.0
 10
13.4957624998
 20
11.8297232949
 30
0.0
 10
13.4970046486
 20
11.8322104633
 30
0.0
 10
13.5004411
 20
11.8366937569
 30
0.0
 10
13.5037637498
 20
11.839534618
 30
0.0
 10
13.5061629443
 20
11.8411503944
 30
0.0
  0
SPLINE
  5
49C
100
AcDbEntity
  8
0
100
AcDbSpline
 62
7
  6
CONTINUOUS
 70
0
 71
3
 72
11
 73
7
 74
0
 42
0.0000001
 43
0.0000001
 44
0.0000000001
 40
0.0
 40
0.0
 40
0.0
 40
0.0
 40
0.1835780508
 40
0.4047758229
 40
0.6780888389
 40
1.0
 40
1.0
 40
1.0
 40
1.0
 10
16.9273562324
 20
12.4524165919
 30
0.0
 10
16.9271482879
 20
12.4524166496
 30
0.0
 10
16.9266876815
 20
12.4522812805
 30
0.0
 10
16.9260964013
 20
12.451770571
 30
0.0
 10
16.9255668513
 20
12.4510053479
 30
0.0
 10
16.9252821467
 20
12.4503908597
 30
0.0
 10
16.925150406
 20
12.4500508512
 30
0.0
  0
SPLINE
  5
49D
100
AcDbEntity
  8
0
100
AcDbSpline
 62
7
  6
CONTINUOUS
 70
0
 71
3
 72
15
 73
11
 74
0
 42
0.0000001
 43
0.0000001
 44
0.0000000001
 40
0.0
 40
0.0
 40
0.0
 40
0.0
 40
0.1090448257
 40
0.2245184168
 40
0.3461351131
 40
0.4729580765
 40
0.6035697031
 40
0.736203046
 40
0.8690195859
 40
1.0
 40
1.0
 40
1.0
 40
1.0
 10
16.2812699627
 20
12.2439073493
 30
0.0
 10
16.2836875373
 20
12.2555795042
 30
0.0
 10
16.2911342527
 20
12.2791455223
 30
0.0
 10
16.3087606311
 20
12.3128087931
 30
0.0
 10
16.3325952606
 20
12.3448472916
 30
0.0
 10
16.361909047
 20
12.3743152763
 30
0.0
 10
16.3958240023
 20
12.4003551602
 30
0.0
 10
16.4333312275
 20
12.4222107824
 30
0.0
 10
16.473306777
 20
12.4392167802
 30
0.0
 10
16.5011475807
 20
12.4470875439
 30
0.0
 10
16.5151552837
 20
12.4500508511
 30
0.0
  0
SPLINE
  5
49E
100
AcDbEntity
  8
0
100
AcDbSpline
 62
7
  6
CONTINUOUS
 70
0
 71
3
 72
9
 73
5
 74
0
 42
0.0000001
 43
0.0000001
 44
0.0000000001
 40
0.0
 40
0.0
 40
0.0
 40
0.0
 40
0.5185208454
 40
1.0
 40
1.0
 40
1.0
 40
1.0
 10
14.4943953587
 20
11.8036333626
 30
0.0
 10
14.4791177746
 20
11.8209276545
 30
0.0
 10
14.4514684241
 20
11.8559517391
 30
0.0
 10
14.4286470632
 20
11.8943651095
 30
0.0
 10
14.4192073693
 20
11.9136011832
 30
0.0
  0
SPLINE
  5
49F
100
AcDbEntity
  8
0
100
AcDbSpline
 62
7
  6
CONTINUOUS
 70
0
 71
3
 72
12
 73
8
 74
0
 42
0.0000001
 43
0.0000001
 44
0.0000000001
 40
0.0
 40
0.0
 40
0.0
 40
0.0
 40
0.2945177637
 40
0.5646791379
 40
0.8016949253
 40
0.9058655073
 40
1.0
 40
1.0
 40
1.0
 40
1.0
 10
15.6998241295
 20
12.0254268449
 30
0.0
 10
15.7003319486
 20
12.0306547769
 30
0.0
 10
15.7017273185
 20
12.0406458407
 30
0.0
 10
15.7050787108
 20
12.054567779
 30
0.0
 10
15.7088795497
 20
12.0648326637
 30
0.0
 10
15.7124874708
 20
12.0717174801
 30
0.0
 10
15.7144409825
 20
12.0746767164
 30
0.0
 10
15.7154565903
 20
12.0760135065
 30
0.0
  0
LINE
  5
4A0
100
AcDbEntity
  8
0
100
AcDbLine
 62
7
  6
CONTINUOUS
 10
15.7154565903
 20
12.0760135065
 11
15.7179179028
 21
12.0789049377
  0
SPLINE
  5
4A1
100
AcDbEntity
  8
0
100
AcDbSpline
 62
7
  6
CONTINUOUS
 70
0
 71
3
 72
9
 73
5
 74
0
 42
0.0000001
 43
0.0000001
 44
0.0000000001
 40
0.0
 40
0.0
 40
0.0
 40
0.0
 40
0.2704281406
 40
1.0
 40
1.0
 40
1.0
 40
1.0
 10
15.7179179028
 20
12.0789049377
 30
0.0
 10
15.7183649392
 20
12.0793696359
 30
0.0
 10
15.7200739984
 20
12.0810301437
 30
0.0
 10
15.7220394611
 20
12.0824501313
 30
0.0
 10
15.7235994499
 20
12.0832199796
 30
0.0
  0
SPLINE
  5
4A2
100
AcDbEntity
  8
0
100
AcDbSpline
 62
7
  6
CONTINUOUS
 70
0
 71
3
 72
11
 73
7
 74
0
 42
0.0000001
 43
0.0000001
 44
0.0000000001
 40
0.0
 40
0.0
 40
0.0
 40
0.0
 40
0.2336985128
 40
0.4744525156
 40
0.7284652344
 40
1.0
 40
1.0
 40
1.0
 40
1.0
 10
14.5832786675
 20
12.0795839266
 30
0.0
 10
14.5797823454
 20
12.0682659033
 30
0.0
 10
14.575188986
 20
12.044435126
 30
0.0
 10
14.5759973071
 20
12.0072747118
 30
0.0
 10
14.5843361708
 20
11.9691223906
 30
0.0
 10
14.5943945942
 20
11.944316433
 30
0.0
 10
14.6004580508
 20
11.9319604077
 30
0.0
  0
SPLINE
  5
4A3
100
AcDbEntity
  8
0
100
AcDbSpline
 62
7
  6
CONTINUOUS
 70
0
 71
3
 72
9
 73
5
 74
0
 42
0.0000001
 43
0.0000001
 44
0.0000000001
 40
0.0
 40
0.0
 40
0.0
 40
0.0
 40
0.2757806604
 40
1.0
 40
1.0
 40
1.0
 40
1.0
 10
15.7459857605
 20
11.9402317684
 30
0.0
 10
15.7454760327
 20
11.9396213172
 30
0.0
 10
15.7435479483
 20
11.9374820079
 30
0.0
 10
15.7412360443
 20
11.9356417401
 30
0.0
 10
15.7393663885
 20
11.9347111078
 30
0.0
  0
SPLINE
  5
4A4
100
AcDbEntity
  8
0
100
AcDbSpline
 62
7
  6
CONTINUOUS
 70
0
 71
3
 72
9
 73
5
 74
0
 42
0.0000001
 43
0.0000001
 44
0.0000000001
 40
0.0
 40
0.0
 40
0.0
 40
0.0
 40
0.509260373
 40
1.0
 40
1.0
 40
1.0
 40
1.0
 10
15.7393663885
 20
11.9347111078
 30
0.0
 10
15.7381037601
 20
11.9340826271
 30
0.0
 10
15.7354112482
 20
11.9332047574
 30
0.0
 10
15.7325741498
 20
11.9333801664
 30
0.0
 10
15.7312536502
 20
11.9337017917
 30
0.0
  0
SPLINE
  5
4A5
100
AcDbEntity
  8
0
100
AcDbSpline
 62
7
  6
CONTINUOUS
 70
0
 71
3
 72
9
 73
5
 74
0
 42
0.0000001
 43
0.0000001
 44
0.0000000001
 40
0.0
 40
0.0
 40
0.0
 40
0.0
 40
0.4652210175
 40
1.0
 40
1.0
 40
1.0
 40
1.0
 10
15.7312536502
 20
11.9337017917
 30
0.0
 10
15.7298272947
 20
11.9340491996
 30
0.0
 10
15.7268957927
 20
11.9353802421
 30
0.0
 10
15.7244781941
 20
11.9374571348
 30
0.0
 10
15.7233057426
 20
11.9386708841
 30
0.0
  0
SPLINE
  5
4A6
100
AcDbEntity
  8
0
100
AcDbSpline
 62
7
  6
CONTINUOUS
 70
0
 71
3
 72
9
 73
5
 74
0
 42
0.0000001
 43
0.0000001
 44
0.0000000001
 40
0.0
 40
0.0
 40
0.0
 40
0.0
 40
0.4676937839
 40
1.0
 40
1.0
 40
1.0
 40
1.0
 10
15.7233057426
 20
11.9386708841
 30
0.0
 10
15.7220847539
 20
11.9399348802
 30
0.0
 10
15.7197400018
 20
11.9428960934
 30
0.0
 10
15.7178292318
 20
11.946142115
 30
0.0
 10
15.7169041771
 20
11.9479155522
 30
0.0
  0
SPLINE
  5
4A7
100
AcDbEntity
  8
0
100
AcDbSpline
 62
7
  6
CONTINUOUS
 70
0
 71
3
 72
11
 73
7
 74
0
 42
0.0000001
 43
0.0000001
 44
0.0000000001
 40
0.0
 40
0.0
 40
0.0
 40
0.0
 40
0.2885315666
 40
0.546741532
 40
0.7807825927
 40
1.0
 40
1.0
 40
1.0
 40
1.0
 10
15.7422038102
 20
12.0772978436
 30
0.0
 10
15.7413096736
 20
12.078369097
 30
0.0
 10
15.7394860794
 20
12.0802984966
 30
0.0
 10
15.7364635694
 20
12.0825963681
 30
0.0
 10
15.7333339702
 20
12.084091328
 30
0.0
 10
15.7311572565
 20
12.0845321049
 30
0.0
 10
15.7300992456
 20
12.0845995902
 30
0.0
  0
SPLINE
  5
4A8
100
AcDbEntity
  8
0
100
AcDbSpline
 62
7
  6
CONTINUOUS
 70
0
 71
3
 72
29
 73
25
 74
0
 42
0.0000001
 43
0.0000001
 44
0.0000000001
 40
0.0
 40
0.0
 40
0.0
 40
0.0
 40
0.0538909371
 40
0.0827851621
 40
0.112935325
 40
0.1767816787
 40
0.2448138367
 40
0.3160839893
 40
0.3894537934
 40
0.4636683809
 40
0.5374286425
 40
0.6094592144
 40
0.6785783362
 40
0.743773131
 40
0.7746665861
 40
0.8043228121
 40
0.8327038308
 40
0.859804166
 40
0.8856505165
 40
0.9103122327
 40
0.933898746
 40
0.9565682533
 40
0.9785212202
 40
1.0
 40
1.0
 40
1.0
 40
1.0
 10
14.5428917386
 20
11.9319604077
 30
0.0
 10
14.5525819136
 20
11.9122139072
 30
0.0
 10
14.5705490085
 20
11.8833294704
 30
0.0
 10
14.5992960553
 20
11.8472713625
 30
0.0
 10
14.6333762456
 20
11.8104082597
 30
0.0
 10
14.6831428559
 20
11.7665679055
 30
0.0
 10
14.7514034841
 20
11.719220567
 30
0.0
 10
14.8276015359
 20
11.6773388144
 30
0.0
 10
14.9097811621
 20
11.6419929527
 30
0.0
 10
14.9958411736
 20
11.614086628
 30
0.0
 10
15.0835716177
 20
11.5943360153
 30
0.0
 10
15.1707277336
 20
11.5832474121
 30
0.0
 10
15.2550709082
 20
11.5811065119
 30
0.0
 10
15.3224312244
 20
11.5869299313
 30
0.0
 10
15.3729226122
 20
11.5963237586
 30
0.0
 10
15.4080926504
 20
11.605431701
 30
0.0
 10
15.4410106443
 20
11.6166760583
 30
0.0
 10
15.4714679682
 20
11.6299801866
 30
0.0
 10
15.4992624541
 20
11.6452741113
 30
0.0
 10
15.5242175424
 20
11.6624556004
 30
0.0
 10
15.5461579744
 20
11.6814327967
 30
0.0
 10
15.5649396292
 20
11.7020819725
 30
0.0
 10
15.5804140116
 20
11.7242750224
 30
0.0
 10
15.5885114709
 20
11.7401203119
 30
0.0
 10
15.5919386889
 20
11.7481893686
 30
0.0
  0
SPLINE
  5
4A9
100
AcDbEntity
  8
0
100
AcDbSpline
 62
7
  6
CONTINUOUS
 70
0
 71
3
 72
27
 73
23
 74
0
 42
0.0000001
 43
0.0000001
 44
0.0000000001
 40
0.0
 40
0.0
 40
0.0
 40
0.0
 40
0.0543357764
 40
0.083510493
 40
0.1139767027
 40
0.1785403088
 40
0.247356014
 40
0.3194073959
 40
0.393479617
 40
0.4682416082
 40
0.542324568
 40
0.6143969977
 40
0.6832423176
 40
0.747843659
 40
0.8074827639
 40
0.8618611601
 40
0.8871689214
 40
0.9113196593
 40
0.9344607146
 40
0.95678759
 40
0.9785417267
 40
1.0
 40
1.0
 40
1.0
 40
1.0
 10
14.6004580508
 20
11.9319604077
 30
0.0
 10
14.6092751074
 20
11.9139931352
 30
0.0
 10
14.6256968978
 20
11.8877287611
 30
0.0
 10
14.6520227501
 20
11.8550030157
 30
0.0
 10
14.6832953064
 20
11.8215533936
 30
0.0
 10
14.7289991432
 20
11.7818684304
 30
0.0
 10
14.7916701004
 20
11.7392022529
 30
0.0
 10
14.8615555062
 20
11.7017087398
 30
0.0
 10
14.9367814376
 20
11.6703898088
 30
0.0
 10
15.0153374195
 20
11.6460821486
 30
0.0
 10
15.0951167581
 20
11.6294374764
 30
0.0
 10
15.1739848826
 20
11.620901919
 30
0.0
 10
15.2498386486
 20
11.6207044608
 30
0.0
 10
15.3206817134
 20
11.6288648453
 30
0.0
 10
15.3846451997
 20
11.6451893526
 30
0.0
 10
15.4319731622
 20
11.6658180586
 30
0.0
 10
15.4644003924
 20
11.6862184411
 30
0.0
 10
15.4854051828
 20
11.702862666
 30
0.0
 10
15.5035200118
 20
11.7211048248
 30
0.0
 10
15.518609918
 20
11.7408300106
 30
0.0
 10
15.5305500524
 20
11.7618982224
 30
0.0
 10
15.5363655437
 20
11.7767850565
 30
0.0
 10
15.538698428
 20
11.7843368887
 30
0.0
  0
SPLINE
  5
4AA
100
AcDbEntity
  8
0
100
AcDbSpline
 62
7
  6
CONTINUOUS
 70
0
 71
3
 72
22
 73
18
 74
0
 42
0.0000001
 43
0.0000001
 44
0.0000000001
 40
0.0
 40
0.0
 40
0.0
 40
0.0
 40
0.046960586
 40
0.094559652
 40
0.1433964969
 40
0.1939914399
 40
0.2467719331
 40
0.3020554467
 40
0.3600607852
 40
0.4209037243
 40
0.4846191039
 40
0.5511591777
 40
0.6204161745
 40
0.692220073
 40
0.7663581183
 40
0.8425724853
 40
1.0
 40
1.0
 40
1.0
 40
1.0
 10
14.386560675
 20
12.1309885749
 30
0.0
 10
14.3898190666
 20
12.1415335875
 30
0.0
 10
14.3979283495
 20
12.162321918
 30
0.0
 10
14.4145508142
 20
12.1917592942
 30
0.0
 10
14.4355467087
 20
12.2193347179
 30
0.0
 10
14.4607363641
 20
12.2448632912
 30
0.0
 10
14.4899433609
 20
12.2681734922
 30
0.0
 10
14.5229511825
 20
12.2891317681
 30
0.0
 10
14.5595403529
 20
12.3075982259
 30
0.0
 10
14.5994590101
 20
12.3234710381
 30
0.0
 10
14.6424451122
 20
12.3366396697
 30
0.0
 10
14.688209728
 20
12.3470326281
 30
0.0
 10
14.7364507094
 20
12.3545725636
 30
0.0
 10
14.7868448871
 20
12.3592217048
 30
0.0
 10
14.8390593931
 20
12.3609401503
 30
0.0
 10
14.9114031712
 20
12.3593028453
 30
0.0
 10
14.9661523075
 20
12.3536679472
 30
0.0
 10
15.002733499
 20
12.3481196848
 30
0.0
  0
SPLINE
  5
4AB
100
AcDbEntity
  8
0
100
AcDbSpline
 62
7
  6
CONTINUOUS
 70
0
 71
3
 72
19
 73
15
 74
0
 42
0.0000001
 43
0.0000001
 44
0.0000000001
 40
0.0
 40
0.0
 40
0.0
 40
0.0
 40
0.1363620078
 40
0.2741074318
 40
0.4106790462
 40
0.5435851282
 40
0.6079618496
 40
0.6705959734
 40
0.731260702
 40
0.7897651221
 40
0.8459566025
 40
0.8997500384
 40
0.9511044651
 40
1.0
 40
1.0
 40
1.0
 40
1.0
 10
15.002733499
 20
12.3481196848
 30
0.0
 10
15.0409000962
 20
12.3423309643
 30
0.0
 10
15.1170823124
 20
12.3268342104
 30
0.0
 10
15.228450967
 20
12.2928916324
 30
0.0
 10
15.3352012613
 20
12.2489088745
 30
0.0
 10
15.4187884049
 20
12.2044108383
 30
0.0
 10
15.4807762965
 20
12.1647086203
 30
0.0
 10
15.5238683577
 20
12.133578996
 30
0.0
 10
15.5637466481
 20
12.1009923325
 30
0.0
 10
15.6001443932
 20
12.0671803104
 30
0.0
 10
15.6328061158
 20
12.0323641281
 30
0.0
 10
15.6615149936
 20
11.9967796181
 30
0.0
 10
15.6860547974
 20
11.9606709148
 30
0.0
 10
15.6998639803
 20
11.9358191431
 30
0.0
 10
15.7059619588
 20
11.9233927696
 30
0.0
  0
SPLINE
  5
4AC
100
AcDbEntity
  8
0
100
AcDbSpline
 62
7
  6
CONTINUOUS
 70
0
 71
3
 72
19
 73
15
 74
0
 42
0.0000001
 43
0.0000001
 44
0.0000000001
 40
0.0
 40
0.0
 40
0.0
 40
0.0
 40
0.1360228641
 40
0.2755356257
 40
0.4143225242
 40
0.5482549001
 40
0.6124245828
 40
0.6742798641
 40
0.7336766882
 40
0.790620559
 40
0.8452898346
 40
0.8980370035
 40
0.9493868654
 40
1.0
 40
1.0
 40
1.0
 40
1.0
 10
16.8165899605
 20
12.0472416418
 30
0.0
 10
16.8370605986
 20
12.0494676568
 30
0.0
 10
16.878147343
 20
12.058278047
 30
0.0
 10
16.9363005844
 20
12.0826408921
 30
0.0
 10
16.9888600487
 20
12.1169165699
 30
0.0
 10
17.0258460818
 20
12.1525722519
 30
0.0
 10
17.0495180426
 20
12.1840955961
 30
0.0
 10
17.0637708468
 20
12.2083537049
 30
0.0
 10
17.0745286692
 20
12.2331704381
 30
0.0
 10
17.0816076835
 20
12.2581578022
 30
0.0
 10
17.0848829745
 20
12.2829170576
 30
0.0
 10
17.0842702833
 20
12.3070506264
 30
0.0
 10
17.0797679568
 20
12.3301453974
 30
0.0
 10
17.0741882059
 20
12.3446383484
 30
0.0
 10
17.0708133396
 20
12.3515169156
 30
0.0
  0
SPLINE
  5
4AD
100
AcDbEntity
  8
0
100
AcDbSpline
 62
7
  6
CONTINUOUS
 70
0
 71
3
 72
9
 73
5
 74
0
 42
0.0000001
 43
0.0000001
 44
0.0000000001
 40
0.0
 40
0.0
 40
0.0
 40
0.0
 40
0.4957661982
 40
1.0
 40
1.0
 40
1.0
 40
1.0
 10
16.4440671185
 20
12.0472416418
 30
0.0
 10
16.4423051745
 20
12.0472416418
 30
0.0
 10
16.4387452561
 20
12.0477748851
 30
0.0
 10
16.4354160513
 20
12.0491319295
 30
0.0
 10
16.4338647823
 20
12.0500291272
 30
0.0
  0
SPLINE
  5
4AE
100
AcDbEntity
  8
0
100
AcDbSpline
 62
7
  6
CONTINUOUS
 70
0
 71
3
 72
14
 73
10
 74
0
 42
0.0000001
 43
0.0000001
 44
0.0000000001
 40
0.0
 40
0.0
 40
0.0
 40
0.0
 40
0.281419282
 40
0.4139665487
 40
0.5405736988
 40
0.6614505427
 40
0.7773431454
 40
0.8896301985
 40
1.0
 40
1.0
 40
1.0
 40
1.0
 10
14.9227174316
 20
12.4109693446
 30
0.0
 10
14.9275133254
 20
12.4157580141
 30
0.0
 10
14.9338594025
 20
12.4236116854
 30
0.0
 10
14.9399310656
 20
12.4351630122
 30
0.0
 10
14.9430219068
 20
12.4438139391
 30
0.0
 10
14.9446760627
 20
12.4524456953
 30
0.0
 10
14.9448383816
 20
12.4608948637
 30
0.0
 10
14.9435004992
 20
12.4689846612
 30
0.0
 10
14.9416057281
 20
12.4740439929
 30
0.0
 10
14.9404355894
 20
12.4764305602
 30
0.0
  0
SPLINE
  5
4AF
100
AcDbEntity
  8
0
100
AcDbSpline
 62
7
  6
CONTINUOUS
 70
0
 71
3
 72
15
 73
11
 74
0
 42
0.0000001
 43
0.0000001
 44
0.0000000001
 40
0.0
 40
0.0
 40
0.0
 40
0.0
 40
0.0541689771
 40
0.1184156135
 40
0.2469784567
 40
0.3752044323
 40
0.5020478911
 40
0.6278381347
 40
0.7526796264
 40
1.0
 40
1.0
 40
1.0
 40
1.0
 10
16.4276066348
 20
12.062781891
 30
0.0
 10
16.4275386262
 20
12.062920478
 30
0.0
 10
16.427277585
 20
12.063156298
 30
0.0
 10
16.4266902228
 20
12.0635355354
 30
0.0
 10
16.4258483707
 20
12.0639096332
 30
0.0
 10
16.4248306523
 20
12.0643048588
 30
0.0
 10
16.4238040338
 20
12.0646591508
 30
0.0
 10
16.422781336
 20
12.0649924903
 30
0.0
 10
16.4214256661
 20
12.06541233
 30
0.0
 10
16.4204071321
 20
12.0657082634
 30
0.0
 10
16.4197296944
 20
12.0659028538
 30
0.0
  0
SPLINE
  5
4B0
100
AcDbEntity
  8
0
100
AcDbSpline
 62
7
  6
CONTINUOUS
 70
0
 71
3
 72
11
 73
7
 74
0
 42
0.0000001
 43
0.0000001
 44
0.0000000001
 40
0.0
 40
0.0
 40
0.0
 40
0.0
 40
0.2443479431
 40
0.5164135855
 40
0.7797722629
 40
1.0
 40
1.0
 40
1.0
 40
1.0
 10
16.8081887336
 20
12.0715627465
 30
0.0
 10
16.8080251631
 20
12.0708533708
 30
0.0
 10
16.8078457583
 20
12.0693163694
 30
0.0
 10
16.8078910439
 20
12.0669873084
 30
0.0
 10
16.8082375943
 20
12.0647578677
 30
0.0
 10
16.8086748565
 20
12.0633709182
 30
0.0
 10
16.808963909
 20
12.0627818912
 30
0.0
  0
SPLINE
  5
4B1
100
AcDbEntity
  8
0
100
AcDbSpline
 62
7
  6
CONTINUOUS
 70
0
 71
3
 72
21
 73
17
 74
0
 42
0.0000001
 43
0.0000001
 44
0.0000000001
 40
0.0
 40
0.0
 40
0.0
 40
0.0
 40
0.1528536431
 40
0.2306172939
 40
0.3087016423
 40
0.3863140518
 40
0.4622123796
 40
0.5346686632
 40
0.6017996201
 40
0.6624248794
 40
0.7168563418
 40
0.7667136981
 40
0.8139726646
 40
0.8601979346
 40
0.906354334
 40
1.0
 40
1.0
 40
1.0
 40
1.0
 10
16.0750266564
 20
12.5968491661
 30
0.0
 10
16.070455599
 20
12.6081437503
 30
0.0
 10
16.0640034099
 20
12.6253779736
 30
0.0
 10
16.0568342932
 20
12.6489268236
 30
0.0
 10
16.0523823357
 20
12.6670084797
 30
0.0
 10
16.0492248751
 20
12.6852171195
 30
0.0
 10
16.0477690951
 20
12.7032031489
 30
0.0
 10
16.0484364251
 20
12.7204204951
 30
0.0
 10
16.0515450719
 20
12.73615973
 30
0.0
 10
16.0571691038
 20
12.7496774574
 30
0.0
 10
16.0650241887
 20
12.7603916488
 30
0.0
 10
16.0745148309
 20
12.7680773768
 30
0.0
 10
16.0849759408
 20
12.7729234575
 30
0.0
 10
16.0959167557
 20
12.7753431442
 30
0.0
 10
16.1107929136
 20
12.7758980976
 30
0.0
 10
16.1218998529
 20
12.7738119972
 30
0.0
 10
16.1290602966
 20
12.7717020898
 30
0.0
  0
SPLINE
  5
4B2
100
AcDbEntity
  8
0
100
AcDbSpline
 62
7
  6
CONTINUOUS
 70
0
 71
3
 72
10
 73
6
 74
0
 42
0.0000001
 43
0.0000001
 44
0.0000000001
 40
0.0
 40
0.0
 40
0.0
 40
0.0
 40
0.4978659598
 40
0.7483902181
 40
1.0
 40
1.0
 40
1.0
 40
1.0
 10
16.5151552837
 20
12.4500508511
 30
0.0
 10
16.5188590088
 20
12.4508343682
 30
0.0
 10
16.5244991784
 20
12.4516886151
 30
0.0
 10
16.5320796895
 20
12.4522946596
 30
0.0
 10
16.5358984991
 20
12.4524172032
 30
0.0
 10
16.5378116998
 20
12.4524162548
 30
0.0
  0
SPLINE
  5
4B3
100
AcDbEntity
  8
0
100
AcDbSpline
 62
7
  6
CONTINUOUS
 70
0
 71
3
 72
9
 73
5
 74
0
 42
0.0000001
 43
0.0000001
 44
0.0000000001
 40
0.0
 40
0.0
 40
0.0
 40
0.0
 40
0.243297956
 40
1.0
 40
1.0
 40
1.0
 40
1.0
 10
15.7300587315
 20
11.9283961743
 30
0.0
 10
15.7304821254
 20
11.9284220034
 30
0.0
 10
15.7322165218
 20
11.9286204172
 30
0.0
 10
15.7338995472
 20
11.929193901
 30
0.0
 10
15.7350826107
 20
11.9297777382
 30
0.0
  0
SPLINE
  5
4B4
100
AcDbEntity
  8
0
100
AcDbSpline
 62
7
  6
CONTINUOUS
 70
0
 71
3
 72
11
 73
7
 74
0
 42
0.0000001
 43
0.0000001
 44
0.0000000001
 40
0.0
 40
0.0
 40
0.0
 40
0.0
 40
0.2766950298
 40
0.534032544
 40
0.773089551
 40
1.0
 40
1.0
 40
1.0
 40
1.0
 10
14.8864786041
 20
12.502403173
 30
0.0
 10
14.8914406515
 20
12.502403173
 30
0.0
 10
14.9010538378
 20
12.5015027643
 30
0.0
 10
14.9143628547
 20
12.4971775265
 30
0.0
 10
14.9253972635
 20
12.4900574446
 30
0.0
 10
14.930877066
 20
12.4835388207
 30
0.0
 10
14.9329576461
 20
12.4800416851
 30
0.0
  0
SPLINE
  5
4B5
100
AcDbEntity
  8
0
100
AcDbSpline
 62
7
  6
CONTINUOUS
 70
0
 71
3
 72
13
 73
9
 74
0
 42
0.0000001
 43
0.0000001
 44
0.0000000001
 40
0.0
 40
0.0
 40
0.0
 40
0.0
 40
0.1076448986
 40
0.2184364488
 40
0.334089433
 40
0.4557028203
 40
0.7171549895
 40
1.0
 40
1.0
 40
1.0
 40
1.0
 10
14.9357487384
 20
12.4743094424
 30
0.0
 10
14.936743886
 20
12.471741094
 30
0.0
 10
14.9381986619
 20
12.4662926584
 30
0.0
 10
14.9386517616
 20
12.4577016292
 30
0.0
 10
14.937406588
 20
12.4488312697
 30
0.0
 10
14.9334490034
 20
12.4366417285
 30
0.0
 10
14.9243653662
 20
12.4219281427
 30
0.0
 10
14.9141665995
 20
12.4122278248
 30
0.0
 10
14.9084029956
 20
12.4078505201
 30
0.0
  0
SPLINE
  5
4B6
100
AcDbEntity
  8
0
100
AcDbSpline
 62
7
  6
CONTINUOUS
 70
0
 71
3
 72
11
 73
7
 74
0
 42
0.0000001
 43
0.0000001
 44
0.0000000001
 40
0.0
 40
0.0
 40
0.0
 40
0.0
 40
0.2535298926
 40
0.508296923
 40
0.7589482544
 40
1.0
 40
1.0
 40
1.0
 40
1.0
 10
14.9084029956
 20
12.4078505201
 30
0.0
 10
14.9042510759
 20
12.4046972471
 30
0.0
 10
14.8954013992
 20
12.3990402607
 30
0.0
 10
14.8810620052
 20
12.3927282787
 30
0.0
 10
14.8661607785
 20
12.3887918654
 30
0.0
 10
14.8560333979
 20
12.3878416125
 30
0.0
 10
14.8510764043
 20
12.3878416125
 30
0.0
  0
SPLINE
  5
4B7
100
AcDbEntity
  8
0
100
AcDbSpline
 62
7
  6
CONTINUOUS
 70
0
 71
3
 72
11
 73
7
 74
0
 42
0.0000001
 43
0.0000001
 44
0.0000000001
 40
0.0
 40
0.0
 40
0.0
 40
0.0
 40
0.2745089597
 40
0.5319288027
 40
0.7723664746
 40
1.0
 40
1.0
 40
1.0
 40
1.0
 10
14.8510764043
 20
12.3878416125
 30
0.0
 10
14.846585176
 20
12.3878416125
 30
0.0
 10
14.8378565153
 20
12.3885838559
 30
0.0
 10
14.8256273976
 20
12.3921149993
 30
0.0
 10
14.8151568143
 20
12.397938185
 30
0.0
 10
14.8095634801
 20
12.4033312816
 30
0.0
 10
14.8072790186
 20
12.4062726515
 30
0.0
  0
SPLINE
  5
4B8
100
AcDbEntity
  8
0
100
AcDbSpline
 62
7
  6
CONTINUOUS
 70
0
 71
3
 72
14
 73
10
 74
0
 42
0.0000001
 43
0.0000001
 44
0.0000000001
 40
0.0
 40
0.0
 40
0.0
 40
0.0
 40
0.1084670408
 40
0.2185238058
 40
0.3327422564
 40
0.4529790724
 40
0.580179554
 40
0.7144299512
 40
1.0
 40
1.0
 40
1.0
 40
1.0
 10
14.8050792345
 20
12.4094149676
 30
0.0
 10
14.803484216
 20
12.41195433
 30
0.0
 10
14.8008657661
 20
12.4174735298
 30
0.0
 10
14.7989753249
 20
12.426556801
 30
0.0
 10
14.7991496599
 20
12.4361537848
 30
0.0
 10
14.8013672378
 20
12.4459659078
 30
0.0
 10
14.8055310597
 20
12.4557203893
 30
0.0
 10
14.8136615874
 20
12.4685284862
 30
0.0
 10
14.8220227119
 20
12.4768535667
 30
0.0
 10
14.8282528807
 20
12.4817029473
 30
0.0
  0
SPLINE
  5
4B9
100
AcDbEntity
  8
0
100
AcDbSpline
 62
7
  6
CONTINUOUS
 70
0
 71
3
 72
11
 73
7
 74
0
 42
0.0000001
 43
0.0000001
 44
0.0000000001
 40
0.0
 40
0.0
 40
0.0
 40
0.0
 40
0.2535298926
 40
0.508296923
 40
0.7589482544
 40
1.0
 40
1.0
 40
1.0
 40
1.0
 10
14.8291520128
 20
12.4823942654
 30
0.0
 10
14.8333039325
 20
12.4855475384
 30
0.0
 10
14.8421536092
 20
12.4912045249
 30
0.0
 10
14.8564930032
 20
12.4975165068
 30
0.0
 10
14.8713942299
 20
12.5014529201
 30
0.0
 10
14.8815216105
 20
12.502403173
 30
0.0
 10
14.8864786041
 20
12.502403173
 30
0.0
  0
SPLINE
  5
4BA
100
AcDbEntity
  8
0
100
AcDbSpline
 62
7
  6
CONTINUOUS
 70
0
 71
3
 72
9
 73
5
 74
0
 42
0.0000001
 43
0.0000001
 44
0.0000000001
 40
0.0
 40
0.0
 40
0.0
 40
0.0
 40
0.24070062
 40
1.0
 40
1.0
 40
1.0
 40
1.0
 10
15.7521352247
 20
12.0641985706
 30
0.0
 10
15.7524026749
 20
12.0635556353
 30
0.0
 10
15.7534723581
 20
12.0608673612
 30
0.0
 10
15.7543832361
 20
12.0581169006
 30
0.0
 10
15.754998306
 20
12.0560081242
 30
0.0
  0
SPLINE
  5
4BB
100
AcDbEntity
  8
0
100
AcDbSpline
 62
7
  6
CONTINUOUS
 70
0
 71
3
 72
17
 73
13
 74
0
 42
0.0000001
 43
0.0000001
 44
0.0000000001
 40
0.0
 40
0.0
 40
0.0
 40
0.0
 40
0.1313298069
 40
0.2681277194
 40
0.4062614598
 40
0.5413296847
 40
0.6695072665
 40
0.7883013383
 40
0.8441232721
 40
0.8977122163
 40
0.9494789373
 40
1.0
 40
1.0
 40
1.0
 40
1.0
 10
16.6037212505
 20
12.3587226625
 30
0.0
 10
16.593472732
 20
12.3587226625
 30
0.0
 10
16.5725033098
 20
12.356354193
 30
0.0
 10
16.5421224414
 20
12.3466957447
 30
0.0
 10
16.5137710346
 20
12.3314700297
 30
0.0
 10
16.4892763284
 20
12.3116318933
 30
0.0
 10
16.4702050273
 20
12.288433815
 30
0.0
 10
16.4596638433
 20
12.2669698505
 30
0.0
 10
16.4553045562
 20
12.2496448165
 30
0.0
 10
16.4540965777
 20
12.2370720275
 30
0.0
 10
16.4549063137
 20
12.2248805514
 30
0.0
 10
16.45681608
 20
12.2170794635
 30
0.0
 10
16.4580932544
 20
12.2133495803
 30
0.0
  0
SPLINE
  5
4BC
100
AcDbEntity
  8
0
100
AcDbSpline
 62
7
  6
CONTINUOUS
 70
0
 71
3
 72
13
 73
9
 74
0
 42
0.0000001
 43
0.0000001
 44
0.0000000001
 40
0.0
 40
0.0
 40
0.0
 40
0.0
 40
0.1164905144
 40
0.2338817607
 40
0.353041321
 40
0.4747883606
 40
0.7286402254
 40
1.0
 40
1.0
 40
1.0
 40
1.0
 10
14.5178918221
 20
12.079677547
 30
0.0
 10
14.5159299339
 20
12.0733266281
 30
0.0
 10
14.512680004
 20
12.0603513064
 30
0.0
 10
14.5099022779
 20
12.0403625716
 30
0.0
 10
14.5092286699
 20
12.0198912581
 30
0.0
 10
14.5111565532
 20
11.9916838105
 30
0.0
 10
14.519081071
 20
11.9554024557
 30
0.0
 10
14.5303969426
 20
11.9275016668
 30
0.0
 10
14.5372183092
 20
11.9136011832
 30
0.0
  0
SPLINE
  5
4BD
100
AcDbEntity
  8
0
100
AcDbSpline
 62
7
  6
CONTINUOUS
 70
0
 71
3
 72
11
 73
7
 74
0
 42
0.0000001
 43
0.0000001
 44
0.0000000001
 40
0.0
 40
0.0
 40
0.0
 40
0.0
 40
0.2335933553
 40
0.4754065141
 40
0.7299007179
 40
1.0
 40
1.0
 40
1.0
 40
1.0
 10
14.5189008654
 20
12.0796356739
 30
0.0
 10
14.5165809277
 20
12.0680166242
 30
0.0
 10
14.5141266173
 20
12.0438620679
 30
0.0
 10
14.5171148983
 20
12.0067815364
 30
0.0
 10
14.5266220349
 20
11.9689273932
 30
0.0
 10
14.5368562779
 20
11.9442593835
 30
0.0
 10
14.5428917386
 20
11.9319604077
 30
0.0
  0
SPLINE
  5
4BE
100
AcDbEntity
  8
0
100
AcDbSpline
 62
7
  6
CONTINUOUS
 70
0
 71
3
 72
28
 73
24
 74
0
 42
0.0000001
 43
0.0000001
 44
0.0000000001
 40
0.0
 40
0.0
 40
0.0
 40
0.0
 40
0.0543339661
 40
0.0835078018
 40
0.1139732129
 40
0.1456862418
 40
0.1785676369
 40
0.2473804638
 40
0.3194301569
 40
0.3935011341
 40
0.4682614561
 40
0.5423423033
 40
0.6144121956
 40
0.6832547724
 40
0.7478534059
 40
0.8074900392
 40
0.8618663336
 40
0.8871732217
 40
0.9113232099
 40
0.9344635745
 40
0.9567895509
 40
0.978542624
 40
1.0
 40
1.0
 40
1.0
 40
1.0
 10
14.5372183092
 20
11.9136011832
 30
0.0
 10
14.5471374845
 20
11.893388029
 30
0.0
 10
14.5656120523
 20
11.8638401695
 30
0.0
 10
14.5952285237
 20
11.8270249289
 30
0.0
 10
14.6211060394
 20
11.7993425865
 30
0.0
 10
14.6499313458
 20
11.7724535386
 30
0.0
 10
14.69268309
 20
11.7373537205
 30
0.0
 10
14.7523385408
 20
11.6967450748
 30
0.0
 10
14.8309520402
 20
11.6545688134
 30
0.0
 10
14.9155844645
 20
11.6193336314
 30
0.0
 10
15.0039602602
 20
11.591987865
 30
0.0
 10
15.0937125424
 20
11.5732627641
 30
0.0
 10
15.1824389628
 20
11.5636606426
 30
0.0
 10
15.2677738712
 20
11.563438813
 30
0.0
 10
15.3474715591
 20
11.5726194337
 30
0.0
 10
15.4194298001
 20
11.5909845517
 30
0.0
 10
15.4726732931
 20
11.6141918367
 30
0.0
 10
15.5091538097
 20
11.6371421496
 30
0.0
 10
15.5327840703
 20
11.6558670691
 30
0.0
 10
15.5531632202
 20
11.6763894599
 30
0.0
 10
15.5701392109
 20
11.6985801365
 30
0.0
 10
15.5835718585
 20
11.7222815262
 30
0.0
 10
15.590113963
 20
11.7390290865
 30
0.0
 10
15.5927384145
 20
11.7475248195
 30
0.0
  0
SPLINE
  5
4BF
100
AcDbEntity
  8
0
100
AcDbSpline
 62
7
  6
CONTINUOUS
 70
0
 71
3
 72
14
 73
10
 74
0
 42
0.0000001
 43
0.0000001
 44
0.0000000001
 40
0.0
 40
0.0
 40
0.0
 40
0.0
 40
0.137881866
 40
0.2758067615
 40
0.540110326
 40
0.664250249
 40
0.7817437349
 40
0.893219959
 40
1.0
 40
1.0
 40
1.0
 40
1.0
 10
14.8280681735
 20
12.4819113028
 30
0.0
 10
14.8323871591
 20
12.4854479494
 30
0.0
 10
14.8416095803
 20
12.4918509992
 30
0.0
 10
14.8613478434
 20
12.5013751437
 30
0.0
 10
14.8827737702
 20
12.5058104988
 30
0.0
 10
14.903290336
 20
12.5038118693
 30
0.0
 10
14.9170046015
 20
12.4993296206
 30
0.0
 10
14.9286471109
 20
12.4920489748
 30
0.0
 10
14.9347392906
 20
12.4854688659
 30
0.0
 10
14.9371954397
 20
12.4819113028
 30
0.0
  0
SPLINE
  5
4C0
100
AcDbEntity
  8
0
100
AcDbSpline
 62
7
  6
CONTINUOUS
 70
0
 71
3
 72
13
 73
9
 74
0
 42
0.0000001
 43
0.0000001
 44
0.0000000001
 40
0.0
 40
0.0
 40
0.0
 40
0.0
 40
0.2699859368
 40
0.523128064
 40
0.644934564
 40
0.7644592365
 40
0.8825253977
 40
1.0
 40
1.0
 40
1.0
 40
1.0
 10
14.4138401025
 20
11.9249967861
 30
0.0
 10
14.4062201294
 20
11.9418821719
 30
0.0
 10
14.3937919208
 20
11.9757415452
 30
0.0
 10
14.3858949478
 20
12.0195588868
 30
0.0
 10
14.3848577689
 20
12.0535222529
 30
0.0
 10
14.3866140799
 20
12.0781653265
 30
0.0
 10
14.3908848285
 20
12.1021946843
 30
0.0
 10
14.3954029482
 20
12.1177500756
 30
0.0
 10
14.3980625686
 20
12.1253591936
 30
0.0
  0
SPLINE
  5
4C1
100
AcDbEntity
  8
0
100
AcDbSpline
 62
7
  6
CONTINUOUS
 70
0
 71
3
 72
25
 73
21
 74
0
 42
0.0000001
 43
0.0000001
 44
0.0000000001
 40
0.0
 40
0.0
 40
0.0
 40
0.0
 40
0.0211583678
 40
0.0425793295
 40
0.0644525904
 40
0.0869466797
 40
0.134294179
 40
0.1855103812
 40
0.2409895227
 40
0.300756315
 40
0.3645396903
 40
0.4318397635
 40
0.5019845868
 40
0.5741781813
 40
0.6475419101
 40
0.721151961
 40
0.7940750516
 40
0.8654038013
 40
0.9342920289
 40
1.0
 40
1.0
 40
1.0
 40
1.0
 10
14.3980625686
 20
12.1253591936
 30
0.0
 10
14.4010635713
 20
12.1339449994
 30
0.0
 10
14.4081543894
 20
12.15087494
 30
0.0
 10
14.4218336853
 20
12.1750367586
 30
0.0
 10
14.4385313883
 20
12.1979366267
 30
0.0
 10
14.4651266695
 20
12.2271299918
 30
0.0
 10
14.5060104467
 20
12.2598938758
 30
0.0
 10
14.56438177
 20
12.2917366197
 30
0.0
 10
14.6318071339
 20
12.3163710543
 30
0.0
 10
14.7070390052
 20
12.3334073249
 30
0.0
 10
14.7887132546
 20
12.3425791464
 30
0.0
 10
14.8753321658
 20
12.3437335573
 30
0.0
 10
14.9652971259
 20
12.3368572467
 30
0.0
 10
15.0569381736
 20
12.3220801755
 30
0.0
 10
15.1485484683
 20
12.2996781666
 30
0.0
 10
15.23841888
 20
12.2700688873
 30
0.0
 10
15.3248708242
 20
12.2338052795
 30
0.0
 10
15.4062937696
 20
12.1915607196
 30
0.0
 10
15.4811632627
 20
12.1441304269
 30
0.0
 10
15.5270249513
 20
12.1086721002
 30
0.0
 10
15.548414754
 20
12.0902255596
 30
0.0
  0
SPLINE
  5
4C2
100
AcDbEntity
  8
0
100
AcDbSpline
 62
7
  6
CONTINUOUS
 70
0
 71
3
 72
11
 73
7
 74
0
 42
0.0000001
 43
0.0000001
 44
0.0000000001
 40
0.0
 40
0.0
 40
0.0
 40
0.0
 40
0.2692588503
 40
0.5258659172
 40
0.7694957656
 40
1.0
 40
1.0
 40
1.0
 40
1.0
 10
15.5685067568
 20
12.0722784391
 30
0.0
 10
15.5817955006
 20
12.0599765874
 30
0.0
 10
15.6068829082
 20
12.0349891946
 30
0.0
 10
15.6404826562
 20
11.9955453122
 30
0.0
 10
15.668872886
 20
11.9553444114
 30
0.0
 10
15.6845934281
 20
11.927518117
 30
0.0
 10
15.6914228673
 20
11.9136011832
 30
0.0
  0
SPLINE
  5
4C3
100
AcDbEntity
  8
0
100
AcDbSpline
 62
7
  6
CONTINUOUS
 70
0
 71
3
 72
22
 73
18
 74
0
 42
0.0000001
 43
0.0000001
 44
0.0000000001
 40
0.0
 40
0.0
 40
0.0
 40
0.0
 40
0.0658192106
 40
0.128838898
 40
0.1893242038
 40
0.2477168291
 40
0.3045728959
 40
0.3605197426
 40
0.4162293245
 40
0.4723936127
 40
0.5296786245
 40
0.5886855932
 40
0.6499231113
 40
0.7137981149
 40
0.7806062142
 40
0.8505439813
 40
1.0
 40
1.0
 40
1.0
 40
1.0
 10
15.6914228673
 20
11.9136011832
 30
0.0
 10
15.696777292
 20
11.9026900128
 30
0.0
 10
15.7062906727
 20
11.8808356384
 30
0.0
 10
15.7169396947
 20
11.8474696718
 30
0.0
 10
15.723546547
 20
11.814459475
 30
0.0
 10
15.7260616901
 20
11.7820223113
 30
0.0
 10
15.724448887
 20
11.7503595505
 30
0.0
 10
15.7187183693
 20
11.7196770497
 30
0.0
 10
15.7088920178
 20
11.690184105
 30
0.0
 10
15.6950430178
 20
11.6620797405
 30
0.0
 10
15.6772684575
 20
11.6355489299
 30
0.0
 10
15.655696934
 20
11.6107563787
 30
0.0
 10
15.6304758383
 20
11.5878482524
 30
0.0
 10
15.601768814
 20
11.5669592016
 30
0.0
 10
15.5697565109
 20
11.5481995485
 30
0.0
 10
15.5218830848
 20
11.5256856376
 30
0.0
 10
15.4831480457
 20
11.5131187674
 30
0.0
 10
15.4563925547
 20
11.5063496371
 30
0.0
  0
SPLINE
  5
4C4
100
AcDbEntity
  8
0
100
AcDbSpline
 62
7
  6
CONTINUOUS
 70
0
 71
3
 72
11
 73
7
 74
0
 42
0.0000001
 43
0.0000001
 44
0.0000000001
 40
0.0
 40
0.0
 40
0.0
 40
0.0
 40
0.2272599652
 40
0.4672203857
 40
0.7244940369
 40
1.0
 40
1.0
 40
1.0
 40
1.0
 10
14.9371954397
 20
12.4819113028
 30
0.0
 10
14.9348268315
 20
12.4852857687
 30
0.0
 10
14.9288739291
 20
12.4915123505
 30
0.0
 10
14.9174331659
 20
12.4982570939
 30
0.0
 10
14.9039096841
 20
12.5023573317
 30
0.0
 10
14.8942121693
 20
12.5032117577
 30
0.0
 10
14.889214145
 20
12.5032117577
 30
0.0
  0
SPLINE
  5
4C5
100
AcDbEntity
  8
0
100
AcDbSpline
 62
7
  6
CONTINUOUS
 70
0
 71
3
 72
13
 73
9
 74
0
 42
0.0000001
 43
0.0000001
 44
0.0000000001
 40
0.0
 40
0.0
 40
0.0
 40
0.0
 40
0.271374067
 40
0.5252059319
 40
0.6469516097
 40
0.7661144816
 40
0.8835090333
 40
1.0
 40
1.0
 40
1.0
 40
1.0
 10
15.7059619588
 20
11.9233927696
 30
0.0
 10
15.7144891281
 20
11.9060162253
 30
0.0
 10
15.728635473
 20
11.8711410546
 30
0.0
 10
15.7385384734
 20
11.8257893294
 30
0.0
 10
15.7409495895
 20
11.7905313248
 30
0.0
 10
15.7401060435
 20
11.7649418381
 30
0.0
 10
15.7366361571
 20
11.7399551625
 30
0.0
 10
15.7325742038
 20
11.7237354661
 30
0.0
 10
15.7301212197
 20
11.7157969642
 30
0.0
  0
SPLINE
  5
4C6
100
AcDbEntity
  8
0
100
AcDbSpline
 62
7
  6
CONTINUOUS
 70
0
 71
3
 72
10
 73
6
 74
0
 42
0.0000001
 43
0.0000001
 44
0.0000000001
 40
0.0
 40
0.0
 40
0.0
 40
0.0
 40
0.4907580008
 40
0.7460104782
 40
1.0
 40
1.0
 40
1.0
 40
1.0
 10
14.889214145
 20
12.5032117577
 30
0.0
 10
14.8784709895
 20
12.5032117577
 30
0.0
 10
14.8620279871
 20
12.5001187399
 30
0.0
 10
14.841951011
 20
12.4912954021
 30
0.0
 10
14.8325000222
 20
12.4852688462
 30
0.0
 10
14.8280681735
 20
12.4819113028
 30
0.0
  0
SPLINE
  5
4C7
100
AcDbEntity
  8
0
100
AcDbSpline
 62
7
  6
CONTINUOUS
 70
0
 71
3
 72
9
 73
5
 74
0
 42
0.0000001
 43
0.0000001
 44
0.0000000001
 40
0.0
 40
0.0
 40
0.0
 40
0.0
 40
0.2526417113
 40
1.0
 40
1.0
 40
1.0
 40
1.0
 10
14.9125372535
 20
12.4021173831
 30
0.0
 10
14.9134302304
 20
12.4027414855
 30
0.0
 10
14.9169240544
 20
12.405269379
 30
0.0
 10
14.9202519427
 20
12.4080281055
 30
0.0
 10
14.9226191514
 20
12.4102150543
 30
0.0
  0
SPLINE
  5
4C8
100
AcDbEntity
  8
0
100
AcDbSpline
 62
7
  6
CONTINUOUS
 70
0
 71
3
 72
13
 73
9
 74
0
 42
0.0000001
 43
0.0000001
 44
0.0000000001
 40
0.0
 40
0.0
 40
0.0
 40
0.0
 40
0.2743478576
 40
0.5290536172
 40
0.650331463
 40
0.7684342014
 40
0.8845558564
 40
1.0
 40
1.0
 40
1.0
 40
1.0
 10
14.9260093845
 20
12.4135207367
 30
0.0
 10
14.9303701997
 20
12.4180131324
 30
0.0
 10
14.9378679736
 20
12.4276511201
 30
0.0
 10
14.9436054611
 20
12.4415898032
 30
0.0
 10
14.9453027018
 20
12.4527834155
 30
0.0
 10
14.9451702425
 20
12.4609356628
 30
0.0
 10
14.9436557577
 20
12.4688105576
 30
0.0
 10
14.9417416993
 20
12.4737714909
 30
0.0
 10
14.9405812546
 20
12.4761366859
 30
0.0
  0
SPLINE
  5
4C9
100
AcDbEntity
  8
0
100
AcDbSpline
 62
7
  6
CONTINUOUS
 70
0
 71
3
 72
13
 73
9
 74
0
 42
0.0000001
 43
0.0000001
 44
0.0000000001
 40
0.0
 40
0.0
 40
0.0
 40
0.0
 40
0.1151523246
 40
0.2314616303
 40
0.35000565
 40
0.4716859162
 40
0.7266819286
 40
1.0
 40
1.0
 40
1.0
 40
1.0
 10
13.677392588
 20
12.131246059
 30
0.0
 10
13.6801819903
 20
12.1255607699
 30
0.0
 10
13.68663939
 20
12.1145293195
 30
0.0
 10
13.6986957573
 20
12.0994447617
 30
0.0
 10
13.713015354
 20
12.0859574824
 30
0.0
 10
13.7352115048
 20
12.0700547763
 30
0.0
 10
13.7680508277
 20
12.0550377364
 30
0.0
 10
13.7966986538
 20
12.0489821092
 30
0.0
 10
13.8116284676
 20
12.0472416418
 30
0.0
  0
SPLINE
  5
4CA
100
AcDbEntity
  8
0
100
AcDbSpline
 62
7
  6
CONTINUOUS
 70
0
 71
3
 72
9
 73
5
 74
0
 42
0.0000001
 43
0.0000001
 44
0.0000000001
 40
0.0
 40
0.0
 40
0.0
 40
0.0
 40
0.233794159
 40
1.0
 40
1.0
 40
1.0
 40
1.0
 10
16.4302026531
 20
12.0532680893
 30
0.0
 10
16.430446939
 20
12.0529747622
 30
0.0
 10
16.4315454994
 20
12.0517650233
 30
0.0
 10
16.4328282426
 20
12.0507295868
 30
0.0
 10
16.4338647781
 20
12.0500291173
 30
0.0
  0
SPLINE
  5
4CB
100
AcDbEntity
  8
0
100
AcDbSpline
 62
7
  6
CONTINUOUS
 70
0
 71
3
 72
12
 73
8
 74
0
 42
0.0000001
 43
0.0000001
 44
0.0000000001
 40
0.0
 40
0.0
 40
0.0
 40
0.0
 40
0.1126875772
 40
0.2275600028
 40
0.4670247884
 40
0.7241704055
 40
1.0
 40
1.0
 40
1.0
 40
1.0
 10
16.9694207261
 20
12.3230254723
 30
0.0
 10
16.9675803015
 20
12.3258194128
 30
0.0
 10
16.9634259685
 20
12.3311863806
 30
0.0
 10
16.9533831626
 20
12.340806697
 30
0.0
 10
16.9376970273
 20
12.3504139515
 30
0.0
 10
16.9156232162
 20
12.3572861814
 30
0.0
 10
16.8997420445
 20
12.3587226625
 30
0.0
 10
16.8915528112
 20
12.3587226625
 30
0.0
  0
SPLINE
  5
4CC
100
AcDbEntity
  8
0
100
AcDbSpline
 62
7
  6
CONTINUOUS
 70
0
 71
3
 72
12
 73
8
 74
0
 42
0.0000001
 43
0.0000001
 44
0.0000000001
 40
0.0
 40
0.0
 40
0.0
 40
0.0
 40
0.1108686871
 40
0.2416569472
 40
0.5174846364
 40
0.7758781565
 40
1.0
 40
1.0
 40
1.0
 40
1.0
 10
17.0069819158
 20
11.8235886834
 30
0.0
 10
17.0066321973
 20
11.8243013347
 30
0.0
 10
17.0057963929
 20
11.8258182454
 30
0.0
 10
17.0038586567
 20
11.8289769544
 30
0.0
 10
17.001171041
 20
11.8329110052
 30
0.0
 10
16.997917768
 20
11.8372595983
 30
0.0
 10
16.9957325536
 20
11.839937792
 30
0.0
 10
16.9946814591
 20
11.8411503944
 30
0.0
  0
SPLINE
  5
4CD
100
AcDbEntity
  8
0
100
AcDbSpline
 62
7
  6
CONTINUOUS
 70
0
 71
3
 72
17
 73
13
 74
0
 42
0.0000001
 43
0.0000001
 44
0.0000000001
 40
0.0
 40
0.0
 40
0.0
 40
0.0
 40
0.1313298069
 40
0.2681277194
 40
0.4062614598
 40
0.5413296847
 40
0.6695072665
 40
0.7883013383
 40
0.8441232721
 40
0.8977122163
 40
0.9494789373
 40
1.0
 40
1.0
 40
1.0
 40
1.0
 10
13.8981045807
 20
12.3587226625
 30
0.0
 10
13.8878560621
 20
12.3587226625
 30
0.0
 10
13.8668866399
 20
12.356354193
 30
0.0
 10
13.8365057715
 20
12.3466957447
 30
0.0
 10
13.8081543647
 20
12.3314700297
 30
0.0
 10
13.7836596585
 20
12.3116318933
 30
0.0
 10
13.7645883574
 20
12.288433815
 30
0.0
 10
13.7540471734
 20
12.2669698505
 30
0.0
 10
13.7496878863
 20
12.2496448165
 30
0.0
 10
13.7484799078
 20
12.2370720275
 30
0.0
 10
13.7492896438
 20
12.2248805514
 30
0.0
 10
13.7511994101
 20
12.2170794635
 30
0.0
 10
13.7524765846
 20
12.2133495803
 30
0.0
  0
SPLINE
  5
4CE
100
AcDbEntity
  8
0
100
AcDbSpline
 62
7
  6
CONTINUOUS
 70
0
 71
3
 72
11
 73
7
 74
0
 42
0.0000001
 43
0.0000001
 44
0.0000000001
 40
0.0
 40
0.0
 40
0.0
 40
0.0
 40
0.3367293229
 40
0.6151576244
 40
0.8310147815
 40
1.0
 40
1.0
 40
1.0
 40
1.0
 10
13.9209520774
 20
12.4500508511
 30
0.0
 10
13.921026406
 20
12.4503732009
 30
0.0
 10
13.9211945229
 20
12.4509560226
 30
0.0
 10
13.9215407794
 20
12.4516994975
 30
0.0
 10
13.9219499641
 20
12.4522201416
 30
0.0
 10
13.9223107441
 20
12.4523940566
 30
0.0
 10
13.9224757787
 20
12.4524120614
 30
0.0
  0
SPLINE
  5
4CF
100
AcDbEntity
  8
0
100
AcDbSpline
 62
7
  6
CONTINUOUS
 70
0
 71
3
 72
11
 73
7
 74
0
 42
0.0000001
 43
0.0000001
 44
0.0000000001
 40
0.0
 40
0.0
 40
0.0
 40
0.0
 40
0.2266154842
 40
0.4628593747
 40
0.7183147045
 40
1.0
 40
1.0
 40
1.0
 40
1.0
 10
15.73009716
 20
12.0846235994
 30
0.0
 10
15.7314058856
 20
12.084624074
 30
0.0
 10
15.7340910906
 20
12.0842669262
 30
0.0
 10
15.7379676887
 20
12.0826855837
 30
0.0
 10
15.7416499556
 20
12.080103525
 30
0.0
 10
15.7438264025
 20
12.0778692503
 30
0.0
 10
15.7448734614
 20
12.0766242554
 30
0.0
  0
LINE
  5
4D0
100
AcDbEntity
  8
0
100
AcDbLine
 62
7
  6
CONTINUOUS
 10
15.7448734614
 20
12.0766242554
 11
15.7470646969
 21
12.0737305283
  0
SPLINE
  5
4D1
100
AcDbEntity
  8
0
100
AcDbSpline
 62
7
  6
CONTINUOUS
 70
0
 71
3
 72
9
 73
5
 74
0
 42
0.0000001
 43
0.0000001
 44
0.0000000001
 40
0.0
 40
0.0
 40
0.0
 40
0.0
 40
0.2395413734
 40
1.0
 40
1.0
 40
1.0
 40
1.0
 10
15.7470646969
 20
12.0737305283
 30
0.0
 10
15.7473793715
 20
12.0732710603
 30
0.0
 10
15.7486537636
 20
12.0713261429
 30
0.0
 10
15.7497762611
 20
12.0692834097
 30
0.0
 10
15.7505551143
 20
12.0676962737
 30
0.0
  0
SPLINE
  5
4D2
100
AcDbEntity
  8
0
100
AcDbSpline
 62
7
  6
CONTINUOUS
 70
0
 71
3
 72
10
 73
6
 74
0
 42
0.0000001
 43
0.0000001
 44
0.0000000001
 40
0.0
 40
0.0
 40
0.0
 40
0.0
 40
0.2304680484
 40
0.4774173574
 40
1.0
 40
1.0
 40
1.0
 40
1.0
 10
17.2548746537
 20
12.6463424524
 30
0.0
 10
17.2538119312
 20
12.6463424266
 30
0.0
 10
17.2516093487
 20
12.6460479891
 30
0.0
 10
17.2471983711
 20
12.6446692291
 30
0.0
 10
17.2440416858
 20
12.6429586387
 30
0.0
 10
17.2420429833
 20
12.6416125802
 30
0.0
  0
SPLINE
  5
4D3
100
AcDbEntity
  8
0
100
AcDbSpline
 62
7
  6
CONTINUOUS
 70
0
 71
3
 72
11
 73
7
 74
0
 42
0.0000001
 43
0.0000001
 44
0.0000000001
 40
0.0
 40
0.0
 40
0.0
 40
0.0
 40
0.2175552133
 40
0.4778419359
 40
0.7500053697
 40
1.0
 40
1.0
 40
1.0
 40
1.0
 10
13.8040024255
 20
12.0627818912
 30
0.0
 10
13.8037160344
 20
12.0633654944
 30
0.0
 10
13.803326247
 20
12.0647602531
 30
0.0
 10
13.8031427377
 20
12.0670016327
 30
0.0
 10
13.80333769
 20
12.0693412424
 30
0.0
 10
13.8037205132
 20
12.070866185
 30
0.0
 10
13.8039904049
 20
12.0715627463
 30
0.0
  0
ELLIPSE
  5
4D4
100
AcDbEntity
  8
0
100
AcDbEllipse
 62
7
  6
CONTINUOUS
 10
15.6814490069
 20
4.9007459567
 30
0.0
 11
0.0
 21
0.9330127019
 31
0.0
 40
0.2679491924
 41
-1.4082729129
 42
-0.4627791546
  0
ELLIPSE
  5
4D5
100
AcDbEntity
  8
0
100
AcDbEllipse
 62
7
  6
CONTINUOUS
 10
15.6814490069
 20
4.9007459567
 30
0.0
 11
0.0
 21
0.9330127019
 31
0.0
 40
0.2679491924
 41
0.4627791546
 42
1.4082729129
  0
ELLIPSE
  5
4D6
100
AcDbEntity
  8
0
100
AcDbEllipse
 62
7
  6
CONTINUOUS
 10
16.562759848
 20
12.1653096378
 30
0.0
 11
-0.5009578576
 21
0.6019884147
 31
0.0
 40
0.2216133796
 41
6.8892311715
 42
7.8556808616
  0
ELLIPSE
  5
4D7
100
AcDbEntity
  8
0
100
AcDbEllipse
 62
7
  6
CONTINUOUS
 10
16.562759848
 20
12.1653096378
 30
0.0
 11
-0.5009578576
 21
0.6019884147
 31
0.0
 40
0.2216133796
 41
-1.2650062031
 42
-0.3195124449
  0
ENDSEC
  0
SECTION
  2
OBJECTS
  0
DICTIONARY
  5
C
100
AcDbDictionary
280
0
281
1
  3
ACAD_GROUP
350
D
  3
ACAD_MLINESTYLE
350
17
  3
ACAD_LAYOUT
350
1A
  3
ACAD_PLOTSETTINGS
350
19
  3
ACAD_PLOTSTYLENAME
350
E
  0
DICTIONARY
  5
D
102
{ACAD_REACTORS
330
C
102
}
100
AcDbDictionary
280
0
281
1
  0
ACDBDICTIONARYWDFLT
  5
E
102
{ACAD_REACTORS
330
C
102
}
100
AcDbDictionary
281
1
  3
Normal
350
F
100
AcDbDictionaryWithDefault
340
F
  0
DICTIONARY
  5
17
102
{ACAD_REACTORS
330
C
102
}
100
AcDbDictionary
280
0
281
1
  3
Standard
350
18
  0
DICTIONARY
  5
19
102
{ACAD_REACTORS
330
C
102
}
100
AcDbDictionary
281
1
  0
DICTIONARY
  5
1A
102
{ACAD_REACTORS
330
C
102
}
100
AcDbDictionary
281
1
  3
Model
350
4D8
  3
Layout1
350
4D9
  0
ACDBPLACEHOLDER
  5
F
102
{ACAD_REACTORS
330
E
102
}
  0
MLINESTYLE
  5
18
102
{ACAD_REACTORS
330
17
102
}
100
AcDbMlineStyle
  2
STANDARD
 70
0
  3

 62
256
 51
90.0
 52
90.0
 71
2
 49
0.5
 62
256
  6
BYLAYER
 49
-0.5
 62
256
  6
BYLAYER
  0
LAYOUT
  5
4D8
102
{ACAD_REACTORS
330
1A
102
}
100
AcDbPlotSettings
  1

  2
none_device
  4
ANSI_C_(22.00_x_17.00_Inches)
  6

 40
0.0
 41
0.0
 42
0.0
 43
0.0
 44
558.8
 45
431.8
 46
0.0
 47
0.0
 48
0.0
 49
0.0
140
0.0
141
0.0
142
1.0
143
1.0
 70
1024
 72
0
 73
0
 74
0
  7

 75
0
147
1.0
148
0.0
149
0.0
100
AcDbLayout
  1
Model
 70
0
 71
0
 10
0.0
 20
0.0
 11
22.0
 21
17.0
 12
0.0
 22
0.0
 32
0.0
 14
0.0
 24
0.0
 34
0.0
 15
0.0
 25
0.0
 35
0.0
146
0.0
 13
0.0
 23
0.0
 33
0.0
 16
1.0
 26
0.0
 36
0.0
 17
0.0
 27
1.0
 37
0.0
 76
0
330
262
345
0
346
0
  0
LAYOUT
  5
4D9
102
{ACAD_REACTORS
330
1A
102
}
100
AcDbPlotSettings
  1

  2
none_device
  4
ANSI_C_(22.00_x_17.00_Inches)
  6

 40
0.0
 41
0.0
 42
0.0
 43
0.0
 44
558.8
 45
431.8
 46
0.0
 47
0.0
 48
0.0
 49
0.0
140
0.0
141
0.0
142
1.0
143
1.0
 70
0
 72
0
 73
0
 74
0
  7

 75
0
147
1.0
148
0.0
149
0.0
100
AcDbLayout
  1
Layout1
 70
0
 71
1
 10
0.0
 20
0.0
 11
22.0
 21
17.0
 12
0.0
 22
0.0
 32
0.0
 14
0.0
 24
0.0
 34
0.0
 15
0.0
 25
0.0
 35
0.0
146
0.0
 13
0.0
 23
0.0
 33
0.0
 16
1.0
 26
0.0
 36
0.0
 17
0.0
 27
1.0
 37
0.0
 76
0
330
263
345
0
346
0
  0
ENDSEC
  0
EOF