999
DXF file: _cgs_temp_output.dxf
999
Pro/ENGINEER 2016360 by Parametric Technology Corporation
  0
SECTION
  2
HEADER
  9
$ACADVER
  1
AC1021
  9
$DWGCODEPAGE
  3
ANSI_1252
  9
$EXTMAX
 10
22.0
 20
17.0
 30
0.0
  9
$EXTMIN
 10
0.0
 20
0.0
 30
0.0
  9
$LIMMIN
 10
0.0
 20
0.0
  9
$LIMMAX
 10
22.0
 20
17.0
  9
$VIEWCTR
 10
11.0
 20
8.5
  9
$VIEWSIZE
 40
17.0
  9
$CLAYER
  8
0
  9
$LTSCALE
 40
1.21
  9
$CELTYPE
  6
BYLAYER
  9
$DIMSCALE
 40
1.0
  9
$DIMASZ
 40
0.1875
  9
$DIMEXO
 40
0.0625
  9
$DIMDLI
 40
0.836
  9
$DIMEXE
 40
0.125
  9
$DIMCEN
 40
0.198
  9
$DIMLFAC
 40
1.0
  9
$DIMBLK
  1
_CLOSED
  9
$DIMALT
 70
0
  9
$DIMALTF
 40
25.4
  9
$DIMTXT
 40
0.15625
  9
$DIMTOL
 70
0
  9
$DIMLIM
 70
0
  9
$DIMTFAC
 40
1.0
  9
$DIMGAP
 40
0.09
  9
$DIMDSEP
 70
46
  9
$AUNITS
 70
0
  9
$PDMODE
 70
3
  9
$PDSIZE
 40
0.3125
  9
$HANDSEED
  5
4B2
  9
$TILEMODE
 70
1
  9
$MEASUREMENT
 70
0
  9
$INSUNITS
 70
1
  0
ENDSEC
  0
SECTION
  2
CLASSES
  0
CLASS
  1
ACDBDICTIONARYWDFLT
  2
AcDbDictionaryWithDefault
  3
AutoCAD 2000
 90
0
 91
1
280
0
281
0
  0
CLASS
  1
ACDBPLACEHOLDER
  2
AcDbPlaceHolder
  3
AutoCAD 2000
 90
0
 91
1
280
0
281
0
  0
CLASS
  1
LAYOUT
  2
AcDbLayout
  3
AutoCAD 2000
 90
0
 91
0
280
0
281
0
  0
ENDSEC
  0
SECTION
  2
TABLES
  0
TABLE
  2
VPORT
  5
8
100
AcDbSymbolTable
 70
2
  0
VPORT
  5
1F4
100
AcDbSymbolTableRecord
100
AcDbViewportTableRecord
  2
*ACTIVE
 70
0
 10
0.0
 20
0.0
 11
1.0
 21
1.0
 12
11.0
 22
8.5
 13
0.0
 23
0.0
 14
1.0
 24
1.0
 15
0.0
 25
0.0
 16
0.0
 26
0.0
 36
1.0
 17
0.0
 27
0.0
 37
0.0
 40
17.0
 41
1.2941176471
 42
50.0
 43
0.0
 44
0.0
 50
0.0
 51
0.0
 71
0
 72
100
 73
1
 74
1
 75
0
 76
0
 77
0
 78
0
  0
ENDTAB
  0
TABLE
  2
LTYPE
  5
5
100
AcDbSymbolTable
 70
6
  0
LTYPE
  5
14
100
AcDbSymbolTableRecord
100
AcDbLinetypeTableRecord
  2
BYBLOCK
 70
0
  3

 72
65
 73
0
 40
0.0
  0
LTYPE
  5
15
100
AcDbSymbolTableRecord
100
AcDbLinetypeTableRecord
  2
BYLAYER
 70
0
  3

 72
65
 73
0
 40
0.0
  0
LTYPE
  5
16
100
AcDbSymbolTableRecord
100
AcDbLinetypeTableRecord
  2
CONTINUOUS
 70
64
  3
Solid line
 72
65
 73
0
 40
0.0
  0
LTYPE
  5
1F5
100
AcDbSymbolTableRecord
100
AcDbLinetypeTableRecord
  2
CENTER
 70
64
  3
____ _ ____ _ ____ _ ____ _ ____ _ ____ _ ____
 72
65
 73
4
 40
0.6
 49
0.375
 74
0
 49
-0.075
 74
0
 49
0.075
 74
0
 49
-0.075
 74
0
  0
LTYPE
  5
1F6
100
AcDbSymbolTableRecord
100
AcDbLinetypeTableRecord
  2
HIDDEN
 70
64
  3
- - - - - - - - - - - - - - - - - - - -
 72
65
 73
2
 40
0.2
 49
0.1
 74
0
 49
-0.1
 74
0
  0
LTYPE
  5
1F7
100
AcDbSymbolTableRecord
100
AcDbLinetypeTableRecord
  2
PHANTOM
 70
64
  3
_____ _ _ _____ _ _ _____ _ _ _____
 72
65
 73
6
 40
0.8
 49
0.45
 74
0
 49
-0.05
 74
0
 49
0.1
 74
0
 49
-0.05
 74
0
 49
0.1
 74
0
 49
-0.05
 74
0
  0
LTYPE
  5
1F8
100
AcDbSymbolTableRecord
100
AcDbLinetypeTableRecord
  2
DOT
 70
64
  3
. . . . . . . . . . . . . . . . . . . .
 72
65
 73
2
 40
0.2
 49
0.1
 74
0
 49
-0.1
 74
0
  0
LTYPE
  5
1F9
100
AcDbSymbolTableRecord
100
AcDbLinetypeTableRecord
  2
DASHED
 70
64
  3
- - - - - - - - - - - - - - - - - - - -
 72
65
 73
2
 40
0.2
 49
0.1
 74
0
 49
-0.1
 74
0
  0
ENDTAB
  0
TABLE
  2
LAYER
  5
2
100
AcDbSymbolTable
 70
36
  0
LAYER
  5
10
100
AcDbSymbolTableRecord
100
AcDbLayerTableRecord
  2
0
 70
0
 62
7
  6
CONTINUOUS
370
-3
390
F
  0
LAYER
  5
1FA
100
AcDbSymbolTableRecord
100
AcDbLayerTableRecord
  2
DEFAULT_1
 70
0
 62
7
  6
CENTER
370
-3
390
F
  0
LAYER
  5
1FB
100
AcDbSymbolTableRecord
100
AcDbLayerTableRecord
  2
DEFAULT_2
 70
0
 62
8
  6
HIDDEN
370
-3
390
F
  0
LAYER
  5
1FC
100
AcDbSymbolTableRecord
100
AcDbLayerTableRecord
  2
DEFAULT_3
 70
0
 62
7
  6
PHANTOM
370
-3
390
F
  0
LAYER
  5
1FD
100
AcDbSymbolTableRecord
100
AcDbLayerTableRecord
  2
01_ALL_DTM_PLN
 70
0
 62
7
  6
CONTINUOUS
370
-3
390
F
  0
LAYER
  5
1FE
100
AcDbSymbolTableRecord
100
AcDbLayerTableRecord
  2
01__ASM_ALL_DTM_PLN
 70
0
 62
7
  6
CONTINUOUS
370
-3
390
F
  0
LAYER
  5
1FF
100
AcDbSymbolTableRecord
100
AcDbLayerTableRecord
  2
01__ASM_DEF_DTM_PLN
 70
0
 62
7
  6
CONTINUOUS
370
-3
390
F
  0
LAYER
  5
200
100
AcDbSymbolTableRecord
100
AcDbLayerTableRecord
  2
01___PRT_ALL_DTM_PLN
 70
0
 62
7
  6
CONTINUOUS
370
-3
390
F
  0
LAYER
  5
201
100
AcDbSymbolTableRecord
100
AcDbLayerTableRecord
  2
01___PRT_DEF_DTM_PLN
 70
0
 62
7
  6
CONTINUOUS
370
-3
390
F
  0
LAYER
  5
202
100
AcDbSymbolTableRecord
100
AcDbLayerTableRecord
  2
02_ALL_AXES
 70
0
 62
7
  6
CONTINUOUS
370
-3
390
F
  0
LAYER
  5
203
100
AcDbSymbolTableRecord
100
AcDbLayerTableRecord
  2
02__ASM_ALL_AXES
 70
0
 62
7
  6
CONTINUOUS
370
-3
390
F
  0
LAYER
  5
204
100
AcDbSymbolTableRecord
100
AcDbLayerTableRecord
  2
02___PRT_ALL_AXES
 70
0
 62
7
  6
CONTINUOUS
370
-3
390
F
  0
LAYER
  5
205
100
AcDbSymbolTableRecord
100
AcDbLayerTableRecord
  2
03_ALL_CURVES
 70
0
 62
7
  6
CONTINUOUS
370
-3
390
F
  0
LAYER
  5
206
100
AcDbSymbolTableRecord
100
AcDbLayerTableRecord
  2
03__ASM_ALL_CURVES
 70
0
 62
7
  6
CONTINUOUS
370
-3
390
F
  0
LAYER
  5
207
100
AcDbSymbolTableRecord
100
AcDbLayerTableRecord
  2
03___PRT_ALL_CURVES
 70
0
 62
7
  6
CONTINUOUS
370
-3
390
F
  0
LAYER
  5
208
100
AcDbSymbolTableRecord
100
AcDbLayerTableRecord
  2
04_ALL_DTM_PNT
 70
0
 62
7
  6
CONTINUOUS
370
-3
390
F
  0
LAYER
  5
209
100
AcDbSymbolTableRecord
100
AcDbLayerTableRecord
  2
04__ASM_ALL_DTM_PNT
 70
0
 62
7
  6
CONTINUOUS
370
-3
390
F
  0
LAYER
  5
20A
100
AcDbSymbolTableRecord
100
AcDbLayerTableRecord
  2
04___PRT_ALL_DTM_PNT
 70
0
 62
7
  6
CONTINUOUS
370
-3
390
F
  0
LAYER
  5
20B
100
AcDbSymbolTableRecord
100
AcDbLayerTableRecord
  2
05_ALL_DTM_CSYS
 70
0
 62
7
  6
CONTINUOUS
370
-3
390
F
  0
LAYER
  5
20C
100
AcDbSymbolTableRecord
100
AcDbLayerTableRecord
  2
05__ASM_ALL_DTM_CSYS
 70
0
 62
7
  6
CONTINUOUS
370
-3
390
F
  0
LAYER
  5
20D
100
AcDbSymbolTableRecord
100
AcDbLayerTableRecord
  2
05__ASM_DEF_DTM_CSYS
 70
0
 62
7
  6
CONTINUOUS
370
-3
390
F
  0
LAYER
  5
20E
100
AcDbSymbolTableRecord
100
AcDbLayerTableRecord
  2
05___PRT_ALL_DTM_CSYS
 70
0
 62
7
  6
CONTINUOUS
370
-3
390
F
  0
LAYER
  5
20F
100
AcDbSymbolTableRecord
100
AcDbLayerTableRecord
  2
05___PRT_DEF_DTM_CSYS
 70
0
 62
7
  6
CONTINUOUS
370
-3
390
F
  0
LAYER
  5
210
100
AcDbSymbolTableRecord
100
AcDbLayerTableRecord
  2
06_ALL_SURFS
 70
0
 62
7
  6
CONTINUOUS
370
-3
390
F
  0
LAYER
  5
211
100
AcDbSymbolTableRecord
100
AcDbLayerTableRecord
  2
06__ASM_ALL_SURFS
 70
0
 62
7
  6
CONTINUOUS
370
-3
390
F
  0
LAYER
  5
212
100
AcDbSymbolTableRecord
100
AcDbLayerTableRecord
  2
06___PRT_ALL_SURFS
 70
0
 62
7
  6
CONTINUOUS
370
-3
390
F
  0
LAYER
  5
213
100
AcDbSymbolTableRecord
100
AcDbLayerTableRecord
  2
07__ASM_ALL_SKELETONS
 70
0
 62
7
  6
CONTINUOUS
370
-3
390
F
  0
LAYER
  5
214
100
AcDbSymbolTableRecord
100
AcDbLayerTableRecord
  2
COLOR1
 70
0
 62
7
  6
CONTINUOUS
370
-3
390
F
  0
LAYER
  5
215
100
AcDbSymbolTableRecord
100
AcDbLayerTableRecord
  2
COLOR2
 70
0
 62
7
  6
CONTINUOUS
370
-3
390
F
  0
LAYER
  5
216
100
AcDbSymbolTableRecord
100
AcDbLayerTableRecord
  2
INTFCLR_11137
 70
0
 62
7
  6
CONTINUOUS
370
-3
390
F
  0
LAYER
  5
217
100
AcDbSymbolTableRecord
100
AcDbLayerTableRecord
  2
INTFCLR_11137_1
 70
0
 62
7
  6
CONTINUOUS
370
-3
390
F
  0
LAYER
  5
218
100
AcDbSymbolTableRecord
100
AcDbLayerTableRecord
  2
INTFCLR_11137_10
 70
0
 62
7
  6
CONTINUOUS
370
-3
390
F
  0
LAYER
  5
219
100
AcDbSymbolTableRecord
100
AcDbLayerTableRecord
  2
INTFCLR_11137_11
 70
0
 62
7
  6
CONTINUOUS
370
-3
390
F
  0
LAYER
  5
21A
100
AcDbSymbolTableRecord
100
AcDbLayerTableRecord
  2
INTFCLR_11137_2
 70
0
 62
7
  6
CONTINUOUS
370
-3
390
F
  0
LAYER
  5
21B
100
AcDbSymbolTableRecord
100
AcDbLayerTableRecord
  2
INTFCLR_11137_3
 70
0
 62
7
  6
CONTINUOUS
370
-3
390
F
  0
LAYER
  5
21C
100
AcDbSymbolTableRecord
100
AcDbLayerTableRecord
  2
INTFCLR_11137_4
 70
0
 62
7
  6
CONTINUOUS
370
-3
390
F
  0
LAYER
  5
21D
100
AcDbSymbolTableRecord
100
AcDbLayerTableRecord
  2
INTFCLR_11137_5
 70
0
 62
7
  6
CONTINUOUS
370
-3
390
F
  0
LAYER
  5
21E
100
AcDbSymbolTableRecord
100
AcDbLayerTableRecord
  2
INTFCLR_11137_6
 70
0
 62
7
  6
CONTINUOUS
370
-3
390
F
  0
LAYER
  5
21F
100
AcDbSymbolTableRecord
100
AcDbLayerTableRecord
  2
INTFCLR_11137_7
 70
0
 62
7
  6
CONTINUOUS
370
-3
390
F
  0
LAYER
  5
220
100
AcDbSymbolTableRecord
100
AcDbLayerTableRecord
  2
INTFCLR_11137_8
 70
0
 62
7
  6
CONTINUOUS
370
-3
390
F
  0
LAYER
  5
221
100
AcDbSymbolTableRecord
100
AcDbLayerTableRecord
  2
INTFCLR_11137_9
 70
0
 62
7
  6
CONTINUOUS
370
-3
390
F
  0
LAYER
  5
222
100
AcDbSymbolTableRecord
100
AcDbLayerTableRecord
  2
INTFCLR_4363
 70
0
 62
7
  6
CONTINUOUS
370
-3
390
F
  0
LAYER
  5
223
100
AcDbSymbolTableRecord
100
AcDbLayerTableRecord
  2
INTFCLR_4363_1
 70
0
 62
7
  6
CONTINUOUS
370
-3
390
F
  0
LAYER
  5
224
100
AcDbSymbolTableRecord
100
AcDbLayerTableRecord
  2
INTFCLR_4363_2
 70
0
 62
7
  6
CONTINUOUS
370
-3
390
F
  0
LAYER
  5
225
100
AcDbSymbolTableRecord
100
AcDbLayerTableRecord
  2
INTFCLR_4363_3
 70
0
 62
7
  6
CONTINUOUS
370
-3
390
F
  0
LAYER
  5
226
100
AcDbSymbolTableRecord
100
AcDbLayerTableRecord
  2
INTFCLR_4363_4
 70
0
 62
7
  6
CONTINUOUS
370
-3
390
F
  0
LAYER
  5
227
100
AcDbSymbolTableRecord
100
AcDbLayerTableRecord
  2
INTFCLR_4363_5
 70
0
 62
7
  6
CONTINUOUS
370
-3
390
F
  0
LAYER
  5
228
100
AcDbSymbolTableRecord
100
AcDbLayerTableRecord
  2
INTFCLR_4363_6
 70
0
 62
7
  6
CONTINUOUS
370
-3
390
F
  0
LAYER
  5
229
100
AcDbSymbolTableRecord
100
AcDbLayerTableRecord
  2
INTFCLR_4363_7
 70
0
 62
7
  6
CONTINUOUS
370
-3
390
F
  0
LAYER
  5
22A
100
AcDbSymbolTableRecord
100
AcDbLayerTableRecord
  2
KARTHIII
 70
0
 62
7
  6
CONTINUOUS
370
-3
390
F
  0
LAYER
  5
22B
100
AcDbSymbolTableRecord
100
AcDbLayerTableRecord
  2
NONE
 70
0
 62
7
  6
CONTINUOUS
370
-3
390
F
  0
LAYER
  5
22C
100
AcDbSymbolTableRecord
100
AcDbLayerTableRecord
  2
NONE_1
 70
0
 62
7
  6
CONTINUOUS
370
-3
390
F
  0
LAYER
  5
22D
100
AcDbSymbolTableRecord
100
AcDbLayerTableRecord
  2
NONE_10
 70
0
 62
7
  6
CONTINUOUS
370
-3
390
F
  0
LAYER
  5
22E
100
AcDbSymbolTableRecord
100
AcDbLayerTableRecord
  2
NONE_11
 70
0
 62
7
  6
CONTINUOUS
370
-3
390
F
  0
LAYER
  5
22F
100
AcDbSymbolTableRecord
100
AcDbLayerTableRecord
  2
NONE_2
 70
0
 62
7
  6
CONTINUOUS
370
-3
390
F
  0
LAYER
  5
230
100
AcDbSymbolTableRecord
100
AcDbLayerTableRecord
  2
NONE_3
 70
0
 62
7
  6
CONTINUOUS
370
-3
390
F
  0
LAYER
  5
231
100
AcDbSymbolTableRecord
100
AcDbLayerTableRecord
  2
NONE_4
 70
0
 62
7
  6
CONTINUOUS
370
-3
390
F
  0
LAYER
  5
232
100
AcDbSymbolTableRecord
100
AcDbLayerTableRecord
  2
NONE_5
 70
0
 62
7
  6
CONTINUOUS
370
-3
390
F
  0
LAYER
  5
233
100
AcDbSymbolTableRecord
100
AcDbLayerTableRecord
  2
NONE_6
 70
0
 62
7
  6
CONTINUOUS
370
-3
390
F
  0
LAYER
  5
234
100
AcDbSymbolTableRecord
100
AcDbLayerTableRecord
  2
NONE_7
 70
0
 62
7
  6
CONTINUOUS
370
-3
390
F
  0
LAYER
  5
235
100
AcDbSymbolTableRecord
100
AcDbLayerTableRecord
  2
NONE_8
 70
0
 62
7
  6
CONTINUOUS
370
-3
390
F
  0
LAYER
  5
236
100
AcDbSymbolTableRecord
100
AcDbLayerTableRecord
  2
NONE_9
 70
0
 62
7
  6
CONTINUOUS
370
-3
390
F
  0
LAYER
  5
237
100
AcDbSymbolTableRecord
100
AcDbLayerTableRecord
  2
_1060
 70
0
 62
7
  6
CONTINUOUS
370
-3
390
F
  0
LAYER
  5
238
100
AcDbSymbolTableRecord
100
AcDbLayerTableRecord
  2
_1060_1
 70
0
 62
7
  6
CONTINUOUS
370
-3
390
F
  0
LAYER
  5
239
100
AcDbSymbolTableRecord
100
AcDbLayerTableRecord
  2
_1245
 70
0
 62
7
  6
CONTINUOUS
370
-3
390
F
  0
LAYER
  5
23A
100
AcDbSymbolTableRecord
100
AcDbLayerTableRecord
  2
_1245_1
 70
0
 62
7
  6
CONTINUOUS
370
-3
390
F
  0
LAYER
  5
23B
100
AcDbSymbolTableRecord
100
AcDbLayerTableRecord
  2
_1909
 70
0
 62
7
  6
CONTINUOUS
370
-3
390
F
  0
LAYER
  5
23C
100
AcDbSymbolTableRecord
100
AcDbLayerTableRecord
  2
_1909_1
 70
0
 62
7
  6
CONTINUOUS
370
-3
390
F
  0
LAYER
  5
23D
100
AcDbSymbolTableRecord
100
AcDbLayerTableRecord
  2
_1953
 70
0
 62
7
  6
CONTINUOUS
370
-3
390
F
  0
LAYER
  5
23E
100
AcDbSymbolTableRecord
100
AcDbLayerTableRecord
  2
_1953_1
 70
0
 62
7
  6
CONTINUOUS
370
-3
390
F
  0
LAYER
  5
23F
100
AcDbSymbolTableRecord
100
AcDbLayerTableRecord
  2
_2014
 70
0
 62
7
  6
CONTINUOUS
370
-3
390
F
  0
LAYER
  5
240
100
AcDbSymbolTableRecord
100
AcDbLayerTableRecord
  2
_2014_1
 70
0
 62
7
  6
CONTINUOUS
370
-3
390
F
  0
LAYER
  5
241
100
AcDbSymbolTableRecord
100
AcDbLayerTableRecord
  2
_2461
 70
0
 62
7
  6
CONTINUOUS
370
-3
390
F
  0
LAYER
  5
242
100
AcDbSymbolTableRecord
100
AcDbLayerTableRecord
  2
_2461_1
 70
0
 62
7
  6
CONTINUOUS
370
-3
390
F
  0
LAYER
  5
243
100
AcDbSymbolTableRecord
100
AcDbLayerTableRecord
  2
_3223
 70
0
 62
7
  6
CONTINUOUS
370
-3
390
F
  0
LAYER
  5
244
100
AcDbSymbolTableRecord
100
AcDbLayerTableRecord
  2
_3223_1
 70
0
 62
7
  6
CONTINUOUS
370
-3
390
F
  0
LAYER
  5
245
100
AcDbSymbolTableRecord
100
AcDbLayerTableRecord
  2
_3988
 70
0
 62
7
  6
CONTINUOUS
370
-3
390
F
  0
LAYER
  5
246
100
AcDbSymbolTableRecord
100
AcDbLayerTableRecord
  2
_3988_1
 70
0
 62
7
  6
CONTINUOUS
370
-3
390
F
  0
LAYER
  5
247
100
AcDbSymbolTableRecord
100
AcDbLayerTableRecord
  2
_4418
 70
0
 62
7
  6
CONTINUOUS
370
-3
390
F
  0
LAYER
  5
248
100
AcDbSymbolTableRecord
100
AcDbLayerTableRecord
  2
_4418_1
 70
0
 62
7
  6
CONTINUOUS
370
-3
390
F
  0
LAYER
  5
249
100
AcDbSymbolTableRecord
100
AcDbLayerTableRecord
  2
_5355
 70
0
 62
7
  6
CONTINUOUS
370
-3
390
F
  0
LAYER
  5
24A
100
AcDbSymbolTableRecord
100
AcDbLayerTableRecord
  2
_5355_1
 70
0
 62
7
  6
CONTINUOUS
370
-3
390
F
  0
LAYER
  5
24B
100
AcDbSymbolTableRecord
100
AcDbLayerTableRecord
  2
_6082
 70
0
 62
7
  6
CONTINUOUS
370
-3
390
F
  0
LAYER
  5
24C
100
AcDbSymbolTableRecord
100
AcDbLayerTableRecord
  2
_6082_1
 70
0
 62
7
  6
CONTINUOUS
370
-3
390
F
  0
LAYER
  5
24D
100
AcDbSymbolTableRecord
100
AcDbLayerTableRecord
  2
_6193
 70
0
 62
7
  6
CONTINUOUS
370
-3
390
F
  0
LAYER
  5
24E
100
AcDbSymbolTableRecord
100
AcDbLayerTableRecord
  2
_6193_1
 70
0
 62
7
  6
CONTINUOUS
370
-3
390
F
  0
LAYER
  5
24F
100
AcDbSymbolTableRecord
100
AcDbLayerTableRecord
  2
_6733
 70
0
 62
7
  6
CONTINUOUS
370
-3
390
F
  0
LAYER
  5
250
100
AcDbSymbolTableRecord
100
AcDbLayerTableRecord
  2
_6733_1
 70
0
 62
7
  6
CONTINUOUS
370
-3
390
F
  0
LAYER
  5
251
100
AcDbSymbolTableRecord
100
AcDbLayerTableRecord
  2
_7015
 70
0
 62
7
  6
CONTINUOUS
370
-3
390
F
  0
LAYER
  5
252
100
AcDbSymbolTableRecord
100
AcDbLayerTableRecord
  2
_7015_1
 70
0
 62
7
  6
CONTINUOUS
370
-3
390
F
  0
LAYER
  5
253
100
AcDbSymbolTableRecord
100
AcDbLayerTableRecord
  2
_7798
 70
0
 62
7
  6
CONTINUOUS
370
-3
390
F
  0
LAYER
  5
254
100
AcDbSymbolTableRecord
100
AcDbLayerTableRecord
  2
_7798_1
 70
0
 62
7
  6
CONTINUOUS
370
-3
390
F
  0
LAYER
  5
255
100
AcDbSymbolTableRecord
100
AcDbLayerTableRecord
  2
_7836
 70
0
 62
7
  6
CONTINUOUS
370
-3
390
F
  0
LAYER
  5
256
100
AcDbSymbolTableRecord
100
AcDbLayerTableRecord
  2
_7836_1
 70
0
 62
7
  6
CONTINUOUS
370
-3
390
F
  0
LAYER
  5
257
100
AcDbSymbolTableRecord
100
AcDbLayerTableRecord
  2
_8688
 70
0
 62
7
  6
CONTINUOUS
370
-3
390
F
  0
LAYER
  5
258
100
AcDbSymbolTableRecord
100
AcDbLayerTableRecord
  2
_8688_1
 70
0
 62
7
  6
CONTINUOUS
370
-3
390
F
  0
LAYER
  5
259
100
AcDbSymbolTableRecord
100
AcDbLayerTableRecord
  2
_8827
 70
0
 62
7
  6
CONTINUOUS
370
-3
390
F
  0
LAYER
  5
25A
100
AcDbSymbolTableRecord
100
AcDbLayerTableRecord
  2
_8827_1
 70
0
 62
7
  6
CONTINUOUS
370
-3
390
F
  0
LAYER
  5
25B
100
AcDbSymbolTableRecord
100
AcDbLayerTableRecord
  2
_9583
 70
0
 62
7
  6
CONTINUOUS
370
-3
390
F
  0
LAYER
  5
25C
100
AcDbSymbolTableRecord
100
AcDbLayerTableRecord
  2
_9583_1
 70
0
 62
7
  6
CONTINUOUS
370
-3
390
F
  0
LAYER
  5
25D
100
AcDbSymbolTableRecord
100
AcDbLayerTableRecord
  2
_9741
 70
0
 62
7
  6
CONTINUOUS
370
-3
390
F
  0
LAYER
  5
25E
100
AcDbSymbolTableRecord
100
AcDbLayerTableRecord
  2
_9741_1
 70
0
 62
7
  6
CONTINUOUS
370
-3
390
F
  0
LAYER
  5
25F
100
AcDbSymbolTableRecord
100
AcDbLayerTableRecord
  2
___SHELL
 70
0
 62
7
  6
CONTINUOUS
370
-3
390
F
  0
ENDTAB
  0
TABLE
  2
STYLE
  5
3
100
AcDbSymbolTable
 70
1
  0
STYLE
  5
11
100
AcDbSymbolTableRecord
100
AcDbTextStyleTableRecord
  2
STANDARD
 70
0
 40
0.0
 41
0.8
 50
0.0
 71
0
 42
0.2
  3
txt
  4

  0
STYLE
  5
260
100
AcDbSymbolTableRecord
100
AcDbTextStyleTableRecord
  2
TEXTSTYLE_1
 70
0
 40
0.0
 41
0.8
 50
0.0
 71
0
 42
0.2
  3
gdt
  4

  0
ENDTAB
  0
TABLE
  2
VIEW
  5
6
100
AcDbSymbolTable
 70
0
  0
ENDTAB
  0
TABLE
  2
UCS
  5
7
100
AcDbSymbolTable
 70
0
  0
ENDTAB
  0
TABLE
  2
APPID
  5
9
100
AcDbSymbolTable
 70
1
  0
APPID
  5
261
100
AcDbSymbolTableRecord
100
AcDbRegAppTableRecord
  2
ACAD
 70
0
  0
ENDTAB
  0
TABLE
  2
BLOCK_RECORD
  5
1
100
AcDbSymbolTable
 70
0
  0
BLOCK_RECORD
  5
262
100
AcDbSymbolTableRecord
100
AcDbBlockTableRecord
  2
*Model_Space
  0
BLOCK_RECORD
  5
263
100
AcDbSymbolTableRecord
100
AcDbBlockTableRecord
  2
*Paper_Space
  0
BLOCK_RECORD
  5
264
100
AcDbSymbolTableRecord
100
AcDbBlockTableRecord
  2
_NONE
  0
ENDTAB
  0
TABLE
  2
DIMSTYLE
  5
A
100
AcDbSymbolTable
 70
1
100
AcDbDimStyleTable
 71
0
  0
DIMSTYLE
105
265
100
AcDbSymbolTableRecord
100
AcDbDimStyleTableRecord
  2
STANDARD
 70
0
  3

  4

 40
1.0
 41
0.1875
 42
0.0625
 43
0.38
 44
0.125
 45
0.0
 46
0.0
 47
0.0001
 48
0.0001
140
0.15625
141
0.09
142
0.0
143
25.4
144
1.0
145
0.0
146
1.0
147
0.09
 71
0.0
 72
0.0
 73
1
 74
1
 75
0
 76
0
 77
0
 78
4
 79
1
170
0
171
3
172
0
173
0
174
0
175
0
176
0
177
0
178
0
270
2
179
4
271
4
272
4
273
2
274
2
275
0
280
0
281
0
282
0
283
1
284
4
285
0
286
0
287
3
288
0
340
11
278
46
  0
ENDTAB
  0
ENDSEC
  0
SECTION
  2
BLOCKS
  0
BLOCK
  5
20
100
AcDbEntity
  8
0
100
AcDbBlockBegin
  2
*Model_Space
 70
0
 10
0.0
 20
0.0
 30
0.0
  3
*Model_Space
  1

  0
ENDBLK
  5
21
100
AcDbEntity
  8
0
100
AcDbBlockEnd
  0
BLOCK
  5
1C
100
AcDbEntity
  8
0
100
AcDbBlockBegin
  2
*Paper_Space
 70
0
 10
0.0
 20
0.0
 30
0.0
  3
*Paper_Space
  1

  0
ENDBLK
  5
1D
100
AcDbEntity
  8
0
100
AcDbBlockEnd
  0
BLOCK
  5
266
100
AcDbEntity
  8
0
100
AcDbBlockBegin
  2
_NONE
 70
64
 10
0.0
 20
0.0
  3
_NONE
  1

  0
ENDBLK
  5
267
100
AcDbEntity
  8
0
  6
BYBLOCK
 62
0
100
AcDbBlockEnd
  0
ENDSEC
  0
SECTION
  2
ENTITIES
  0
MTEXT
  5
268
100
AcDbEntity
  8
0
100
AcDbMText
 62
7
  6
CONTINUOUS
  7
STANDARD
 71
1
 72
1
 10
15.9560215477
 20
0.9479130325
 30
0.0
 11
1.0
 21
0.0
 31
0.0
 44
0.9
  1
SCALE: 1:0.500
 40
0.3
 41
3.36
  0
LEADER
  5
269
100
AcDbEntity
  8
0
100
AcDbLeader
 62
2
  6
CONTINUOUS
  3
STANDARD
 71
1
 72
0
 73
0
 75
0
 40
0.15625
 41
1.5
 76
3
 10
3.8334922762
 20
5.0357448968
 30
0.0
 10
8.4418964161
 20
3.2512814446
 30
0.0
 10
8.6918964161
 20
3.2512814446
 30
0.0
340
26A
1001
ACAD
1000
DSTYLE
1002
{
1070
77
1070
0
1070
341
1005
264
1002
}
  0
MTEXT
  5
26A
102
{ACAD_REACTORS
330
269
102
}
100
AcDbEntity
  8
0
100
AcDbMText
 62
2
  6
CONTINUOUS
  7
STANDARD
 71
1
 72
1
 10
8.6918964161
 20
3.3294064446
 30
0.0
 11
1.0
 21
0.0
 31
0.0
 44
0.9
  1
 0.375 BOLTS
 40
0.15625
 41
1.5
  0
LINE
  5
26B
100
AcDbEntity
  8
0
100
AcDbLine
 62
7
  6
CONTINUOUS
 10
0.0
 20
0.0
 11
0.0
 21
17.0
  0
LINE
  5
26C
100
AcDbEntity
  8
0
100
AcDbLine
 62
7
  6
CONTINUOUS
 10
0.0
 20
0.0
 11
22.0
 21
0.0
  0
LINE
  5
26D
100
AcDbEntity
  8
0
100
AcDbLine
 62
7
  6
CONTINUOUS
 10
0.0
 20
17.0
 11
22.0
 21
17.0
  0
LINE
  5
26E
100
AcDbEntity
  8
0
100
AcDbLine
 62
7
  6
CONTINUOUS
 10
22.0
 20
0.0
 11
22.0
 21
17.0
  0
LINE
  5
26F
100
AcDbEntity
  8
0
100
AcDbLine
 62
7
  6
CONTINUOUS
 10
3.5209922762
 20
3.9107448968
 11
3.5209922762
 21
4.9482448968
  0
LINE
  5
270
100
AcDbEntity
  8
0
100
AcDbLine
 62
7
  6
CONTINUOUS
 10
3.5584922762
 20
5.0232448968
 11
3.5584922762
 21
4.9732448968
  0
LINE
  5
271
100
AcDbEntity
  8
0
100
AcDbLine
 62
7
  6
CONTINUOUS
 10
8.7397422762
 20
3.9107448968
 11
3.5209922762
 21
3.9107448968
  0
LINE
  5
272
100
AcDbEntity
  8
0
100
AcDbLine
 62
7
  6
CONTINUOUS
 10
4.5909229905
 20
5.9482377499
 11
4.3346394139
 21
4.9917744206
  0
LINE
  5
273
100
AcDbEntity
  8
0
100
AcDbLine
 62
7
  6
CONTINUOUS
 10
6.0153672762
 20
6.5563698968
 11
6.0053672762
 21
6.5463698968
  0
LINE
  5
274
100
AcDbEntity
  8
0
100
AcDbLine
 62
7
  6
CONTINUOUS
 10
8.7147422762
 20
4.9732448968
 11
7.9502432841
 21
4.9732448968
  0
LINE
  5
275
100
AcDbEntity
  8
0
100
AcDbLine
 62
7
  6
CONTINUOUS
 10
3.5459922762
 20
4.9732448968
 11
4.3104912682
 21
4.9732448968
  0
LINE
  5
276
100
AcDbEntity
  8
0
100
AcDbLine
 62
7
  6
CONTINUOUS
 10
8.6897277386
 20
5.0357448968
 11
7.9143132849
 21
5.0357448968
  0
LINE
  5
277
100
AcDbEntity
  8
0
100
AcDbLine
 62
7
  6
CONTINUOUS
 10
3.5710068137
 20
5.0357448968
 11
4.3464212674
 21
5.0357448968
  0
LINE
  5
278
100
AcDbEntity
  8
03__ASM_ALL_CURVES
100
AcDbLine
 62
4
  6
CONTINUOUS
 10
4.1303672762
 20
5.0732448968
 11
4.3564693621
 21
5.0732448968
  0
LINE
  5
279
100
AcDbEntity
  8
03__ASM_ALL_CURVES
100
AcDbLine
 62
4
  6
CONTINUOUS
 10
5.5421163829
 20
5.0732448968
 11
5.6303672762
 21
5.0732448968
  0
LINE
  5
27A
100
AcDbEntity
  8
03__ASM_ALL_CURVES
100
AcDbLine
 62
4
  6
CONTINUOUS
 10
6.6303672762
 20
5.0732448968
 11
6.7186181694
 21
5.0732448968
  0
LINE
  5
27B
100
AcDbEntity
  8
0
100
AcDbLine
 62
7
  6
CONTINUOUS
 10
7.2415855828
 20
6.9121282463
 11
7.1247361872
 21
6.7952788507
  0
LINE
  5
27C
100
AcDbEntity
  8
0
100
AcDbLine
 62
7
  6
CONTINUOUS
 10
6.0053672762
 20
6.5436482357
 11
6.0053672762
 21
6.5463698968
  0
LINE
  5
27D
100
AcDbEntity
  8
0
100
AcDbLine
 62
7
  6
CONTINUOUS
 10
6.0803672762
 20
4.5213514126
 11
6.0803672762
 21
4.3466178113
  0
LINE
  5
27E
100
AcDbEntity
  8
0
100
AcDbLine
 62
7
  6
CONTINUOUS
 10
6.0803672762
 20
6.5563698968
 11
6.0803672762
 21
6.7248719822
  0
LINE
  5
27F
100
AcDbEntity
  8
0
100
AcDbLine
 62
7
  6
CONTINUOUS
 10
6.6816295487
 20
6.5905591611
 11
6.594262748
 21
6.4392354234
  0
LINE
  5
280
100
AcDbEntity
  8
0
100
AcDbLine
 62
7
  6
CONTINUOUS
 10
5.5798692639
 20
4.6822543701
 11
5.4925024632
 21
4.5309306324
  0
LINE
  5
281
100
AcDbEntity
  8
0
100
AcDbLine
 62
7
  6
CONTINUOUS
 10
7.306784101
 20
6.8907703486
 11
7.2848637907
 21
6.8688500384
  0
LINE
  5
282
100
AcDbEntity
  8
0
100
AcDbLine
 62
7
  6
CONTINUOUS
 10
7.1843874686
 20
6.7311864455
 11
7.1866080306
 21
6.7334070074
  0
LINE
  5
283
100
AcDbEntity
  8
0
100
AcDbLine
 62
7
  6
CONTINUOUS
 10
7.1910274479
 20
6.72898759
 11
7.3078768435
 21
6.8458369856
  0
LINE
  5
284
100
AcDbEntity
  8
0
100
AcDbLine
 62
7
  6
CONTINUOUS
 10
7.3295159475
 20
6.8241978816
 11
7.3514362577
 21
6.8461181918
  0
LINE
  5
285
100
AcDbEntity
  8
0
100
AcDbLine
 62
7
  6
CONTINUOUS
 10
7.1351815405
 20
6.1736097097
 11
6.9838578028
 21
6.086242909
  0
LINE
  5
286
100
AcDbEntity
  8
0
100
AcDbLine
 62
7
  6
CONTINUOUS
 10
5.2268767495
 20
5.0718494249
 11
5.0755530118
 21
4.9844826242
  0
LINE
  5
287
100
AcDbEntity
  8
0
100
AcDbLine
 62
7
  6
CONTINUOUS
 10
7.1382706151
 20
5.4107448968
 11
7.1409922762
 21
5.4107448968
  0
LINE
  5
288
100
AcDbEntity
  8
0
100
AcDbLine
 62
7
  6
CONTINUOUS
 10
5.115973792
 20
5.4857448968
 11
4.9412401907
 21
5.4857448968
  0
LINE
  5
289
100
AcDbEntity
  8
0
100
AcDbLine
 62
7
  6
CONTINUOUS
 10
7.1509922762
 20
5.4857448968
 11
7.3194943616
 21
5.4857448968
  0
LINE
  5
28A
100
AcDbEntity
  8
0
100
AcDbLine
 62
7
  6
CONTINUOUS
 10
5.0755530118
 20
6.0870071693
 11
5.2268767495
 21
5.9996403686
  0
LINE
  5
28B
100
AcDbEntity
  8
0
100
AcDbLine
 62
7
  6
CONTINUOUS
 10
6.9838578028
 20
4.9852468845
 11
7.1351815405
 21
4.8978800838
  0
LINE
  5
28C
100
AcDbEntity
  8
0
100
AcDbLine
 62
7
  6
CONTINUOUS
 10
5.4925024632
 20
6.5405591611
 11
5.5798692639
 21
6.3892354234
  0
LINE
  5
28D
100
AcDbEntity
  8
0
100
AcDbLine
 62
7
  6
CONTINUOUS
 10
6.594262748
 20
4.6322543701
 11
6.6816295487
 21
4.4809306324
  0
LINE
  5
28E
100
AcDbEntity
  8
0
100
AcDbLine
 62
7
  6
CONTINUOUS
 10
6.1803672762
 20
6.7248719822
 11
6.1803672762
 21
6.5563698968
  0
LINE
  5
28F
100
AcDbEntity
  8
0
100
AcDbLine
 62
7
  6
CONTINUOUS
 10
6.1803672762
 20
4.5213514126
 11
6.1803672762
 21
4.3466178113
  0
LINE
  5
290
100
AcDbEntity
  8
0
100
AcDbLine
 62
7
  6
CONTINUOUS
 10
6.2553672762
 20
6.5436482357
 11
6.2553672762
 21
6.5463698968
  0
LINE
  5
291
100
AcDbEntity
  8
0
100
AcDbLine
 62
7
  6
CONTINUOUS
 10
5.5791050036
 20
4.4809306324
 11
5.6664718043
 21
4.6322543701
  0
LINE
  5
292
100
AcDbEntity
  8
0
100
AcDbLine
 62
7
  6
CONTINUOUS
 10
6.6808652884
 20
6.3892354234
 11
6.7682320891
 21
6.5405591611
  0
LINE
  5
293
100
AcDbEntity
  8
0
100
AcDbLine
 62
7
  6
CONTINUOUS
 10
7.4407405713
 20
6.7568138783
 11
7.418820261
 21
6.7348935681
  0
LINE
  5
294
100
AcDbEntity
  8
0
100
AcDbLine
 62
7
  6
CONTINUOUS
 10
7.440459365
 20
6.7132544641
 11
7.3236099694
 21
6.5964050685
  0
LINE
  5
295
100
AcDbEntity
  8
0
100
AcDbLine
 62
7
  6
CONTINUOUS
 10
7.3280293868
 20
6.5919856512
 11
7.3258088249
 21
6.5897650892
  0
LINE
  5
296
100
AcDbEntity
  8
0
100
AcDbLine
 62
7
  6
CONTINUOUS
 10
7.485392728
 20
6.7121617215
 11
7.4634724178
 21
6.6902414113
  0
LINE
  5
297
100
AcDbEntity
  8
0
100
AcDbLine
 62
7
  6
CONTINUOUS
 10
7.5067506257
 20
6.6469632034
 11
7.3899012302
 21
6.5301138078
  0
LINE
  5
298
100
AcDbEntity
  8
0
100
AcDbLine
 62
7
  6
CONTINUOUS
 10
5.1255530118
 20
4.8978800838
 11
5.2768767495
 21
4.9852468845
  0
LINE
  5
299
100
AcDbEntity
  8
0
100
AcDbLine
 62
7
  6
CONTINUOUS
 10
7.0338578028
 20
5.9996403686
 11
7.1851815405
 21
6.0870071693
  0
LINE
  5
29A
100
AcDbEntity
  8
0
100
AcDbLine
 62
7
  6
CONTINUOUS
 10
7.3194943616
 20
5.5857448968
 11
7.1509922762
 21
5.5857448968
  0
LINE
  5
29B
100
AcDbEntity
  8
0
100
AcDbLine
 62
7
  6
CONTINUOUS
 10
5.115973792
 20
5.5857448968
 11
4.9412401907
 21
5.5857448968
  0
LINE
  5
29C
100
AcDbEntity
  8
0
100
AcDbLine
 62
7
  6
CONTINUOUS
 10
7.1382706151
 20
5.6607448968
 11
7.1409922762
 21
5.6607448968
  0
LINE
  5
29D
100
AcDbEntity
  8
0
100
AcDbLine
 62
7
  6
CONTINUOUS
 10
7.1851815405
 20
4.9844826242
 11
7.0338578028
 21
5.0718494249
  0
LINE
  5
29E
100
AcDbEntity
  8
0
100
AcDbLine
 62
7
  6
CONTINUOUS
 10
5.2768767495
 20
6.086242909
 11
5.1255530118
 21
6.1736097097
  0
LINE
  5
29F
100
AcDbEntity
  8
0
100
AcDbLine
 62
7
  6
CONTINUOUS
 10
6.7682320891
 20
4.5309306324
 11
6.6808652884
 21
4.6822543701
  0
LINE
  5
2A0
100
AcDbEntity
  8
0
100
AcDbLine
 62
7
  6
CONTINUOUS
 10
5.6664718043
 20
6.4392354234
 11
5.5791050036
 21
6.5905591611
  0
LINE
  5
2A1
100
AcDbEntity
  8
0
100
AcDbLine
 62
7
  6
CONTINUOUS
 10
7.1509922762
 20
5.4207448968
 11
7.1409922762
 21
5.4107448968
  0
LINE
  5
2A2
100
AcDbEntity
  8
0
100
AcDbLine
 62
7
  6
CONTINUOUS
 10
6.2453672762
 20
6.5563698968
 11
6.2553672762
 21
6.5463698968
  0
LINE
  5
2A3
100
AcDbEntity
  8
0
100
AcDbLine
 62
7
  6
CONTINUOUS
 10
7.1509922762
 20
5.6507448968
 11
7.1409922762
 21
5.6607448968
  0
LINE
  5
2A4
100
AcDbEntity
  8
0
100
AcDbLine
 62
7
  6
CONTINUOUS
 10
7.1409922762
 20
5.6607448968
 11
7.1409922762
 21
5.6363990074
  0
LINE
  5
2A5
100
AcDbEntity
  8
0
100
AcDbLine
 62
7
  6
CONTINUOUS
 10
7.1409922762
 20
5.4350907861
 11
7.1409922762
 21
5.4107448968
  0
LINE
  5
2A6
100
AcDbEntity
  8
0
100
AcDbLine
 62
7
  6
CONTINUOUS
 10
7.1509922762
 20
5.4207602638
 11
7.1509922762
 21
5.6507295297
  0
LINE
  5
2A7
100
AcDbEntity
  8
0
100
AcDbLine
 62
7
  6
CONTINUOUS
 10
6.2553672762
 20
6.5463698968
 11
6.2310213869
 21
6.5463698968
  0
LINE
  5
2A8
100
AcDbEntity
  8
0
100
AcDbLine
 62
7
  6
CONTINUOUS
 10
6.0297131655
 20
6.5463698968
 11
6.0053672762
 21
6.5463698968
  0
LINE
  5
2A9
100
AcDbEntity
  8
0
100
AcDbLine
 62
7
  6
CONTINUOUS
 10
6.2453519091
 20
6.5563698968
 11
6.0153826432
 21
6.5563698968
  0
LINE
  5
2AA
100
AcDbEntity
  8
0
100
AcDbLine
 62
7
  6
CONTINUOUS
 10
7.3899012302
 20
6.5301138078
 11
7.1247361872
 21
6.7952788507
  0
LINE
  5
2AB
100
AcDbEntity
  8
0
100
AcDbLine
 62
7
  6
CONTINUOUS
 10
7.9260951385
 20
4.9917744206
 11
7.6698115618
 21
5.9482377499
  0
LINE
  5
2AC
100
AcDbEntity
  8
0
100
AcDbLine
 62
7
  6
CONTINUOUS
 10
7.5067506257
 20
6.6469632034
 11
7.2415855828
 21
6.9121282463
  0
LINE
  5
2AD
100
AcDbEntity
  8
0
100
AcDbLine
 62
7
  6
CONTINUOUS
 10
7.485392728
 20
6.7121617215
 11
7.306784101
 21
6.8907703486
  0
LINE
  5
2AE
100
AcDbEntity
  8
0
100
AcDbLine
 62
7
  6
CONTINUOUS
 10
7.485194265
 20
6.8131229009
 11
7.4077452803
 21
6.8905718856
  0
LINE
  5
2AF
100
AcDbEntity
  8
0
100
AcDbLine
 62
7
  6
CONTINUOUS
 10
7.5198321012
 20
6.8898543827
 11
7.4844767621
 21
6.9252097218
  0
LINE
  5
2B0
100
AcDbEntity
  8
0
100
AcDbLine
 62
7
  6
CONTINUOUS
 10
8.7022422762
 20
5.0232448968
 11
8.7022422762
 21
4.9732448968
  0
LINE
  5
2B1
100
AcDbEntity
  8
0
100
AcDbLine
 62
7
  6
CONTINUOUS
 10
8.7397422762
 20
3.9107448968
 11
8.7397422762
 21
4.9482448968
  0
LINE
  5
2B2
100
AcDbEntity
  8
0
100
AcDbLine
 62
7
  6
CONTINUOUS
 10
3.4614970839
 20
12.0062977814
 11
3.4614970839
 21
13.6000477814
  0
LINE
  5
2B3
100
AcDbEntity
  8
0
100
AcDbLine
 62
7
  6
CONTINUOUS
 10
4.2869260751
 20
12.4406727814
 11
4.2869260751
 21
12.4281727814
  0
LINE
  5
2B4
100
AcDbEntity
  8
0
100
AcDbLine
 62
7
  6
CONTINUOUS
 10
4.2869260751
 20
13.1656727814
 11
4.2869260751
 21
13.1781727814
  0
LINE
  5
2B5
100
AcDbEntity
  8
0
100
AcDbLine
 62
7
  6
CONTINUOUS
 10
3.4864970839
 20
12.0312977814
 11
3.4614970839
 21
12.0062977814
  0
LINE
  5
2B6
100
AcDbEntity
  8
0
100
AcDbLine
 62
7
  6
CONTINUOUS
 10
5.0646220839
 20
11.6000477814
 11
5.0552470839
 21
11.6094227814
  0
LINE
  5
2B7
100
AcDbEntity
  8
0
100
AcDbLine
 62
7
  6
CONTINUOUS
 10
3.4864970839
 20
13.5750477814
 11
3.4614970839
 21
13.6000477814
  0
LINE
  5
2B8
100
AcDbEntity
  8
0
100
AcDbLine
 62
7
  6
CONTINUOUS
 10
5.0552470839
 20
11.9962977814
 11
5.0552470839
 21
11.6094227814
  0
LINE
  5
2B9
100
AcDbEntity
  8
0
100
AcDbLine
 62
7
  6
CONTINUOUS
 10
5.0646220839
 20
11.6000477814
 11
7.0771220839
 21
11.6000477814
  0
LINE
  5
2BA
100
AcDbEntity
  8
0
100
AcDbLine
 62
7
  6
CONTINUOUS
 10
5.0552470839
 20
11.6094227814
 11
7.0864970839
 21
11.6094227814
  0
LINE
  5
2BB
100
AcDbEntity
  8
0
100
AcDbLine
 62
7
  6
CONTINUOUS
 10
5.2739970839
 20
12.0062977814
 11
5.2739970839
 21
11.9962977814
  0
LINE
  5
2BC
100
AcDbEntity
  8
0
100
AcDbLine
 62
7
  6
CONTINUOUS
 10
5.9808720839
 20
11.7383987571
 11
6.0708720839
 21
11.6864372329
  0
LINE
  5
2BD
100
AcDbEntity
  8
0
100
AcDbLine
 62
7
  6
CONTINUOUS
 10
7.0864970839
 20
11.9962977814
 11
5.0552470839
 21
11.9962977814
  0
LINE
  5
2BE
100
AcDbEntity
  8
0
100
AcDbLine
 62
7
  6
CONTINUOUS
 10
3.4614970839
 20
12.0062977814
 11
8.6802470839
 21
12.0062977814
  0
LINE
  5
2BF
100
AcDbEntity
  8
0
100
AcDbLine
 62
7
  6
CONTINUOUS
 10
6.1608720839
 20
11.8423218056
 11
6.0708720839
 21
11.8942833298
  0
LINE
  5
2C0
100
AcDbEntity
  8
0
100
AcDbLine
 62
7
  6
CONTINUOUS
 10
8.2677470839
 20
12.4281727814
 11
7.8581674575
 21
12.4281727814
  0
LINE
  5
2C1
100
AcDbEntity
  8
0
100
AcDbLine
 62
7
  6
CONTINUOUS
 10
7.8548180926
 20
12.4281727814
 11
7.7896220839
 21
12.4281727814
  0
LINE
  5
2C2
100
AcDbEntity
  8
0
100
AcDbLine
 62
7
  6
CONTINUOUS
 10
4.3521220839
 20
12.4281727814
 11
4.2869260751
 21
12.4281727814
  0
LINE
  5
2C3
100
AcDbEntity
  8
0
100
AcDbLine
 62
7
  6
CONTINUOUS
 10
3.8739970839
 20
12.4281727814
 11
4.2835767102
 21
12.4281727814
  0
LINE
  5
2C4
100
AcDbEntity
  8
0
100
AcDbLine
 62
7
  6
CONTINUOUS
 10
5.9808720839
 20
11.7383987571
 11
5.9808720839
 21
11.8423218056
  0
LINE
  5
2C5
100
AcDbEntity
  8
0
100
AcDbLine
 62
7
  6
CONTINUOUS
 10
8.1802470839
 20
12.6156727814
 11
8.0239970839
 21
12.6156727814
  0
LINE
  5
2C6
100
AcDbEntity
  8
0
100
AcDbLine
 62
7
  6
CONTINUOUS
 10
4.1177470839
 20
12.6156727814
 11
3.9614970839
 21
12.6156727814
  0
LINE
  5
2C7
100
AcDbEntity
  8
0
100
AcDbLine
 62
7
  6
CONTINUOUS
 10
6.1608720839
 20
11.8423218056
 11
6.1608720839
 21
11.7383987571
  0
LINE
  5
2C8
100
AcDbEntity
  8
0
100
AcDbLine
 62
7
  6
CONTINUOUS
 10
7.1315322556
 20
12.6407930182
 11
7.3809641727
 21
12.6407930182
  0
LINE
  5
2C9
100
AcDbEntity
  8
0
100
AcDbLine
 62
7
  6
CONTINUOUS
 10
7.2700207552
 20
12.6937977814
 11
7.3283134464
 21
12.6937977814
  0
LINE
  5
2CA
100
AcDbEntity
  8
0
100
AcDbLine
 62
7
  6
CONTINUOUS
 10
7.344872998
 20
12.6937977814
 11
7.381245379
 21
12.6937977814
  0
LINE
  5
2CB
100
AcDbEntity
  8
0
100
AcDbLine
 62
7
  6
CONTINUOUS
 10
7.2472889086
 20
12.8031727814
 11
7.2253685984
 21
12.8031727814
  0
LINE
  5
2CC
100
AcDbEntity
  8
0
100
AcDbLine
 62
7
  6
CONTINUOUS
 10
7.1820903905
 20
12.8031727814
 11
7.0652409949
 21
12.8031727814
  0
LINE
  5
2CD
100
AcDbEntity
  8
03__ASM_ALL_CURVES
100
AcDbLine
 62
4
  6
CONTINUOUS
 10
4.0708720839
 20
12.8031727814
 11
4.7271179833
 21
12.8031727814
  0
LINE
  5
2CE
100
AcDbEntity
  8
03__ASM_ALL_CURVES
100
AcDbLine
 62
4
  6
CONTINUOUS
 10
7.4735171037
 20
12.8031727814
 11
7.5708720839
 21
12.8031727814
  0
LINE
  5
2CF
100
AcDbEntity
  8
0
100
AcDbLine
 62
7
  6
CONTINUOUS
 10
7.381245379
 20
12.9125477814
 11
7.344872998
 21
12.9125477814
  0
LINE
  5
2D0
100
AcDbEntity
  8
0
100
AcDbLine
 62
7
  6
CONTINUOUS
 10
7.3283134464
 20
12.9125477814
 11
7.2700207552
 21
12.9125477814
  0
LINE
  5
2D1
100
AcDbEntity
  8
0
100
AcDbLine
 62
7
  6
CONTINUOUS
 10
7.3809641727
 20
12.9655525446
 11
7.1315322556
 21
12.9655525446
  0
LINE
  5
2D2
100
AcDbEntity
  8
0
100
AcDbLine
 62
7
  6
CONTINUOUS
 10
3.9614970839
 20
12.9906727814
 11
4.1177470839
 21
12.9906727814
  0
LINE
  5
2D3
100
AcDbEntity
  8
0
100
AcDbLine
 62
7
  6
CONTINUOUS
 10
8.0239970839
 20
12.9906727814
 11
8.1802470839
 21
12.9906727814
  0
LINE
  5
2D4
100
AcDbEntity
  8
0
100
AcDbLine
 62
7
  6
CONTINUOUS
 10
7.0859619617
 20
11.9108954036
 11
7.0914970839
 21
11.9053602814
  0
LINE
  5
2D5
100
AcDbEntity
  8
0
100
AcDbLine
 62
7
  6
CONTINUOUS
 10
4.2835767102
 20
13.1781727814
 11
3.8739970839
 21
13.1781727814
  0
LINE
  5
2D6
100
AcDbEntity
  8
0
100
AcDbLine
 62
7
  6
CONTINUOUS
 10
4.2869260751
 20
13.1781727814
 11
4.3521220839
 21
13.1781727814
  0
LINE
  5
2D7
100
AcDbEntity
  8
0
100
AcDbLine
 62
7
  6
CONTINUOUS
 10
7.7896220839
 20
13.1781727814
 11
7.8548180926
 21
13.1781727814
  0
LINE
  5
2D8
100
AcDbEntity
  8
0
100
AcDbLine
 62
7
  6
CONTINUOUS
 10
7.8581674575
 20
13.1781727814
 11
8.2677470839
 21
13.1781727814
  0
LINE
  5
2D9
100
AcDbEntity
  8
0
100
AcDbLine
 62
7
  6
CONTINUOUS
 10
6.0708720839
 20
11.8942833298
 11
5.9808720839
 21
11.8423218056
  0
LINE
  5
2DA
100
AcDbEntity
  8
0
100
AcDbLine
 62
7
  6
CONTINUOUS
 10
6.8677470839
 20
11.9962977814
 11
6.8677470839
 21
12.0062977814
  0
LINE
  5
2DB
100
AcDbEntity
  8
0
100
AcDbLine
 62
7
  6
CONTINUOUS
 10
7.1315322556
 20
12.9655525446
 11
7.0652409949
 21
12.8031727814
  0
LINE
  5
2DC
100
AcDbEntity
  8
0
100
AcDbLine
 62
7
  6
CONTINUOUS
 10
7.1820903905
 20
12.8031727814
 11
7.2483816512
 21
12.9655525446
  0
LINE
  5
2DD
100
AcDbEntity
  8
0
100
AcDbLine
 62
7
  6
CONTINUOUS
 10
6.0708720839
 20
11.6864372329
 11
6.1608720839
 21
11.7383987571
  0
LINE
  5
2DE
100
AcDbEntity
  8
0
100
AcDbLine
 62
7
  6
CONTINUOUS
 10
7.0864970839
 20
11.6653602814
 11
7.0854818304
 21
11.6738944802
  0
LINE
  5
2DF
100
AcDbEntity
  8
0
100
AcDbLine
 62
7
  6
CONTINUOUS
 10
7.0860901553
 20
11.6687108183
 11
7.0854061555
 21
11.6746599824
  0
LINE
  5
2E0
100
AcDbEntity
  8
0
100
AcDbLine
 62
7
  6
CONTINUOUS
 10
7.0814970839
 20
11.8644801168
 11
7.0814970839
 21
11.716240446
  0
LINE
  5
2E1
100
AcDbEntity
  8
0
100
AcDbLine
 62
7
  6
CONTINUOUS
 10
7.0864970839
 20
11.6094227814
 11
7.0864970839
 21
11.6653602814
  0
LINE
  5
2E2
100
AcDbEntity
  8
0
100
AcDbLine
 62
7
  6
CONTINUOUS
 10
7.0864970839
 20
11.9153602814
 11
7.0864970839
 21
11.9962977814
  0
LINE
  5
2E3
100
AcDbEntity
  8
0
100
AcDbLine
 62
7
  6
CONTINUOUS
 10
7.0914970839
 20
11.6753602814
 11
7.0914970839
 21
11.9053602814
  0
LINE
  5
2E4
100
AcDbEntity
  8
0
100
AcDbLine
 62
7
  6
CONTINUOUS
 10
7.0854063194
 20
11.906060209
 11
7.0864970839
 21
11.9153602814
  0
LINE
  5
2E5
100
AcDbEntity
  8
0
100
AcDbLine
 62
7
  6
CONTINUOUS
 10
7.0860867842
 20
11.9119816085
 11
7.0864970839
 21
11.9153602814
  0
LINE
  5
2E6
100
AcDbEntity
  8
0
100
AcDbLine
 62
7
  6
CONTINUOUS
 10
7.2700207552
 20
12.9125477814
 11
7.2253685984
 21
12.8031727814
  0
LINE
  5
2E7
100
AcDbEntity
  8
0
100
AcDbLine
 62
7
  6
CONTINUOUS
 10
7.2472889086
 20
12.8031727814
 11
7.2654750991
 21
12.8477196684
  0
LINE
  5
2E8
100
AcDbEntity
  8
0
100
AcDbLine
 62
7
  6
CONTINUOUS
 10
7.2737548749
 20
12.8680008943
 11
7.2919410654
 21
12.9125477814
  0
LINE
  5
2E9
100
AcDbEntity
  8
0
100
AcDbLine
 62
7
  6
CONTINUOUS
 10
8.6552470839
 20
13.5750477814
 11
8.6802470839
 21
13.6000477814
  0
LINE
  5
2EA
100
AcDbEntity
  8
0
100
AcDbLine
 62
7
  6
CONTINUOUS
 10
3.4614970839
 20
13.6000477814
 11
8.6802470839
 21
13.6000477814
  0
LINE
  5
2EB
100
AcDbEntity
  8
0
100
AcDbLine
 62
7
  6
CONTINUOUS
 10
7.0652409949
 20
12.8031727814
 11
7.1315322556
 21
12.6407930182
  0
LINE
  5
2EC
100
AcDbEntity
  8
0
100
AcDbLine
 62
7
  6
CONTINUOUS
 10
7.2483816512
 20
12.6407930182
 11
7.1820903905
 21
12.8031727814
  0
LINE
  5
2ED
100
AcDbEntity
  8
0
100
AcDbLine
 62
7
  6
CONTINUOUS
 10
7.3979246116
 20
12.7346533906
 11
7.381245379
 21
12.6937977814
  0
LINE
  5
2EE
100
AcDbEntity
  8
0
100
AcDbLine
 62
7
  6
CONTINUOUS
 10
7.4189645232
 20
12.733874487
 11
7.3809641727
 21
12.6407930182
  0
LINE
  5
2EF
100
AcDbEntity
  8
0
100
AcDbLine
 62
7
  6
CONTINUOUS
 10
7.2253685984
 20
12.8031727814
 11
7.2700207552
 21
12.6937977814
  0
LINE
  5
2F0
100
AcDbEntity
  8
0
100
AcDbLine
 62
7
  6
CONTINUOUS
 10
7.2919410654
 20
12.6937977814
 11
7.2737548749
 21
12.7383446684
  0
LINE
  5
2F1
100
AcDbEntity
  8
0
100
AcDbLine
 62
7
  6
CONTINUOUS
 10
7.2654750991
 20
12.7586258943
 11
7.2472889086
 21
12.8031727814
  0
LINE
  5
2F2
100
AcDbEntity
  8
0
100
AcDbLine
 62
7
  6
CONTINUOUS
 10
7.0914970839
 20
11.6753602814
 11
7.0859620274
 21
11.6698252249
  0
LINE
  5
2F3
100
AcDbEntity
  8
0
100
AcDbLine
 62
7
  6
CONTINUOUS
 10
7.0864970839
 20
11.6094227814
 11
7.0771220839
 21
11.6000477814
  0
LINE
  5
2F4
100
AcDbEntity
  8
0
100
AcDbLine
 62
7
  6
CONTINUOUS
 10
8.6802470839
 20
12.0062977814
 11
8.6552470839
 21
12.0312977814
  0
LINE
  5
2F5
100
AcDbEntity
  8
0
100
AcDbLine
 62
7
  6
CONTINUOUS
 10
7.381245379
 20
12.9125477814
 11
7.3980032439
 21
12.871499563
  0
LINE
  5
2F6
100
AcDbEntity
  8
0
100
AcDbLine
 62
7
  6
CONTINUOUS
 10
7.3809641727
 20
12.9655525446
 11
7.419033423
 21
12.8723023065
  0
LINE
  5
2F7
100
AcDbEntity
  8
0
100
AcDbLine
 62
7
  6
CONTINUOUS
 10
7.8548180926
 20
13.1781727814
 11
7.8548180926
 21
13.1656727814
  0
LINE
  5
2F8
100
AcDbEntity
  8
0
100
AcDbLine
 62
7
  6
CONTINUOUS
 10
7.8548180926
 20
12.4406727814
 11
7.8548180926
 21
12.4281727814
  0
LINE
  5
2F9
100
AcDbEntity
  8
0
100
AcDbLine
 62
7
  6
CONTINUOUS
 10
8.6802470839
 20
12.0062977814
 11
8.6802470839
 21
13.6000477814
  0
LINE
  5
2FA
100
AcDbEntity
  8
0
100
AcDbLine
 62
7
  6
CONTINUOUS
 10
16.5603552569
 20
3.8512497044
 11
14.9666052569
 21
3.8512497044
  0
LINE
  5
2FB
100
AcDbEntity
  8
0
100
AcDbLine
 62
7
  6
CONTINUOUS
 10
14.5603552569
 20
6.4824997044
 11
14.5697302569
 21
6.4918747044
  0
LINE
  5
2FC
100
AcDbEntity
  8
0
100
AcDbLine
 62
7
  6
CONTINUOUS
 10
14.6301363025
 20
6.49134325
 11
14.6356677569
 21
6.4968747044
  0
LINE
  5
2FD
100
AcDbEntity
  8
0
100
AcDbLine
 62
7
  6
CONTINUOUS
 10
14.5603552569
 20
4.4699997044
 11
14.5697302569
 21
4.4606247044
  0
LINE
  5
2FE
100
AcDbEntity
  8
0
100
AcDbLine
 62
7
  6
CONTINUOUS
 10
15.6011004937
 20
6.7863417933
 11
15.6943507318
 21
6.8244110436
  0
LINE
  5
2FF
100
AcDbEntity
  8
0
100
AcDbLine
 62
7
  6
CONTINUOUS
 10
15.6541052569
 20
6.7866229995
 11
15.6951534753
 21
6.8033808645
  0
LINE
  5
300
100
AcDbEntity
  8
0
100
AcDbLine
 62
7
  6
CONTINUOUS
 10
14.5603552569
 20
6.4824832374
 11
14.5603552569
 21
4.4700161715
  0
LINE
  5
301
100
AcDbEntity
  8
0
100
AcDbLine
 62
7
  6
CONTINUOUS
 10
15.8728552569
 20
6.697318686
 11
15.8283083699
 21
6.6791324955
  0
LINE
  5
302
100
AcDbEntity
  8
0
100
AcDbLine
 62
7
  6
CONTINUOUS
 10
15.808027144
 20
6.6708527197
 11
15.7634802569
 21
6.6526665292
  0
LINE
  5
303
100
AcDbEntity
  8
0
100
AcDbLine
 62
7
  6
CONTINUOUS
 10
15.7634802569
 20
6.630746219
 11
15.8728552569
 21
6.6753983758
  0
LINE
  5
304
100
AcDbEntity
  8
0
100
AcDbLine
 62
7
  6
CONTINUOUS
 10
14.9566052569
 20
4.4606247044
 11
14.5697302569
 21
4.4606247044
  0
LINE
  5
305
100
AcDbEntity
  8
0
100
AcDbLine
 62
7
  6
CONTINUOUS
 10
14.5697302569
 20
6.4918747044
 11
14.5697302569
 21
4.4606247044
  0
LINE
  5
306
100
AcDbEntity
  8
0
100
AcDbLine
 62
7
  6
CONTINUOUS
 10
15.9258600201
 20
6.6537592718
 11
15.7634802569
 21
6.5874680111
  0
LINE
  5
307
100
AcDbEntity
  8
0
100
AcDbLine
 62
7
  6
CONTINUOUS
 10
14.6987062327
 20
5.5662497044
 11
14.6467447085
 21
5.4762497044
  0
LINE
  5
308
100
AcDbEntity
  8
0
100
AcDbLine
 62
7
  6
CONTINUOUS
 10
15.9258600201
 20
6.5369098762
 11
15.7634802569
 21
6.4706186155
  0
LINE
  5
309
100
AcDbEntity
  8
0
100
AcDbLine
 62
7
  6
CONTINUOUS
 10
14.9666052569
 20
4.6793747044
 11
14.9566052569
 21
4.6793747044
  0
LINE
  5
30A
100
AcDbEntity
  8
0
100
AcDbLine
 62
7
  6
CONTINUOUS
 10
14.6467447085
 20
5.4762497044
 11
14.6987062327
 21
5.3862497044
  0
LINE
  5
30B
100
AcDbEntity
  8
0
100
AcDbLine
 62
7
  6
CONTINUOUS
 10
14.8026292812
 20
5.3862497044
 11
14.8545908054
 21
5.4762497044
  0
LINE
  5
30C
100
AcDbEntity
  8
0
100
AcDbLine
 62
7
  6
CONTINUOUS
 10
14.9566052569
 20
4.4606413758
 11
14.9566052569
 21
6.4918580331
  0
LINE
  5
30D
100
AcDbEntity
  8
0
100
AcDbLine
 62
7
  6
CONTINUOUS
 10
14.9666052569
 20
3.8512497044
 11
14.9666052569
 21
7.0449987172
  0
LINE
  5
30E
100
AcDbEntity
  8
0
100
AcDbLine
 62
7
  6
CONTINUOUS
 10
14.9916052569
 20
4.9137497044
 11
16.5353552569
 21
4.9137497044
  0
LINE
  5
30F
100
AcDbEntity
  8
0
100
AcDbLine
 62
7
  6
CONTINUOUS
 10
14.8545908054
 20
5.4762497044
 11
14.8026292812
 21
5.5662497044
  0
LINE
  5
310
100
AcDbEntity
  8
0
100
AcDbLine
 62
7
  6
CONTINUOUS
 10
16.1384802569
 20
4.9762497044
 11
15.3884802569
 21
4.9762497044
  0
LINE
  5
311
100
AcDbEntity
  8
0
100
AcDbLine
 62
7
  6
CONTINUOUS
 10
15.3884802569
 20
4.9137497044
 11
15.3884802569
 21
4.9637497044
  0
LINE
  5
312
100
AcDbEntity
  8
0
100
AcDbLine
 62
7
  6
CONTINUOUS
 10
15.3884802569
 20
4.9762497044
 11
15.3884802569
 21
5.2195645215
  0
LINE
  5
313
100
AcDbEntity
  8
0
100
AcDbLine
 62
7
  6
CONTINUOUS
 10
14.8026292812
 20
5.3862497044
 11
14.6987062327
 21
5.3862497044
  0
LINE
  5
314
100
AcDbEntity
  8
0
100
AcDbLine
 62
7
  6
CONTINUOUS
 10
15.6011004937
 20
6.7863417933
 11
15.6011004937
 21
6.5369098762
  0
LINE
  5
315
100
AcDbEntity
  8
0
100
AcDbLine
 62
7
  6
CONTINUOUS
 10
15.6541052569
 20
6.7866229995
 11
15.6541052569
 21
6.7502506186
  0
LINE
  5
316
100
AcDbEntity
  8
0
100
AcDbLine
 62
7
  6
CONTINUOUS
 10
15.6541052569
 20
6.733691067
 11
15.6541052569
 21
6.6753983758
  0
LINE
  5
317
100
AcDbEntity
  8
0
100
AcDbLine
 62
7
  6
CONTINUOUS
 10
14.6987062327
 20
5.5662497044
 11
14.8026292812
 21
5.5662497044
  0
LINE
  5
318
100
AcDbEntity
  8
0
100
AcDbLine
 62
7
  6
CONTINUOUS
 10
15.7634802569
 20
6.6526665292
 11
15.7634802569
 21
6.630746219
  0
LINE
  5
319
100
AcDbEntity
  8
0
100
AcDbLine
 62
7
  6
CONTINUOUS
 10
15.7634802569
 20
6.5874680111
 11
15.7634802569
 21
6.4706186155
  0
LINE
  5
31A
100
AcDbEntity
  8
0
100
AcDbLine
 62
7
  6
CONTINUOUS
 10
14.8656677569
 20
6.4968747044
 11
14.8711992117
 21
6.4913432497
  0
LINE
  5
31B
100
AcDbEntity
  8
0
100
AcDbLine
 62
7
  6
CONTINUOUS
 10
15.8728552569
 20
6.6753983758
 11
15.8728552569
 21
6.733691067
  0
LINE
  5
31C
100
AcDbEntity
  8
0
100
AcDbLine
 62
7
  6
CONTINUOUS
 10
15.8728552569
 20
6.7502506186
 11
15.8728552569
 21
6.7866229995
  0
LINE
  5
31D
100
AcDbEntity
  8
0
100
AcDbLine
 62
7
  6
CONTINUOUS
 10
15.9258600201
 20
6.5369098762
 11
15.9258600201
 21
6.7863417933
  0
LINE
  5
31E
100
AcDbEntity
  8
0
100
AcDbLine
 62
7
  6
CONTINUOUS
 10
16.1384802569
 20
5.2195645215
 11
16.1384802569
 21
4.9762497044
  0
LINE
  5
31F
100
AcDbEntity
  8
0
100
AcDbLine
 62
7
  6
CONTINUOUS
 10
16.1384802569
 20
4.9637497044
 11
16.1384802569
 21
4.9137497044
  0
LINE
  5
320
100
AcDbEntity
  8
0
100
AcDbLine
 62
7
  6
CONTINUOUS
 10
14.9666052569
 20
6.2731247044
 11
14.9566052569
 21
6.2731247044
  0
LINE
  5
321
100
AcDbEntity
  8
0
100
AcDbLine
 62
7
  6
CONTINUOUS
 10
16.5603552569
 20
3.8512497044
 11
16.5603552569
 21
7.0449987172
  0
LINE
  5
322
100
AcDbEntity
  8
0
100
AcDbLine
 62
7
  6
CONTINUOUS
 10
14.8247875923
 20
6.4868747044
 11
14.6765479215
 21
6.4868747044
  0
LINE
  5
323
100
AcDbEntity
  8
0
100
AcDbLine
 62
7
  6
CONTINUOUS
 10
14.6256677569
 20
6.4918679259
 11
14.6301363022
 21
6.4913432497
  0
LINE
  5
324
100
AcDbEntity
  8
0
100
AcDbLine
 62
7
  6
CONTINUOUS
 10
15.7634802569
 20
6.4706186155
 11
15.6011004937
 21
6.5369098762
  0
LINE
  5
325
100
AcDbEntity
  8
0
100
AcDbLine
 62
7
  6
CONTINUOUS
 10
14.8741071288
 20
6.4916856331
 11
14.8756664102
 21
6.4918738571
  0
LINE
  5
326
100
AcDbEntity
  8
0
100
AcDbLine
 62
7
  6
CONTINUOUS
 10
14.8745587614
 20
6.4917388091
 11
14.8756677569
 21
6.4918679247
  0
LINE
  5
327
100
AcDbEntity
  8
0
100
AcDbLine
 62
7
  6
CONTINUOUS
 10
14.9566052569
 20
6.4918747044
 11
14.8756677569
 21
6.4918747044
  0
LINE
  5
328
100
AcDbEntity
  8
0
100
AcDbLine
 62
7
  6
CONTINUOUS
 10
14.6256677569
 20
6.4918747044
 11
14.5697302569
 21
6.4918747044
  0
LINE
  5
329
100
AcDbEntity
  8
0
100
AcDbLine
 62
7
  6
CONTINUOUS
 10
14.8656677569
 20
6.4968747044
 11
14.6356677569
 21
6.4968747044
  0
LINE
  5
32A
100
AcDbEntity
  8
0
100
AcDbLine
 62
7
  6
CONTINUOUS
 10
15.7634802569
 20
6.5874680111
 11
15.6011004937
 21
6.6537592718
  0
LINE
  5
32B
100
AcDbEntity
  8
0
100
AcDbLine
 62
7
  6
CONTINUOUS
 10
15.6541052569
 20
6.6753983758
 11
15.7634802569
 21
6.630746219
  0
LINE
  5
32C
100
AcDbEntity
  8
0
100
AcDbLine
 62
7
  6
CONTINUOUS
 10
15.7634802569
 20
6.6526665292
 11
15.7189333699
 21
6.6708527197
  0
LINE
  5
32D
100
AcDbEntity
  8
0
100
AcDbLine
 62
7
  6
CONTINUOUS
 10
15.698652144
 20
6.6791324955
 11
15.6541052569
 21
6.697318686
  0
LINE
  5
32E
100
AcDbEntity
  8
0
100
AcDbLine
 62
7
  6
CONTINUOUS
 10
15.8319996477
 20
6.8033022322
 11
15.8728552569
 21
6.7866229995
  0
LINE
  5
32F
100
AcDbEntity
  8
0
100
AcDbLine
 62
7
  6
CONTINUOUS
 10
15.8327785513
 20
6.8243421438
 11
15.9258600201
 21
6.7863417933
  0
LINE
  5
330
100
AcDbEntity
  8
0
100
AcDbLine
 62
7
  6
CONTINUOUS
 10
14.9916052569
 20
7.0699997044
 11
16.5353552569
 21
7.0699997044
  0
LINE
  5
331
100
AcDbEntity
  8
0
100
AcDbLine
 62
7
  6
CONTINUOUS
 10
13.0335153008
 20
10.8912495301
 11
12.7170343642
 21
11.5361698722
  0
LINE
  5
332
100
AcDbEntity
  8
0
100
AcDbLine
 62
7
  6
CONTINUOUS
 10
12.7169015616
 20
11.5459010201
 11
12.9228795603
 21
12.2124460682
  0
LINE
  5
333
100
AcDbEntity
  8
0
100
AcDbLine
 62
7
  6
CONTINUOUS
 10
12.9277754158
 20
12.2282890625
 11
13.1012423771
 21
12.789628355
  0
LINE
  5
334
100
AcDbEntity
  8
0
100
AcDbLine
 62
7
  6
CONTINUOUS
 10
12.9303411156
 20
12.0418007351
 11
12.9455932089
 21
12.0107202366
  0
LINE
  5
335
100
AcDbEntity
  8
0
100
AcDbLine
 62
7
  6
CONTINUOUS
 10
13.4585510443
 20
11.5764570557
 11
13.4028424909
 21
12.1710041955
  0
LINE
  5
336
100
AcDbEntity
  8
0
100
AcDbLine
 62
7
  6
CONTINUOUS
 10
13.4245654863
 20
12.3914993996
 11
13.5626283193
 21
12.8382708909
  0
LINE
  5
337
100
AcDbEntity
  8
0
100
AcDbLine
 62
7
  6
CONTINUOUS
 10
13.66019254
 20
13.1539888249
 11
13.7982553731
 21
13.6007603163
  0
LINE
  5
338
100
AcDbEntity
  8
0
100
AcDbLine
 62
7
  6
CONTINUOUS
 10
13.804095136
 20
12.2527625907
 11
13.8015094513
 21
12.2440358523
  0
LINE
  5
339
100
AcDbEntity
  8
0
100
AcDbLine
 62
7
  6
CONTINUOUS
 10
13.1017647547
 20
12.7900139616
 11
13.1012420391
 21
12.7896283806
  0
LINE
  5
33A
100
AcDbEntity
  8
0
100
AcDbLine
 62
7
  6
CONTINUOUS
 10
17.8403023633
 20
10.8912495301
 11
13.0335153008
 21
10.8912495301
  0
LINE
  5
33B
100
AcDbEntity
  8
0
100
AcDbLine
 62
7
  6
CONTINUOUS
 10
13.8624196484
 20
11.8742018647
 11
13.8612093168
 21
11.8702852301
  0
LINE
  5
33C
100
AcDbEntity
  8
0
100
AcDbLine
 62
7
  6
CONTINUOUS
 10
13.9687094477
 20
12.1942409152
 11
13.8747964317
 21
11.8903434729
  0
LINE
  5
33D
100
AcDbEntity
  8
0
100
AcDbLine
 62
7
  6
CONTINUOUS
 10
14.1750335406
 20
12.4358205823
 11
14.173823209
 21
12.4319039477
  0
LINE
  5
33E
100
AcDbEntity
  8
0
100
AcDbLine
 62
7
  6
CONTINUOUS
 10
13.968833473
 20
12.1942024708
 11
13.9684476656
 21
12.1933925078
  0
LINE
  5
33F
100
AcDbEntity
  8
0
100
AcDbLine
 62
7
  6
CONTINUOUS
 10
14.4821376223
 20
12.3259438877
 11
14.5072938926
 21
12.407349608
  0
LINE
  5
340
100
AcDbEntity
  8
0
100
AcDbLine
 62
7
  6
CONTINUOUS
 10
14.4884631424
 20
12.322282391
 11
14.5118695206
 21
12.3980254585
  0
LINE
  5
341
100
AcDbEntity
  8
0
100
AcDbLine
 62
7
  6
CONTINUOUS
 10
14.5869405988
 20
12.5358394646
 11
14.5857302672
 21
12.53192283
  0
LINE
  5
342
100
AcDbEntity
  8
0
100
AcDbLine
 62
7
  6
CONTINUOUS
 10
14.0471929813
 20
12.5259682915
 11
14.173823209
 21
12.4319039477
  0
LINE
  5
343
100
AcDbEntity
  8
0
100
AcDbLine
 62
7
  6
CONTINUOUS
 10
14.1750335406
 20
12.4358205823
 11
14.0510327659
 21
12.5279316975
  0
LINE
  5
344
100
AcDbEntity
  8
0
100
AcDbLine
 62
7
  6
CONTINUOUS
 10
14.5118695206
 20
12.3980254585
 11
14.5072938926
 21
12.407349608
  0
LINE
  5
345
100
AcDbEntity
  8
0
100
AcDbLine
 62
7
  6
CONTINUOUS
 10
14.6730848715
 20
12.407349608
 11
14.6479286012
 21
12.3259438877
  0
LINE
  5
346
100
AcDbEntity
  8
0
100
AcDbLine
 62
7
  6
CONTINUOUS
 10
15.8552184673
 20
11.716974037
 11
15.8690343822
 21
11.716974037
  0
LINE
  5
347
100
AcDbEntity
  8
0
100
AcDbLine
 62
7
  6
CONTINUOUS
 10
15.8403428344
 20
11.8136217944
 11
15.8541587493
 21
11.8136217944
  0
LINE
  5
348
100
AcDbEntity
  8
0
100
AcDbLine
 62
7
  6
CONTINUOUS
 10
13.871622392
 20
11.8702852301
 11
13.8612093168
 21
11.8702852301
  0
LINE
  5
349
100
AcDbEntity
  8
0
100
AcDbLine
 62
7
  6
CONTINUOUS
 10
15.8907861629
 20
11.8702852301
 11
16.0517264674
 21
11.8702852301
  0
LINE
  5
34A
100
AcDbEntity
  8
0
100
AcDbLine
 62
7
  6
CONTINUOUS
 10
13.8722421648
 20
11.8742018647
 11
13.8624196484
 21
11.8742018647
  0
LINE
  5
34B
100
AcDbEntity
  8
0
100
AcDbLine
 62
7
  6
CONTINUOUS
 10
15.8919964945
 20
11.8742018647
 11
16.0499670891
 21
11.8742018647
  0
LINE
  5
34C
100
AcDbEntity
  8
0
100
AcDbLine
 62
7
  6
CONTINUOUS
 10
17.2383794501
 20
11.8821761614
 11
16.8911403838
 21
11.8821761614
  0
LINE
  5
34D
100
AcDbEntity
  8
0
100
AcDbLine
 62
7
  6
CONTINUOUS
 10
13.1914677077
 20
11.8821761614
 11
13.4299054282
 21
11.8821761614
  0
LINE
  5
34E
100
AcDbEntity
  8
0
100
AcDbLine
 62
7
  6
CONTINUOUS
 10
13.8015094513
 20
12.2440358523
 11
13.9675383755
 21
12.1897277781
  0
LINE
  5
34F
100
AcDbEntity
  8
0
100
AcDbLine
 62
7
  6
CONTINUOUS
 10
15.8981866831
 20
11.5582125644
 11
16.061286497
 21
11.5048626024
  0
LINE
  5
350
100
AcDbEntity
  8
0
100
AcDbLine
 62
7
  6
CONTINUOUS
 10
13.9687487071
 20
12.1936444126
 11
13.8027197829
 21
12.2479524868
  0
LINE
  5
351
100
AcDbEntity
  8
0
100
AcDbLine
 62
7
  6
CONTINUOUS
 10
15.8993970147
 20
11.5621291989
 11
16.0624968287
 21
11.508779237
  0
LINE
  5
352
100
AcDbEntity
  8
0
100
AcDbLine
 62
7
  6
CONTINUOUS
 10
16.0809221462
 20
11.5586956048
 11
15.914893222
 21
11.613003679
  0
LINE
  5
353
100
AcDbEntity
  8
0
100
AcDbLine
 62
7
  6
CONTINUOUS
 10
13.9871740246
 20
12.2435607805
 11
13.8211451005
 21
12.2978688546
  0
LINE
  5
354
100
AcDbEntity
  8
0
100
AcDbLine
 62
7
  6
CONTINUOUS
 10
15.8038462088
 20
11.6508103536
 11
15.8438781119
 21
11.6355683166
  0
LINE
  5
355
100
AcDbEntity
  8
0
100
AcDbLine
 62
7
  6
CONTINUOUS
 10
14.4821376223
 20
12.3259438877
 11
14.5524549766
 21
12.2852410275
  0
LINE
  5
356
100
AcDbEntity
  8
0
100
AcDbLine
 62
7
  6
CONTINUOUS
 10
15.8352386162
 20
11.2767631656
 11
15.8158813194
 21
11.291142287
  0
LINE
  5
357
100
AcDbEntity
  8
0
100
AcDbLine
 62
7
  6
CONTINUOUS
 10
14.2383373376
 20
12.4629844461
 11
14.1117071099
 21
12.5570487899
  0
LINE
  5
358
100
AcDbEntity
  8
0
100
AcDbLine
 62
7
  6
CONTINUOUS
 10
14.6073431452
 20
12.4387283187
 11
14.6027675172
 21
12.4480524682
  0
LINE
  5
359
100
AcDbEntity
  8
0
100
AcDbLine
 62
7
  6
CONTINUOUS
 10
14.5857302672
 20
12.53192283
 11
14.5324292032
 21
12.6405389784
  0
LINE
  5
35A
100
AcDbEntity
  8
0
100
AcDbLine
 62
7
  6
CONTINUOUS
 10
14.5869405988
 20
12.5358394646
 11
14.5355397305
 21
12.6405834213
  0
LINE
  5
35B
100
AcDbEntity
  8
0
100
AcDbLine
 62
7
  6
CONTINUOUS
 10
14.6245353026
 20
12.6405389784
 11
14.6778363666
 21
12.53192283
  0
LINE
  5
35C
100
AcDbEntity
  8
0
100
AcDbLine
 62
7
  6
CONTINUOUS
 10
15.7377576921
 20
13.3811529699
 11
15.6657762294
 21
13.3085182208
  0
LINE
  5
35D
100
AcDbEntity
  8
0
100
AcDbLine
 62
7
  6
CONTINUOUS
 10
15.7377576921
 20
13.3811529699
 11
15.8583442688
 21
13.4671420995
  0
LINE
  5
35E
100
AcDbEntity
  8
0
100
AcDbLine
 62
7
  6
CONTINUOUS
 10
15.804324557
 20
13.3678766878
 11
15.8374059984
 21
13.3914667458
  0
LINE
  5
35F
100
AcDbEntity
  8
0
100
AcDbLine
 62
7
  6
CONTINUOUS
 10
15.852467257
 20
13.4022067847
 11
15.8855486983
 21
13.4257968428
  0
LINE
  5
360
100
AcDbEntity
  8
0
100
AcDbLine
 62
7
  6
CONTINUOUS
 10
16.0212222807
 20
11.9324462269
 11
15.8602819762
 21
11.9324462269
  0
LINE
  5
361
100
AcDbEntity
  8
0
100
AcDbLine
 62
7
  6
CONTINUOUS
 10
13.8878071667
 20
11.9324462269
 11
13.8307051301
 21
11.9324462269
  0
LINE
  5
362
100
AcDbEntity
  8
0
100
AcDbLine
 62
7
  6
CONTINUOUS
 10
17.1841089321
 20
12.0679005799
 11
17.0401931518
 21
12.0679005799
  0
LINE
  5
363
100
AcDbEntity
  8
0
100
AcDbLine
 62
7
  6
CONTINUOUS
 10
13.4125032106
 20
12.0679005799
 11
13.2983828637
 21
12.0679005799
  0
LINE
  5
364
100
AcDbEntity
  8
0
100
AcDbLine
 62
7
  6
CONTINUOUS
 10
15.8123775648
 20
11.8242694938
 11
15.8403428344
 21
11.8136217944
  0
LINE
  5
365
100
AcDbEntity
  8
0
100
AcDbLine
 62
7
  6
CONTINUOUS
 10
15.8541587493
 20
11.8136217944
 11
15.8141268462
 21
11.8288638313
  0
LINE
  5
366
100
AcDbEntity
  8
0
100
AcDbLine
 62
7
  6
CONTINUOUS
 10
14.6073431452
 20
12.4387283187
 11
14.6713349794
 21
12.4016869552
  0
LINE
  5
367
100
AcDbEntity
  8
0
100
AcDbLine
 62
7
  6
CONTINUOUS
 10
14.6730848715
 20
12.407349608
 11
14.6027675172
 21
12.4480524682
  0
LINE
  5
368
100
AcDbEntity
  8
0
100
AcDbLine
 62
7
  6
CONTINUOUS
 10
15.1891180333
 20
12.4358205823
 11
15.1879077017
 21
12.4319039477
  0
LINE
  5
369
100
AcDbEntity
  8
0
100
AcDbLine
 62
7
  6
CONTINUOUS
 10
15.1271994633
 20
12.5570487899
 11
15.0928893864
 21
12.4629844461
  0
LINE
  5
36A
100
AcDbEntity
  8
0
100
AcDbLine
 62
7
  6
CONTINUOUS
 10
15.2220251422
 20
12.5260385558
 11
15.1891180333
 21
12.4358205823
  0
LINE
  5
36B
100
AcDbEntity
  8
0
100
AcDbLine
 62
7
  6
CONTINUOUS
 10
15.1879077017
 20
12.4319039477
 11
15.2222177786
 21
12.5259682915
  0
LINE
  5
36C
100
AcDbEntity
  8
0
100
AcDbLine
 62
7
  6
CONTINUOUS
 10
15.804324557
 20
13.3678766878
 11
15.7908212267
 21
13.3542508044
  0
LINE
  5
36D
100
AcDbEntity
  8
0
100
AcDbLine
 62
7
  6
CONTINUOUS
 10
15.7077494616
 20
13.1401144742
 11
15.7797309243
 21
13.2127492233
  0
LINE
  5
36E
100
AcDbEntity
  8
0
100
AcDbLine
 62
7
  6
CONTINUOUS
 10
15.8190933597
 20
13.2408181979
 11
15.8325966901
 21
13.2544440813
  0
LINE
  5
36F
100
AcDbEntity
  8
0
100
AcDbLine
 62
7
  6
CONTINUOUS
 10
16.0233171056
 20
13.2568517848
 11
15.9902356643
 21
13.2332617267
  0
LINE
  5
370
100
AcDbEntity
  8
0
100
AcDbLine
 62
7
  6
CONTINUOUS
 10
15.9751744057
 20
13.2225216878
 11
15.9420929644
 21
13.1989316298
  0
LINE
  5
371
100
AcDbEntity
  8
0
100
AcDbLine
 62
7
  6
CONTINUOUS
 10
15.928589634
 20
13.1853057464
 11
16.0098137753
 21
13.2432259014
  0
LINE
  5
372
100
AcDbEntity
  8
0
100
AcDbLine
 62
7
  6
CONTINUOUS
 10
16.0628773098
 20
13.216323736
 11
15.9422907331
 21
13.1303346063
  0
LINE
  5
373
100
AcDbEntity
  8
0
100
AcDbLine
 62
7
  6
CONTINUOUS
 10
15.9908958471
 20
13.1436889869
 11
15.8703092704
 21
13.0576998573
  0
LINE
  5
374
100
AcDbEntity
  8
0
100
AcDbLine
 62
7
  6
CONTINUOUS
 10
14.6027675172
 20
12.4480524682
 11
14.5072938926
 21
12.407349608
  0
LINE
  5
375
100
AcDbEntity
  8
0
100
AcDbLine
 62
7
  6
CONTINUOUS
 10
14.5118695206
 20
12.3980254585
 11
14.6073431452
 21
12.4387283187
  0
LINE
  5
376
100
AcDbEntity
  8
03__ASM_ALL_CURVES
100
AcDbLine
 62
4
  6
CONTINUOUS
 10
16.5638239768
 20
12.2380847493
 11
16.6567857545
 21
12.2380847493
  0
LINE
  5
377
100
AcDbEntity
  8
0
100
AcDbLine
 62
7
  6
CONTINUOUS
 10
17.3360500395
 20
12.2579460941
 11
17.1921342592
 21
12.2579460941
  0
LINE
  5
378
100
AcDbEntity
  8
0
100
AcDbLine
 62
7
  6
CONTINUOUS
 10
15.9420929644
 20
13.1989316298
 11
15.928589634
 21
13.1853057464
  0
LINE
  5
379
100
AcDbEntity
  8
0
100
AcDbLine
 62
7
  6
CONTINUOUS
 10
16.0233171056
 20
13.2568517848
 11
16.0098137753
 21
13.2432259014
  0
LINE
  5
37A
100
AcDbEntity
  8
0
100
AcDbLine
 62
7
  6
CONTINUOUS
 10
15.9422907331
 20
13.1303346063
 11
15.8703092704
 21
13.0576998573
  0
LINE
  5
37B
100
AcDbEntity
  8
0
100
AcDbLine
 62
7
  6
CONTINUOUS
 10
16.0628773098
 20
13.216323736
 11
15.9908958471
 21
13.1436889869
  0
LINE
  5
37C
100
AcDbEntity
  8
0
100
AcDbLine
 62
7
  6
CONTINUOUS
 10
14.5524549766
 20
12.2852410275
 11
14.6479286012
 21
12.3259438877
  0
LINE
  5
37D
100
AcDbEntity
  8
0
100
AcDbLine
 62
7
  6
CONTINUOUS
 10
13.3891577349
 20
12.3616481711
 11
13.4175077277
 21
12.3616481711
  0
LINE
  5
37E
100
AcDbEntity
  8
0
100
AcDbLine
 62
7
  6
CONTINUOUS
 10
17.1309680231
 20
12.3616481711
 11
17.2748838034
 21
12.3616481711
  0
LINE
  5
37F
100
AcDbEntity
  8
0
100
AcDbLine
 62
7
  6
CONTINUOUS
 10
13.3547395279
 20
12.5034602556
 11
13.4591640076
 21
12.5034602556
  0
LINE
  5
380
100
AcDbEntity
  8
0
100
AcDbLine
 62
7
  6
CONTINUOUS
 10
17.0224858048
 20
12.5034602556
 11
17.4016512703
 21
12.5034602556
  0
LINE
  5
381
100
AcDbEntity
  8
0
100
AcDbLine
 62
7
  6
CONTINUOUS
 10
17.0205312889
 20
12.5085219666
 11
16.9604817882
 21
12.5085219666
  0
LINE
  5
382
100
AcDbEntity
  8
0
100
AcDbLine
 62
7
  6
CONTINUOUS
 10
15.553774527
 20
12.2353465736
 11
15.5527709009
 21
12.2360348433
  0
LINE
  5
383
100
AcDbEntity
  8
0
100
AcDbLine
 62
7
  6
CONTINUOUS
 10
15.5558589726
 20
12.2365051582
 11
15.5548547257
 21
12.237197308
  0
LINE
  5
384
100
AcDbEntity
  8
0
100
AcDbLine
 62
7
  6
CONTINUOUS
 10
15.7446060009
 20
12.2440358523
 11
15.7434777785
 21
12.2449002785
  0
LINE
  5
385
100
AcDbEntity
  8
0
100
AcDbLine
 62
7
  6
CONTINUOUS
 10
15.7446060009
 20
12.2440358523
 11
15.7434995283
 21
12.2449095919
  0
LINE
  5
386
100
AcDbEntity
  8
0
100
AcDbLine
 62
7
  6
CONTINUOUS
 10
15.6271874638
 20
12.1837032547
 11
15.6258432864
 21
12.1847706716
  0
LINE
  5
387
100
AcDbEntity
  8
0
100
AcDbLine
 62
7
  6
CONTINUOUS
 10
15.6262503127
 20
12.1833082766
 11
15.6249931949
 21
12.1844103626
  0
LINE
  5
388
100
AcDbEntity
  8
0
100
AcDbLine
 62
7
  6
CONTINUOUS
 10
15.847936474
 20
11.836432085
 11
15.8403722984
 21
11.8454943468
  0
LINE
  5
389
100
AcDbEntity
  8
0
100
AcDbLine
 62
7
  6
CONTINUOUS
 10
14.5336855568
 20
12.6405746258
 11
14.5324292032
 21
12.6405389784
  0
LINE
  5
38A
100
AcDbEntity
  8
0
100
AcDbLine
 62
7
  6
CONTINUOUS
 10
14.5336952369
 20
12.6405570673
 11
14.5324292032
 21
12.6405389784
  0
LINE
  5
38B
100
AcDbEntity
  8
0
100
AcDbLine
 62
7
  6
CONTINUOUS
 10
15.7889705759
 20
11.7474581109
 11
15.8038462088
 21
11.6508103536
  0
LINE
  5
38C
100
AcDbEntity
  8
0
100
AcDbLine
 62
7
  6
CONTINUOUS
 10
15.6330884723
 20
12.1936444126
 11
15.6318781407
 21
12.1897277781
  0
LINE
  5
38D
100
AcDbEntity
  8
0
100
AcDbLine
 62
7
  6
CONTINUOUS
 10
15.6721355507
 20
12.2978688546
 11
15.5594076904
 21
12.2435607805
  0
LINE
  5
38E
100
AcDbEntity
  8
0
100
AcDbLine
 62
7
  6
CONTINUOUS
 10
15.74193478
 20
12.2460824997
 11
15.6330884723
 21
12.1936444126
  0
LINE
  5
38F
100
AcDbEntity
  8
0
100
AcDbLine
 62
7
  6
CONTINUOUS
 10
15.6318781407
 20
12.1897277781
 11
15.7446060009
 21
12.2440358523
  0
LINE
  5
390
100
AcDbEntity
  8
0
100
AcDbLine
 62
7
  6
CONTINUOUS
 10
17.8985737432
 20
12.7900139616
 11
17.1763862451
 21
12.7900139616
  0
LINE
  5
391
100
AcDbEntity
  8
0
100
AcDbLine
 62
7
  6
CONTINUOUS
 10
13.5477158003
 20
12.7900139616
 11
13.1017651373
 21
12.7900139616
  0
LINE
  5
392
100
AcDbEntity
  8
0
100
AcDbLine
 62
7
  6
CONTINUOUS
 10
15.6657762294
 20
13.3085182208
 11
15.7077494616
 21
13.1401144742
  0
LINE
  5
393
100
AcDbEntity
  8
0
100
AcDbLine
 62
7
  6
CONTINUOUS
 10
15.8403428344
 20
11.8136217944
 11
15.8552184673
 21
11.716974037
  0
LINE
  5
394
100
AcDbEntity
  8
0
100
AcDbLine
 62
7
  6
CONTINUOUS
 10
15.8690343822
 20
11.716974037
 11
15.8541587493
 21
11.8136217944
  0
LINE
  5
395
100
AcDbEntity
  8
0
100
AcDbLine
 62
7
  6
CONTINUOUS
 10
15.9091426054
 20
11.593672411
 11
15.9093355534
 21
11.594882148
  0
LINE
  5
396
100
AcDbEntity
  8
0
100
AcDbLine
 62
7
  6
CONTINUOUS
 10
15.7889705759
 20
11.7474581109
 11
15.8141268462
 21
11.8288638313
  0
LINE
  5
397
100
AcDbEntity
  8
0
100
AcDbLine
 62
7
  6
CONTINUOUS
 10
15.8919964945
 20
11.8742018647
 11
15.8907861629
 21
11.8702852301
  0
LINE
  5
398
100
AcDbEntity
  8
0
100
AcDbLine
 62
7
  6
CONTINUOUS
 10
15.8552184673
 20
11.716974037
 11
15.8315166447
 21
11.6402749112
  0
LINE
  5
399
100
AcDbEntity
  8
0
100
AcDbLine
 62
7
  6
CONTINUOUS
 10
15.8690343822
 20
11.716974037
 11
15.8438781119
 21
11.6355683166
  0
LINE
  5
39A
100
AcDbEntity
  8
0
100
AcDbLine
 62
7
  6
CONTINUOUS
 10
16.8632461882
 20
11.8936942981
 11
16.845879539
 21
11.9132566598
  0
LINE
  5
39B
100
AcDbEntity
  8
0
100
AcDbLine
 62
7
  6
CONTINUOUS
 10
16.8389815463
 20
11.9210267844
 11
16.7047108397
 21
12.0722737001
  0
LINE
  5
39C
100
AcDbEntity
  8
0
100
AcDbLine
 62
7
  6
CONTINUOUS
 10
15.7797309243
 20
13.2127492233
 11
15.7377576921
 21
13.3811529699
  0
LINE
  5
39D
100
AcDbEntity
  8
0
100
AcDbLine
 62
7
  6
CONTINUOUS
 10
15.7908212267
 20
13.3542508044
 11
15.8190933597
 21
13.2408181979
  0
LINE
  5
39E
100
AcDbEntity
  8
0
100
AcDbLine
 62
7
  6
CONTINUOUS
 10
15.8325966901
 20
13.2544440813
 11
15.8210818511
 21
13.3006435739
  0
LINE
  5
39F
100
AcDbEntity
  8
0
100
AcDbLine
 62
7
  6
CONTINUOUS
 10
15.815839396
 20
13.3216771951
 11
15.804324557
 21
13.3678766878
  0
LINE
  5
3A0
100
AcDbEntity
  8
0
100
AcDbLine
 62
7
  6
CONTINUOUS
 10
15.914893222
 20
11.613003679
 11
15.9115652152
 21
11.6015050793
  0
LINE
  5
3A1
100
AcDbEntity
  8
0
100
AcDbLine
 62
7
  6
CONTINUOUS
 10
15.9095000528
 20
11.5948315313
 11
15.8154950216
 21
11.2906222496
  0
LINE
  5
3A2
100
AcDbEntity
  8
0
100
AcDbLine
 62
7
  6
CONTINUOUS
 10
16.0624968287
 20
11.508779237
 11
16.061286497
 21
11.5048626024
  0
LINE
  5
3A3
100
AcDbEntity
  8
0
100
AcDbLine
 62
7
  6
CONTINUOUS
 10
15.847936474
 20
11.628000063
 11
15.8403722984
 21
11.6189378011
  0
LINE
  5
3A4
100
AcDbEntity
  8
0
100
AcDbLine
 62
7
  6
CONTINUOUS
 10
15.8703092704
 20
13.0576998573
 11
15.7077494616
 21
13.1401144742
  0
LINE
  5
3A5
100
AcDbEntity
  8
0
100
AcDbLine
 62
7
  6
CONTINUOUS
 10
15.7797309243
 20
13.2127492233
 11
15.9422907331
 21
13.1303346063
  0
LINE
  5
3A6
100
AcDbEntity
  8
0
100
AcDbLine
 62
7
  6
CONTINUOUS
 10
15.8190933597
 20
13.2408181979
 11
15.928589634
 21
13.1853057464
  0
LINE
  5
3A7
100
AcDbEntity
  8
0
100
AcDbLine
 62
7
  6
CONTINUOUS
 10
15.8325966901
 20
13.2544440813
 11
15.8771929704
 21
13.2318346467
  0
LINE
  5
3A8
100
AcDbEntity
  8
0
100
AcDbLine
 62
7
  6
CONTINUOUS
 10
15.897496684
 20
13.2215410643
 11
15.9420929644
 21
13.1989316298
  0
LINE
  5
3A9
100
AcDbEntity
  8
0
100
AcDbLine
 62
7
  6
CONTINUOUS
 10
16.0118022666
 20
13.3030512774
 11
16.0233171056
 21
13.2568517848
  0
LINE
  5
3AA
100
AcDbEntity
  8
0
100
AcDbLine
 62
7
  6
CONTINUOUS
 10
16.0209040777
 20
13.3847274825
 11
16.0237317284
 21
13.3733824668
  0
LINE
  5
3AB
100
AcDbEntity
  8
0
100
AcDbLine
 62
7
  6
CONTINUOUS
 10
16.02567771
 20
13.3655748578
 11
16.0628773098
 21
13.216323736
  0
LINE
  5
3AC
100
AcDbEntity
  8
0
100
AcDbLine
 62
7
  6
CONTINUOUS
 10
15.8325536709
 20
11.6115884138
 11
15.8403722984
 21
11.6189378011
  0
LINE
  5
3AD
100
AcDbEntity
  8
0
100
AcDbLine
 62
7
  6
CONTINUOUS
 10
15.9138722334
 20
13.4114373691
 11
15.8855486983
 21
13.4257968428
  0
LINE
  5
3AE
100
AcDbEntity
  8
0
100
AcDbLine
 62
7
  6
CONTINUOUS
 10
16.0209040777
 20
13.3847274825
 11
16.0184640513
 21
13.3859645278
  0
LINE
  5
3AF
100
AcDbEntity
  8
0
100
AcDbLine
 62
7
  6
CONTINUOUS
 10
15.94232913
 20
13.4245634313
 11
15.8583442688
 21
13.4671420995
  0
LINE
  5
3B0
100
AcDbEntity
  8
0
100
AcDbLine
 62
7
  6
CONTINUOUS
 10
16.8862605823
 20
12.6597688823
 11
17.0205312889
 21
12.5085219666
  0
LINE
  5
3B1
100
AcDbEntity
  8
0
100
AcDbLine
 62
7
  6
CONTINUOUS
 10
17.0205312889
 20
12.5085219666
 11
17.0175054598
 21
12.4987303802
  0
LINE
  5
3B2
100
AcDbEntity
  8
0
100
AcDbLine
 62
7
  6
CONTINUOUS
 10
16.8420073754
 20
11.9308183708
 11
16.8389815463
 21
11.9210267844
  0
LINE
  5
3B3
100
AcDbEntity
  8
0
100
AcDbLine
 62
7
  6
CONTINUOUS
 10
17.1392935787
 20
12.8046475203
 11
16.6114794136
 21
13.39919466
  0
LINE
  5
3B4
100
AcDbEntity
  8
0
100
AcDbLine
 62
7
  6
CONTINUOUS
 10
17.8403023633
 20
10.8912495301
 11
17.5238214266
 21
11.5361698722
  0
LINE
  5
3B5
100
AcDbEntity
  8
0
100
AcDbLine
 62
7
  6
CONTINUOUS
 10
17.6505515981
 20
12.3722077667
 11
17.6658036914
 21
12.3411272683
  0
LINE
  5
3B6
100
AcDbEntity
  8
0
100
AcDbLine
 62
7
  6
CONTINUOUS
 10
17.9096146295
 20
12.7845971344
 11
18.2260955662
 21
12.1396767923
  0
LINE
  5
3B7
100
AcDbEntity
  8
0
100
AcDbLine
 62
7
  6
CONTINUOUS
 10
18.2260955662
 20
12.1396767923
 11
17.8403023633
 21
10.8912495301
  0
ARC
  5
3B8
100
AcDbEntity
  8
0
100
AcDbCircle
 62
7
  6
CONTINUOUS
 10
6.1303672762
 20
5.5357448968
 40
1.59375
100
AcDbArc
 50
15.0
 51
165.0
  0
ARC
  5
3B9
100
AcDbEntity
  8
0
100
AcDbCircle
 62
7
  6
CONTINUOUS
 10
6.1303672762
 20
5.5357448968
 40
1.1901778125
100
AcDbArc
 50
27.592265386
 51
32.407734614
  0
ARC
  5
3BA
100
AcDbEntity
  8
0
100
AcDbCircle
 62
7
  6
CONTINUOUS
 10
6.1303672762
 20
5.5357448968
 40
1.1901778125
100
AcDbArc
 50
327.592265386
 51
332.407734614
  0
ARC
  5
3BB
100
AcDbEntity
  8
0
100
AcDbCircle
 62
7
  6
CONTINUOUS
 10
6.1303672762
 20
5.5357448968
 40
1.1901778125
100
AcDbArc
 50
297.592265386
 51
302.407734614
  0
ARC
  5
3BC
100
AcDbEntity
  8
0
100
AcDbCircle
 62
7
  6
CONTINUOUS
 10
6.1303672762
 20
5.5357448968
 40
1.1901778125
100
AcDbArc
 50
267.592265386
 51
272.407734614
  0
ARC
  5
3BD
100
AcDbEntity
  8
0
100
AcDbCircle
 62
7
  6
CONTINUOUS
 10
6.1303672762
 20
5.5357448968
 40
1.1901778125
100
AcDbArc
 50
237.592265386
 51
242.407734614
  0
ARC
  5
3BE
100
AcDbEntity
  8
0
100
AcDbCircle
 62
7
  6
CONTINUOUS
 10
6.1303672762
 20
5.5357448968
 40
1.1901778125
100
AcDbArc
 50
207.592265386
 51
212.407734614
  0
ARC
  5
3BF
100
AcDbEntity
  8
0
100
AcDbCircle
 62
7
  6
CONTINUOUS
 10
6.1303672762
 20
5.5357448968
 40
1.1901778125
100
AcDbArc
 50
147.592265386
 51
152.407734614
  0
ARC
  5
3C0
100
AcDbEntity
  8
0
100
AcDbCircle
 62
7
  6
CONTINUOUS
 10
6.1303672762
 20
5.5357448968
 40
1.1901778125
100
AcDbArc
 50
117.592265386
 51
122.407734614
  0
ARC
  5
3C1
100
AcDbEntity
  8
0
100
AcDbCircle
 62
7
  6
CONTINUOUS
 10
6.1303672762
 20
5.5357448968
 40
1.1901778125
100
AcDbArc
 50
87.592265386
 51
92.407734614
  0
ARC
  5
3C2
100
AcDbEntity
  8
0
100
AcDbCircle
 62
7
  6
CONTINUOUS
 10
6.1303672762
 20
5.5357448968
 40
1.1901778125
100
AcDbArc
 50
57.592265386
 51
62.407734614
  0
ARC
  5
3C3
100
AcDbEntity
  8
0
100
AcDbCircle
 62
7
  6
CONTINUOUS
 10
6.1303672762
 20
5.5357448968
 40
1.1901778125
100
AcDbArc
 50
177.592265386
 51
182.407734614
  0
ARC
  5
3C4
100
AcDbEntity
  8
0
100
AcDbCircle
 62
7
  6
CONTINUOUS
 10
6.1303672762
 20
5.5357448968
 40
1.1901778125
100
AcDbArc
 50
357.592265386
 51
2.407734614
  0
CIRCLE
  5
3C5
100
AcDbEntity
  8
0
100
AcDbCircle
 62
7
  6
CONTINUOUS
 10
6.1303672762
 20
5.5357448968
 40
1.015625
  0
CIRCLE
  5
3C6
100
AcDbEntity
  8
0
100
AcDbCircle
 62
7
  6
CONTINUOUS
 10
6.1303672762
 20
5.5357448968
 40
1.00625
  0
CIRCLE
  5
3C7
100
AcDbEntity
  8
0
100
AcDbCircle
 62
7
  6
CONTINUOUS
 10
6.1303672762
 20
5.5357448968
 40
0.75
  0
ARC
  5
3C8
100
AcDbEntity
  8
0
100
AcDbCircle
 62
7
  6
CONTINUOUS
 10
7.5390001257
 20
6.7608741751
 40
0.075
100
AcDbArc
 50
135.8411786232
 51
209.7268152428
  0
ARC
  5
3C9
100
AcDbEntity
  8
0
100
AcDbCircle
 62
7
  6
CONTINUOUS
 10
7.3554965545
 20
6.9443777463
 40
0.075
100
AcDbArc
 50
240.2731847572
 51
314.1588213772
  0
ARC
  5
3CA
100
AcDbEntity
  8
0
100
AcDbCircle
 62
7
  6
CONTINUOUS
 10
7.452656957
 20
6.8933899166
 40
0.045
100
AcDbArc
 50
44.9999999998
 51
183.5903778905
  0
ARC
  5
3CB
100
AcDbEntity
  8
0
100
AcDbCircle
 62
7
  6
CONTINUOUS
 10
7.488012296
 20
6.8580345776
 40
0.045
100
AcDbArc
 50
266.4096221093
 51
45.0000000002
  0
ARC
  5
3CC
100
AcDbEntity
  8
0
100
AcDbCircle
 62
7
  6
CONTINUOUS
 10
7.9502432841
 20
4.9982448968
 40
0.025
100
AcDbArc
 50
195.0
 51
270.0
  0
ARC
  5
3CD
100
AcDbEntity
  8
0
100
AcDbCircle
 62
7
  6
CONTINUOUS
 10
4.3104912682
 20
4.9982448968
 40
0.025
100
AcDbArc
 50
270.0
 51
345.0
  0
ARC
  5
3CE
100
AcDbEntity
  8
0
100
AcDbCircle
 62
7
  6
CONTINUOUS
 10
3.5459922762
 20
4.9482448968
 40
0.025
100
AcDbArc
 50
90.0
 51
180.0
  0
ARC
  5
3CF
100
AcDbEntity
  8
0
100
AcDbCircle
 62
7
  6
CONTINUOUS
 10
8.7147422762
 20
4.9482448968
 40
0.025
100
AcDbArc
 50
0.0
 51
90.0
  0
ARC
  5
3D0
100
AcDbEntity
  8
0
100
AcDbCircle
 62
7
  6
CONTINUOUS
 10
3.5709922762
 20
5.0232448968
 40
0.0125
100
AcDbArc
 50
90.0
 51
180.0
  0
ARC
  5
3D1
100
AcDbEntity
  8
0
100
AcDbCircle
 62
7
  6
CONTINUOUS
 10
8.6897422762
 20
5.0232448968
 40
0.0125
100
AcDbArc
 50
0.0
 51
90.0
  0
ARC
  5
3D2
100
AcDbEntity
  8
0
100
AcDbCircle
 62
7
  6
CONTINUOUS
 10
8.133487412
 20
11.7865967239
 40
1.0548795222
100
AcDbArc
 50
173.4550997521
 51
173.7228211618
  0
ARC
  5
3D3
100
AcDbEntity
  8
0
100
AcDbCircle
 62
7
  6
CONTINUOUS
 10
8.1217706533
 20
11.7928071406
 40
1.0430890399
100
AcDbArc
 50
186.2806759774
 51
186.5459781384
  0
ARC
  5
3D4
100
AcDbEntity
  8
0
100
AcDbCircle
 62
7
  6
CONTINUOUS
 10
8.1129110148
 20
11.7887686787
 40
1.034189015
100
AcDbArc
 50
173.7177875138
 51
175.8017054588
  0
ARC
  5
3D5
100
AcDbEntity
  8
0
100
AcDbCircle
 62
7
  6
CONTINUOUS
 10
8.1127993647
 20
11.7919414922
 40
1.0340769037
100
AcDbArc
 50
184.1981731903
 51
186.2873801965
  0
ARC
  5
3D6
100
AcDbEntity
  8
0
100
AcDbCircle
 62
7
  6
CONTINUOUS
 10
8.0897129898
 20
11.7903602814
 40
1.0109367255
100
AcDbArc
 50
175.7954166387
 51
184.2045833613
  0
ARC
  5
3D7
100
AcDbEntity
  8
0
100
AcDbCircle
 62
7
  6
CONTINUOUS
 10
3.8739970839
 20
12.8031727814
 40
0.375
100
AcDbArc
 50
90.0
 51
270.0
  0
ARC
  5
3D8
100
AcDbEntity
  8
0
100
AcDbCircle
 62
7
  6
CONTINUOUS
 10
8.2677470839
 20
12.8031727814
 40
0.375
100
AcDbArc
 50
270.0
 51
90.0
  0
ARC
  5
3D9
100
AcDbEntity
  8
0
100
AcDbCircle
 62
7
  6
CONTINUOUS
 10
7.7896220839
 20
12.8031727814
 40
0.375
100
AcDbArc
 50
190.5983725262
 51
270.0
  0
ARC
  5
3DA
100
AcDbEntity
  8
0
100
AcDbCircle
 62
7
  6
CONTINUOUS
 10
7.7896220839
 20
12.8031727814
 40
0.375
100
AcDbArc
 50
90.0
 51
169.4216987248
  0
ARC
  5
3DB
100
AcDbEntity
  8
0
100
AcDbCircle
 62
7
  6
CONTINUOUS
 10
4.3521220839
 20
12.8031727814
 40
0.375
100
AcDbArc
 50
270.0
 51
90.0
  0
ARC
  5
3DC
100
AcDbEntity
  8
0
100
AcDbCircle
 62
7
  6
CONTINUOUS
 10
4.1177470839
 20
12.8031727814
 40
0.1875
100
AcDbArc
 50
270.0
 51
90.0
  0
ARC
  5
3DD
100
AcDbEntity
  8
0
100
AcDbCircle
 62
7
  6
CONTINUOUS
 10
3.9614970839
 20
12.8031727814
 40
0.1875
100
AcDbArc
 50
90.0
 51
270.0
  0
ARC
  5
3DE
100
AcDbEntity
  8
0
100
AcDbCircle
 62
7
  6
CONTINUOUS
 10
8.0239970839
 20
12.8031727814
 40
0.1875
100
AcDbArc
 50
90.0
 51
270.0
  0
ARC
  5
3DF
100
AcDbEntity
  8
0
100
AcDbCircle
 62
7
  6
CONTINUOUS
 10
8.1802470839
 20
12.8031727814
 40
0.1875
100
AcDbArc
 50
270.0
 51
90.0
  0
CIRCLE
  5
3E0
100
AcDbEntity
  8
0
100
AcDbCircle
 62
7
  6
CONTINUOUS
 10
6.0708720839
 20
11.7903602814
 40
0.125
  0
CIRCLE
  5
3E1
100
AcDbEntity
  8
0
100
AcDbCircle
 62
7
  6
CONTINUOUS
 10
6.0708720839
 20
11.7903602814
 40
0.115
  0
ARC
  5
3E2
100
AcDbEntity
  8
0
100
AcDbCircle
 62
7
  6
CONTINUOUS
 10
7.3365932222
 20
12.7483285832
 40
0.055155807
100
AcDbArc
 50
261.3663439789
 51
278.6336560211
  0
ARC
  5
3E3
100
AcDbEntity
  8
0
100
AcDbCircle
 62
7
  6
CONTINUOUS
 10
7.3365932222
 20
12.8580169795
 40
0.055155807
100
AcDbArc
 50
81.3663439789
 51
98.6336560211
  0
ARC
  5
3E4
100
AcDbEntity
  8
0
100
AcDbCircle
 62
7
  6
CONTINUOUS
 10
14.7524025476
 20
7.5198952902
 40
1.0358018416
100
AcDbArc
 50
263.5224437642
 51
265.8003124545
  0
ARC
  5
3E5
100
AcDbEntity
  8
0
100
AcDbCircle
 62
7
  6
CONTINUOUS
 10
14.7491134875
 20
7.5179634958
 40
1.0338620149
100
AcDbArc
 50
274.197550257
 51
276.4797070372
  0
ARC
  5
3E6
100
AcDbEntity
  8
0
100
AcDbCircle
 62
7
  6
CONTINUOUS
 10
14.7506677569
 20
7.495090614
 40
1.0109367291
100
AcDbArc
 50
265.7954166536
 51
274.2045833464
  0
CIRCLE
  5
3E7
100
AcDbEntity
  8
0
100
AcDbCircle
 62
7
  6
CONTINUOUS
 10
14.7506677569
 20
5.4762497044
 40
0.125
  0
CIRCLE
  5
3E8
100
AcDbEntity
  8
0
100
AcDbCircle
 62
7
  6
CONTINUOUS
 10
14.7506677569
 20
5.4762497044
 40
0.115
  0
ARC
  5
3E9
100
AcDbEntity
  8
0
100
AcDbCircle
 62
7
  6
CONTINUOUS
 10
15.7086360588
 20
6.7419708428
 40
0.055155807
100
AcDbArc
 50
171.3663439789
 51
188.6336560211
  0
ARC
  5
3EA
100
AcDbEntity
  8
0
100
AcDbCircle
 62
7
  6
CONTINUOUS
 10
15.8183244551
 20
6.7419708428
 40
0.055155807
100
AcDbArc
 50
351.3663439789
 51
8.6336560211
  0
ARC
  5
3EB
100
AcDbEntity
  8
0
100
AcDbCircle
 62
7
  6
CONTINUOUS
 10
16.5353552569
 20
7.0449997044
 40
0.025
100
AcDbArc
 50
0.0000000005
 51
90.0
  0
ARC
  5
3EC
100
AcDbEntity
  8
0
100
AcDbCircle
 62
7
  6
CONTINUOUS
 10
14.9916052569
 20
7.0449997044
 40
0.025
100
AcDbArc
 50
90.0
 51
179.9999999995
  0
ARC
  5
3ED
100
AcDbEntity
  8
0
100
AcDbCircle
 62
7
  6
CONTINUOUS
 10
16.5353552569
 20
4.8887497044
 40
0.025
100
AcDbArc
 50
0.0
 51
90.0
  0
ARC
  5
3EE
100
AcDbEntity
  8
0
100
AcDbCircle
 62
7
  6
CONTINUOUS
 10
14.9916052569
 20
4.8887497044
 40
0.025
100
AcDbArc
 50
90.0
 51
180.0
  0
ARC
  5
3EF
100
AcDbEntity
  8
0
100
AcDbCircle
 62
7
  6
CONTINUOUS
 10
15.4009802569
 20
4.9637497044
 40
0.0125
100
AcDbArc
 50
90.0
 51
180.0
  0
ARC
  5
3F0
100
AcDbEntity
  8
0
100
AcDbCircle
 62
7
  6
CONTINUOUS
 10
16.1259802569
 20
4.9637497044
 40
0.0125
100
AcDbArc
 50
0.0
 51
90.0
  0
ARC
  5
3F1
100
AcDbEntity
  8
0
100
AcDbCircle
 62
7
  6
CONTINUOUS
 10
14.5296506909
 20
10.5694578697
 40
2.0754715612
100
AcDbArc
 50
70.5070154623
 51
73.2671349905
  0
ARC
  5
3F2
100
AcDbEntity
  8
0
100
AcDbCircle
 62
7
  6
CONTINUOUS
 10
14.5895931223
 20
10.7635393087
 40
1.7724054008
100
AcDbArc
 50
70.2709790227
 51
73.5031714301
  0
ARC
  5
3F3
100
AcDbEntity
  8
0
100
AcDbCircle
 62
7
  6
CONTINUOUS
 10
14.5875952055
 20
10.7569379368
 40
1.7711026382
100
AcDbArc
 50
70.2693833329
 51
73.5070630372
  0
ARC
  5
3F4
100
AcDbEntity
  8
0
100
AcDbCircle
 62
7
  6
CONTINUOUS
 10
14.5913265228
 20
10.7690550528
 40
1.7707235866
100
AcDbArc
 50
70.2694436642
 51
73.5047067886
  0
ARC
  5
3F5
100
AcDbEntity
  8
0
100
AcDbCircle
 62
7
  6
CONTINUOUS
 10
14.5784687904
 20
11.0052991253
 40
1.6358885967
100
AcDbArc
 50
88.3863414107
 51
91.5686953765
  0
ARC
  5
3F6
100
AcDbEntity
  8
0
100
AcDbCircle
 62
7
  6
CONTINUOUS
 10
14.6329799199
 20
11.1424453572
 40
1.3941544956
100
AcDbArc
 50
88.2371307188
 51
91.892429051
  0
ARC
  5
3F7
100
AcDbEntity
  8
0
100
AcDbCircle
 62
7
  6
CONTINUOUS
 10
14.6317833169
 20
11.1585056232
 40
1.3741891091
100
AcDbArc
 50
88.0794931859
 51
91.9205068141
  0
ARC
  5
3F8
100
AcDbEntity
  8
0
100
AcDbCircle
 62
7
  6
CONTINUOUS
 10
14.5131174587
 20
11.7911804347
 40
0.7195100472
100
AcDbArc
 50
112.1093691812
 51
112.3285047613
  0
ARC
  5
3F9
100
AcDbEntity
  8
0
100
AcDbCircle
 62
7
  6
CONTINUOUS
 10
14.3861978709
 20
11.9010386337
 40
0.7109580806
100
AcDbArc
 50
118.2505447938
 51
118.4784533815
  0
ARC
  5
3FA
100
AcDbEntity
  8
0
100
AcDbCircle
 62
7
  6
CONTINUOUS
 10
14.4648291296
 20
11.8938595283
 40
0.6059888063
100
AcDbArc
 50
118.2481892602
 51
118.4931385697
  0
ARC
  5
3FB
100
AcDbEntity
  8
0
100
AcDbCircle
 62
7
  6
CONTINUOUS
 10
14.4436144291
 20
11.8525249951
 40
0.5947587808
100
AcDbArc
 50
206.1412484959
 51
207.0225172919
  0
ARC
  5
3FC
100
AcDbEntity
  8
0
100
AcDbCircle
 62
7
  6
CONTINUOUS
 10
14.4327039524
 20
11.8366815248
 40
0.5755050052
100
AcDbArc
 50
205.1960864428
 51
206.1393803754
  0
ARC
  5
3FD
100
AcDbEntity
  8
0
100
AcDbCircle
 62
7
  6
CONTINUOUS
 10
14.1960327463
 20
11.783036634
 40
0.3292226367
100
AcDbArc
 50
161.7494480124
 51
162.7125496735
  0
ARC
  5
3FE
100
AcDbEntity
  8
0
100
AcDbCircle
 62
7
  6
CONTINUOUS
 10
13.3547434038
 20
12.0991564038
 40
0.4043038519
100
AcDbArc
 50
90.0005492688
 51
90.5825706823
  0
ARC
  5
3FF
100
AcDbEntity
  8
0
100
AcDbCircle
 62
7
  6
CONTINUOUS
 10
14.1792315297
 20
12.1367300858
 40
0.3926723744
100
AcDbArc
 50
155.7722712215
 51
162.214940007
  0
ARC
  5
400
100
AcDbEntity
  8
0
100
AcDbCircle
 62
7
  6
CONTINUOUS
 10
14.1768970058
 20
12.1375575078
 40
0.3901966931
100
AcDbArc
 50
162.2259242981
 51
162.8275455424
  0
ARC
  5
401
100
AcDbEntity
  8
0
100
AcDbCircle
 62
7
  6
CONTINUOUS
 10
14.2952591304
 20
12.0912936457
 40
0.342452908
100
AcDbArc
 50
153.0682222715
 51
153.7505673414
  0
ARC
  5
402
100
AcDbEntity
  8
0
100
AcDbCircle
 62
7
  6
CONTINUOUS
 10
14.2905892847
 20
12.0935393356
 40
0.3372714108
100
AcDbArc
 50
153.7418574789
 51
160.729071104
  0
ARC
  5
403
100
AcDbEntity
  8
0
100
AcDbCircle
 62
7
  6
CONTINUOUS
 10
14.2902374935
 20
12.1025106932
 40
0.3342792146
100
AcDbArc
 50
155.0420556241
 51
162.823936321
  0
ARC
  5
404
100
AcDbEntity
  8
0
100
AcDbCircle
 62
7
  6
CONTINUOUS
 10
14.2890305592
 20
12.102906151
 40
0.3330093257
100
AcDbArc
 50
162.8276187433
 51
164.0856738267
  0
ARC
  5
405
100
AcDbEntity
  8
0
100
AcDbCircle
 62
7
  6
CONTINUOUS
 10
14.2864041799
 20
12.0951345106
 40
0.3327943626
100
AcDbArc
 50
160.7505163982
 51
161.4435957221
  0
ARC
  5
406
100
AcDbEntity
  8
0
100
AcDbCircle
 62
7
  6
CONTINUOUS
 10
14.2859689726
 20
12.0952802269
 40
0.3323354089
100
AcDbArc
 50
161.4435338445
 51
162.6760747633
  0
ARC
  5
407
100
AcDbEntity
  8
0
100
AcDbCircle
 62
7
  6
CONTINUOUS
 10
14.5486586153
 20
12.4257434064
 40
0.1601209387
100
AcDbArc
 50
270.2903569212
 51
275.6742919934
  0
ARC
  5
408
100
AcDbEntity
  8
0
100
AcDbCircle
 62
7
  6
CONTINUOUS
 10
14.6071997618
 20
12.2994431423
 40
0.1563169114
100
AcDbArc
 50
130.3964645252
 51
133.0259648298
  0
ARC
  5
409
100
AcDbEntity
  8
0
100
AcDbCircle
 62
7
  6
CONTINUOUS
 10
14.60552194
 20
12.3012440551
 40
0.1538555362
100
AcDbArc
 50
133.0268041319
 51
134.3663641223
  0
ARC
  5
40A
100
AcDbEntity
  8
0
100
AcDbCircle
 62
7
  6
CONTINUOUS
 10
14.803284208
 20
11.0525071406
 40
1.5184954575
100
AcDbArc
 50
51.7440433751
 51
55.0976797553
  0
ARC
  5
40B
100
AcDbEntity
  8
0
100
AcDbCircle
 62
7
  6
CONTINUOUS
 10
14.8111050226
 20
11.1604926279
 40
1.316432112
100
AcDbArc
 50
51.4290656888
 51
55.3590154215
  0
ARC
  5
40C
100
AcDbEntity
  8
0
100
AcDbCircle
 62
7
  6
CONTINUOUS
 10
14.8203940489
 20
11.1683948452
 40
1.2968300948
100
AcDbArc
 50
51.6041659072
 51
55.450006019
  0
ARC
  5
40D
100
AcDbEntity
  8
0
100
AcDbCircle
 62
7
  6
CONTINUOUS
 10
14.8277786031
 20
11.1851481304
 40
1.2905769007
100
AcDbArc
 50
51.3917470785
 51
55.2473553804
  0
ARC
  5
40E
100
AcDbEntity
  8
0
100
AcDbCircle
 62
7
  6
CONTINUOUS
 10
15.2003297221
 20
11.8871252181
 40
0.9256046494
100
AcDbArc
 50
283.2346196651
 51
283.7282645071
  0
ARC
  5
40F
100
AcDbEntity
  8
0
100
AcDbCircle
 62
7
  6
CONTINUOUS
 10
15.4814928539
 20
11.9360543512
 40
0.7453274416
100
AcDbArc
 50
295.5225765323
 51
298.1124172217
  0
ARC
  5
410
100
AcDbEntity
  8
0
100
AcDbCircle
 62
7
  6
CONTINUOUS
 10
15.4811405624
 20
11.9303488411
 40
0.7433435726
100
AcDbArc
 50
295.4522396922
 51
298.4478408868
  0
ARC
  5
411
100
AcDbEntity
  8
0
100
AcDbCircle
 62
7
  6
CONTINUOUS
 10
15.2902421198
 20
11.6045097129
 40
0.6516553591
100
AcDbArc
 50
29.7769556287
 51
30.0119489758
  0
ARC
  5
412
100
AcDbEntity
  8
0
100
AcDbCircle
 62
7
  6
CONTINUOUS
 10
15.4604557913
 20
11.6169680769
 40
0.6432500233
100
AcDbArc
 50
23.1916671357
 51
23.4637873717
  0
ARC
  5
413
100
AcDbEntity
  8
0
100
AcDbCircle
 62
7
  6
CONTINUOUS
 10
15.3247798878
 20
11.623703555
 40
0.6121458345
100
AcDbArc
 50
26.154416201
 51
29.8230740663
  0
ARC
  5
414
100
AcDbEntity
  8
0
100
AcDbCircle
 62
7
  6
CONTINUOUS
 10
15.3304990706
 20
11.6365892065
 40
0.6097669517
100
AcDbArc
 50
25.3021499486
 51
29.0256132589
  0
ARC
  5
415
100
AcDbEntity
  8
0
100
AcDbCircle
 62
7
  6
CONTINUOUS
 10
15.3333324506
 20
11.6347774295
 40
0.6052127853
100
AcDbArc
 50
25.5662483859
 51
29.461693668
  0
ARC
  5
416
100
AcDbEntity
  8
0
100
AcDbCircle
 62
7
  6
CONTINUOUS
 10
15.3595330138
 20
11.6474895659
 40
0.576091644
100
AcDbArc
 50
25.0049814635
 51
25.5502874127
  0
ARC
  5
417
100
AcDbEntity
  8
0
100
AcDbCircle
 62
7
  6
CONTINUOUS
 10
15.3626895557
 20
11.6523194302
 40
0.5739418305
100
AcDbArc
 50
25.0044847681
 51
25.2559074224
  0
ARC
  5
418
100
AcDbEntity
  8
0
100
AcDbCircle
 62
7
  6
CONTINUOUS
 10
15.3658164064
 20
11.6438256234
 40
0.5664414285
100
AcDbArc
 50
23.6112420164
 51
26.1571277453
  0
ARC
  5
419
100
AcDbEntity
  8
0
100
AcDbCircle
 62
7
  6
CONTINUOUS
 10
15.3765445405
 20
11.658723526
 40
0.5586784686
100
AcDbArc
 50
22.686765289
 51
25.0098671423
  0
ARC
  5
41A
100
AcDbEntity
  8
0
100
AcDbCircle
 62
7
  6
CONTINUOUS
 10
15.3801967123
 20
11.6569564109
 40
0.5533631467
100
AcDbArc
 50
22.6756064777
 51
25.0210258754
  0
ARC
  5
41B
100
AcDbEntity
  8
0
100
AcDbCircle
 62
7
  6
CONTINUOUS
 10
15.380501107
 20
11.6503082746
 40
0.5503895844
100
AcDbArc
 50
23.2566377258
 51
23.6051724676
  0
ARC
  5
41C
100
AcDbEntity
  8
0
100
AcDbCircle
 62
7
  6
CONTINUOUS
 10
15.7033955996
 20
11.6659194426
 40
0.3924604441
100
AcDbArc
 50
335.7714643626
 51
342.8157604253
  0
ARC
  5
41D
100
AcDbEntity
  8
0
100
AcDbCircle
 62
7
  6
CONTINUOUS
 10
15.7055602961
 20
11.6651659163
 40
0.390169763
100
AcDbArc
 50
342.8275581218
 51
344.1640909843
  0
ARC
  5
41E
100
AcDbEntity
  8
0
100
AcDbCircle
 62
7
  6
CONTINUOUS
 10
15.5895289303
 20
11.6923366503
 40
0.3344995468
100
AcDbArc
 50
346.2449005586
 51
346.9373567177
  0
ARC
  5
41F
100
AcDbEntity
  8
0
100
AcDbCircle
 62
7
  6
CONTINUOUS
 10
15.5903467169
 20
11.6921352553
 40
0.3336573274
100
AcDbArc
 50
344.9095386648
 51
346.2451018294
  0
ARC
  5
420
100
AcDbEntity
  8
0
100
AcDbCircle
 62
7
  6
CONTINUOUS
 10
15.593381822
 20
11.699831895
 40
0.3330296308
100
AcDbArc
 50
341.6254055584
 51
342.827511795
  0
ARC
  5
421
100
AcDbEntity
  8
0
100
AcDbCircle
 62
7
  6
CONTINUOUS
 10
15.5910237524
 20
11.6919544686
 40
0.3329565721
100
AcDbArc
 50
344.2158900136
 51
344.9092444951
  0
ARC
  5
422
100
AcDbEntity
  8
0
100
AcDbCircle
 62
7
  6
CONTINUOUS
 10
15.5914675808
 20
11.6918286562
 40
0.3324952563
100
AcDbArc
 50
343.0387521766
 51
344.2159488138
  0
ARC
  5
423
100
AcDbEntity
  8
0
100
AcDbCircle
 62
7
  6
CONTINUOUS
 10
15.48968137
 20
11.3832522273
 40
0.3292626124
100
AcDbArc
 50
342.7127977412
 51
343.9103688737
  0
ARC
  5
424
100
AcDbEntity
  8
0
100
AcDbCircle
 62
7
  6
CONTINUOUS
 10
15.5793671674
 20
11.7322300488
 40
0.2944180752
100
AcDbArc
 50
359.0757759997
 51
0.9952344063
  0
ARC
  5
425
100
AcDbEntity
  8
0
100
AcDbCircle
 62
7
  6
CONTINUOUS
 10
15.5802483101
 20
11.7322023983
 40
0.2935366015
100
AcDbArc
 50
356.9688671859
 51
359.078398195
  0
ARC
  5
426
100
AcDbEntity
  8
0
100
AcDbCircle
 62
7
  6
CONTINUOUS
 10
15.8216559986
 20
11.8324705785
 40
0.0247456571
100
AcDbArc
 50
90.001383521
 51
94.0461078775
  0
ARC
  5
427
100
AcDbEntity
  8
0
100
AcDbCircle
 62
7
  6
CONTINUOUS
 10
15.8216612808
 20
11.6213266421
 40
0.0141107458
100
AcDbArc
 50
263.0840228674
 51
269.9761304719
  0
ARC
  5
428
100
AcDbEntity
  8
0
100
AcDbCircle
 62
7
  6
CONTINUOUS
 10
14.720562312
 20
12.0370095754
 40
0.9274018894
100
AcDbArc
 50
221.9279030837
 51
222.4210677434
  0
ARC
  5
429
100
AcDbEntity
  8
0
100
AcDbCircle
 62
7
  6
CONTINUOUS
 10
15.9072123548
 20
13.2878538213
 40
0.105688279
100
AcDbArc
 50
8.2675120375
 51
12.5106683807
  0
ARC
  5
42A
100
AcDbEntity
  8
0
100
AcDbCircle
 62
7
  6
CONTINUOUS
 10
15.9429311429
 20
13.2836684957
 40
0.0691271301
100
AcDbArc
 50
297.8030854408
 51
313.1815201919
  0
ARC
  5
42B
100
AcDbEntity
  8
0
100
AcDbCircle
 62
7
  6
CONTINUOUS
 10
15.8847105198
 20
13.3410599768
 40
0.0691271301
100
AcDbArc
 50
117.8030854408
 51
133.1815201919
  0
SPLINE
  5
42C
100
AcDbEntity
  8
0
100
AcDbSpline
 62
7
  6
CONTINUOUS
 70
0
 71
3
 72
9
 73
5
 74
0
 42
0.0000001
 43
0.0000001
 44
0.0000000001
 40
0.0
 40
0.0
 40
0.0
 40
0.0
 40
0.2549277235
 40
1.0
 40
1.0
 40
1.0
 40
1.0
 10
7.2654750991
 20
12.7586258943
 30
0.0
 10
7.2660318371
 20
12.7568482544
 30
0.0
 10
7.2683576918
 20
12.7499208295
 30
0.0
 10
7.2712590096
 20
12.7431831882
 30
0.0
 10
7.2737548749
 20
12.7383446684
 30
0.0
  0
SPLINE
  5
42D
100
AcDbEntity
  8
0
100
AcDbSpline
 62
7
  6
CONTINUOUS
 70
0
 71
3
 72
23
 73
19
 74
0
 42
0.0000001
 43
0.0000001
 44
0.0000000001
 40
0.0
 40
0.0
 40
0.0
 40
0.0
 40
0.0634855871
 40
0.1266733044
 40
0.1894175291
 40
0.2517656351
 40
0.3138740599
 40
0.3758953791
 40
0.4379062551
 40
0.4999407018
 40
0.5619805226
 40
0.624007433
 40
0.6860494365
 40
0.7481824863
 40
0.8105504089
 40
0.873312267
 40
0.9365116449
 40
1.0
 40
1.0
 40
1.0
 40
1.0
 10
7.4735171037
 20
12.8031727814
 30
0.0
 10
7.4735171037
 20
12.7987591609
 30
0.0
 10
7.4727904619
 20
12.7899350211
 30
0.0
 10
7.4695261283
 20
12.7771147441
 30
0.0
 10
7.4641162668
 20
12.7651175085
 30
0.0
 10
7.4566274249
 20
12.7543765813
 30
0.0
 10
7.4472044768
 20
12.7453424011
 30
0.0
 10
7.4361236037
 20
12.7384680118
 30
0.0
 10
7.4238151387
 20
12.7341557616
 30
0.0
 10
7.410851555
 20
12.7326827293
 30
0.0
 10
7.3978861176
 20
12.7341501236
 30
0.0
 10
7.38557334
 20
12.7384591168
 30
0.0
 10
7.3744864345
 20
12.7453320766
 30
0.0
 10
7.3650585205
 20
12.7543678395
 30
0.0
 10
7.357565812
 20
12.7651113854
 30
0.0
 10
7.3521536285
 20
12.7771114042
 30
0.0
 10
7.348888572
 20
12.7899338324
 30
0.0
 10
7.3481617647
 20
12.7987589685
 30
0.0
 10
7.3481617647
 20
12.8031727814
 30
0.0
  0
SPLINE
  5
42E
100
AcDbEntity
  8
0
100
AcDbSpline
 62
7
  6
CONTINUOUS
 70
0
 71
3
 72
23
 73
19
 74
0
 42
0.0000001
 43
0.0000001
 44
0.0000000001
 40
0.0
 40
0.0
 40
0.0
 40
0.0
 40
0.0634855871
 40
0.1266733044
 40
0.1894175291
 40
0.2517656351
 40
0.3138740599
 40
0.3758953791
 40
0.4379062551
 40
0.4999407018
 40
0.5619805226
 40
0.624007433
 40
0.6860494365
 40
0.7481824863
 40
0.8105504089
 40
0.873312267
 40
0.9365116449
 40
1.0
 40
1.0
 40
1.0
 40
1.0
 10
7.3481617647
 20
12.8031727814
 30
0.0
 10
7.3481617647
 20
12.8075864018
 30
0.0
 10
7.3488884065
 20
12.8164105416
 30
0.0
 10
7.3521527401
 20
12.8292308186
 30
0.0
 10
7.3575626016
 20
12.8412280542
 30
0.0
 10
7.3650514435
 20
12.8519689814
 30
0.0
 10
7.3744743916
 20
12.8610031616
 30
0.0
 10
7.3855552647
 20
12.867877551
 30
0.0
 10
7.3978637297
 20
12.8721898012
 30
0.0
 10
7.4108273134
 20
12.8736628334
 30
0.0
 10
7.4237927508
 20
12.8721954392
 30
0.0
 10
7.4361055284
 20
12.867886446
 30
0.0
 10
7.4471924339
 20
12.8610134862
 30
0.0
 10
7.4566203479
 20
12.8519777232
 30
0.0
 10
7.4641130564
 20
12.8412341773
 30
0.0
 10
7.46952524
 20
12.8292341585
 30
0.0
 10
7.4727902965
 20
12.8164117303
 30
0.0
 10
7.4735171037
 20
12.8075865943
 30
0.0
 10
7.4735171037
 20
12.8031727814
 30
0.0
  0
SPLINE
  5
42F
100
AcDbEntity
  8
0
100
AcDbSpline
 62
7
  6
CONTINUOUS
 70
0
 71
3
 72
9
 73
5
 74
0
 42
0.0000001
 43
0.0000001
 44
0.0000000001
 40
0.0
 40
0.0
 40
0.0
 40
0.0
 40
0.2450481775
 40
1.0
 40
1.0
 40
1.0
 40
1.0
 10
7.2737548749
 20
12.8680008943
 30
0.0
 10
7.2729339901
 20
12.8664095155
 30
0.0
 10
7.2697335825
 20
12.859838906
 30
0.0
 10
7.2671238728
 20
12.8529841299
 30
0.0
 10
7.2654750991
 20
12.8477196684
 30
0.0
  0
SPLINE
  5
430
100
AcDbEntity
  8
0
100
AcDbSpline
 62
7
  6
CONTINUOUS
 70
0
 71
3
 72
9
 73
5
 74
0
 42
0.0000001
 43
0.0000001
 44
0.0000000001
 40
0.0
 40
0.0
 40
0.0
 40
0.0
 40
0.2456639173
 40
1.0
 40
1.0
 40
1.0
 40
1.0
 10
7.2654750991
 20
12.8477196684
 30
0.0
 10
7.2643703328
 20
12.8441921984
 30
0.0
 10
7.2604557371
 20
12.8296553364
 30
0.0
 10
7.2588114763
 20
12.814523029
 30
0.0
 10
7.2588114763
 20
12.8031727814
 30
0.0
  0
SPLINE
  5
431
100
AcDbEntity
  8
0
100
AcDbSpline
 62
7
  6
CONTINUOUS
 70
0
 71
3
 72
9
 73
5
 74
0
 42
0.0000001
 43
0.0000001
 44
0.0000000001
 40
0.0
 40
0.0
 40
0.0
 40
0.0
 40
0.2537149426
 40
1.0
 40
1.0
 40
1.0
 40
1.0
 10
7.2588114763
 20
12.8031727814
 30
0.0
 10
7.2588114763
 20
12.7993553924
 30
0.0
 10
7.2593643034
 20
12.7843167545
 30
0.0
 10
7.2621191629
 20
12.7693412507
 30
0.0
 10
7.2654750991
 20
12.7586258943
 30
0.0
  0
SPLINE
  5
432
100
AcDbEntity
  8
0
100
AcDbSpline
 62
7
  6
CONTINUOUS
 70
0
 71
3
 72
12
 73
8
 74
0
 42
0.0000001
 43
0.0000001
 44
0.0000000001
 40
0.0
 40
0.0
 40
0.0
 40
0.0
 40
0.2749763799
 40
0.5316171099
 40
0.7715748385
 40
0.8869360649
 40
1.0
 40
1.0
 40
1.0
 40
1.0
 10
7.3975222217
 20
12.8715483579
 30
0.0
 10
7.3944280495
 20
12.8770610519
 30
0.0
 10
7.3875340137
 20
12.8872515826
 30
0.0
 10
7.3748260244
 20
12.8998021285
 30
0.0
 10
7.3627090704
 20
12.9072553866
 30
0.0
 10
7.3525867176
 20
12.9110053051
 30
0.0
 10
7.3474430398
 20
12.9121586729
 30
0.0
 10
7.344872998
 20
12.9125477814
 30
0.0
  0
SPLINE
  5
433
100
AcDbEntity
  8
0
100
AcDbSpline
 62
7
  6
CONTINUOUS
 70
0
 71
3
 72
12
 73
8
 74
0
 42
0.0000001
 43
0.0000001
 44
0.0000000001
 40
0.0
 40
0.0
 40
0.0
 40
0.0
 40
0.2761846483
 40
0.5333929392
 40
0.7728515528
 40
0.8876445452
 40
1.0
 40
1.0
 40
1.0
 40
1.0
 10
7.2737548749
 20
12.7383446684
 30
0.0
 10
7.276835076
 20
12.7323733471
 30
0.0
 10
7.2837974487
 20
12.7213150078
 30
0.0
 10
7.2969000709
 20
12.7076394104
 30
0.0
 10
7.3095683281
 20
12.6995042786
 30
0.0
 10
7.3202006517
 20
12.6954406707
 30
0.0
 10
7.3256108896
 20
12.6942069528
 30
0.0
 10
7.3283134464
 20
12.6937977814
 30
0.0
  0
SPLINE
  5
434
100
AcDbEntity
  8
0
100
AcDbSpline
 62
7
  6
CONTINUOUS
 70
0
 71
3
 72
12
 73
8
 74
0
 42
0.0000001
 43
0.0000001
 44
0.0000000001
 40
0.0
 40
0.0
 40
0.0
 40
0.0
 40
0.113099062
 40
0.2284885889
 40
0.4684719723
 40
0.7250857366
 40
1.0
 40
1.0
 40
1.0
 40
1.0
 10
7.344872998
 20
12.6937977814
 30
0.0
 10
7.3474365497
 20
12.6941859072
 30
0.0
 10
7.3525671782
 20
12.6953353935
 30
0.0
 10
7.3626645115
 20
12.6990702589
 30
0.0
 10
7.3747541823
 20
12.7064908424
 30
0.0
 10
7.387441903
 20
12.7189872083
 30
0.0
 10
7.3943317316
 20
12.7291357101
 30
0.0
 10
7.3974260134
 20
12.734626146
 30
0.0
  0
SPLINE
  5
435
100
AcDbEntity
  8
0
100
AcDbSpline
 62
7
  6
CONTINUOUS
 70
0
 71
3
 72
12
 73
8
 74
0
 42
0.0000001
 43
0.0000001
 44
0.0000000001
 40
0.0
 40
0.0
 40
0.0
 40
0.0
 40
0.1123554548
 40
0.2271484472
 40
0.4666070608
 40
0.7238153517
 40
1.0
 40
1.0
 40
1.0
 40
1.0
 10
7.3283134464
 20
12.9125477814
 30
0.0
 10
7.3256108896
 20
12.9121386099
 30
0.0
 10
7.3202006517
 20
12.9109048921
 30
0.0
 10
7.3095683281
 20
12.9068412842
 30
0.0
 10
7.2969000709
 20
12.8987061524
 30
0.0
 10
7.2837974487
 20
12.8850305549
 30
0.0
 10
7.276835076
 20
12.8739722157
 30
0.0
 10
7.2737548749
 20
12.8680008943
 30
0.0
  0
SPLINE
  5
436
100
AcDbEntity
  8
0
100
AcDbSpline
 62
7
  6
CONTINUOUS
 70
0
 71
3
 72
23
 73
19
 74
0
 42
0.0000001
 43
0.0000001
 44
0.0000000001
 40
0.0
 40
0.0
 40
0.0
 40
0.0
 40
0.0634855871
 40
0.1266733044
 40
0.1894175291
 40
0.2517656351
 40
0.3138740599
 40
0.3758953791
 40
0.4379062551
 40
0.4999407018
 40
0.5619805226
 40
0.624007433
 40
0.6860494365
 40
0.7481824863
 40
0.8105504089
 40
0.873312267
 40
0.9365116449
 40
1.0
 40
1.0
 40
1.0
 40
1.0
 10
15.7634802569
 20
6.7535393853
 30
0.0
 10
15.7590666365
 20
6.7535393853
 30
0.0
 10
15.7502424967
 20
6.7542660271
 30
0.0
 10
15.7374222197
 20
6.7575303607
 30
0.0
 10
15.7254249841
 20
6.7629402222
 30
0.0
 10
15.7146840569
 20
6.7704290641
 30
0.0
 10
15.7056498767
 20
6.7798520122
 30
0.0
 10
15.6987754873
 20
6.7909328853
 30
0.0
 10
15.6944632371
 20
6.8032413503
 30
0.0
 10
15.6929902049
 20
6.816204934
 30
0.0
 10
15.6944575991
 20
6.8291703714
 30
0.0
 10
15.6987665924
 20
6.841483149
 30
0.0
 10
15.7056395521
 20
6.8525700545
 30
0.0
 10
15.7146753151
 20
6.8619979685
 30
0.0
 10
15.725418861
 20
6.869490677
 30
0.0
 10
15.7374188798
 20
6.8749028605
 30
0.0
 10
15.750241308
 20
6.878167917
 30
0.0
 10
15.759066444
 20
6.8788947243
 30
0.0
 10
15.7634802569
 20
6.8788947243
 30
0.0
  0
SPLINE
  5
437
100
AcDbEntity
  8
0
100
AcDbSpline
 62
7
  6
CONTINUOUS
 70
0
 71
3
 72
23
 73
19
 74
0
 42
0.0000001
 43
0.0000001
 44
0.0000000001
 40
0.0
 40
0.0
 40
0.0
 40
0.0
 40
0.0634855871
 40
0.1266733044
 40
0.1894175291
 40
0.2517656351
 40
0.3138740599
 40
0.3758953791
 40
0.4379062551
 40
0.4999407018
 40
0.5619805226
 40
0.624007433
 40
0.6860494365
 40
0.7481824863
 40
0.8105504089
 40
0.873312267
 40
0.9365116449
 40
1.0
 40
1.0
 40
1.0
 40
1.0
 10
15.7634802569
 20
6.8788947243
 30
0.0
 10
15.7678938774
 20
6.8788947243
 30
0.0
 10
15.7767180172
 20
6.8781680825
 30
0.0
 10
15.7895382942
 20
6.8749037489
 30
0.0
 10
15.8015355298
 20
6.8694938874
 30
0.0
 10
15.812276457
 20
6.8620050455
 30
0.0
 10
15.8213106372
 20
6.8525820974
 30
0.0
 10
15.8281850265
 20
6.8415012243
 30
0.0
 10
15.8324972767
 20
6.8291927593
 30
0.0
 10
15.833970309
 20
6.8162291756
 30
0.0
 10
15.8325029147
 20
6.8032637382
 30
0.0
 10
15.8281939215
 20
6.7909509606
 30
0.0
 10
15.8213209617
 20
6.7798640551
 30
0.0
 10
15.8122851988
 20
6.7704361411
 30
0.0
 10
15.8015416529
 20
6.7629434326
 30
0.0
 10
15.7895416341
 20
6.757531249
 30
0.0
 10
15.7767192059
 20
6.7542661925
 30
0.0
 10
15.7678940698
 20
6.7535393853
 30
0.0
 10
15.7634802569
 20
6.7535393853
 30
0.0
  0
SPLINE
  5
438
100
AcDbEntity
  8
0
100
AcDbSpline
 62
7
  6
CONTINUOUS
 70
0
 71
3
 72
9
 73
5
 74
0
 42
0.0000001
 43
0.0000001
 44
0.0000000001
 40
0.0
 40
0.0
 40
0.0
 40
0.0
 40
0.2450481775
 40
1.0
 40
1.0
 40
1.0
 40
1.0
 10
15.698652144
 20
6.6791324955
 30
0.0
 10
15.7002435228
 20
6.6783116107
 30
0.0
 10
15.7068141323
 20
6.6751112031
 30
0.0
 10
15.7136689084
 20
6.6725014933
 30
0.0
 10
15.7189333699
 20
6.6708527197
 30
0.0
  0
SPLINE
  5
439
100
AcDbEntity
  8
0
100
AcDbSpline
 62
7
  6
CONTINUOUS
 70
0
 71
3
 72
9
 73
5
 74
0
 42
0.0000001
 43
0.0000001
 44
0.0000000001
 40
0.0
 40
0.0
 40
0.0
 40
0.0
 40
0.2549277235
 40
1.0
 40
1.0
 40
1.0
 40
1.0
 10
15.808027144
 20
6.6708527197
 30
0.0
 10
15.8098047839
 20
6.6714094577
 30
0.0
 10
15.8167322088
 20
6.6737353124
 30
0.0
 10
15.8234698501
 20
6.6766366302
 30
0.0
 10
15.8283083699
 20
6.6791324955
 30
0.0
  0
SPLINE
  5
43A
100
AcDbEntity
  8
0
100
AcDbSpline
 62
7
  6
CONTINUOUS
 70
0
 71
3
 72
12
 73
8
 74
0
 42
0.0000001
 43
0.0000001
 44
0.0000000001
 40
0.0
 40
0.0
 40
0.0
 40
0.0
 40
0.2761846483
 40
0.5333929392
 40
0.7728515528
 40
0.8876445452
 40
1.0
 40
1.0
 40
1.0
 40
1.0
 10
15.8283083699
 20
6.6791324955
 30
0.0
 10
15.8342796912
 20
6.6822126966
 30
0.0
 10
15.8453380305
 20
6.6891750693
 30
0.0
 10
15.8590136279
 20
6.7022776915
 30
0.0
 10
15.8671487597
 20
6.7149459487
 30
0.0
 10
15.8712123676
 20
6.7255782723
 30
0.0
 10
15.8724460855
 20
6.7309885102
 30
0.0
 10
15.8728552569
 20
6.733691067
 30
0.0
  0
SPLINE
  5
43B
100
AcDbEntity
  8
0
100
AcDbSpline
 62
7
  6
CONTINUOUS
 70
0
 71
3
 72
12
 73
8
 74
0
 42
0.0000001
 43
0.0000001
 44
0.0000000001
 40
0.0
 40
0.0
 40
0.0
 40
0.0
 40
0.2749763799
 40
0.5316171099
 40
0.7715748385
 40
0.8869360649
 40
1.0
 40
1.0
 40
1.0
 40
1.0
 10
15.6951046804
 20
6.8028998423
 30
0.0
 10
15.6895919864
 20
6.7998056701
 30
0.0
 10
15.6794014557
 20
6.7929116343
 30
0.0
 10
15.6668509098
 20
6.780203645
 30
0.0
 10
15.6593976517
 20
6.768086691
 30
0.0
 10
15.6556477332
 20
6.7579643382
 30
0.0
 10
15.6544943654
 20
6.7528206603
 30
0.0
 10
15.6541052569
 20
6.7502506186
 30
0.0
  0
SPLINE
  5
43C
100
AcDbEntity
  8
0
100
AcDbSpline
 62
7
  6
CONTINUOUS
 70
0
 71
3
 72
12
 73
8
 74
0
 42
0.0000001
 43
0.0000001
 44
0.0000000001
 40
0.0
 40
0.0
 40
0.0
 40
0.0
 40
0.113099062
 40
0.2284885889
 40
0.4684719723
 40
0.7250857366
 40
1.0
 40
1.0
 40
1.0
 40
1.0
 10
15.8728552569
 20
6.7502506186
 30
0.0
 10
15.8724671311
 20
6.7528141702
 30
0.0
 10
15.8713176448
 20
6.7579447988
 30
0.0
 10
15.8675827794
 20
6.7680421321
 30
0.0
 10
15.8601621959
 20
6.7801318029
 30
0.0
 10
15.84766583
 20
6.7928195235
 30
0.0
 10
15.8375173282
 20
6.7997093522
 30
0.0
 10
15.8320268923
 20
6.802803634
 30
0.0
  0
SPLINE
  5
43D
100
AcDbEntity
  8
0
100
AcDbSpline
 62
7
  6
CONTINUOUS
 70
0
 71
3
 72
12
 73
8
 74
0
 42
0.0000001
 43
0.0000001
 44
0.0000000001
 40
0.0
 40
0.0
 40
0.0
 40
0.0
 40
0.1123554548
 40
0.2271484472
 40
0.4666070608
 40
0.7238153517
 40
1.0
 40
1.0
 40
1.0
 40
1.0
 10
15.6541052569
 20
6.733691067
 30
0.0
 10
15.6545144284
 20
6.7309885102
 30
0.0
 10
15.6557481462
 20
6.7255782723
 30
0.0
 10
15.6598117541
 20
6.7149459487
 30
0.0
 10
15.6679468859
 20
6.7022776915
 30
0.0
 10
15.6816224834
 20
6.6891750693
 30
0.0
 10
15.6926808226
 20
6.6822126966
 30
0.0
 10
15.698652144
 20
6.6791324955
 30
0.0
  0
SPLINE
  5
43E
100
AcDbEntity
  8
0
100
AcDbSpline
 62
7
  6
CONTINUOUS
 70
0
 71
3
 72
9
 73
5
 74
0
 42
0.0000001
 43
0.0000001
 44
0.0000000001
 40
0.0
 40
0.0
 40
0.0
 40
0.0
 40
0.2456639173
 40
1.0
 40
1.0
 40
1.0
 40
1.0
 10
15.7189333699
 20
6.6708527197
 30
0.0
 10
15.7224608399
 20
6.6697479534
 30
0.0
 10
15.7369977019
 20
6.6658333577
 30
0.0
 10
15.7521300093
 20
6.6641890968
 30
0.0
 10
15.7634802569
 20
6.6641890968
 30
0.0
  0
SPLINE
  5
43F
100
AcDbEntity
  8
0
100
AcDbSpline
 62
7
  6
CONTINUOUS
 70
0
 71
3
 72
9
 73
5
 74
0
 42
0.0000001
 43
0.0000001
 44
0.0000000001
 40
0.0
 40
0.0
 40
0.0
 40
0.0
 40
0.2537149426
 40
1.0
 40
1.0
 40
1.0
 40
1.0
 10
15.7634802569
 20
6.6641890968
 30
0.0
 10
15.7672976459
 20
6.6641890968
 30
0.0
 10
15.7823362838
 20
6.664741924
 30
0.0
 10
15.7973117876
 20
6.6674967835
 30
0.0
 10
15.808027144
 20
6.6708527197
 30
0.0
  0
LINE
  5
440
100
AcDbEntity
  8
0
100
AcDbLine
 62
7
  6
CONTINUOUS
 10
14.8756664102
 20
6.4918738571
 11
14.8657861645
 21
6.4907059077
  0
LINE
  5
441
100
AcDbEntity
  8
0
100
AcDbLine
 62
7
  6
CONTINUOUS
 10
14.6355495929
 20
6.4907058801
 11
14.6256691035
 21
6.4918738572
  0
SPLINE
  5
442
100
AcDbEntity
  8
0
100
AcDbSpline
 62
7
  6
CONTINUOUS
 70
0
 71
3
 72
31
 73
27
 74
0
 42
0.0000001
 43
0.0000001
 44
0.0000000001
 40
0.0
 40
0.0
 40
0.0
 40
0.0
 40
0.063389536
 40
0.1259008077
 40
0.1875446315
 40
0.2181061844
 40
0.2485473825
 40
0.3093289892
 40
0.3399716879
 40
0.3709576366
 40
0.4024328226
 40
0.4344847029
 40
0.467075825
 40
0.499999809
 40
0.5329238134
 40
0.5655149188
 40
0.5975667315
 40
0.6290419494
 40
0.6600279258
 40
0.6906706129
 40
0.7514522497
 40
0.7818934743
 40
0.8124550951
 40
0.8740990165
 40
0.9366104141
 40
1.0
 40
1.0
 40
1.0
 40
1.0
 10
15.4341256444
 20
5.8887425576
 30
0.0
 10
15.4378105667
 20
5.9140032648
 30
0.0
 10
15.4463524621
 20
5.9640132463
 30
0.0
 10
15.4639265303
 20
6.0375330588
 30
0.0
 10
15.48371996
 20
6.0967426121
 30
0.0
 10
15.503522725
 20
6.1420321985
 30
0.0
 10
15.5262469699
 20
6.1855185979
 30
0.0
 10
15.5542396186
 20
6.2262442967
 30
0.0
 10
15.5883171924
 20
6.2619971546
 30
0.0
 10
15.6173471886
 20
6.2858913088
 30
0.0
 10
15.6498305741
 20
6.3059714549
 30
0.0
 10
15.6855336018
 20
6.3213157626
 30
0.0
 10
15.7237915039
 20
6.3309984756
 30
0.0
 10
15.7634800332
 20
6.3343161427
 30
0.0
 10
15.803168565
 20
6.3309985674
 30
0.0
 10
15.8414264575
 20
6.3213159146
 30
0.0
 10
15.8771294855
 20
6.3059716687
 30
0.0
 10
15.9096129254
 20
6.285891615
 30
0.0
 10
15.9386429645
 20
6.2619974804
 30
0.0
 10
15.9727206087
 20
6.2262446634
 30
0.0
 10
16.000713293
 20
6.1855189686
 30
0.0
 10
16.023437652
 20
6.1420325709
 30
0.0
 10
16.0432404086
 20
6.0967428956
 30
0.0
 10
16.0630339658
 20
6.0375332639
 30
0.0
 10
16.0806080343
 20
5.9640133343
 30
0.0
 10
16.0891499442
 20
5.9140032847
 30
0.0
 10
16.0928348695
 20
5.8887425576
 30
0.0
  0
SPLINE
  5
443
100
AcDbEntity
  8
0
100
AcDbSpline
 62
7
  6
CONTINUOUS
 70
0
 71
3
 72
9
 73
5
 74
0
 42
0.0000001
 43
0.0000001
 44
0.0000000001
 40
0.0
 40
0.0
 40
0.0
 40
0.0
 40
0.245773414
 40
1.0
 40
1.0
 40
1.0
 40
1.0
 10
15.815839396
 20
13.3216771951
 30
0.0
 10
15.8160946857
 20
13.3199181261
 30
0.0
 10
15.817317827
 20
13.3127883703
 30
0.0
 10
15.8192632501
 20
13.3057862512
 30
0.0
 10
15.8210818511
 20
13.3006435739
 30
0.0
  0
SPLINE
  5
444
100
AcDbEntity
  8
0
100
AcDbSpline
 62
7
  6
CONTINUOUS
 70
0
 71
3
 72
23
 73
19
 74
0
 42
0.0000001
 43
0.0000001
 44
0.0000000001
 40
0.0
 40
0.0
 40
0.0
 40
0.0
 40
0.0620518321
 40
0.1240728336
 40
0.1860899514
 40
0.2481215872
 40
0.3102133803
 40
0.3724271804
 40
0.4348485277
 40
0.4975580486
 40
0.5605703376
 40
0.6238021887
 40
0.6870774504
 40
0.7502047744
 40
0.8130501703
 40
0.8755886054
 40
0.9378705017
 40
1.0
 40
1.0
 40
1.0
 40
1.0
 10
16.0242264972
 20
13.3342416745
 30
0.0
 10
16.0229355004
 20
13.330064007
 30
0.0
 10
16.019461788
 20
13.3219555662
 30
0.0
 10
16.0117808494
 20
13.3112056847
 30
0.0
 10
16.0019583215
 20
13.3023626131
 30
0.0
 10
15.9904619645
 20
13.2958389259
 30
0.0
 10
15.9778364511
 20
13.2918927426
 30
0.0
 10
15.9646486701
 20
13.2906221435
 30
0.0
 10
15.951433963
 20
13.2919886413
 30
0.0
 10
15.9386687584
 20
13.2958435282
 30
0.0
 10
15.9267690567
 20
13.3019747663
 30
0.0
 10
15.916102693
 20
13.3101237765
 30
0.0
 10
15.9070037247
 20
13.3200024383
 30
0.0
 10
15.899777071
 20
13.3312930295
 30
0.0
 10
15.8946978619
 20
13.3436471018
 30
0.0
 10
15.8920070769
 20
13.3566776237
 30
0.0
 10
15.8918873373
 20
13.3699336677
 30
0.0
 10
15.8935967262
 20
13.3786082727
 30
0.0
 10
15.8948893389
 20
13.3827911691
 30
0.0
  0
SPLINE
  5
445
100
AcDbEntity
  8
0
100
AcDbSpline
 62
7
  6
CONTINUOUS
 70
0
 71
3
 72
9
 73
5
 74
0
 42
0.0000001
 43
0.0000001
 44
0.0000000001
 40
0.0
 40
0.0
 40
0.0
 40
0.0
 40
0.2528483002
 40
1.0
 40
1.0
 40
1.0
 40
1.0
 10
15.8771929704
 20
13.2318346467
 30
0.0
 10
15.87882311
 20
13.2308201972
 30
0.0
 10
15.8853555028
 20
13.2269473005
 30
0.0
 10
15.8922259399
 20
13.2236406474
 30
0.0
 10
15.897496684
 20
13.2215410643
 30
0.0
  0
SPLINE
  5
446
100
AcDbEntity
  8
0
100
AcDbSpline
 62
7
  6
CONTINUOUS
 70
0
 71
3
 72
23
 73
19
 74
0
 42
0.0000001
 43
0.0000001
 44
0.0000000001
 40
0.0
 40
0.0
 40
0.0
 40
0.0
 40
0.0620518321
 40
0.1240728336
 40
0.1860899514
 40
0.2481215872
 40
0.3102133803
 40
0.3724271804
 40
0.4348485277
 40
0.4975580486
 40
0.5605703376
 40
0.6238021887
 40
0.6870774504
 40
0.7502047744
 40
0.8130501703
 40
0.8755886054
 40
0.9378705017
 40
1.0
 40
1.0
 40
1.0
 40
1.0
 10
15.8948893389
 20
13.3827911691
 30
0.0
 10
15.8961803358
 20
13.3869688366
 30
0.0
 10
15.8996540482
 20
13.3950772773
 30
0.0
 10
15.9073349868
 20
13.4058271589
 30
0.0
 10
15.9171575146
 20
13.4146702304
 30
0.0
 10
15.9286538717
 20
13.4211939177
 30
0.0
 10
15.9412793851
 20
13.425140101
 30
0.0
 10
15.9544671661
 20
13.4264107
 30
0.0
 10
15.9676818731
 20
13.4250442022
 30
0.0
 10
15.9804470778
 20
13.4211893154
 30
0.0
 10
15.9923467795
 20
13.4150580773
 30
0.0
 10
16.0030131431
 20
13.4069090671
 30
0.0
 10
16.0121121114
 20
13.3970304052
 30
0.0
 10
16.0193387651
 20
13.3857398141
 30
0.0
 10
16.0244179742
 20
13.3733857418
 30
0.0
 10
16.0271087592
 20
13.3603552199
 30
0.0
 10
16.0272284989
 20
13.3470991758
 30
0.0
 10
16.02551911
 20
13.3384245708
 30
0.0
 10
16.0242264972
 20
13.3342416745
 30
0.0
  0
SPLINE
  5
447
100
AcDbEntity
  8
0
100
AcDbSpline
 62
7
  6
CONTINUOUS
 70
0
 71
3
 72
11
 73
7
 74
0
 42
0.0000001
 43
0.0000001
 44
0.0000000001
 40
0.0
 40
0.0
 40
0.0
 40
0.0
 40
0.2466321275
 40
0.4945132792
 40
0.745181898
 40
1.0
 40
1.0
 40
1.0
 40
1.0
 10
15.9902356643
 20
13.2332617267
 30
0.0
 10
15.9924222298
 20
13.2353175894
 30
0.0
 10
15.9965371292
 20
13.2397371236
 30
0.0
 10
16.0018001901
 20
13.2471526594
 30
0.0
 10
16.0060996806
 20
13.255277551
 30
0.0
 10
16.0082737234
 20
13.2610516742
 30
0.0
 10
16.0091892525
 20
13.2640143276
 30
0.0
  0
SPLINE
  5
448
100
AcDbEntity
  8
0
100
AcDbSpline
 62
7
  6
CONTINUOUS
 70
0
 71
3
 72
9
 73
5
 74
0
 42
0.0000001
 43
0.0000001
 44
0.0000000001
 40
0.0
 40
0.0
 40
0.0
 40
0.0
 40
0.4875339393
 40
1.0
 40
1.0
 40
1.0
 40
1.0
 10
16.0091892525
 20
13.2640143276
 30
0.0
 10
16.0110780779
 20
13.2701265689
 30
0.0
 10
16.0133907026
 20
13.2831828413
 30
0.0
 10
16.0127680733
 20
13.2963964014
 30
0.0
 10
16.0118022666
 20
13.3030512774
 30
0.0
  0
SPLINE
  5
449
100
AcDbEntity
  8
0
100
AcDbSpline
 62
7
  6
CONTINUOUS
 70
0
 71
3
 72
11
 73
7
 74
0
 42
0.0000001
 43
0.0000001
 44
0.0000000001
 40
0.0
 40
0.0
 40
0.0
 40
0.0
 40
0.2642523521
 40
0.5183853275
 40
0.7631638633
 40
1.0
 40
1.0
 40
1.0
 40
1.0
 10
15.9112280403
 20
13.4089377904
 30
0.0
 10
15.9060332351
 20
13.4100340396
 30
0.0
 10
15.8956647011
 20
13.4114403915
 30
0.0
 10
15.8802669896
 20
13.4110463366
 30
0.0
 10
15.865702073
 20
13.4081055069
 30
0.0
 10
15.8566732671
 20
13.4044320238
 30
0.0
 10
15.852467257
 20
13.4022067847
 30
0.0
  0
SPLINE
  5
44A
100
AcDbEntity
  8
0
100
AcDbSpline
 62
7
  6
CONTINUOUS
 70
0
 71
3
 72
12
 73
8
 74
0
 42
0.0000001
 43
0.0000001
 44
0.0000000001
 40
0.0
 40
0.0
 40
0.0
 40
0.0
 40
0.2440950588
 40
0.4947009587
 40
0.621351469
 40
0.7481999949
 40
1.0
 40
1.0
 40
1.0
 40
1.0
 10
15.8210818511
 20
13.3006435739
 30
0.0
 10
15.8235329958
 20
13.2937121761
 30
0.0
 10
15.8298165631
 20
13.2801023331
 30
0.0
 10
15.8404762999
 20
13.2646130799
 30
0.0
 10
15.8505598726
 20
13.2532405433
 30
0.0
 10
15.861560329
 20
13.2427061714
 30
0.0
 10
15.8707538871
 20
13.2358417421
 30
0.0
 10
15.8771929704
 20
13.2318346467
 30
0.0
  0
SPLINE
  5
44B
100
AcDbEntity
  8
0
100
AcDbSpline
 62
7
  6
CONTINUOUS
 70
0
 71
3
 72
11
 73
7
 74
0
 42
0.0000001
 43
0.0000001
 44
0.0000000001
 40
0.0
 40
0.0
 40
0.0
 40
0.0
 40
0.268126188
 40
0.5240292746
 40
0.7673514679
 40
1.0
 40
1.0
 40
1.0
 40
1.0
 10
15.897496684
 20
13.2215410643
 30
0.0
 10
15.9041382599
 20
13.2188954151
 30
0.0
 10
15.9176100116
 20
13.2148493475
 30
0.0
 10
15.9381117274
 20
13.2128459205
 30
0.0
 10
15.9576501005
 20
13.215144544
 30
0.0
 10
15.9696913219
 20
13.2196207979
 30
0.0
 10
15.9751744057
 20
13.2225216878
 30
0.0
  0
SPLINE
  5
44C
100
AcDbEntity
  8
0
100
AcDbSpline
 62
7
  6
CONTINUOUS
 70
0
 71
3
 72
11
 73
7
 74
0
 42
0.0000001
 43
0.0000001
 44
0.0000000001
 40
0.0
 40
0.0
 40
0.0
 40
0.0
 40
0.2466321275
 40
0.4945132792
 40
0.745181898
 40
1.0
 40
1.0
 40
1.0
 40
1.0
 10
15.8374059984
 20
13.3914667458
 30
0.0
 10
15.8352194328
 20
13.3894108832
 30
0.0
 10
15.8311045334
 20
13.384991349
 30
0.0
 10
15.8258414726
 20
13.3775758132
 30
0.0
 10
15.821541982
 20
13.3694509216
 30
0.0
 10
15.8193679393
 20
13.3636767983
 30
0.0
 10
15.8184524101
 20
13.3607141449
 30
0.0
  0
SPLINE
  5
44D
100
AcDbEntity
  8
0
100
AcDbSpline
 62
7
  6
CONTINUOUS
 70
0
 71
3
 72
9
 73
5
 74
0
 42
0.0000001
 43
0.0000001
 44
0.0000000001
 40
0.0
 40
0.0
 40
0.0
 40
0.0
 40
0.4875339393
 40
1.0
 40
1.0
 40
1.0
 40
1.0
 10
15.8184524101
 20
13.3607141449
 30
0.0
 10
15.8165635847
 20
13.3546019036
 30
0.0
 10
15.8142509601
 20
13.3415456313
 30
0.0
 10
15.8148735893
 20
13.3283320711
 30
0.0
 10
15.815839396
 20
13.3216771951
 30
0.0
  0
SPLINE
  5
44E
100
AcDbEntity
  8
0
100
AcDbSpline
 62
7
  6
CONTINUOUS
 70
0
 71
3
 72
14
 73
10
 74
0
 42
0.0000001
 43
0.0000001
 44
0.0000000001
 40
0.0
 40
0.0
 40
0.0
 40
0.0
 40
0.1164609212
 40
0.2338218829
 40
0.3529503685
 40
0.4746651596
 40
0.5997059788
 40
0.7287107078
 40
1.0
 40
1.0
 40
1.0
 40
1.0
 10
15.5594411752
 20
11.3617038931
 30
0.0
 10
15.5620570669
 20
11.3701718552
 30
0.0
 10
15.5663902587
 20
11.3874723985
 30
0.0
 10
15.5700934534
 20
11.4141244263
 30
0.0
 10
15.5709923375
 20
11.4414187656
 30
0.0
 10
15.5690880939
 20
11.4692424311
 30
0.0
 10
15.5643949652
 20
11.497495049
 30
0.0
 10
15.5542726334
 20
11.5362130331
 30
0.0
 10
15.5427672852
 20
11.5646051335
 30
0.0
 10
15.5336721004
 20
11.5831391715
 30
0.0
  0
SPLINE
  5
44F
100
AcDbEntity
  8
0
100
AcDbSpline
 62
7
  6
CONTINUOUS
 70
0
 71
3
 72
14
 73
10
 74
0
 42
0.0000001
 43
0.0000001
 44
0.0000000001
 40
0.0
 40
0.0
 40
0.0
 40
0.0
 40
0.0877411736
 40
0.18216738
 40
0.2863509259
 40
0.402330302
 40
0.531368804
 40
0.6741343696
 40
1.0
 40
1.0
 40
1.0
 40
1.0
 10
15.8199621541
 20
11.6073185689
 30
0.0
 10
15.8188390986
 20
11.6074544754
 30
0.0
 10
15.8165352561
 20
11.6080173373
 30
0.0
 10
15.8131890753
 20
11.609625794
 30
0.0
 10
15.8098746668
 20
11.6119918616
 30
0.0
 10
15.8065954454
 20
11.6150928512
 30
0.0
 10
15.803355906
 20
11.6189118939
 30
0.0
 10
15.7989105433
 20
11.6252149593
 30
0.0
 10
15.7959897768
 20
11.6305284866
 30
0.0
 10
15.7941388836
 20
11.6343002103
 30
0.0
  0
SPLINE
  5
450
100
AcDbEntity
  8
0
100
AcDbSpline
 62
7
  6
CONTINUOUS
 70
0
 71
3
 72
32
 73
28
 74
0
 42
0.0000001
 43
0.0000001
 44
0.0000000001
 40
0.0
 40
0.0
 40
0.0
 40
0.0
 40
0.0265255794
 40
0.0543788513
 40
0.0835474468
 40
0.1140072647
 40
0.1457144046
 40
0.1785898389
 40
0.2125311521
 40
0.2474179956
 40
0.3194542608
 40
0.3935109413
 40
0.4682572471
 40
0.542324664
 40
0.6143819726
 40
0.6832128485
 40
0.7478006363
 40
0.7782839352
 40
0.8074685995
 40
0.8353335676
 40
0.8618901422
 40
0.8871925938
 40
0.9113382648
 40
0.934474465
 40
0.9567966561
 40
0.9785462287
 40
1.0
 40
1.0
 40
1.0
 40
1.0
 10
15.5336721004
 20
11.5831391715
 30
0.0
 10
15.527214294
 20
11.5962987973
 30
0.0
 10
15.5126010544
 20
11.6226182374
 30
0.0
 10
15.4866557417
 20
11.6608721345
 30
0.0
 10
15.4563209044
 20
11.6985792809
 30
0.0
 10
15.4218232136
 20
11.7354825308
 30
0.0
 10
15.3833885639
 20
11.7713353803
 30
0.0
 10
15.341282795
 20
11.805907504
 30
0.0
 10
15.2957842379
 20
11.8389585304
 30
0.0
 10
15.2303229947
 20
11.8811475568
 30
0.0
 10
15.1420213686
 20
11.9285183109
 30
0.0
 10
15.0291883101
 20
11.9754946205
 30
0.0
 10
14.9113525391
 20
12.0119566821
 30
0.0
 10
14.7916847706
 20
12.0369235282
 30
0.0
 10
14.6733795385
 20
12.0497269447
 30
0.0
 10
14.5596091352
 20
12.0500229777
 30
0.0
 10
14.4693574784
 20
12.0396307316
 30
0.0
 10
14.4022704215
 20
12.0247410922
 30
0.0
 10
14.3559082133
 20
12.010766678
 30
0.0
 10
14.3128446127
 20
11.9938737225
 30
0.0
 10
14.2733722385
 20
11.974158373
 30
0.0
 10
14.2377578612
 20
11.951751352
 30
0.0
 10
14.2062515845
 20
11.9267859768
 30
0.0
 10
14.1790791127
 20
11.8994224969
 30
0.0
 10
14.1564443114
 20
11.8698347796
 30
0.0
 10
14.1385340946
 20
11.8382324459
 30
0.0
 10
14.1298108609
 20
11.8159021983
 30
0.0
 10
14.1263115345
 20
11.8045744499
 30
0.0
  0
SPLINE
  5
451
100
AcDbEntity
  8
0
100
AcDbSpline
 62
7
  6
CONTINUOUS
 70
0
 71
3
 72
23
 73
19
 74
0
 42
0.0000001
 43
0.0000001
 44
0.0000000001
 40
0.0
 40
0.0
 40
0.0
 40
0.0
 40
0.0555744258
 40
0.1137455724
 40
0.1742689551
 40
0.2368382158
 40
0.3011007001
 40
0.36666388
 40
0.4331096792
 40
0.5000010987
 40
0.5668926074
 40
0.6333386706
 40
0.6989025438
 40
0.7631654679
 40
0.8257338672
 40
0.886256942
 40
0.9444287458
 40
1.0
 40
1.0
 40
1.0
 40
1.0
 10
15.4122368093
 20
10.9861039345
 30
0.0
 10
15.3852205291
 20
10.9797496414
 30
0.0
 10
15.3293254898
 20
10.9692023688
 30
0.0
 10
15.2427258236
 20
10.959829783
 30
0.0
 10
15.1521863681
 20
10.9566151244
 30
0.0
 10
15.0586037535
 20
10.9595802135
 30
0.0
 10
14.9628956509
 20
10.9687042406
 30
0.0
 10
14.8660043372
 20
10.9838898529
 30
0.0
 10
14.7688848069
 20
11.0049886857
 30
0.0
 10
14.6724963581
 20
11.0317970412
 30
0.0
 10
14.5777878721
 20
11.0640422151
 30
0.0
 10
14.4856966598
 20
11.1014143424
 30
0.0
 10
14.397129715
 20
11.1435399185
 30
0.0
 10
14.312960236
 20
11.1900029382
 30
0.0
 10
14.2340202772
 20
11.2403508266
 30
0.0
 10
14.1610798305
 20
11.2940851998
 30
0.0
 10
14.0948681733
 20
11.3506811946
 30
0.0
 10
14.0546680257
 20
11.3909217263
 30
0.0
 10
14.035947422
 20
11.411408491
 30
0.0
  0
SPLINE
  5
452
100
AcDbEntity
  8
0
100
AcDbSpline
 62
7
  6
CONTINUOUS
 70
0
 71
3
 72
9
 73
5
 74
0
 42
0.0000001
 43
0.0000001
 44
0.0000000001
 40
0.0
 40
0.0
 40
0.0
 40
0.0
 40
0.2544585149
 40
1.0
 40
1.0
 40
1.0
 40
1.0
 10
14.1117071099
 20
12.5570487899
 30
0.0
 10
14.1063395194
 20
12.5547593509
 30
0.0
 10
14.08534209
 20
12.545537706
 30
0.0
 10
14.0647423091
 20
12.5354045247
 30
0.0
 10
14.0496814739
 20
12.5273118224
 30
0.0
  0
SPLINE
  5
453
100
AcDbEntity
  8
0
100
AcDbSpline
 62
7
  6
CONTINUOUS
 70
0
 71
3
 72
10
 73
6
 74
0
 42
0.0000001
 43
0.0000001
 44
0.0000000001
 40
0.0
 40
0.0
 40
0.0
 40
0.0
 40
0.5185909415
 40
0.7640065557
 40
1.0
 40
1.0
 40
1.0
 40
1.0
 10
14.0306987149
 20
11.4171521868
 30
0.0
 10
14.0070435071
 20
11.4430391573
 30
0.0
 10
13.9742451479
 20
11.4831883683
 30
0.0
 10
13.9369857258
 20
11.5396642265
 30
0.0
 10
13.9210367229
 20
11.5680860697
 30
0.0
 10
13.9137866321
 20
11.5823019154
 30
0.0
  0
SPLINE
  5
454
100
AcDbEntity
  8
0
100
AcDbSpline
 62
7
  6
CONTINUOUS
 70
0
 71
3
 72
15
 73
11
 74
0
 42
0.0000001
 43
0.0000001
 44
0.0000000001
 40
0.0
 40
0.0
 40
0.0
 40
0.0
 40
0.1080517152
 40
0.2181258338
 40
0.3320700142
 40
0.4514123717
 40
0.5773001755
 40
0.710491052
 40
0.8513677111
 40
1.0
 40
1.0
 40
1.0
 40
1.0
 10
15.815495009
 20
11.2906222535
 30
0.0
 10
15.8099543306
 20
11.2726911609
 30
0.0
 10
15.7956527309
 20
11.2373781999
 30
0.0
 10
15.7652998254
 20
11.1880487871
 30
0.0
 10
15.7263074591
 20
11.1426168224
 30
0.0
 10
15.6791204841
 20
11.1015094492
 30
0.0
 10
15.6242221824
 20
11.0650625796
 30
0.0
 10
15.5621362983
 20
11.0335842652
 30
0.0
 10
15.4934535355
 20
11.0073199716
 30
0.0
 10
15.4449416956
 20
10.9937953331
 30
0.0
 10
15.4198113659
 20
10.9878845741
 30
0.0
  0
SPLINE
  5
455
100
AcDbEntity
  8
0
100
AcDbSpline
 62
7
  6
CONTINUOUS
 70
0
 71
3
 72
13
 73
9
 74
0
 42
0.0000001
 43
0.0000001
 44
0.0000000001
 40
0.0
 40
0.0
 40
0.0
 40
0.0
 40
0.1173732717
 40
0.2358689705
 40
0.3560778705
 40
0.4785583398
 40
0.7321363977
 40
1.0
 40
1.0
 40
1.0
 40
1.0
 10
15.9153728117
 20
11.6167343241
 30
0.0
 10
15.9176434317
 20
11.6265205472
 30
0.0
 10
15.9213216126
 20
11.6464034409
 30
0.0
 10
15.9241954754
 20
11.6767820567
 30
0.0
 10
15.9244313948
 20
11.7077345703
 30
0.0
 10
15.9211986648
 20
11.7501307333
 30
0.0
 10
15.9103080812
 20
11.8043959028
 30
0.0
 10
15.8952216621
 20
11.8465657215
 30
0.0
 10
15.886169046
 20
11.8676297648
 30
0.0
  0
SPLINE
  5
456
100
AcDbEntity
  8
0
100
AcDbSpline
 62
7
  6
CONTINUOUS
 70
0
 71
3
 72
9
 73
5
 74
0
 42
0.0000001
 43
0.0000001
 44
0.0000000001
 40
0.0
 40
0.0
 40
0.0
 40
0.0
 40
0.2382019929
 40
1.0
 40
1.0
 40
1.0
 40
1.0
 10
15.8479360708
 20
11.8364298702
 30
0.0
 10
15.8483659983
 20
11.8359142388
 30
0.0
 10
15.8501267148
 20
11.8337128094
 30
0.0
 10
15.8517176776
 20
11.8313781092
 30
0.0
 10
15.8528482577
 20
11.8295528241
 30
0.0
  0
SPLINE
  5
457
100
AcDbEntity
  8
0
100
AcDbSpline
 62
7
  6
CONTINUOUS
 70
0
 71
3
 72
9
 73
5
 74
0
 42
0.0000001
 43
0.0000001
 44
0.0000000001
 40
0.0
 40
0.0
 40
0.0
 40
0.0
 40
0.2408940678
 40
1.0
 40
1.0
 40
1.0
 40
1.0
 10
15.8528482577
 20
11.8295528241
 30
0.0
 10
15.8531984364
 20
11.8289874719
 30
0.0
 10
15.8546199107
 20
11.8266206995
 30
0.0
 10
15.855916903
 20
11.824179959
 30
0.0
 10
15.8568401062
 20
11.8222986686
 30
0.0
  0
SPLINE
  5
458
100
AcDbEntity
  8
0
100
AcDbSpline
 62
7
  6
CONTINUOUS
 70
0
 71
3
 72
15
 73
11
 74
0
 42
0.0000001
 43
0.0000001
 44
0.0000000001
 40
0.0
 40
0.0
 40
0.0
 40
0.0
 40
0.1101419469
 40
0.2264728765
 40
0.3485672561
 40
0.4754479658
 40
0.6057358385
 40
0.7377860846
 40
0.8697889335
 40
1.0
 40
1.0
 40
1.0
 40
1.0
 10
13.2114540941
 20
12.0922827058
 30
0.0
 10
13.2139036696
 20
12.1015139703
 30
0.0
 10
13.2207594881
 20
12.1200455031
 30
0.0
 10
13.2358428681
 20
12.1463715969
 30
0.0
 10
13.2555581491
 20
12.1713041657
 30
0.0
 10
13.2793421794
 20
12.1941537019
 30
0.0
 10
13.3065327865
 20
12.2142956629
 30
0.0
 10
13.3363728178
 20
12.2311684979
 30
0.0
 10
13.3680186794
 20
12.2443137395
 30
0.0
 10
13.3899970422
 20
12.2504117228
 30
0.0
 10
13.4010499842
 20
12.2527180308
 30
0.0
  0
SPLINE
  5
459
100
AcDbEntity
  8
0
100
AcDbSpline
 62
7
  6
CONTINUOUS
 70
0
 71
3
 72
15
 73
11
 74
0
 42
0.0000001
 43
0.0000001
 44
0.0000000001
 40
0.0
 40
0.0
 40
0.0
 40
0.0
 40
0.1135907055
 40
0.2277611612
 40
0.3442798249
 40
0.4646463645
 40
0.5899416119
 40
0.7208787536
 40
0.8577376252
 40
1.0
 40
1.0
 40
1.0
 40
1.0
 10
13.1707157438
 20
12.1435885485
 30
0.0
 10
13.1726590609
 20
12.1379132556
 30
0.0
 10
13.1776129721
 20
12.1268636216
 30
0.0
 10
13.1880420738
 20
12.1118512861
 30
0.0
 10
13.201248569
 20
12.0987020124
 30
0.0
 10
13.2169673557
 20
12.08765399
 30
0.0
 10
13.2349042675
 20
12.0788882875
 30
0.0
 10
13.2547399807
 20
12.0725406106
 30
0.0
 10
13.2761130864
 20
12.0687242242
 30
0.0
 10
13.2908699116
 20
12.0679005799
 30
0.0
 10
13.2983828637
 20
12.0679005799
 30
0.0
  0
SPLINE
  5
45A
100
AcDbEntity
  8
0
100
AcDbSpline
 62
7
  6
CONTINUOUS
 70
0
 71
3
 72
11
 73
7
 74
0
 42
0.0000001
 43
0.0000001
 44
0.0000000001
 40
0.0
 40
0.0
 40
0.0
 40
0.0
 40
0.2730144743
 40
0.5305462963
 40
0.7721473806
 40
1.0
 40
1.0
 40
1.0
 40
1.0
 10
12.71690159
 20
11.5459010226
 30
0.0
 10
12.7166343311
 20
11.5450358015
 30
0.0
 10
12.7162117384
 20
11.5433214624
 30
0.0
 10
12.7159735778
 20
11.5407595992
 30
0.0
 10
12.7162008976
 20
11.538342666
 30
0.0
 10
12.7167014191
 20
11.5368483428
 30
0.0
 10
12.7170343642
 20
11.5361698722
 30
0.0
  0
SPLINE
  5
45B
100
AcDbEntity
  8
0
100
AcDbSpline
 62
7
  6
CONTINUOUS
 70
0
 71
3
 72
23
 73
19
 74
0
 42
0.0000001
 43
0.0000001
 44
0.0000000001
 40
0.0
 40
0.0
 40
0.0
 40
0.0
 40
0.0652816921
 40
0.1323444583
 40
0.2006505871
 40
0.2697169274
 40
0.4076922667
 40
0.475630206
 40
0.5421259989
 40
0.6067511668
 40
0.6691919851
 40
0.7292711888
 40
0.7869744854
 40
0.842465307
 40
0.8960933466
 40
0.922393532
 40
0.9484376741
 40
1.0
 40
1.0
 40
1.0
 40
1.0
 10
13.3506326034
 20
12.5034393566
 30
0.0
 10
13.334865182
 20
12.5032791816
 30
0.0
 10
13.3028951457
 20
12.5011033777
 30
0.0
 10
13.2550861326
 20
12.4926749261
 30
0.0
 10
13.2074960964
 20
12.4791687838
 30
0.0
 10
13.1455447785
 20
12.4547652544
 30
0.0
 10
13.0874686899
 20
12.4214945701
 30
0.0
 10
13.0358141472
 20
12.380596812
 30
0.0
 10
13.0013232722
 20
12.3469622742
 30
0.0
 10
12.9715397248
 20
12.3107972608
 30
0.0
 10
12.9469860584
 20
12.2727126533
 30
0.0
 10
12.9281249573
 20
12.233340703
 30
0.0
 10
12.915341719
 20
12.193336039
 30
0.0
 10
12.9089178477
 20
12.1533945401
 30
0.0
 10
12.9090540921
 20
12.1205141741
 30
0.0
 10
12.9125314299
 20
12.0951224797
 30
0.0
 10
12.9181590191
 20
12.0706396571
 30
0.0
 10
12.9248544032
 20
12.0529814794
 30
0.0
 10
12.9303411156
 20
12.0418007351
 30
0.0
  0
SPLINE
  5
45C
100
AcDbEntity
  8
0
100
AcDbSpline
 62
7
  6
CONTINUOUS
 70
0
 71
3
 72
39
 73
35
 74
0
 42
0.0000001
 43
0.0000001
 44
0.0000000001
 40
0.0
 40
0.0
 40
0.0
 40
0.0
 40
0.0302437643
 40
0.0615722106
 40
0.0939020548
 40
0.1271594645
 40
0.1612634991
 40
0.1961118514
 40
0.2315922118
 40
0.267584712
 40
0.3039644475
 40
0.3406005168
 40
0.377359328
 40
0.4141057584
 40
0.4507047777
 40
0.4870234308
 40
0.5229314963
 40
0.5583047133
 40
0.593024416
 40
0.6269819186
 40
0.6600773638
 40
0.6922252677
 40
0.7233528521
 40
0.7534066072
 40
0.7823504995
 40
0.8101730193
 40
0.8368858132
 40
0.8625298777
 40
0.8871751341
 40
0.9109230223
 40
0.9339068318
 40
0.9562867824
 40
0.9782500476
 40
1.0
 40
1.0
 40
1.0
 40
1.0
 10
16.6114794136
 20
13.39919466
 30
0.0
 10
16.5899653735
 20
13.4234287784
 30
0.0
 10
16.5444913007
 20
13.4713006415
 30
0.0
 10
16.4708275634
 20
13.539916695
 30
0.0
 10
16.3908671051
 20
13.6062589136
 30
0.0
 10
16.305071527
 20
13.6699743375
 30
0.0
 10
16.2138955068
 20
13.7307263547
 30
0.0
 10
16.1178384477
 20
13.7882055141
 30
0.0
 10
16.0174182661
 20
13.8420870046
 30
0.0
 10
15.9131915903
 20
13.8920920916
 30
0.0
 10
15.8057231874
 20
13.9379375603
 30
0.0
 10
15.6956068648
 20
13.9793865746
 30
0.0
 10
15.5834419019
 20
14.0161992694
 30
0.0
 10
15.4698480144
 20
14.048187063
 30
0.0
 10
15.3554443232
 20
14.0751610477
 30
0.0
 10
15.2408611135
 20
14.0969859103
 30
0.0
 10
15.1267224171
 20
14.1135271254
 30
0.0
 10
15.0136540519
 20
14.1247058263
 30
0.0
 10
14.9022698102
 20
14.130444005
 30
0.0
 10
14.7931757881
 20
14.1307201857
 30
0.0
 10
14.6869609407
 20
14.1255125349
 30
0.0
 10
14.5841971891
 20
14.1148552938
 30
0.0
 10
14.4854355333
 20
14.0987799306
 30
0.0
 10
14.3912014309
 20
14.0773715665
 30
0.0
 10
14.3019984737
 20
14.050709362
 30
0.0
 10
14.2182986806
 20
14.0189218725
 30
0.0
 10
14.1405566768
 20
13.9821292557
 30
0.0
 10
14.0691937713
 20
13.9404981231
 30
0.0
 10
14.0046263804
 20
13.8941894823
 30
0.0
 10
13.9472373232
 20
13.8434176006
 30
0.0
 10
13.8974227354
 20
13.78840749
 30
0.0
 10
13.8555240385
 20
13.7294603669
 30
0.0
 10
13.8219047881
 20
13.6669256649
 30
0.0
 10
13.8051360859
 20
13.6230263112
 30
0.0
 10
13.7982553731
 20
13.6007603163
 30
0.0
  0
SPLINE
  5
45D
100
AcDbEntity
  8
0
100
AcDbSpline
 62
7
  6
CONTINUOUS
 70
0
 71
3
 72
11
 73
7
 74
0
 42
0.0000001
 43
0.0000001
 44
0.0000000001
 40
0.0
 40
0.0
 40
0.0
 40
0.0
 40
0.2725232664
 40
0.5266738819
 40
0.7655188776
 40
1.0
 40
1.0
 40
1.0
 40
1.0
 10
17.8985737384
 20
12.7900139495
 30
0.0
 10
17.8997493892
 20
12.7900139488
 30
0.0
 10
17.9020287157
 20
12.7898431853
 30
0.0
 10
17.9052300542
 20
12.7889100323
 30
0.0
 10
17.9079202226
 20
12.7871903427
 30
0.0
 10
17.9091690034
 20
12.785505225
 30
0.0
 10
17.9096146295
 20
12.7845971344
 30
0.0
  0
SPLINE
  5
45E
100
AcDbEntity
  8
0
100
AcDbSpline
 62
7
  6
CONTINUOUS
 70
0
 71
3
 72
11
 73
7
 74
0
 42
0.0000001
 43
0.0000001
 44
0.0000000001
 40
0.0
 40
0.0
 40
0.0
 40
0.0
 40
0.1945618168
 40
0.4317767376
 40
0.7031479461
 40
1.0
 40
1.0
 40
1.0
 40
1.0
 10
17.1392935787
 20
12.8046475203
 30
0.0
 10
17.1398717493
 20
12.80399625
 30
0.0
 10
17.1412483424
 20
12.8026337137
 30
0.0
 10
17.1436838588
 20
12.8006339023
 30
0.0
 10
17.1466689578
 20
12.7986045393
 30
0.0
 10
17.1488796258
 20
12.7973410306
 30
0.0
 10
17.1500570877
 20
12.7967252833
 30
0.0
  0
SPLINE
  5
45F
100
AcDbEntity
  8
0
100
AcDbSpline
 62
7
  6
CONTINUOUS
 70
0
 71
3
 72
11
 73
7
 74
0
 42
0.0000001
 43
0.0000001
 44
0.0000000001
 40
0.0
 40
0.0
 40
0.0
 40
0.0
 40
0.2526900957
 40
0.5130126121
 40
0.7670960701
 40
1.0
 40
1.0
 40
1.0
 40
1.0
 10
17.1500570877
 20
12.7967252833
 30
0.0
 10
17.1521023444
 20
12.7956557275
 30
0.0
 10
17.1563960747
 20
12.7937473647
 30
0.0
 10
17.1630928424
 20
12.7916387675
 30
0.0
 10
17.1698081068
 20
12.790337751
 30
0.0
 10
17.1742589343
 20
12.7900139616
 30
0.0
 10
17.1763862451
 20
12.7900139616
 30
0.0
  0
SPLINE
  5
460
100
AcDbEntity
  8
0
100
AcDbSpline
 62
7
  6
CONTINUOUS
 70
0
 71
3
 72
16
 73
12
 74
0
 42
0.0000001
 43
0.0000001
 44
0.0000000001
 40
0.0
 40
0.0
 40
0.0
 40
0.0
 40
0.1106207646
 40
0.1687642366
 40
0.2286671953
 40
0.353062969
 40
0.4822532295
 40
0.6140255279
 40
0.7458549788
 40
0.8752950467
 40
1.0
 40
1.0
 40
1.0
 40
1.0
 10
16.9532643822
 20
12.0922827058
 30
0.0
 10
16.9561930842
 20
12.1033195657
 30
0.0
 10
16.9625977755
 20
12.1196946703
 30
0.0
 10
16.9742469651
 20
12.1402452527
 30
0.0
 10
16.9885230622
 20
12.1608401038
 30
0.0
 10
17.0103602294
 20
12.1849346145
 30
0.0
 10
17.0414280714
 20
12.2100086692
 30
0.0
 10
17.0764892872
 20
12.2306545834
 30
0.0
 10
17.1141708658
 20
12.2460771563
 30
0.0
 10
17.1529895379
 20
12.2556531698
 30
0.0
 10
17.1792615939
 20
12.2579460941
 30
0.0
 10
17.1921342592
 20
12.2579460941
 30
0.0
  0
SPLINE
  5
461
100
AcDbEntity
  8
0
100
AcDbSpline
 62
7
  6
CONTINUOUS
 70
0
 71
3
 72
15
 73
11
 74
0
 42
0.0000001
 43
0.0000001
 44
0.0000000001
 40
0.0
 40
0.0
 40
0.0
 40
0.0
 40
0.1135907055
 40
0.2277611612
 40
0.3442798249
 40
0.4646463645
 40
0.5899416119
 40
0.7208787536
 40
0.8577376252
 40
1.0
 40
1.0
 40
1.0
 40
1.0
 10
16.9125260319
 20
12.1435885485
 30
0.0
 10
16.9144693491
 20
12.1379132556
 30
0.0
 10
16.9194232602
 20
12.1268636216
 30
0.0
 10
16.929852362
 20
12.1118512861
 30
0.0
 10
16.9430588572
 20
12.0987020124
 30
0.0
 10
16.9587776438
 20
12.08765399
 30
0.0
 10
16.9767145556
 20
12.0788882875
 30
0.0
 10
16.9965502689
 20
12.0725406106
 30
0.0
 10
17.0179233745
 20
12.0687242242
 30
0.0
 10
17.0326801998
 20
12.0679005799
 30
0.0
 10
17.0401931518
 20
12.0679005799
 30
0.0
  0
SPLINE
  5
462
100
AcDbEntity
  8
0
100
AcDbSpline
 62
7
  6
CONTINUOUS
 70
0
 71
3
 72
15
 73
11
 74
0
 42
0.0000001
 43
0.0000001
 44
0.0000000001
 40
0.0
 40
0.0
 40
0.0
 40
0.0
 40
0.1141777141
 40
0.2296836334
 40
0.3476504059
 40
0.4691012523
 40
0.5947609918
 40
0.7250775477
 40
0.8602683506
 40
1.0
 40
1.0
 40
1.0
 40
1.0
 10
17.6505515981
 20
12.3722077667
 30
0.0
 10
17.6455820056
 20
12.3823347315
 30
0.0
 10
17.6338342508
 20
12.4018970116
 30
0.0
 10
17.6114217264
 20
12.4281170563
 30
0.0
 10
17.5845619536
 20
12.4508842934
 30
0.0
 10
17.553739165
 20
12.469861598
 30
0.0
 10
17.5194611934
 20
12.48482677
 30
0.0
 10
17.4822413831
 20
12.495601633
 30
0.0
 10
17.4426438041
 20
12.5020674164
 30
0.0
 10
17.4154565815
 20
12.5034602556
 30
0.0
 10
17.4016512703
 20
12.5034602556
 30
0.0
  0
SPLINE
  5
463
100
AcDbEntity
  8
0
100
AcDbSpline
 62
7
  6
CONTINUOUS
 70
0
 71
3
 72
24
 73
20
 74
0
 42
0.0000001
 43
0.0000001
 44
0.0000000001
 40
0.0
 40
0.0
 40
0.0
 40
0.0
 40
0.0022715574
 40
0.006342617
 40
0.0123174828
 40
0.0202995409
 40
0.0303927833
 40
0.0426976917
 40
0.0573078347
 40
0.074310375
 40
0.1157507292
 40
0.1673170198
 40
0.2288223702
 40
0.2994745024
 40
0.3778857543
 40
0.4622446004
 40
0.6411255768
 40
0.8230061888
 40
1.0
 40
1.0
 40
1.0
 40
1.0
 10
13.660192564
 20
13.1539888197
 30
0.0
 10
13.6601187149
 20
13.1537496118
 30
0.0
 10
13.6599713284
 20
13.1530650654
 30
0.0
 10
13.6596965365
 20
13.1517364824
 30
0.0
 10
13.659312577
 20
13.1497866657
 30
0.0
 10
13.6587907897
 20
13.1471881263
 30
0.0
 10
13.658114929
 20
13.1439087663
 30
0.0
 10
13.6572623691
 20
13.1399201666
 30
0.0
 10
13.6562114534
 20
13.1351954125
 30
0.0
 10
13.6543939365
 20
13.1273519816
 30
0.0
 10
13.6514846082
 20
13.1155813317
 30
0.0
 10
13.647097083
 20
13.0991266091
 30
0.0
 10
13.641541704
 20
13.0796544674
 30
0.0
 10
13.6348278661
 20
13.0574392712
 30
0.0
 10
13.6270626996
 20
13.0329131684
 30
0.0
 10
13.6153327089
 20
12.9971330686
 30
0.0
 10
13.5995710661
 20
12.9506768532
 30
0.0
 10
13.5805598155
 20
12.8945431292
 30
0.0
 10
13.5683877173
 20
12.8569077012
 30
0.0
 10
13.5626283333
 20
12.8382708705
 30
0.0
  0
SPLINE
  5
464
100
AcDbEntity
  8
0
100
AcDbSpline
 62
7
  6
CONTINUOUS
 70
0
 71
3
 72
11
 73
7
 74
0
 42
0.0000001
 43
0.0000001
 44
0.0000000001
 40
0.0
 40
0.0
 40
0.0
 40
0.0
 40
0.2463211388
 40
0.4941345035
 40
0.7449060239
 40
1.0
 40
1.0
 40
1.0
 40
1.0
 10
13.4245654863
 20
12.3914993996
 30
0.0
 10
13.4191615107
 20
12.3740121282
 30
0.0
 10
13.4101051357
 20
12.338352093
 30
0.0
 10
13.401965874
 20
12.2835120635
 30
0.0
 10
13.399268716
 20
12.227487137
 30
0.0
 10
13.4010741609
 20
12.1898766212
 30
0.0
 10
13.4028424909
 20
12.1710041955
 30
0.0
  0
SPLINE
  5
465
100
AcDbEntity
  8
0
100
AcDbSpline
 62
7
  6
CONTINUOUS
 70
0
 71
3
 72
23
 73
19
 74
0
 42
0.0000001
 43
0.0000001
 44
0.0000000001
 40
0.0
 40
0.0
 40
0.0
 40
0.0
 40
0.0659097368
 40
0.1338734026
 40
0.2032220564
 40
0.2733772619
 40
0.4133149493
 40
0.5486646598
 40
0.6133557198
 40
0.6754809802
 40
0.7348604887
 40
0.7635449643
 40
0.7915747896
 40
0.84579989
 40
0.8980923328
 40
0.9237638187
 40
0.9492401044
 40
1.0
 40
1.0
 40
1.0
 40
1.0
 10
17.1841089321
 20
12.0679005799
 30
0.0
 10
17.1923715626
 20
12.0679005799
 30
0.0
 10
17.2091675143
 20
12.0689296577
 30
0.0
 10
17.234311865
 20
12.0733105293
 30
0.0
 10
17.2593617501
 20
12.0804926785
 30
0.0
 10
17.2919123087
 20
12.0935773173
 30
0.0
 10
17.3294758883
 20
12.1157465493
 30
0.0
 10
17.3612226683
 20
12.144733316
 30
0.0
 10
17.3813078345
 20
12.1708382803
 30
0.0
 10
17.3931628288
 20
12.1910213514
 30
0.0
 10
17.4004305555
 20
12.2084666756
 30
0.0
 10
17.4044757952
 20
12.2224609471
 30
0.0
 10
17.4072831206
 20
12.2360946278
 30
0.0
 10
17.4086535434
 20
12.252992507
 30
0.0
 10
17.4070258039
 20
12.2695863864
 30
0.0
 10
17.4039175347
 20
12.2821953291
 30
0.0
 10
17.3996803829
 20
12.2942627343
 30
0.0
 10
17.3951861741
 20
12.3027883082
 30
0.0
 10
17.3916856766
 20
12.3081023861
 30
0.0
  0
SPLINE
  5
466
100
AcDbEntity
  8
0
100
AcDbSpline
 62
7
  6
CONTINUOUS
 70
0
 71
3
 72
13
 73
9
 74
0
 42
0.0000001
 43
0.0000001
 44
0.0000000001
 40
0.0
 40
0.0
 40
0.0
 40
0.0
 40
0.2347142296
 40
0.480320785
 40
0.6070570787
 40
0.7361818796
 40
0.8673508875
 40
1.0
 40
1.0
 40
1.0
 40
1.0
 10
16.3464812341
 20
12.5239966982
 30
0.0
 10
16.3304321682
 20
12.546861215
 30
0.0
 10
16.297355081
 20
12.5934850034
 30
0.0
 10
16.2560028729
 20
12.6527373391
 30
0.0
 10
16.2229931299
 20
12.7024651629
 30
0.0
 10
16.1984177623
 20
12.7414320315
 30
0.0
 10
16.1747699803
 20
12.7817905908
 30
0.0
 10
16.1601023951
 20
12.8095722388
 30
0.0
 10
16.1531476728
 20
12.8237452939
 30
0.0
  0
SPLINE
  5
467
100
AcDbEntity
  8
0
100
AcDbSpline
 62
7
  6
CONTINUOUS
 70
0
 71
3
 72
10
 73
6
 74
0
 42
0.0000001
 43
0.0000001
 44
0.0000000001
 40
0.0
 40
0.0
 40
0.0
 40
0.0
 40
0.2619840836
 40
0.5165513902
 40
1.0
 40
1.0
 40
1.0
 40
1.0
 10
17.3360500395
 20
12.2579460941
 30
0.0
 10
17.3424192713
 20
12.2579460941
 30
0.0
 10
17.3549885884
 20
12.2573968744
 30
0.0
 10
17.3790930224
 20
12.2541045982
 30
0.0
 10
17.3964969325
 20
12.2490617001
 30
0.0
 10
17.4073272564
 20
12.2444959771
 30
0.0
  0
SPLINE
  5
468
100
AcDbEntity
  8
0
100
AcDbSpline
 62
7
  6
CONTINUOUS
 70
0
 71
3
 72
11
 73
7
 74
0
 42
0.0000001
 43
0.0000001
 44
0.0000000001
 40
0.0
 40
0.0
 40
0.0
 40
0.0
 40
0.2477772063
 40
0.5006651815
 40
0.7531962024
 40
1.0
 40
1.0
 40
1.0
 40
1.0
 10
14.6554283248
 20
12.3023705866
 30
0.0
 10
14.6489908703
 20
12.2973327169
 30
0.0
 10
14.6351503001
 20
12.2881838652
 30
0.0
 10
14.6126176409
 20
12.2775310649
 30
0.0
 10
14.5888862434
 20
12.2700314655
 30
0.0
 10
14.5725929621
 20
12.2672094026
 30
0.0
 10
14.5644902959
 20
12.266407055
 30
0.0
  0
SPLINE
  5
469
100
AcDbEntity
  8
0
100
AcDbSpline
 62
7
  6
CONTINUOUS
 70
0
 71
3
 72
14
 73
10
 74
0
 42
0.0000001
 43
0.0000001
 44
0.0000000001
 40
0.0
 40
0.0
 40
0.0
 40
0.0
 40
0.2842952298
 40
0.417203571
 40
0.5436141248
 40
0.6639654788
 40
0.7792270882
 40
0.8907297908
 40
1.0
 40
1.0
 40
1.0
 40
1.0
 10
14.5494700542
 20
12.2656245238
 30
0.0
 10
14.5407813414
 20
12.2655904191
 30
0.0
 10
14.5279631195
 20
12.2666355354
 30
0.0
 10
14.5118134206
 20
12.2706555098
 30
0.0
 10
14.5009344595
 20
12.2747819417
 30
0.0
 10
14.4911669138
 20
12.2800544827
 30
0.0
 10
14.4826361821
 20
12.2864329299
 30
0.0
 10
14.4754711531
 20
12.2938525468
 30
0.0
 10
14.4716449475
 20
12.2994579356
 30
0.0
 10
14.4700111743
 20
12.3023705866
 30
0.0
  0
SPLINE
  5
46A
100
AcDbEntity
  8
0
100
AcDbSpline
 62
7
  6
CONTINUOUS
 70
0
 71
3
 72
14
 73
10
 74
0
 42
0.0000001
 43
0.0000001
 44
0.0000000001
 40
0.0
 40
0.0
 40
0.0
 40
0.0
 40
0.1102506141
 40
0.2222681706
 40
0.3377671592
 40
0.4583097615
 40
0.5848147027
 40
0.7175471626
 40
1.0
 40
1.0
 40
1.0
 40
1.0
 10
14.4700111743
 20
12.3023705866
 30
0.0
 10
14.4678557708
 20
12.3062413787
 30
0.0
 10
14.4643081401
 20
12.3145187754
 30
0.0
 10
14.4615663987
 20
12.3278997247
 30
0.0
 10
14.4614602672
 20
12.3419695963
 30
0.0
 10
14.4639628167
 20
12.3563929365
 30
0.0
 10
14.4689915831
 20
12.3708694024
 30
0.0
 10
14.4791053213
 20
12.3902103322
 30
0.0
 10
14.4898254077
 20
12.4032958787
 30
0.0
 10
14.4979394126
 20
12.4112328083
 30
0.0
  0
SPLINE
  5
46B
100
AcDbEntity
  8
0
100
AcDbSpline
 62
7
  6
CONTINUOUS
 70
0
 71
3
 72
9
 73
5
 74
0
 42
0.0000001
 43
0.0000001
 44
0.0000000001
 40
0.0
 40
0.0
 40
0.0
 40
0.0
 40
0.5152732879
 40
1.0
 40
1.0
 40
1.0
 40
1.0
 10
15.8070300673
 20
11.8528437341
 30
0.0
 10
15.8090364823
 20
11.8540665037
 30
0.0
 10
15.8131851737
 20
11.8560585525
 30
0.0
 10
15.8177051081
 20
11.8569986764
 30
0.0
 10
15.8199099642
 20
11.8571545593
 30
0.0
  0
SPLINE
  5
46C
100
AcDbEntity
  8
0
100
AcDbSpline
 62
7
  6
CONTINUOUS
 70
0
 71
3
 72
13
 73
9
 74
0
 42
0.0000001
 43
0.0000001
 44
0.0000000001
 40
0.0
 40
0.0
 40
0.0
 40
0.0
 40
0.1010215944
 40
0.2117282278
 40
0.3307754409
 40
0.4567683814
 40
0.723701611
 40
1.0
 40
1.0
 40
1.0
 40
1.0
 10
15.7941388836
 20
11.6343002103
 30
0.0
 10
15.7925721484
 20
11.6374928811
 30
0.0
 10
15.7895592708
 20
11.6443185852
 30
0.0
 10
15.7855341609
 20
11.6552517212
 30
0.0
 10
15.7818561747
 20
11.6672294285
 30
0.0
 10
15.7774224865
 20
11.6847053722
 30
0.0
 10
15.7732410214
 20
11.7079246189
 30
0.0
 10
15.7715386671
 20
11.7270046914
 30
0.0
 10
15.7711462352
 20
11.7367236109
 30
0.0
  0
SPLINE
  5
46D
100
AcDbEntity
  8
0
100
AcDbSpline
 62
7
  6
CONTINUOUS
 70
0
 71
3
 72
15
 73
11
 74
0
 42
0.0000001
 43
0.0000001
 44
0.0000000001
 40
0.0
 40
0.0
 40
0.0
 40
0.0
 40
0.1380799318
 40
0.2714583019
 40
0.400424799
 40
0.5254316948
 40
0.647119483
 40
0.7662256933
 40
0.8835644243
 40
1.0
 40
1.0
 40
1.0
 40
1.0
 10
13.9096931546
 20
11.5904828613
 30
0.0
 10
13.903423054
 20
11.6032599829
 30
0.0
 10
13.8920047788
 20
11.6288399993
 30
0.0
 10
13.8781992684
 20
11.6677837593
 30
0.0
 10
13.8680885974
 20
11.7064627593
 30
0.0
 10
13.8617346056
 20
11.7447167378
 30
0.0
 10
13.8591547252
 20
11.7823948466
 30
0.0
 10
13.8603741155
 20
11.8193561639
 30
0.0
 10
13.8653859244
 20
11.8554483683
 30
0.0
 10
13.871253245
 20
11.878876744
 30
0.0
 10
13.8747964443
 20
11.890343469
 30
0.0
  0
SPLINE
  5
46E
100
AcDbEntity
  8
0
100
AcDbSpline
 62
7
  6
CONTINUOUS
 70
0
 71
3
 72
11
 73
7
 74
0
 42
0.0000001
 43
0.0000001
 44
0.0000000001
 40
0.0
 40
0.0
 40
0.0
 40
0.0
 40
0.2296743045
 40
0.4731936475
 40
0.7302302175
 40
1.0
 40
1.0
 40
1.0
 40
1.0
 10
15.854524252
 20
11.93045508
 30
0.0
 10
15.8414220548
 20
11.9531379445
 30
0.0
 10
15.8116127222
 20
11.998283336
 30
0.0
 10
15.7587228156
 20
12.0627776471
 30
0.0
 10
15.69693116
 20
12.125388412
 30
0.0
 10
15.6512691367
 20
12.1645526521
 30
0.0
 10
15.6271874638
 20
12.1837032547
 30
0.0
  0
SPLINE
  5
46F
100
AcDbEntity
  8
0
100
AcDbSpline
 62
7
  6
CONTINUOUS
 70
0
 71
3
 72
11
 73
7
 74
0
 42
0.0000001
 43
0.0000001
 44
0.0000000001
 40
0.0
 40
0.0
 40
0.0
 40
0.0
 40
0.2414554738
 40
0.4897663453
 40
0.7432224821
 40
1.0
 40
1.0
 40
1.0
 40
1.0
 10
15.5548547257
 20
12.237197308
 30
0.0
 10
15.5273453141
 20
12.2561394888
 30
0.0
 10
15.4701368613
 20
12.2925505872
 30
0.0
 10
15.3798478659
 20
12.3418641077
 30
0.0
 10
15.2846840326
 20
12.3862236495
 30
0.0
 10
15.2189503753
 20
12.412067138
 30
0.0
 10
15.1855164383
 20
12.4240596344
 30
0.0
  0
SPLINE
  5
470
100
AcDbEntity
  8
0
100
AcDbSpline
 62
7
  6
CONTINUOUS
 70
0
 71
3
 72
15
 73
11
 74
0
 42
0.0000001
 43
0.0000001
 44
0.0000000001
 40
0.0
 40
0.0
 40
0.0
 40
0.0
 40
0.1378527267
 40
0.2742110748
 40
0.4078462103
 40
0.5376085441
 40
0.6624671286
 40
0.7815492819
 40
0.8941915811
 40
1.0
 40
1.0
 40
1.0
 40
1.0
 10
15.0904061893
 20
12.4551680949
 30
0.0
 10
15.0523905857
 20
12.4664257033
 30
0.0
 10
14.975995835
 20
12.4862922176
 30
0.0
 10
14.8606461136
 20
12.5080704049
 30
0.0
 10
14.7463559607
 20
12.5214607523
 30
0.0
 10
14.6346877541
 20
12.5262817124
 30
0.0
 10
14.5271566231
 20
12.5224684011
 30
0.0
 10
14.4252111041
 20
12.5100619425
 30
0.0
 10
14.3302431716
 20
12.4892226859
 30
0.0
 10
14.2705048598
 20
12.4692364675
 30
0.0
 10
14.2423113129
 20
12.4577828195
 30
0.0
  0
SPLINE
  5
471
100
AcDbEntity
  8
0
100
AcDbSpline
 62
7
  6
CONTINUOUS
 70
0
 71
3
 72
9
 73
5
 74
0
 42
0.0000001
 43
0.0000001
 44
0.0000000001
 40
0.0
 40
0.0
 40
0.0
 40
0.0
 40
0.2551688181
 40
1.0
 40
1.0
 40
1.0
 40
1.0
 10
14.2397637874
 20
12.4567422113
 30
0.0
 10
14.2343932251
 20
12.4545364488
 30
0.0
 10
14.2134522924
 20
12.4456371182
 30
0.0
 10
14.1929484766
 20
12.435699543
 30
0.0
 10
14.1780195798
 20
12.4276785197
 30
0.0
  0
SPLINE
  5
472
100
AcDbEntity
  8
0
100
AcDbSpline
 62
7
  6
CONTINUOUS
 70
0
 71
3
 72
12
 73
8
 74
0
 42
0.0000001
 43
0.0000001
 44
0.0000000001
 40
0.0
 40
0.0
 40
0.0
 40
0.0
 40
0.2698804606
 40
0.5245876559
 40
0.7666997984
 40
0.8842177594
 40
1.0
 40
1.0
 40
1.0
 40
1.0
 10
14.1757400398
 20
12.4264474849
 30
0.0
 10
14.1549841806
 20
12.4151811271
 30
0.0
 10
14.1158632202
 20
12.3908821252
 30
0.0
 10
14.0640210632
 20
12.3479566853
 30
0.0
 10
14.0281298652
 20
12.3075897424
 30
0.0
 10
14.0045953718
 20
12.2732347589
 30
0.0
 10
13.9945353901
 20
12.2554335411
 30
0.0
 10
13.9899464524
 20
12.2464005857
 30
0.0
  0
LINE
  5
473
100
AcDbEntity
  8
0
100
AcDbLine
 62
7
  6
CONTINUOUS
 10
15.8568401062
 20
11.8222986686
 11
15.8595850897
 21
11.8162205303
  0
SPLINE
  5
474
100
AcDbEntity
  8
0
100
AcDbSpline
 62
7
  6
CONTINUOUS
 70
0
 71
3
 72
11
 73
7
 74
0
 42
0.0000001
 43
0.0000001
 44
0.0000000001
 40
0.0
 40
0.0
 40
0.0
 40
0.0
 40
0.2190513398
 40
0.4634730179
 40
0.7264032203
 40
1.0
 40
1.0
 40
1.0
 40
1.0
 10
15.8595850897
 20
11.8162205303
 30
0.0
 10
15.8618450726
 20
11.8107907396
 30
0.0
 10
15.8658083161
 20
11.798957141
 30
0.0
 10
15.8700557868
 20
11.7798959475
 30
0.0
 10
15.8728263869
 20
11.7590885394
 30
0.0
 10
15.8736130429
 20
11.7446885937
 30
0.0
 10
15.8737408277
 20
11.7373438681
 30
0.0
  0
SPLINE
  5
475
100
AcDbEntity
  8
0
100
AcDbSpline
 62
7
  6
CONTINUOUS
 70
0
 71
3
 72
14
 73
10
 74
0
 42
0.0000001
 43
0.0000001
 44
0.0000000001
 40
0.0
 40
0.0
 40
0.0
 40
0.0
 40
0.2974336743
 40
0.4381135443
 40
0.5710327131
 40
0.6947185696
 40
0.8079122596
 40
0.9097850463
 40
1.0
 40
1.0
 40
1.0
 40
1.0
 10
15.873374239
 20
11.7166806014
 30
0.0
 10
15.872882895
 20
11.7074195922
 30
0.0
 10
15.8715088996
 20
11.6937956536
 30
0.0
 10
15.8682636963
 20
11.676281387
 30
0.0
 10
15.8652688716
 20
11.6642522218
 30
0.0
 10
15.8617237561
 20
11.6532697638
 30
0.0
 10
15.8576760875
 20
11.6434982224
 30
0.0
 10
15.8531900182
 20
11.6350848892
 30
0.0
 10
15.8497391874
 20
11.6301603334
 30
0.0
 10
15.8479362761
 20
11.6280011624
 30
0.0
  0
SPLINE
  5
476
100
AcDbEntity
  8
0
100
AcDbSpline
 62
7
  6
CONTINUOUS
 70
0
 71
3
 72
9
 73
5
 74
0
 42
0.0000001
 43
0.0000001
 44
0.0000000001
 40
0.0
 40
0.0
 40
0.0
 40
0.0
 40
0.2544628251
 40
1.0
 40
1.0
 40
1.0
 40
1.0
 10
16.0212222807
 20
11.9324462269
 30
0.0
 10
16.0239399668
 20
11.9275320717
 30
0.0
 10
16.0344007068
 20
11.90810008
 30
0.0
 10
16.0439657427
 20
11.8881828986
 30
0.0
 10
16.0505167004
 20
11.87309054
 30
0.0
  0
SPLINE
  5
477
100
AcDbEntity
  8
0
100
AcDbSpline
 62
7
  6
CONTINUOUS
 70
0
 71
3
 72
15
 73
11
 74
0
 42
0.0000001
 43
0.0000001
 44
0.0000000001
 40
0.0
 40
0.0
 40
0.0
 40
0.0
 40
0.1125427699
 40
0.2272673056
 40
0.3451559366
 40
0.4669474036
 40
0.5931828069
 40
0.7241855803
 40
0.8599574355
 40
1.0
 40
1.0
 40
1.0
 40
1.0
 10
17.3916856766
 20
12.3081023861
 30
0.0
 10
17.3889250225
 20
12.3122933135
 30
0.0
 10
17.3826947958
 20
12.3203435227
 30
0.0
 10
17.3715411844
 20
12.3310234062
 30
0.0
 10
17.3586662
 20
12.3402734094
 30
0.0
 10
17.3442350945
 20
12.3479827123
 30
0.0
 10
17.3284216228
 20
12.3540611668
 30
0.0
 10
17.3114163485
 20
12.3584447014
 30
0.0
 10
17.2934365475
 20
12.361075835
 30
0.0
 10
17.2811285404
 20
12.3616481711
 30
0.0
 10
17.2748838034
 20
12.3616481711
 30
0.0
  0
SPLINE
  5
478
100
AcDbEntity
  8
0
100
AcDbSpline
 62
7
  6
CONTINUOUS
 70
0
 71
3
 72
9
 73
5
 74
0
 42
0.0000001
 43
0.0000001
 44
0.0000000001
 40
0.0
 40
0.0
 40
0.0
 40
0.0
 40
0.2551294745
 40
1.0
 40
1.0
 40
1.0
 40
1.0
 10
14.2354145865
 20
12.4651600473
 30
0.0
 10
14.2301590107
 20
12.4629264586
 30
0.0
 10
14.2096672675
 20
12.4539211673
 30
0.0
 10
14.1896202061
 20
12.4438949114
 30
0.0
 10
14.1750335406
 20
12.4358205823
 30
0.0
  0
SPLINE
  5
479
100
AcDbEntity
  8
0
100
AcDbSpline
 62
7
  6
CONTINUOUS
 70
0
 71
3
 72
17
 73
13
 74
0
 42
0.0000001
 43
0.0000001
 44
0.0000000001
 40
0.0
 40
0.0
 40
0.0
 40
0.0
 40
0.1155616616
 40
0.1755935201
 40
0.2369308829
 40
0.2994152417
 40
0.3628570858
 40
0.4916978177
 40
0.6217095596
 40
0.7509567054
 40
0.8776234451
 40
1.0
 40
1.0
 40
1.0
 40
1.0
 10
16.5435058812
 20
12.2622157
 30
0.0
 10
16.5522641881
 20
12.2796787524
 30
0.0
 10
16.567906066
 20
12.3051057679
 30
0.0
 10
16.5926200343
 20
12.3366523681
 30
0.0
 10
16.6135320791
 20
12.3596867433
 30
0.0
 10
16.6364228039
 20
12.3815915575
 30
0.0
 10
16.6694990118
 20
12.4092193718
 30
0.0
 10
16.7147062828
 20
12.4399304451
 30
0.0
 10
16.7733600502
 20
12.4697059771
 30
0.0
 10
16.8349670078
 20
12.4917293617
 30
0.0
 10
16.8976421264
 20
12.5053060715
 30
0.0
 10
16.9397934189
 20
12.5085219666
 30
0.0
 10
16.9604817882
 20
12.5085219666
 30
0.0
  0
SPLINE
  5
47A
100
AcDbEntity
  8
0
100
AcDbSpline
 62
7
  6
CONTINUOUS
 70
0
 71
3
 72
30
 73
26
 74
0
 42
0.0000001
 43
0.0000001
 44
0.0000000001
 40
0.0
 40
0.0
 40
0.0
 40
0.0
 40
0.0785800873
 40
0.1176944661
 40
0.1564387246
 40
0.1945809712
 40
0.2318625999
 40
0.2680190099
 40
0.3028182856
 40
0.3361111491
 40
0.3678778027
 40
0.3982467448
 40
0.4274717329
 40
0.4558726452
 40
0.483768885
 40
0.5114302287
 40
0.5390567792
 40
0.5667807323
 40
0.5946781851
 40
0.6510541941
 40
0.7082673292
 40
0.7661440005
 40
0.8244644292
 40
0.8830129655
 40
1.0
 40
1.0
 40
1.0
 40
1.0
 10
16.1531476728
 20
12.8237452939
 30
0.0
 10
16.1449354887
 20
12.8404809352
 30
0.0
 10
16.1334925609
 20
12.8659976121
 30
0.0
 10
16.1208224753
 20
12.9008965619
 30
0.0
 10
16.1129439007
 20
12.9272836566
 30
0.0
 10
16.1069902741
 20
12.9537314744
 30
0.0
 10
16.103288514
 20
12.9799767415
 30
0.0
 10
16.1021483723
 20
13.0056750234
 30
0.0
 10
16.1038234315
 20
13.0304095067
 30
0.0
 10
16.1084651001
 20
13.0537163081
 30
0.0
 10
16.1160822641
 20
13.0751284785
 30
0.0
 10
16.1265199266
 20
13.0942330789
 30
0.0
 10
16.1394721076
 20
13.1107279713
 30
0.0
 10
16.1545315101
 20
13.1244584875
 30
0.0
 10
16.171258327
 20
13.1354166629
 30
0.0
 10
16.1892386024
 20
13.1437075452
 30
0.0
 10
16.2081146934
 20
13.1495036912
 30
0.0
 10
16.2275942314
 20
13.1530071836
 30
0.0
 10
16.2541373537
 20
13.1549017348
 30
0.0
 10
16.2877986975
 20
13.1525110577
 30
0.0
 10
16.3275967874
 20
13.1435576066
 30
0.0
 10
16.3664093055
 20
13.1296605565
 30
0.0
 10
16.4038574212
 20
13.1117300913
 30
0.0
 10
16.4516378403
 20
13.0834371339
 30
0.0
 10
16.4849326863
 20
13.05812679
 30
0.0
 10
16.5059325544
 20
13.0399813598
 30
0.0
  0
SPLINE
  5
47B
100
AcDbEntity
  8
0
100
AcDbSpline
 62
7
  6
CONTINUOUS
 70
0
 71
3
 72
15
 73
11
 74
0
 42
0.0000001
 43
0.0000001
 44
0.0000000001
 40
0.0
 40
0.0
 40
0.0
 40
0.0
 40
0.1379169358
 40
0.2712364294
 40
0.4002319968
 40
0.5253243596
 40
0.6471165846
 40
0.7663048159
 40
0.8836594739
 40
1.0
 40
1.0
 40
1.0
 40
1.0
 10
15.7696939801
 20
11.5831391715
 30
0.0
 10
15.775773185
 20
11.5707510543
 30
0.0
 10
15.7868665909
 20
11.5459506886
 30
0.0
 10
15.8003590971
 20
11.5082032144
 30
0.0
 10
15.8103518593
 20
11.4707014116
 30
0.0
 10
15.8167853987
 20
11.4335939591
 30
0.0
 10
15.8196430209
 20
11.3970215407
 30
0.0
 10
15.8189016903
 20
11.3611143602
 30
0.0
 10
15.8145632754
 20
11.3260134176
 30
0.0
 10
15.809272628
 20
11.3031846728
 30
0.0
 10
15.8060465434
 20
11.2920001315
 30
0.0
  0
SPLINE
  5
47C
100
AcDbEntity
  8
0
100
AcDbSpline
 62
7
  6
CONTINUOUS
 70
0
 71
3
 72
15
 73
11
 74
0
 42
0.0000001
 43
0.0000001
 44
0.0000000001
 40
0.0
 40
0.0
 40
0.0
 40
0.0
 40
0.108333143
 40
0.2186619135
 40
0.3327903872
 40
0.4522138012
 40
0.5780645343
 40
0.7110993342
 40
0.8517139223
 40
1.0
 40
1.0
 40
1.0
 40
1.0
 10
15.8040702676
 20
11.2854080197
 30
0.0
 10
15.7986229046
 20
11.267904945
 30
0.0
 10
15.7846304139
 20
11.2334350196
 30
0.0
 10
15.755075701
 20
11.1852325109
 30
0.0
 10
15.7171971548
 20
11.1407710494
 30
0.0
 10
15.6714146109
 20
11.1004571883
 30
0.0
 10
15.6181826779
 20
11.0646149364
 30
0.0
 10
15.5579969461
 20
11.0335381129
 30
0.0
 10
15.4914145201
 20
11.0074637171
 30
0.0
 10
15.4443665915
 20
10.9939178997
 30
0.0
 10
15.4199918024
 20
10.9879630873
 30
0.0
  0
SPLINE
  5
47D
100
AcDbEntity
  8
0
100
AcDbSpline
 62
7
  6
CONTINUOUS
 70
0
 71
3
 72
23
 73
19
 74
0
 42
0.0000001
 43
0.0000001
 44
0.0000000001
 40
0.0
 40
0.0
 40
0.0
 40
0.0
 40
0.0653505498
 40
0.132647788
 40
0.2013183312
 40
0.2708429489
 40
0.4098651929
 40
0.4783217768
 40
0.5452752357
 40
0.6102521493
 40
0.6728867597
 40
0.7329559681
 40
0.7904030997
 40
0.8453700661
 40
0.8982133652
 40
0.9494939469
 40
0.9747998675
 40
1.0
 40
1.0
 40
1.0
 40
1.0
 10
17.2383794501
 20
11.8821761614
 30
0.0
 10
17.2542305077
 20
11.8821761614
 30
0.0
 10
17.28642887
 20
11.8840641033
 30
0.0
 10
17.3346701826
 20
11.8921428836
 30
0.0
 10
17.3828149469
 20
11.9053925222
 30
0.0
 10
17.4456341819
 20
11.9295899887
 30
0.0
 10
17.5046243744
 20
11.9628244318
 30
0.0
 10
17.5571752421
 20
12.003823846
 30
0.0
 10
17.5922842886
 20
12.0375740709
 30
0.0
 10
17.622614241
 20
12.0738578615
 30
0.0
 10
17.6476170896
 20
12.1120325516
 30
0.0
 10
17.6668350625
 20
12.1514161167
 30
0.0
 10
17.6798941648
 20
12.191314365
 30
0.0
 10
17.6865261565
 20
12.2310150527
 30
0.0
 10
17.686578262
 20
12.2697861704
 30
0.0
 10
17.6810470829
 20
12.3008822296
 30
0.0
 10
17.67337899
 20
12.3243802224
 30
0.0
 10
17.6684946301
 20
12.3356390639
 30
0.0
 10
17.6658014746
 20
12.3411261721
 30
0.0
  0
SPLINE
  5
47E
100
AcDbEntity
  8
0
100
AcDbSpline
 62
7
  6
CONTINUOUS
 70
0
 71
3
 72
11
 73
7
 74
0
 42
0.0000001
 43
0.0000001
 44
0.0000000001
 40
0.0
 40
0.0
 40
0.0
 40
0.0
 40
0.2538166803
 40
0.5171449549
 40
0.7713918757
 40
1.0
 40
1.0
 40
1.0
 40
1.0
 10
16.8911403838
 20
11.8821761614
 30
0.0
 10
16.8885236704
 20
11.8821761614
 30
0.0
 10
16.8831834275
 20
11.8827785493
 30
0.0
 10
16.8755400703
 20
11.885123478
 30
0.0
 10
16.8686857554
 20
11.8887092478
 30
0.0
 10
16.8648108652
 20
11.8919317948
 30
0.0
 10
16.8632461882
 20
11.8936942981
 30
0.0
  0
SPLINE
  5
47F
100
AcDbEntity
  8
0
100
AcDbSpline
 62
7
  6
CONTINUOUS
 70
0
 71
3
 72
10
 73
6
 74
0
 42
0.0000001
 43
0.0000001
 44
0.0000000001
 40
0.0
 40
0.0
 40
0.0
 40
0.0
 40
0.5189537196
 40
0.7642738133
 40
1.0
 40
1.0
 40
1.0
 40
1.0
 10
14.030588083
 20
11.4173243103
 30
0.0
 10
14.0072324751
 20
11.44332992
 30
0.0
 10
13.9749409421
 20
11.483661697
 30
0.0
 10
13.9385242388
 20
11.5403716401
 30
0.0
 10
13.9230533322
 20
11.5688856701
 30
0.0
 10
13.9160587296
 20
11.5831391715
 30
0.0
  0
SPLINE
  5
480
100
AcDbEntity
  8
0
100
AcDbSpline
 62
7
  6
CONTINUOUS
 70
0
 71
3
 72
21
 73
17
 74
0
 42
0.0000001
 43
0.0000001
 44
0.0000000001
 40
0.0
 40
0.0
 40
0.0
 40
0.0
 40
0.0647476899
 40
0.1314049283
 40
0.1994008948
 40
0.2682548378
 40
0.4062834086
 40
0.5412492843
 40
0.6064390572
 40
0.6695200177
 40
0.7302372312
 40
0.7884628236
 40
0.8442420507
 40
0.8977900797
 40
0.9495173629
 40
1.0
 40
1.0
 40
1.0
 40
1.0
 10
17.1309680231
 20
12.3616481711
 30
0.0
 10
17.123383214
 20
12.3616481711
 30
0.0
 10
17.1079795259
 20
12.3607806527
 30
0.0
 10
17.0848793636
 20
12.357076214
 30
0.0
 10
17.0617901632
 20
12.3509845692
 30
0.0
 10
17.0315399471
 20
12.3398331598
 30
0.0
 10
16.9960443913
 20
12.3207713586
 30
0.0
 10
16.9650465837
 20
12.2956657587
 30
0.0
 10
16.9443129031
 20
12.2727718313
 30
0.0
 10
16.9312922439
 20
12.2548078864
 30
0.0
 10
16.9208413415
 20
12.2361618912
 30
0.0
 10
16.9131499147
 20
12.2171302382
 30
0.0
 10
16.908342422
 20
12.1980305072
 30
0.0
 10
16.9065311619
 20
12.1791724933
 30
0.0
 10
16.9077455673
 20
12.1608849682
 30
0.0
 10
16.9106102647
 20
12.1491833842
 30
0.0
 10
16.9125260319
 20
12.1435885485
 30
0.0
  0
SPLINE
  5
481
100
AcDbEntity
  8
0
100
AcDbSpline
 62
7
  6
CONTINUOUS
 70
0
 71
3
 72
15
 73
11
 74
0
 42
0.0000001
 43
0.0000001
 44
0.0000000001
 40
0.0
 40
0.0
 40
0.0
 40
0.0
 40
0.1375695226
 40
0.2705875552
 40
0.3993498166
 40
0.5243213581
 40
0.6461281543
 40
0.7654821564
 40
0.8831641004
 40
1.0
 40
1.0
 40
1.0
 40
1.0
 10
13.9119547188
 20
11.5916789803
 30
0.0
 10
13.9061460774
 20
11.6040266247
 30
0.0
 10
13.8955903477
 20
11.6287363013
 30
0.0
 10
13.8829092323
 20
11.6663074506
 30
0.0
 10
13.8737187311
 20
11.7036027137
 30
0.0
 10
13.8680676674
 20
11.7404749551
 30
0.0
 10
13.8659708629
 20
11.7767881685
 30
0.0
 10
13.8674509227
 20
11.812412895
 30
0.0
 10
13.8724979725
 20
11.8472095859
 30
0.0
 10
13.8782385802
 20
11.8698047544
 30
0.0
 10
13.8816824421
 20
11.8808703233
 30
0.0
  0
SPLINE
  5
482
100
AcDbEntity
  8
0
100
AcDbSpline
 62
7
  6
CONTINUOUS
 70
0
 71
3
 72
39
 73
35
 74
0
 42
0.0000001
 43
0.0000001
 44
0.0000000001
 40
0.0
 40
0.0
 40
0.0
 40
0.0
 40
0.0214437484
 40
0.043217891
 40
0.0655937859
 40
0.0888041481
 40
0.1130383212
 40
0.1384348692
 40
0.1650874975
 40
0.1930428908
 40
0.2223114448
 40
0.2528660835
 40
0.2846530699
 40
0.3175904362
 40
0.3515774232
 40
0.3864927975
 40
0.422202616
 40
0.4585590181
 40
0.4954063086
 40
0.5325807171
 40
0.569914816
 40
0.6072385315
 40
0.6443820296
 40
0.6811783086
 40
0.7174643546
 40
0.7530849433
 40
0.7878932996
 40
0.8217579587
 40
0.8545603466
 40
0.8862001631
 40
0.9165977638
 40
0.9457094338
 40
0.9735136951
 40
1.0
 40
1.0
 40
1.0
 40
1.0
 10
13.8833712892
 20
11.8861402602
 30
0.0
 10
13.8883374775
 20
11.9012002823
 30
0.0
 10
13.900565946
 20
11.9308684413
 30
0.0
 10
13.9252880973
 20
11.9727759737
 30
0.0
 10
13.9562750108
 20
12.0119647827
 30
0.0
 10
13.9932639292
 20
12.0481719103
 30
0.0
 10
14.0359946629
 20
12.0811538712
 30
0.0
 10
14.084151093
 20
12.110721256
 30
0.0
 10
14.137411526
 20
12.1366756145
 30
0.0
 10
14.1954084337
 20
12.1588731198
 30
0.0
 10
14.2577586795
 20
12.1771576526
 30
0.0
 10
14.3240411767
 20
12.1914298253
 30
0.0
 10
14.393815114
 20
12.2015818975
 30
0.0
 10
14.4666115356
 20
12.2075639429
 30
0.0
 10
14.5419423551
 20
12.2093220922
 30
0.0
 10
14.619301577
 20
12.2068600023
 30
0.0
 10
14.6981674192
 20
12.2001804978
 30
0.0
 10
14.7780102084
 20
12.1893425823
 30
0.0
 10
14.858289291
 20
12.1744060055
 30
0.0
 10
14.9384658295
 20
12.1554846724
 30
0.0
 10
15.0179954367
 20
12.1326933824
 30
0.0
 10
15.0963450209
 20
12.1061987306
 30
0.0
 10
15.1729815414
 20
12.0761669357
 30
0.0
 10
15.2473925281
 20
12.0428130483
 30
0.0
 10
15.3190703089
 20
12.0063495683
 30
0.0
 10
15.3875371701
 20
11.9670355014
 30
0.0
 10
15.4523252993
 20
11.925123099
 30
0.0
 10
15.5130058311
 20
11.8809050362
 30
0.0
 10
15.5691619244
 20
11.8346658053
 30
0.0
 10
15.620425573
 20
11.7867292374
 30
0.0
 10
15.66644407
 20
11.7374007003
 30
0.0
 10
15.7069187073
 20
11.6870077839
 30
0.0
 10
15.7415505201
 20
11.6358892674
 30
0.0
 10
15.7610651992
 20
11.6007227782
 30
0.0
 10
15.7696939801
 20
11.5831391715
 30
0.0
  0
SPLINE
  5
483
100
AcDbEntity
  8
0
100
AcDbSpline
 62
7
  6
CONTINUOUS
 70
0
 71
3
 72
40
 73
36
 74
0
 42
0.0000001
 43
0.0000001
 44
0.0000000001
 40
0.0
 40
0.0
 40
0.0
 40
0.0
 40
0.0214497891
 40
0.0431952705
 40
0.0655137236
 40
0.0886454223
 40
0.1005848117
 40
0.1127969381
 40
0.1380942683
 40
0.1646467216
 40
0.1925059423
 40
0.2216861306
 40
0.2521631512
 40
0.2838852816
 40
0.3167719078
 40
0.3507229492
 40
0.3856173804
 40
0.4213209756
 40
0.4576852755
 40
0.4945536147
 40
0.5317610533
 40
0.5691387098
 40
0.6065149976
 40
0.6437183371
 40
0.6805799442
 40
0.7169349657
 40
0.7526267794
 40
0.7875070502
 40
0.8214422126
 40
0.8543116381
 40
0.8860138992
 40
0.9164682137
 40
0.9456299071
 40
0.9734773408
 40
1.0
 40
1.0
 40
1.0
 40
1.0
 10
13.8747964443
 20
11.890343469
 30
0.0
 10
13.8795362398
 20
11.9056826942
 30
0.0
 10
13.891349526
 20
11.9359207156
 30
0.0
 10
13.9156007118
 20
11.9787177262
 30
0.0
 10
13.9462534557
 20
12.0187801014
 30
0.0
 10
13.9766001254
 20
12.0493461221
 30
0.0
 10
14.0036654069
 20
12.0721734771
 30
0.0
 10
14.0332804734
 20
12.0944026431
 30
0.0
 10
14.0739421308
 20
12.1199928064
 30
0.0
 10
14.1273945681
 20
12.1466818208
 30
0.0
 10
14.1857084544
 20
12.1695660855
 30
0.0
 10
14.2484911493
 20
12.1884807651
 30
0.0
 10
14.3153162813
 20
12.2033229672
 30
0.0
 10
14.38573573
 20
12.2139799159
 30
0.0
 10
14.4592723952
 20
12.2203984212
 30
0.0
 10
14.5354293881
 20
12.2225209223
 30
0.0
 10
14.6136909577
 20
12.2203490625
 30
0.0
 10
14.6935250458
 20
12.2138833384
 30
0.0
 10
14.7743910577
 20
12.2031821916
 30
0.0
 10
14.8557369817
 20
12.1883045229
 30
0.0
 10
14.9370123059
 20
12.1693651895
 30
0.0
 10
15.0176606771
 20
12.1464796728
 30
0.0
 10
15.0971370321
 20
12.1198169325
 30
0.0
 10
15.1748962037
 20
12.0895454016
 30
0.0
 10
15.2504139001
 20
12.0558839112
 30
0.0
 10
15.3231709778
 20
12.0190485326
 30
0.0
 10
15.3926787817
 20
11.9793026515
 30
0.0
 10
15.4584586637
 20
11.9369033183
 30
0.0
 10
15.5200714171
 20
11.8921496804
 30
0.0
 10
15.5770896915
 20
11.8453318235
 30
0.0
 10
15.629136627
 20
11.7967804363
 30
0.0
 10
15.675851831
 20
11.7468076931
 30
0.0
 10
15.7169296207
 20
11.6957478376
 30
0.0
 10
15.7520645202
 20
11.6439465669
 30
0.0
 10
15.7718527371
 20
11.6083044421
 30
0.0
 10
15.7805982987
 20
11.5904828613
 30
0.0
  0
SPLINE
  5
484
100
AcDbEntity
  8
0
100
AcDbSpline
 62
7
  6
CONTINUOUS
 70
0
 71
3
 72
11
 73
7
 74
0
 42
0.0000001
 43
0.0000001
 44
0.0000000001
 40
0.0
 40
0.0
 40
0.0
 40
0.0
 40
0.2879211082
 40
0.5462699416
 40
0.7807508956
 40
1.0
 40
1.0
 40
1.0
 40
1.0
 10
15.840372299
 20
11.8454943501
 30
0.0
 10
15.8389775158
 20
11.8471658628
 30
0.0
 10
15.8361337347
 20
11.8501832315
 30
0.0
 10
15.8314341839
 20
11.8538057376
 30
0.0
 10
15.8265740125
 20
11.8562138847
 30
0.0
 10
15.8231876486
 20
11.8569832895
 30
0.0
 10
15.8215368926
 20
11.8571356481
 30
0.0
  0
SPLINE
  5
485
100
AcDbEntity
  8
0
100
AcDbSpline
 62
7
  6
CONTINUOUS
 70
0
 71
3
 72
15
 73
11
 74
0
 42
0.0000001
 43
0.0000001
 44
0.0000000001
 40
0.0
 40
0.0
 40
0.0
 40
0.0
 40
0.1375023728
 40
0.2756938687
 40
0.4112961133
 40
0.541871742
 40
0.6658569473
 40
0.7828259556
 40
0.8935888714
 40
1.0
 40
1.0
 40
1.0
 40
1.0
 10
14.5058950064
 20
12.4184907098
 30
0.0
 10
14.5130084056
 20
12.425057259
 30
0.0
 10
14.5284390859
 20
12.4370143078
 30
0.0
 10
14.5541346025
 20
12.4506695213
 30
0.0
 10
14.5814267597
 20
12.4593496049
 30
0.0
 10
14.6089195958
 20
12.4624333508
 30
0.0
 10
14.6351587343
 20
12.4596427327
 30
0.0
 10
14.6586943474
 20
12.4511052666
 30
0.0
 10
14.6781325005
 20
12.4373345913
 30
0.0
 10
14.6876855562
 20
12.4250463644
 30
0.0
 10
14.6913121569
 20
12.4184907098
 30
0.0
  0
SPLINE
  5
486
100
AcDbEntity
  8
0
100
AcDbSpline
 62
7
  6
CONTINUOUS
 70
0
 71
3
 72
11
 73
7
 74
0
 42
0.0000001
 43
0.0000001
 44
0.0000000001
 40
0.0
 40
0.0
 40
0.0
 40
0.0
 40
0.2416094432
 40
0.4929615793
 40
0.7479637711
 40
1.0
 40
1.0
 40
1.0
 40
1.0
 10
14.610919956
 20
12.4583465119
 30
0.0
 10
14.6017027527
 20
12.4583465119
 30
0.0
 10
14.5828620292
 20
12.4564306951
 30
0.0
 10
14.5553051972
 20
12.4485278524
 30
0.0
 10
14.5291033835
 20
12.435955626
 30
0.0
 10
14.5132168877
 20
12.4247227103
 30
0.0
 10
14.5058950064
 20
12.4184907098
 30
0.0
  0
SPLINE
  5
487
100
AcDbEntity
  8
0
100
AcDbSpline
 62
7
  6
CONTINUOUS
 70
0
 71
3
 72
14
 73
10
 74
0
 42
0.0000001
 43
0.0000001
 44
0.0000000001
 40
0.0
 40
0.0
 40
0.0
 40
0.0
 40
0.1125892092
 40
0.2271482834
 40
0.3446715791
 40
0.4661110276
 40
0.5921834163
 40
0.7232963604
 40
1.0
 40
1.0
 40
1.0
 40
1.0
 10
14.6913121569
 20
12.4184907098
 30
0.0
 10
14.6895958795
 20
12.421572895
 30
0.0
 10
14.6856154236
 20
12.4275169119
 30
0.0
 10
14.6782365015
 20
12.4354598196
 30
0.0
 10
14.6695141851
 20
12.4423549846
 30
0.0
 10
14.6595903328
 20
12.4481137331
 30
0.0
 10
14.6485960399
 20
12.4526614993
 30
0.0
 10
14.6324396904
 20
12.4571175475
 30
0.0
 10
14.6195900503
 20
12.4583465119
 30
0.0
 10
14.610919956
 20
12.4583465119
 30
0.0
  0
SPLINE
  5
488
100
AcDbEntity
  8
0
100
AcDbSpline
 62
7
  6
CONTINUOUS
 70
0
 71
3
 72
14
 73
10
 74
0
 42
0.0000001
 43
0.0000001
 44
0.0000000001
 40
0.0
 40
0.0
 40
0.0
 40
0.0
 40
0.1164609212
 40
0.2338218829
 40
0.3529503685
 40
0.4746651596
 40
0.5997059788
 40
0.7287107078
 40
1.0
 40
1.0
 40
1.0
 40
1.0
 10
14.1263115345
 20
11.8045744499
 30
0.0
 10
14.1236956428
 20
11.7961064878
 30
0.0
 10
14.119362451
 20
11.7788059445
 30
0.0
 10
14.1156592563
 20
11.7521539167
 30
0.0
 10
14.1147603722
 20
11.7248595774
 30
0.0
 10
14.1166646158
 20
11.6970359119
 30
0.0
 10
14.1213577445
 20
11.668783294
 30
0.0
 10
14.1314800763
 20
11.6300653099
 30
0.0
 10
14.1429854245
 20
11.6016732095
 30
0.0
 10
14.1520806094
 20
11.5831391715
 30
0.0
  0
SPLINE
  5
489
100
AcDbEntity
  8
0
100
AcDbSpline
 62
7
  6
CONTINUOUS
 70
0
 71
3
 72
9
 73
5
 74
0
 42
0.0000001
 43
0.0000001
 44
0.0000000001
 40
0.0
 40
0.0
 40
0.0
 40
0.0
 40
0.5324601712
 40
1.0
 40
1.0
 40
1.0
 40
1.0
 10
15.8479362761
 20
11.6280011624
 30
0.0
 10
15.8463861356
 20
11.6261447105
 30
0.0
 10
15.8432159186
 20
11.6228586831
 30
0.0
 10
15.8394274874
 20
11.6202654135
 30
0.0
 10
15.8375263234
 20
11.6193190979
 30
0.0
  0
SPLINE
  5
48A
100
AcDbEntity
  8
0
100
AcDbSpline
 62
7
  6
CONTINUOUS
 70
0
 71
3
 72
15
 73
11
 74
0
 42
0.0000001
 43
0.0000001
 44
0.0000000001
 40
0.0
 40
0.0
 40
0.0
 40
0.0
 40
0.1055857775
 40
0.2062815064
 40
0.3083889172
 40
0.4179723739
 40
0.5396947014
 40
0.6766306682
 40
0.8300685788
 40
1.0
 40
1.0
 40
1.0
 40
1.0
 10
15.8375263234
 20
11.6193190979
 30
0.0
 10
15.8360129023
 20
11.6185657836
 30
0.0
 10
15.8328723441
 20
11.61741777
 30
0.0
 10
15.8278874245
 20
11.6170217182
 30
0.0
 10
15.822927314
 20
11.6180463909
 30
0.0
 10
15.8181029814
 20
11.6204426398
 30
0.0
 10
15.8134567157
 20
11.6241272888
 30
0.0
 10
15.8090259565
 20
11.6290486964
 30
0.0
 10
15.8048404811
 20
11.6351340869
 30
0.0
 10
15.8023634725
 20
11.6396909472
 30
0.0
 10
15.8011648518
 20
11.6421334794
 30
0.0
  0
SPLINE
  5
48B
100
AcDbEntity
  8
0
100
AcDbSpline
 62
7
  6
CONTINUOUS
 70
0
 71
3
 72
13
 73
9
 74
0
 42
0.0000001
 43
0.0000001
 44
0.0000000001
 40
0.0
 40
0.0
 40
0.0
 40
0.0
 40
0.1108564248
 40
0.2416343941
 40
0.3798420915
 40
0.5174808381
 40
0.7758796676
 40
1.0
 40
1.0
 40
1.0
 40
1.0
 10
17.5238214266
 20
11.5361698722
 30
0.0
 10
17.5231220495
 20
11.537595053
 30
0.0
 10
17.5214503795
 20
11.5406285524
 30
0.0
 10
17.5186066422
 20
11.545266401
 30
0.0
 10
17.5153977172
 20
11.5501268167
 30
0.0
 10
17.5110163491
 20
11.5563995021
 30
0.0
 10
17.5056927019
 20
11.5635112972
 30
0.0
 10
17.5013227408
 20
11.5688680447
 30
0.0
 10
17.4992205132
 20
11.5712932941
 30
0.0
  0
SPLINE
  5
48C
100
AcDbEntity
  8
0
100
AcDbSpline
 62
7
  6
CONTINUOUS
 70
0
 71
3
 72
11
 73
7
 74
0
 42
0.0000001
 43
0.0000001
 44
0.0000000001
 40
0.0
 40
0.0
 40
0.0
 40
0.0
 40
0.2650390258
 40
0.5229734503
 40
0.7697243538
 40
1.0
 40
1.0
 40
1.0
 40
1.0
 10
17.8729103999
 20
12.7805542109
 30
0.0
 10
17.8749394404
 20
12.781920701
 30
0.0
 10
17.8790833961
 20
12.7844157765
 30
0.0
 10
17.8855506694
 20
12.7873974682
 30
0.0
 10
17.8920439933
 20
12.7894248362
 30
0.0
 10
17.8964483178
 20
12.7900139509
 30
0.0
 10
17.8985737384
 20
12.7900139495
 30
0.0
  0
SPLINE
  5
48D
100
AcDbEntity
  8
0
100
AcDbSpline
 62
7
  6
CONTINUOUS
 70
0
 71
3
 72
32
 73
28
 74
0
 42
0.0000001
 43
0.0000001
 44
0.0000000001
 40
0.0
 40
0.0
 40
0.0
 40
0.0
 40
0.0265255794
 40
0.0543788513
 40
0.0835474468
 40
0.1140072647
 40
0.1457144046
 40
0.1785898389
 40
0.2125311521
 40
0.2474179956
 40
0.3194542608
 40
0.3935109413
 40
0.4682572471
 40
0.542324664
 40
0.6143819726
 40
0.6832128485
 40
0.7478006363
 40
0.7782839352
 40
0.8074685995
 40
0.8353335676
 40
0.8618901422
 40
0.8871925938
 40
0.9113382648
 40
0.934474465
 40
0.9567966561
 40
0.9785462287
 40
1.0
 40
1.0
 40
1.0
 40
1.0
 10
14.1520806094
 20
11.5831391715
 30
0.0
 10
14.1585384158
 20
11.5699795456
 30
0.0
 10
14.1731516554
 20
11.5436601056
 30
0.0
 10
14.199096968
 20
11.5054062084
 30
0.0
 10
14.2294318054
 20
11.467699062
 30
0.0
 10
14.2639294961
 20
11.4307958122
 30
0.0
 10
14.3023641458
 20
11.3949429626
 30
0.0
 10
14.3444699147
 20
11.360370839
 30
0.0
 10
14.3899684718
 20
11.3273198125
 30
0.0
 10
14.455429715
 20
11.2851307862
 30
0.0
 10
14.5437313411
 20
11.2377600321
 30
0.0
 10
14.6565643996
 20
11.1907837225
 30
0.0
 10
14.7744001706
 20
11.1543216609
 30
0.0
 10
14.8940679391
 20
11.1293548148
 30
0.0
 10
15.0123731713
 20
11.1165513983
 30
0.0
 10
15.1261435745
 20
11.1162553653
 30
0.0
 10
15.2163952314
 20
11.1266476113
 30
0.0
 10
15.2834822882
 20
11.1415372508
 30
0.0
 10
15.3298444964
 20
11.155511665
 30
0.0
 10
15.3729080971
 20
11.1724046204
 30
0.0
 10
15.4123804712
 20
11.19211997
 30
0.0
 10
15.4479948485
 20
11.214526991
 30
0.0
 10
15.4795011253
 20
11.2394923661
 30
0.0
 10
15.506673597
 20
11.2668558461
 30
0.0
 10
15.5293083983
 20
11.2964435633
 30
0.0
 10
15.5472186151
 20
11.3280458971
 30
0.0
 10
15.5559418488
 20
11.3503761447
 30
0.0
 10
15.5594411752
 20
11.3617038931
 30
0.0
  0
SPLINE
  5
48E
100
AcDbEntity
  8
0
100
AcDbSpline
 62
7
  6
CONTINUOUS
 70
0
 71
3
 72
20
 73
16
 74
0
 42
0.0000001
 43
0.0000001
 44
0.0000000001
 40
0.0
 40
0.0
 40
0.0
 40
0.0
 40
0.0689703148
 40
0.1352602608
 40
0.2586639736
 40
0.3167033438
 40
0.3729513861
 40
0.4282140933
 40
0.4834396427
 40
0.5395769246
 40
0.5974617014
 40
0.7204212072
 40
0.7864045006
 40
0.8552420378
 40
1.0
 40
1.0
 40
1.0
 40
1.0
 10
14.6054488741
 20
12.4567293425
 30
0.0
 10
14.6102308607
 20
12.4567293425
 30
0.0
 10
14.6196243151
 20
12.4561809837
 30
0.0
 10
14.6372823109
 20
12.4529064749
 30
0.0
 10
14.6534854416
 20
12.4462973323
 30
0.0
 10
14.6667410542
 20
12.436382774
 30
0.0
 10
14.6748025149
 20
12.4277324705
 30
0.0
 10
14.6809797915
 20
12.4178768859
 30
0.0
 10
14.6851561543
 20
12.4070292186
 30
0.0
 10
14.6872324266
 20
12.3954094414
 30
0.0
 10
14.6871854578
 20
12.3789042739
 30
0.0
 10
14.6827153314
 20
12.3620502531
 30
0.0
 10
14.6746992213
 20
12.3460419624
 30
0.0
 10
14.663872411
 20
12.3299095424
 30
0.0
 10
14.6534478024
 20
12.3191658614
 30
0.0
 10
14.6457695253
 20
12.3127022458
 30
0.0
  0
SPLINE
  5
48F
100
AcDbEntity
  8
0
100
AcDbSpline
 62
7
  6
CONTINUOUS
 70
0
 71
3
 72
11
 73
7
 74
0
 42
0.0000001
 43
0.0000001
 44
0.0000000001
 40
0.0
 40
0.0
 40
0.0
 40
0.0
 40
0.2521968044
 40
0.5071372058
 40
0.7585021436
 40
1.0
 40
1.0
 40
1.0
 40
1.0
 10
14.6457695253
 20
12.3127022458
 30
0.0
 10
14.6390506039
 20
12.307046221
 30
0.0
 10
14.6244972867
 20
12.2968626128
 30
0.0
 10
14.6005426348
 20
12.2854574008
 30
0.0
 10
14.5753780012
 20
12.2783019509
 30
0.0
 10
14.5581836604
 20
12.2765641532
 30
0.0
 10
14.5497736197
 20
12.2765641532
 30
0.0
  0
SPLINE
  5
490
100
AcDbEntity
  8
0
100
AcDbSpline
 62
7
  6
CONTINUOUS
 70
0
 71
3
 72
13
 73
9
 74
0
 42
0.0000001
 43
0.0000001
 44
0.0000000001
 40
0.0
 40
0.0
 40
0.0
 40
0.0
 40
0.2749876986
 40
0.5321459423
 40
0.6541974669
 40
0.7723586751
 40
0.8873373106
 40
1.0
 40
1.0
 40
1.0
 40
1.0
 10
14.5497736197
 20
12.2765641532
 30
0.0
 10
14.5424626946
 20
12.2765641532
 30
0.0
 10
14.5282732418
 20
12.2778097843
 30
0.0
 10
14.511470746
 20
12.2828663672
 30
0.0
 10
14.4996729967
 20
12.2889066024
 30
0.0
 10
14.4918592193
 20
12.2942592918
 30
0.0
 10
14.4850229967
 20
12.3004478076
 30
0.0
 10
14.4811379269
 20
12.3051209993
 30
0.0
 10
14.4793993154
 20
12.3075600575
 30
0.0
  0
SPLINE
  5
491
100
AcDbEntity
  8
0
100
AcDbSpline
 62
7
  6
CONTINUOUS
 70
0
 71
3
 72
15
 73
11
 74
0
 42
0.0000001
 43
0.0000001
 44
0.0000000001
 40
0.0
 40
0.0
 40
0.0
 40
0.0
 40
0.1131289112
 40
0.2266138566
 40
0.342487838
 40
0.4624560301
 40
0.5877735963
 40
0.7191123899
 40
0.8566416062
 40
1.0
 40
1.0
 40
1.0
 40
1.0
 10
14.4793993154
 20
12.3075600575
 30
0.0
 10
14.4771135425
 20
12.3107667158
 30
0.0
 10
14.4731539959
 20
12.3176590682
 30
0.0
 10
14.4693417076
 20
12.3290328965
 30
0.0
 10
14.4677691172
 20
12.3411643986
 30
0.0
 10
14.4684350658
 20
12.3537828019
 30
0.0
 10
14.471329024
 20
12.3666272215
 30
0.0
 10
14.4763571729
 20
12.3794465302
 30
0.0
 10
14.483425885
 20
12.3919807481
 30
0.0
 10
14.4892819404
 20
12.3998460053
 30
0.0
 10
14.4924895273
 20
12.4036687829
 30
0.0
  0
SPLINE
  5
492
100
AcDbEntity
  8
0
100
AcDbSpline
 62
7
  6
CONTINUOUS
 70
0
 71
3
 72
14
 73
10
 74
0
 42
0.0000001
 43
0.0000001
 44
0.0000000001
 40
0.0
 40
0.0
 40
0.0
 40
0.0
 40
0.2460459307
 40
0.3731794822
 40
0.501345354
 40
0.6292842776
 40
0.7558401038
 40
0.8798632579
 40
1.0
 40
1.0
 40
1.0
 40
1.0
 10
14.4924895273
 20
12.4036687829
 30
0.0
 10
14.4992628789
 20
12.4117412118
 30
0.0
 10
14.5110673015
 20
12.422775651
 30
0.0
 10
14.5288772249
 20
12.4348073651
 30
0.0
 10
14.5433799611
 20
12.4425626954
 30
0.0
 10
14.5585793684
 20
12.4487667062
 30
0.0
 10
14.5741739098
 20
12.4533087324
 30
0.0
 10
14.5898386385
 20
12.4560753427
 30
0.0
 10
14.6003036525
 20
12.4567293425
 30
0.0
 10
14.6054488741
 20
12.4567293425
 30
0.0
  0
SPLINE
  5
493
100
AcDbEntity
  8
0
100
AcDbSpline
 62
7
  6
CONTINUOUS
 70
0
 71
3
 72
15
 73
11
 74
0
 42
0.0000001
 43
0.0000001
 44
0.0000000001
 40
0.0
 40
0.0
 40
0.0
 40
0.0
 40
0.1088561761
 40
0.2197252986
 40
0.3345674848
 40
0.4550539973
 40
0.5820071661
 40
0.7155603641
 40
0.8553299633
 40
1.0
 40
1.0
 40
1.0
 40
1.0
 10
14.6913121569
 20
12.4184907098
 30
0.0
 10
14.693631109
 20
12.4143262079
 30
0.0
 10
14.697387741
 20
12.4053686529
 30
0.0
 10
14.7000140172
 20
12.39084802
 30
0.0
 10
14.6995846178
 20
12.375593368
 30
0.0
 10
14.6961467698
 20
12.3600203365
 30
0.0
 10
14.6898288475
 20
12.3445023801
 30
0.0
 10
14.6807889855
 20
12.3294129768
 30
0.0
 10
14.6692658503
 20
12.3151262284
 30
0.0
 10
14.6602523548
 20
12.3064765474
 30
0.0
 10
14.6554283248
 20
12.3023705866
 30
0.0
  0
SPLINE
  5
494
100
AcDbEntity
  8
0
100
AcDbSpline
 62
7
  6
CONTINUOUS
 70
0
 71
3
 72
21
 73
17
 74
0
 42
0.0000001
 43
0.0000001
 44
0.0000000001
 40
0.0
 40
0.0
 40
0.0
 40
0.0
 40
0.0647476899
 40
0.1314049283
 40
0.1994008948
 40
0.2682548378
 40
0.4062834086
 40
0.5412492843
 40
0.6064390572
 40
0.6695200177
 40
0.7302372312
 40
0.7884628236
 40
0.8442420507
 40
0.8977900797
 40
0.9495173629
 40
1.0
 40
1.0
 40
1.0
 40
1.0
 10
13.3891577349
 20
12.3616481711
 30
0.0
 10
13.3815729258
 20
12.3616481711
 30
0.0
 10
13.3661692377
 20
12.3607806527
 30
0.0
 10
13.3430690755
 20
12.357076214
 30
0.0
 10
13.3199798751
 20
12.3509845692
 30
0.0
 10
13.289729659
 20
12.3398331598
 30
0.0
 10
13.2542341032
 20
12.3207713586
 30
0.0
 10
13.2232362956
 20
12.2956657587
 30
0.0
 10
13.202502615
 20
12.2727718313
 30
0.0
 10
13.1894819557
 20
12.2548078864
 30
0.0
 10
13.1790310533
 20
12.2361618912
 30
0.0
 10
13.1713396266
 20
12.2171302382
 30
0.0
 10
13.1665321339
 20
12.1980305072
 30
0.0
 10
13.1647208738
 20
12.1791724933
 30
0.0
 10
13.1659352792
 20
12.1608849682
 30
0.0
 10
13.1687999765
 20
12.1491833842
 30
0.0
 10
13.1707157438
 20
12.1435885485
 30
0.0
  0
LINE
  5
495
100
AcDbEntity
  8
0
100
AcDbLine
 62
7
  6
CONTINUOUS
 10
15.8546554645
 20
11.8301319377
 11
15.8577638262
 21
11.8230991015
  0
SPLINE
  5
496
100
AcDbEntity
  8
0
100
AcDbSpline
 62
7
  6
CONTINUOUS
 70
0
 71
3
 72
9
 73
5
 74
0
 42
0.0000001
 43
0.0000001
 44
0.0000000001
 40
0.0
 40
0.0
 40
0.0
 40
0.0
 40
0.2408594761
 40
1.0
 40
1.0
 40
1.0
 40
1.0
 10
15.8577638262
 20
11.8230991015
 30
0.0
 10
15.8581851319
 20
11.8220408039
 30
0.0
 10
15.8598662004
 20
11.8176199638
 30
0.0
 10
15.8612862296
 20
11.8131014648
 30
0.0
 10
15.8622381691
 20
11.8096398346
 30
0.0
  0
SPLINE
  5
497
100
AcDbEntity
  8
0
100
AcDbSpline
 62
7
  6
CONTINUOUS
 70
0
 71
3
 72
10
 73
6
 74
0
 42
0.0000001
 43
0.0000001
 44
0.0000000001
 40
0.0
 40
0.0
 40
0.0
 40
0.0
 40
0.5279241391
 40
0.7676203974
 40
1.0
 40
1.0
 40
1.0
 40
1.0
 10
15.8325536709
 20
11.6115884138
 30
0.0
 10
15.8309244196
 20
11.6102594159
 30
0.0
 10
15.8282934003
 20
11.6085788792
 30
0.0
 10
15.8244664779
 20
11.6074072977
 30
0.0
 10
15.8225808923
 20
11.6072158695
 30
0.0
 10
15.8216554022
 20
11.6072158976
 30
0.0
  0
SPLINE
  5
498
100
AcDbEntity
  8
0
100
AcDbSpline
 62
7
  6
CONTINUOUS
 70
0
 71
3
 72
11
 73
7
 74
0
 42
0.0000001
 43
0.0000001
 44
0.0000000001
 40
0.0
 40
0.0
 40
0.0
 40
0.0
 40
0.2290574966
 40
0.4665534791
 40
0.7213015165
 40
1.0
 40
1.0
 40
1.0
 40
1.0
 10
15.8216554011
 20
11.8572162355
 30
0.0
 10
15.8236859736
 20
11.8572161677
 30
0.0
 10
15.8278389206
 20
11.8566947057
 30
0.0
 10
15.8338569683
 20
11.8543771581
 30
0.0
 10
15.8395932095
 20
11.8505792939
 30
0.0
 10
15.8430099253
 20
11.8472727129
 30
0.0
 10
15.8446543159
 20
11.8454287993
 30
0.0
  0
SPLINE
  5
499
100
AcDbEntity
  8
0
100
AcDbSpline
 62
7
  6
CONTINUOUS
 70
0
 71
3
 72
9
 73
5
 74
0
 42
0.0000001
 43
0.0000001
 44
0.0000000001
 40
0.0
 40
0.0
 40
0.0
 40
0.0
 40
0.2403892617
 40
1.0
 40
1.0
 40
1.0
 40
1.0
 10
15.8446543159
 20
11.8454287993
 30
0.0
 10
15.8451288862
 20
11.8448966467
 30
0.0
 10
15.8470555767
 20
11.8426407245
 30
0.0
 10
15.848796681
 20
11.8402289265
 30
0.0
 10
15.8500246671
 20
11.838339878
 30
0.0
  0
SPLINE
  5
49A
100
AcDbEntity
  8
0
100
AcDbSpline
 62
7
  6
CONTINUOUS
 70
0
 71
3
 72
9
 73
5
 74
0
 42
0.0000001
 43
0.0000001
 44
0.0000000001
 40
0.0
 40
0.0
 40
0.0
 40
0.0
 40
0.241455651
 40
1.0
 40
1.0
 40
1.0
 40
1.0
 10
15.8500246671
 20
11.838339878
 30
0.0
 10
15.8504382104
 20
11.8377037116
 30
0.0
 10
15.8521071171
 20
11.8350406265
 30
0.0
 10
15.8536053431
 20
11.8322718601
 30
0.0
 10
15.8546554645
 20
11.8301319377
 30
0.0
  0
SPLINE
  5
49B
100
AcDbEntity
  8
0
100
AcDbSpline
 62
7
  6
CONTINUOUS
 70
0
 71
3
 72
15
 73
11
 74
0
 42
0.0000001
 43
0.0000001
 44
0.0000000001
 40
0.0
 40
0.0
 40
0.0
 40
0.0
 40
0.1380799318
 40
0.2714583019
 40
0.400424799
 40
0.5254316948
 40
0.647119483
 40
0.7662256933
 40
0.8835644243
 40
1.0
 40
1.0
 40
1.0
 40
1.0
 10
15.7805982987
 20
11.5904828613
 30
0.0
 10
15.7868683993
 20
11.5777057397
 30
0.0
 10
15.7982866745
 20
11.5521257233
 30
0.0
 10
15.8120921849
 20
11.5131819632
 30
0.0
 10
15.8222028559
 20
11.4745029633
 30
0.0
 10
15.8285568477
 20
11.4362489848
 30
0.0
 10
15.8311367281
 20
11.3985708759
 30
0.0
 10
15.8299173378
 20
11.3616095586
 30
0.0
 10
15.8249055289
 20
11.3255173542
 30
0.0
 10
15.8190382082
 20
11.3020889785
 30
0.0
 10
15.815495009
 20
11.2906222535
 30
0.0
  0
SPLINE
  5
49C
100
AcDbEntity
  8
0
100
AcDbSpline
 62
7
  6
CONTINUOUS
 70
0
 71
3
 72
12
 73
8
 74
0
 42
0.0000001
 43
0.0000001
 44
0.0000000001
 40
0.0
 40
0.0
 40
0.0
 40
0.0
 40
0.2568059204
 40
0.5134777654
 40
0.7642269453
 40
0.8847948874
 40
1.0
 40
1.0
 40
1.0
 40
1.0
 10
12.7384865004
 20
11.5712932941
 30
0.0
 10
12.7360819341
 20
11.5696739
 30
0.0
 10
12.731463333
 20
11.566143232
 30
0.0
 10
12.7252864884
 20
11.5600917273
 30
0.0
 10
12.7209506979
 20
11.5544343473
 30
0.0
 10
12.7182837422
 20
11.5496228441
 30
0.0
 10
12.7172854171
 20
11.5471436199
 30
0.0
 10
12.71690159
 20
11.5459010226
 30
0.0
  0
SPLINE
  5
49D
100
AcDbEntity
  8
0
100
AcDbSpline
 62
7
  6
CONTINUOUS
 70
0
 71
3
 72
14
 73
10
 74
0
 42
0.0000001
 43
0.0000001
 44
0.0000000001
 40
0.0
 40
0.0
 40
0.0
 40
0.0
 40
0.3577776368
 40
0.5140537368
 40
0.6531558941
 40
0.7733725724
 40
0.8725356024
 40
0.9484646714
 40
1.0
 40
1.0
 40
1.0
 40
1.0
 10
13.1121763872
 20
12.7805542109
 30
0.0
 10
13.1110667196
 20
12.7818343866
 30
0.0
 10
13.1094428273
 20
12.7836491819
 30
0.0
 10
13.1072927384
 20
12.7858727113
 30
0.0
 10
13.1058789615
 20
12.7872429226
 30
0.0
 10
13.1046103493
 20
12.7883700233
 30
0.0
 10
13.1035032071
 20
12.7892323788
 30
0.0
 10
13.10259651
 20
12.7897957276
 30
0.0
 10
13.1020091784
 20
12.7900139507
 30
0.0
 10
13.1017651452
 20
12.7900139496
 30
0.0
  0
SPLINE
  5
49E
100
AcDbEntity
  8
0
100
AcDbSpline
 62
7
  6
CONTINUOUS
 70
0
 71
3
 72
15
 73
11
 74
0
 42
0.0000001
 43
0.0000001
 44
0.0000000001
 40
0.0
 40
0.0
 40
0.0
 40
0.0
 40
0.1417958105
 40
0.2785791673
 40
0.4095655429
 40
0.5349521981
 40
0.6553800557
 40
0.7719807216
 40
0.886362933
 40
1.0
 40
1.0
 40
1.0
 40
1.0
 10
14.6554283248
 20
12.3023705866
 30
0.0
 10
14.6603561482
 20
12.3062270383
 30
0.0
 10
14.6695840132
 20
12.3144109623
 30
0.0
 10
14.6813997069
 20
12.328166163
 30
0.0
 10
14.6906392854
 20
12.3429381346
 30
0.0
 10
14.6970278497
 20
12.3583809904
 30
0.0
 10
14.7003953105
 20
12.3741131206
 30
0.0
 10
14.7006212216
 20
12.3897264896
 30
0.0
 10
14.6977025795
 20
12.4047591642
 30
0.0
 10
14.6937396645
 20
12.4141026055
 30
0.0
 10
14.6913121569
 20
12.4184907098
 30
0.0
  0
SPLINE
  5
49F
100
AcDbEntity
  8
0
100
AcDbSpline
 62
7
  6
CONTINUOUS
 70
0
 71
3
 72
15
 73
11
 74
0
 42
0.0000001
 43
0.0000001
 44
0.0000000001
 40
0.0
 40
0.0
 40
0.0
 40
0.0
 40
0.0791152859
 40
0.1729627415
 40
0.2820614762
 40
0.4056459062
 40
0.5418750873
 40
0.6883164433
 40
0.8421981495
 40
1.0
 40
1.0
 40
1.0
 40
1.0
 10
15.8070300673
 20
11.8528437341
 30
0.0
 10
15.8043310781
 20
11.8509608073
 30
0.0
 10
15.7990814496
 20
11.8459106552
 30
0.0
 10
15.7924163145
 20
11.8361987547
 30
0.0
 10
15.7864347863
 20
11.823960472
 30
0.0
 10
15.781274931
 20
11.8094829779
 30
0.0
 10
15.7770482981
 20
11.7931015478
 30
0.0
 10
15.7738687532
 20
11.7752072036
 30
0.0
 10
15.7718192656
 20
11.7562485576
 30
0.0
 10
15.7712384606
 20
11.7432869097
 30
0.0
 10
15.7711462352
 20
11.7367236109
 30
0.0
  0
SPLINE
  5
4A0
100
AcDbEntity
  8
0
100
AcDbSpline
 62
7
  6
CONTINUOUS
 70
0
 71
3
 72
15
 73
11
 74
0
 42
0.0000001
 43
0.0000001
 44
0.0000000001
 40
0.0
 40
0.0
 40
0.0
 40
0.0
 40
0.1558633873
 40
0.3075355275
 40
0.4518238926
 40
0.5863675473
 40
0.7092207221
 40
0.8190907026
 40
0.9157385186
 40
1.0
 40
1.0
 40
1.0
 40
1.0
 10
15.7711462352
 20
11.7367236109
 30
0.0
 10
15.7708818844
 20
11.7432704922
 30
0.0
 10
15.770787838
 20
11.7562104511
 30
0.0
 10
15.7720232548
 20
11.7751820227
 30
0.0
 10
15.7746761967
 20
11.7931078514
 30
0.0
 10
15.7787238849
 20
11.8095319137
 30
0.0
 10
15.7840682458
 20
11.8240565446
 30
0.0
 10
15.7905890594
 20
11.8363330913
 30
0.0
 10
15.7980975104
 20
11.8460613477
 30
0.0
 10
15.8040053114
 20
11.851000357
 30
0.0
 10
15.8070300673
 20
11.8528437341
 30
0.0
  0
SPLINE
  5
4A1
100
AcDbEntity
  8
0
100
AcDbSpline
 62
7
  6
CONTINUOUS
 70
0
 71
3
 72
29
 73
25
 74
0
 42
0.0000001
 43
0.0000001
 44
0.0000000001
 40
0.0
 40
0.0
 40
0.0
 40
0.0
 40
0.0631027315
 40
0.134398068
 40
0.212118409
 40
0.2943225126
 40
0.3787714168
 40
0.4631091233
 40
0.5449893133
 40
0.6221956449
 40
0.6927403333
 40
0.7550478424
 40
0.7828063375
 40
0.8082184995
 40
0.8313139565
 40
0.8522438087
 40
0.8712769698
 40
0.8888372638
 40
0.9055293945
 40
0.9220712692
 40
0.9392076882
 40
0.9575986405
 40
0.9777461413
 40
1.0
 40
1.0
 40
1.0
 40
1.0
 10
15.8011648518
 20
11.6421334794
 30
0.0
 10
15.7988817876
 20
11.6467858751
 30
0.0
 10
15.7947874995
 20
11.6570748424
 30
0.0
 10
15.7901263193
 20
11.6738845422
 30
0.0
 10
15.7867046144
 20
11.6925862587
 30
0.0
 10
15.784633773
 20
11.7125666239
 30
0.0
 10
15.7839785426
 20
11.7331862233
 30
0.0
 10
15.7847667765
 20
11.7537747053
 30
0.0
 10
15.7869713709
 20
11.773662636
 30
0.0
 10
15.7905130229
 20
11.7922092237
 30
0.0
 10
15.7952792615
 20
11.8088151865
 30
0.0
 10
15.8003165094
 20
11.8210522195
 30
0.0
 10
15.8049197183
 20
11.8293553464
 30
0.0
 10
15.8084368631
 20
11.8345501187
 30
0.0
 10
15.8121314834
 20
11.8389113764
 30
0.0
 10
15.8159762847
 20
11.842406934
 30
0.0
 10
15.8199499449
 20
11.845006337
 30
0.0
 10
15.8240332162
 20
11.846666375
 30
0.0
 10
15.8281848744
 20
11.8473560956
 30
0.0
 10
15.8323495018
 20
11.8470574626
 30
0.0
 10
15.8364639383
 20
11.845771781
 30
0.0
 10
15.8404836313
 20
11.8435368759
 30
0.0
 10
15.8443846339
 20
11.8403897599
 30
0.0
 10
15.8467656762
 20
11.8378335769
 30
0.0
 10
15.8479360708
 20
11.8364298702
 30
0.0
  0
SPLINE
  5
4A2
100
AcDbEntity
  8
0
100
AcDbSpline
 62
7
  6
CONTINUOUS
 70
0
 71
3
 72
9
 73
5
 74
0
 42
0.0000001
 43
0.0000001
 44
0.0000000001
 40
0.0
 40
0.0
 40
0.0
 40
0.0
 40
0.2457300138
 40
1.0
 40
1.0
 40
1.0
 40
1.0
 10
13.8336081345
 20
11.9324478612
 30
0.0
 10
13.8357370412
 20
11.9275682394
 30
0.0
 10
13.8446454291
 20
11.9078179484
 30
0.0
 10
13.8545111173
 20
11.8885021736
 30
0.0
 10
13.8624196484
 20
11.8742018647
 30
0.0
  0
SPLINE
  5
4A3
100
AcDbEntity
  8
0
100
AcDbSpline
 62
7
  6
CONTINUOUS
 70
0
 71
3
 72
9
 73
5
 74
0
 42
0.0000001
 43
0.0000001
 44
0.0000000001
 40
0.0
 40
0.0
 40
0.0
 40
0.0
 40
0.2546762725
 40
1.0
 40
1.0
 40
1.0
 40
1.0
 10
13.8612093168
 20
11.8702852301
 30
0.0
 10
13.8583639083
 20
11.8754303347
 30
0.0
 10
13.847431537
 20
11.8957643497
 30
0.0
 10
13.8374812099
 20
11.9166299799
 30
0.0
 10
13.8307051301
 20
11.9324462269
 30
0.0
  0
SPLINE
  5
4A4
100
AcDbEntity
  8
0
100
AcDbSpline
 62
7
  6
CONTINUOUS
 70
0
 71
3
 72
9
 73
5
 74
0
 42
0.0000001
 43
0.0000001
 44
0.0000000001
 40
0.0
 40
0.0
 40
0.0
 40
0.0
 40
0.244654759
 40
1.0
 40
1.0
 40
1.0
 40
1.0
 10
14.173823209
 20
12.4319039477
 30
0.0
 10
14.1789340787
 20
12.4347330278
 30
0.0
 10
14.1999932215
 20
12.4459897868
 30
0.0
 10
14.2216942804
 20
12.4560357162
 30
0.0
 10
14.2383373376
 20
12.4629844461
 30
0.0
  0
SPLINE
  5
4A5
100
AcDbEntity
  8
0
100
AcDbSpline
 62
7
  6
CONTINUOUS
 70
0
 71
3
 72
15
 73
11
 74
0
 42
0.0000001
 43
0.0000001
 44
0.0000000001
 40
0.0
 40
0.0
 40
0.0
 40
0.0
 40
0.1127906517
 40
0.2270836854
 40
0.3442433566
 40
0.4653779353
 40
0.5912379077
 40
0.7222866165
 40
0.8586853847
 40
1.0
 40
1.0
 40
1.0
 40
1.0
 10
12.9455954258
 20
12.0107213328
 30
0.0
 10
12.9504360892
 20
12.0008588337
 30
0.0
 10
12.9618865964
 20
11.9817893261
 30
0.0
 10
12.9837981366
 20
11.9562179206
 30
0.0
 10
13.0101309441
 20
11.9339507402
 30
0.0
 10
13.0404690443
 20
11.9153314711
 30
0.0
 10
13.0743380753
 20
11.9005989098
 30
0.0
 10
13.1112444858
 20
11.8899566807
 30
0.0
 10
13.1506273324
 20
11.8835573203
 30
0.0
 10
13.1777029285
 20
11.8821761614
 30
0.0
 10
13.1914677077
 20
11.8821761614
 30
0.0
  0
ELLIPSE
  5
4A6
100
AcDbEntity
  8
0
100
AcDbEllipse
 62
7
  6
CONTINUOUS
 10
4.2835767102
 20
12.4406727814
 30
0.0
 11
-0.0
 21
0.0125
 31
0.0
 40
0.2679491924
 41
-3.1415926536
 42
-1.5707963268
  0
ELLIPSE
  5
4A7
100
AcDbEntity
  8
0
100
AcDbEllipse
 62
7
  6
CONTINUOUS
 10
4.2835767102
 20
13.1656727814
 30
0.0
 11
0.0
 21
0.0125
 31
0.0
 40
0.2679491924
 41
-1.5707963268
 42
0.0
  0
ELLIPSE
  5
4A8
100
AcDbEntity
  8
0
100
AcDbEllipse
 62
7
  6
CONTINUOUS
 10
7.8581674575
 20
12.4406727814
 30
0.0
 11
0.0
 21
0.0125
 31
0.0
 40
0.2679491924
 41
-4.7123889804
 42
-3.1415926536
  0
ELLIPSE
  5
4A9
100
AcDbEntity
  8
0
100
AcDbEllipse
 62
7
  6
CONTINUOUS
 10
7.8581674575
 20
13.1656727814
 30
0.0
 11
0.0
 21
0.0125
 31
0.0
 40
0.2679491924
 41
-0.0
 42
1.5707963268
  0
ELLIPSE
  5
4AA
100
AcDbEntity
  8
0
100
AcDbEllipse
 62
7
  6
CONTINUOUS
 10
15.7634802569
 20
5.2195645215
 30
0.0
 11
0.0
 21
1.3995190528
 31
0.0
 40
0.2679491924
 41
1.0722508456
 42
1.5707963268
  0
ELLIPSE
  5
4AB
100
AcDbEntity
  8
0
100
AcDbEllipse
 62
7
  6
CONTINUOUS
 10
15.7634802569
 20
5.2195645215
 30
0.0
 11
-0.0
 21
1.3995190528
 31
0.0
 40
0.2679491924
 41
-1.5707963268
 42
-1.0722508456
  0
ELLIPSE
  5
4AC
100
AcDbEntity
  8
0
100
AcDbEllipse
 62
7
  6
CONTINUOUS
 10
16.795485711
 20
12.3660212912
 30
0.0
 11
-0.7514367864
 21
0.902982622
 31
0.0
 40
0.2216133796
 41
1.2155175553
 42
1.7140630365
  0
ELLIPSE
  5
4AD
100
AcDbEntity
  8
0
100
AcDbEllipse
 62
7
  6
CONTINUOUS
 10
16.8489053681
 20
11.9230482462
 30
0.0
 11
-0.0028307534
 21
0.0123979794
 31
0.0
 40
0.5630202753
 41
0.7721502657
 42
2.3429465925
  0
ELLIPSE
  5
4AE
100
AcDbEntity
  8
0
100
AcDbEllipse
 62
7
  6
CONTINUOUS
 10
17.0244034525
 20
12.4909602556
 30
0.0
 11
-0.0028307534
 21
0.0123979794
 31
0.0
 40
0.5630202753
 41
-0.127849959
 42
0.7721502657
  0
ELLIPSE
  5
4AF
100
AcDbEntity
  8
0
100
AcDbEllipse
 62
7
  6
CONTINUOUS
 10
16.795485711
 20
12.3660212912
 30
0.0
 11
-0.7514367864
 21
0.902982622
 31
0.0
 40
0.2216133796
 41
-1.4275296171
 42
-0.9289841358
  0
ENDSEC
  0
SECTION
  2
OBJECTS
  0
DICTIONARY
  5
C
100
AcDbDictionary
280
0
281
1
  3
ACAD_GROUP
350
D
  3
ACAD_MLINESTYLE
350
17
  3
ACAD_LAYOUT
350
1A
  3
ACAD_PLOTSETTINGS
350
19
  3
ACAD_PLOTSTYLENAME
350
E
  0
DICTIONARY
  5
D
102
{ACAD_REACTORS
330
C
102
}
100
AcDbDictionary
280
0
281
1
  0
ACDBDICTIONARYWDFLT
  5
E
102
{ACAD_REACTORS
330
C
102
}
100
AcDbDictionary
281
1
  3
Normal
350
F
100
AcDbDictionaryWithDefault
340
F
  0
DICTIONARY
  5
17
102
{ACAD_REACTORS
330
C
102
}
100
AcDbDictionary
280
0
281
1
  3
Standard
350
18
  0
DICTIONARY
  5
19
102
{ACAD_REACTORS
330
C
102
}
100
AcDbDictionary
281
1
  0
DICTIONARY
  5
1A
102
{ACAD_REACTORS
330
C
102
}
100
AcDbDictionary
281
1
  3
Model
350
4B0
  3
Layout1
350
4B1
  0
ACDBPLACEHOLDER
  5
F
102
{ACAD_REACTORS
330
E
102
}
  0
MLINESTYLE
  5
18
102
{ACAD_REACTORS
330
17
102
}
100
AcDbMlineStyle
  2
STANDARD
 70
0
  3

 62
256
 51
90.0
 52
90.0
 71
2
 49
0.5
 62
256
  6
BYLAYER
 49
-0.5
 62
256
  6
BYLAYER
  0
LAYOUT
  5
4B0
102
{ACAD_REACTORS
330
1A
102
}
100
AcDbPlotSettings
  1

  2
none_device
  4
ANSI_C_(22.00_x_17.00_Inches)
  6

 40
0.0
 41
0.0
 42
0.0
 43
0.0
 44
558.8
 45
431.8
 46
0.0
 47
0.0
 48
0.0
 49
0.0
140
0.0
141
0.0
142
1.0
143
1.0
 70
1024
 72
0
 73
0
 74
0
  7

 75
0
147
1.0
148
0.0
149
0.0
100
AcDbLayout
  1
Model
 70
0
 71
0
 10
0.0
 20
0.0
 11
22.0
 21
17.0
 12
0.0
 22
0.0
 32
0.0
 14
0.0
 24
0.0
 34
0.0
 15
0.0
 25
0.0
 35
0.0
146
0.0
 13
0.0
 23
0.0
 33
0.0
 16
1.0
 26
0.0
 36
0.0
 17
0.0
 27
1.0
 37
0.0
 76
0
330
262
345
0
346
0
  0
LAYOUT
  5
4B1
102
{ACAD_REACTORS
330
1A
102
}
100
AcDbPlotSettings
  1

  2
none_device
  4
ANSI_C_(22.00_x_17.00_Inches)
  6

 40
0.0
 41
0.0
 42
0.0
 43
0.0
 44
558.8
 45
431.8
 46
0.0
 47
0.0
 48
0.0
 49
0.0
140
0.0
141
0.0
142
1.0
143
1.0
 70
0
 72
0
 73
0
 74
0
  7

 75
0
147
1.0
148
0.0
149
0.0
100
AcDbLayout
  1
Layout1
 70
0
 71
1
 10
0.0
 20
0.0
 11
22.0
 21
17.0
 12
0.0
 22
0.0
 32
0.0
 14
0.0
 24
0.0
 34
0.0
 15
0.0
 25
0.0
 35
0.0
146
0.0
 13
0.0
 23
0.0
 33
0.0
 16
1.0
 26
0.0
 36
0.0
 17
0.0
 27
1.0
 37
0.0
 76
0
330
263
345
0
346
0
  0
ENDSEC
  0
EOF