999
DXF file: _cgs_temp_output.dxf
999
Pro/ENGINEER 2016360 by Parametric Technology Corporation
  0
SECTION
  2
HEADER
  9
$ACADVER
  1
AC1021
  9
$DWGCODEPAGE
  3
ANSI_1252
  9
$EXTMAX
 10
22.0
 20
17.0
 30
0.0
  9
$EXTMIN
 10
0.0
 20
0.0
 30
0.0
  9
$LIMMIN
 10
0.0
 20
0.0
  9
$LIMMAX
 10
22.0
 20
17.0
  9
$VIEWCTR
 10
11.0
 20
8.5
  9
$VIEWSIZE
 40
17.0
  9
$CLAYER
  8
0
  9
$LTSCALE
 40
1.21
  9
$CELTYPE
  6
BYLAYER
  9
$DIMSCALE
 40
1.0
  9
$DIMASZ
 40
0.1875
  9
$DIMEXO
 40
0.0625
  9
$DIMDLI
 40
0.836
  9
$DIMEXE
 40
0.125
  9
$DIMCEN
 40
0.198
  9
$DIMLFAC
 40
1.0
  9
$DIMBLK
  1
_CLOSED
  9
$DIMALT
 70
0
  9
$DIMALTF
 40
25.4
  9
$DIMTXT
 40
0.15625
  9
$DIMTOL
 70
0
  9
$DIMLIM
 70
0
  9
$DIMTFAC
 40
1.0
  9
$DIMGAP
 40
0.09
  9
$DIMDSEP
 70
46
  9
$AUNITS
 70
0
  9
$PDMODE
 70
3
  9
$PDSIZE
 40
0.3125
  9
$HANDSEED
  5
390
  9
$TILEMODE
 70
1
  9
$MEASUREMENT
 70
0
  9
$INSUNITS
 70
1
  0
ENDSEC
  0
SECTION
  2
CLASSES
  0
CLASS
  1
ACDBDICTIONARYWDFLT
  2
AcDbDictionaryWithDefault
  3
AutoCAD 2000
 90
0
 91
1
280
0
281
0
  0
CLASS
  1
ACDBPLACEHOLDER
  2
AcDbPlaceHolder
  3
AutoCAD 2000
 90
0
 91
1
280
0
281
0
  0
CLASS
  1
LAYOUT
  2
AcDbLayout
  3
AutoCAD 2000
 90
0
 91
0
280
0
281
0
  0
ENDSEC
  0
SECTION
  2
TABLES
  0
TABLE
  2
VPORT
  5
8
100
AcDbSymbolTable
 70
2
  0
VPORT
  5
1F4
100
AcDbSymbolTableRecord
100
AcDbViewportTableRecord
  2
*ACTIVE
 70
0
 10
0.0
 20
0.0
 11
1.0
 21
1.0
 12
11.0
 22
8.5
 13
0.0
 23
0.0
 14
1.0
 24
1.0
 15
0.0
 25
0.0
 16
0.0
 26
0.0
 36
1.0
 17
0.0
 27
0.0
 37
0.0
 40
17.0
 41
1.2941176471
 42
50.0
 43
0.0
 44
0.0
 50
0.0
 51
0.0
 71
0
 72
100
 73
1
 74
1
 75
0
 76
0
 77
0
 78
0
  0
ENDTAB
  0
TABLE
  2
LTYPE
  5
5
100
AcDbSymbolTable
 70
6
  0
LTYPE
  5
14
100
AcDbSymbolTableRecord
100
AcDbLinetypeTableRecord
  2
BYBLOCK
 70
0
  3

 72
65
 73
0
 40
0.0
  0
LTYPE
  5
15
100
AcDbSymbolTableRecord
100
AcDbLinetypeTableRecord
  2
BYLAYER
 70
0
  3

 72
65
 73
0
 40
0.0
  0
LTYPE
  5
16
100
AcDbSymbolTableRecord
100
AcDbLinetypeTableRecord
  2
CONTINUOUS
 70
64
  3
Solid line
 72
65
 73
0
 40
0.0
  0
LTYPE
  5
1F5
100
AcDbSymbolTableRecord
100
AcDbLinetypeTableRecord
  2
CENTER
 70
64
  3
____ _ ____ _ ____ _ ____ _ ____ _ ____ _ ____
 72
65
 73
4
 40
0.6
 49
0.375
 74
0
 49
-0.075
 74
0
 49
0.075
 74
0
 49
-0.075
 74
0
  0
LTYPE
  5
1F6
100
AcDbSymbolTableRecord
100
AcDbLinetypeTableRecord
  2
HIDDEN
 70
64
  3
- - - - - - - - - - - - - - - - - - - -
 72
65
 73
2
 40
0.2
 49
0.1
 74
0
 49
-0.1
 74
0
  0
LTYPE
  5
1F7
100
AcDbSymbolTableRecord
100
AcDbLinetypeTableRecord
  2
PHANTOM
 70
64
  3
_____ _ _ _____ _ _ _____ _ _ _____
 72
65
 73
6
 40
0.8
 49
0.45
 74
0
 49
-0.05
 74
0
 49
0.1
 74
0
 49
-0.05
 74
0
 49
0.1
 74
0
 49
-0.05
 74
0
  0
LTYPE
  5
1F8
100
AcDbSymbolTableRecord
100
AcDbLinetypeTableRecord
  2
DOT
 70
64
  3
. . . . . . . . . . . . . . . . . . . .
 72
65
 73
2
 40
0.2
 49
0.1
 74
0
 49
-0.1
 74
0
  0
LTYPE
  5
1F9
100
AcDbSymbolTableRecord
100
AcDbLinetypeTableRecord
  2
DASHED
 70
64
  3
- - - - - - - - - - - - - - - - - - - -
 72
65
 73
2
 40
0.2
 49
0.1
 74
0
 49
-0.1
 74
0
  0
ENDTAB
  0
TABLE
  2
LAYER
  5
2
100
AcDbSymbolTable
 70
36
  0
LAYER
  5
10
100
AcDbSymbolTableRecord
100
AcDbLayerTableRecord
  2
0
 70
0
 62
7
  6
CONTINUOUS
370
-3
390
F
  0
LAYER
  5
1FA
100
AcDbSymbolTableRecord
100
AcDbLayerTableRecord
  2
DEFAULT_1
 70
0
 62
7
  6
CENTER
370
-3
390
F
  0
LAYER
  5
1FB
100
AcDbSymbolTableRecord
100
AcDbLayerTableRecord
  2
DEFAULT_2
 70
0
 62
8
  6
HIDDEN
370
-3
390
F
  0
LAYER
  5
1FC
100
AcDbSymbolTableRecord
100
AcDbLayerTableRecord
  2
DEFAULT_3
 70
0
 62
7
  6
PHANTOM
370
-3
390
F
  0
LAYER
  5
1FD
100
AcDbSymbolTableRecord
100
AcDbLayerTableRecord
  2
01_ALL_DTM_PLN
 70
0
 62
7
  6
CONTINUOUS
370
-3
390
F
  0
LAYER
  5
1FE
100
AcDbSymbolTableRecord
100
AcDbLayerTableRecord
  2
01__ASM_ALL_DTM_PLN
 70
0
 62
7
  6
CONTINUOUS
370
-3
390
F
  0
LAYER
  5
1FF
100
AcDbSymbolTableRecord
100
AcDbLayerTableRecord
  2
01__ASM_DEF_DTM_PLN
 70
0
 62
7
  6
CONTINUOUS
370
-3
390
F
  0
LAYER
  5
200
100
AcDbSymbolTableRecord
100
AcDbLayerTableRecord
  2
01___PRT_ALL_DTM_PLN
 70
0
 62
7
  6
CONTINUOUS
370
-3
390
F
  0
LAYER
  5
201
100
AcDbSymbolTableRecord
100
AcDbLayerTableRecord
  2
01___PRT_DEF_DTM_PLN
 70
0
 62
7
  6
CONTINUOUS
370
-3
390
F
  0
LAYER
  5
202
100
AcDbSymbolTableRecord
100
AcDbLayerTableRecord
  2
02_ALL_AXES
 70
0
 62
7
  6
CONTINUOUS
370
-3
390
F
  0
LAYER
  5
203
100
AcDbSymbolTableRecord
100
AcDbLayerTableRecord
  2
02__ASM_ALL_AXES
 70
0
 62
7
  6
CONTINUOUS
370
-3
390
F
  0
LAYER
  5
204
100
AcDbSymbolTableRecord
100
AcDbLayerTableRecord
  2
02___PRT_ALL_AXES
 70
0
 62
7
  6
CONTINUOUS
370
-3
390
F
  0
LAYER
  5
205
100
AcDbSymbolTableRecord
100
AcDbLayerTableRecord
  2
03_ALL_CURVES
 70
0
 62
7
  6
CONTINUOUS
370
-3
390
F
  0
LAYER
  5
206
100
AcDbSymbolTableRecord
100
AcDbLayerTableRecord
  2
03__ASM_ALL_CURVES
 70
0
 62
7
  6
CONTINUOUS
370
-3
390
F
  0
LAYER
  5
207
100
AcDbSymbolTableRecord
100
AcDbLayerTableRecord
  2
03___PRT_ALL_CURVES
 70
0
 62
7
  6
CONTINUOUS
370
-3
390
F
  0
LAYER
  5
208
100
AcDbSymbolTableRecord
100
AcDbLayerTableRecord
  2
04_ALL_DTM_PNT
 70
0
 62
7
  6
CONTINUOUS
370
-3
390
F
  0
LAYER
  5
209
100
AcDbSymbolTableRecord
100
AcDbLayerTableRecord
  2
04__ASM_ALL_DTM_PNT
 70
0
 62
7
  6
CONTINUOUS
370
-3
390
F
  0
LAYER
  5
20A
100
AcDbSymbolTableRecord
100
AcDbLayerTableRecord
  2
04___PRT_ALL_DTM_PNT
 70
0
 62
7
  6
CONTINUOUS
370
-3
390
F
  0
LAYER
  5
20B
100
AcDbSymbolTableRecord
100
AcDbLayerTableRecord
  2
05_ALL_DTM_CSYS
 70
0
 62
7
  6
CONTINUOUS
370
-3
390
F
  0
LAYER
  5
20C
100
AcDbSymbolTableRecord
100
AcDbLayerTableRecord
  2
05__ASM_ALL_DTM_CSYS
 70
0
 62
7
  6
CONTINUOUS
370
-3
390
F
  0
LAYER
  5
20D
100
AcDbSymbolTableRecord
100
AcDbLayerTableRecord
  2
05__ASM_DEF_DTM_CSYS
 70
0
 62
7
  6
CONTINUOUS
370
-3
390
F
  0
LAYER
  5
20E
100
AcDbSymbolTableRecord
100
AcDbLayerTableRecord
  2
05___PRT_ALL_DTM_CSYS
 70
0
 62
7
  6
CONTINUOUS
370
-3
390
F
  0
LAYER
  5
20F
100
AcDbSymbolTableRecord
100
AcDbLayerTableRecord
  2
05___PRT_DEF_DTM_CSYS
 70
0
 62
7
  6
CONTINUOUS
370
-3
390
F
  0
LAYER
  5
210
100
AcDbSymbolTableRecord
100
AcDbLayerTableRecord
  2
06_ALL_SURFS
 70
0
 62
7
  6
CONTINUOUS
370
-3
390
F
  0
LAYER
  5
211
100
AcDbSymbolTableRecord
100
AcDbLayerTableRecord
  2
06__ASM_ALL_SURFS
 70
0
 62
7
  6
CONTINUOUS
370
-3
390
F
  0
LAYER
  5
212
100
AcDbSymbolTableRecord
100
AcDbLayerTableRecord
  2
06___PRT_ALL_SURFS
 70
0
 62
7
  6
CONTINUOUS
370
-3
390
F
  0
LAYER
  5
213
100
AcDbSymbolTableRecord
100
AcDbLayerTableRecord
  2
07__ASM_ALL_SKELETONS
 70
0
 62
7
  6
CONTINUOUS
370
-3
390
F
  0
LAYER
  5
214
100
AcDbSymbolTableRecord
100
AcDbLayerTableRecord
  2
COLOR1
 70
0
 62
7
  6
CONTINUOUS
370
-3
390
F
  0
LAYER
  5
215
100
AcDbSymbolTableRecord
100
AcDbLayerTableRecord
  2
COLOR2
 70
0
 62
7
  6
CONTINUOUS
370
-3
390
F
  0
LAYER
  5
216
100
AcDbSymbolTableRecord
100
AcDbLayerTableRecord
  2
INTFCLR_2799
 70
0
 62
7
  6
CONTINUOUS
370
-3
390
F
  0
LAYER
  5
217
100
AcDbSymbolTableRecord
100
AcDbLayerTableRecord
  2
INTFCLR_2799_1
 70
0
 62
7
  6
CONTINUOUS
370
-3
390
F
  0
LAYER
  5
218
100
AcDbSymbolTableRecord
100
AcDbLayerTableRecord
  2
INTFCLR_2799_2
 70
0
 62
7
  6
CONTINUOUS
370
-3
390
F
  0
LAYER
  5
219
100
AcDbSymbolTableRecord
100
AcDbLayerTableRecord
  2
INTFCLR_2799_3
 70
0
 62
7
  6
CONTINUOUS
370
-3
390
F
  0
LAYER
  5
21A
100
AcDbSymbolTableRecord
100
AcDbLayerTableRecord
  2
INTFCLR_2799_4
 70
0
 62
7
  6
CONTINUOUS
370
-3
390
F
  0
LAYER
  5
21B
100
AcDbSymbolTableRecord
100
AcDbLayerTableRecord
  2
INTFCLR_2799_5
 70
0
 62
7
  6
CONTINUOUS
370
-3
390
F
  0
LAYER
  5
21C
100
AcDbSymbolTableRecord
100
AcDbLayerTableRecord
  2
INTFCLR_2799_6
 70
0
 62
7
  6
CONTINUOUS
370
-3
390
F
  0
LAYER
  5
21D
100
AcDbSymbolTableRecord
100
AcDbLayerTableRecord
  2
INTFCLR_2799_7
 70
0
 62
7
  6
CONTINUOUS
370
-3
390
F
  0
LAYER
  5
21E
100
AcDbSymbolTableRecord
100
AcDbLayerTableRecord
  2
KARTHIII
 70
0
 62
7
  6
CONTINUOUS
370
-3
390
F
  0
LAYER
  5
21F
100
AcDbSymbolTableRecord
100
AcDbLayerTableRecord
  2
NONE
 70
0
 62
7
  6
CONTINUOUS
370
-3
390
F
  0
LAYER
  5
220
100
AcDbSymbolTableRecord
100
AcDbLayerTableRecord
  2
NONE_1
 70
0
 62
7
  6
CONTINUOUS
370
-3
390
F
  0
LAYER
  5
221
100
AcDbSymbolTableRecord
100
AcDbLayerTableRecord
  2
NONE_2
 70
0
 62
7
  6
CONTINUOUS
370
-3
390
F
  0
LAYER
  5
222
100
AcDbSymbolTableRecord
100
AcDbLayerTableRecord
  2
NONE_3
 70
0
 62
7
  6
CONTINUOUS
370
-3
390
F
  0
LAYER
  5
223
100
AcDbSymbolTableRecord
100
AcDbLayerTableRecord
  2
NONE_4
 70
0
 62
7
  6
CONTINUOUS
370
-3
390
F
  0
LAYER
  5
224
100
AcDbSymbolTableRecord
100
AcDbLayerTableRecord
  2
NONE_5
 70
0
 62
7
  6
CONTINUOUS
370
-3
390
F
  0
LAYER
  5
225
100
AcDbSymbolTableRecord
100
AcDbLayerTableRecord
  2
NONE_6
 70
0
 62
7
  6
CONTINUOUS
370
-3
390
F
  0
LAYER
  5
226
100
AcDbSymbolTableRecord
100
AcDbLayerTableRecord
  2
NONE_7
 70
0
 62
7
  6
CONTINUOUS
370
-3
390
F
  0
LAYER
  5
227
100
AcDbSymbolTableRecord
100
AcDbLayerTableRecord
  2
_1014
 70
0
 62
7
  6
CONTINUOUS
370
-3
390
F
  0
LAYER
  5
228
100
AcDbSymbolTableRecord
100
AcDbLayerTableRecord
  2
_1014_1
 70
0
 62
7
  6
CONTINUOUS
370
-3
390
F
  0
LAYER
  5
229
100
AcDbSymbolTableRecord
100
AcDbLayerTableRecord
  2
_2361
 70
0
 62
7
  6
CONTINUOUS
370
-3
390
F
  0
LAYER
  5
22A
100
AcDbSymbolTableRecord
100
AcDbLayerTableRecord
  2
_2621
 70
0
 62
7
  6
CONTINUOUS
370
-3
390
F
  0
LAYER
  5
22B
100
AcDbSymbolTableRecord
100
AcDbLayerTableRecord
  2
_2621_1
 70
0
 62
7
  6
CONTINUOUS
370
-3
390
F
  0
LAYER
  5
22C
100
AcDbSymbolTableRecord
100
AcDbLayerTableRecord
  2
_3788
 70
0
 62
7
  6
CONTINUOUS
370
-3
390
F
  0
LAYER
  5
22D
100
AcDbSymbolTableRecord
100
AcDbLayerTableRecord
  2
_3788_1
 70
0
 62
7
  6
CONTINUOUS
370
-3
390
F
  0
LAYER
  5
22E
100
AcDbSymbolTableRecord
100
AcDbLayerTableRecord
  2
_5021
 70
0
 62
7
  6
CONTINUOUS
370
-3
390
F
  0
LAYER
  5
22F
100
AcDbSymbolTableRecord
100
AcDbLayerTableRecord
  2
_5021_1
 70
0
 62
7
  6
CONTINUOUS
370
-3
390
F
  0
LAYER
  5
230
100
AcDbSymbolTableRecord
100
AcDbLayerTableRecord
  2
_6283
 70
0
 62
7
  6
CONTINUOUS
370
-3
390
F
  0
LAYER
  5
231
100
AcDbSymbolTableRecord
100
AcDbLayerTableRecord
  2
_6283_1
 70
0
 62
7
  6
CONTINUOUS
370
-3
390
F
  0
LAYER
  5
232
100
AcDbSymbolTableRecord
100
AcDbLayerTableRecord
  2
_7581
 70
0
 62
7
  6
CONTINUOUS
370
-3
390
F
  0
LAYER
  5
233
100
AcDbSymbolTableRecord
100
AcDbLayerTableRecord
  2
_7581_1
 70
0
 62
7
  6
CONTINUOUS
370
-3
390
F
  0
LAYER
  5
234
100
AcDbSymbolTableRecord
100
AcDbLayerTableRecord
  2
_8904
 70
0
 62
7
  6
CONTINUOUS
370
-3
390
F
  0
LAYER
  5
235
100
AcDbSymbolTableRecord
100
AcDbLayerTableRecord
  2
_8904_1
 70
0
 62
7
  6
CONTINUOUS
370
-3
390
F
  0
LAYER
  5
236
100
AcDbSymbolTableRecord
100
AcDbLayerTableRecord
  2
_9291
 70
0
 62
7
  6
CONTINUOUS
370
-3
390
F
  0
LAYER
  5
237
100
AcDbSymbolTableRecord
100
AcDbLayerTableRecord
  2
_9291_1
 70
0
 62
7
  6
CONTINUOUS
370
-3
390
F
  0
LAYER
  5
238
100
AcDbSymbolTableRecord
100
AcDbLayerTableRecord
  2
___SHELL
 70
0
 62
7
  6
CONTINUOUS
370
-3
390
F
  0
ENDTAB
  0
TABLE
  2
STYLE
  5
3
100
AcDbSymbolTable
 70
1
  0
STYLE
  5
11
100
AcDbSymbolTableRecord
100
AcDbTextStyleTableRecord
  2
STANDARD
 70
0
 40
0.0
 41
0.8
 50
0.0
 71
0
 42
0.2
  3
txt
  4

  0
STYLE
  5
239
100
AcDbSymbolTableRecord
100
AcDbTextStyleTableRecord
  2
TEXTSTYLE_1
 70
0
 40
0.0
 41
0.8
 50
0.0
 71
0
 42
0.2
  3
gdt
  4

  0
ENDTAB
  0
TABLE
  2
VIEW
  5
6
100
AcDbSymbolTable
 70
0
  0
ENDTAB
  0
TABLE
  2
UCS
  5
7
100
AcDbSymbolTable
 70
0
  0
ENDTAB
  0
TABLE
  2
APPID
  5
9
100
AcDbSymbolTable
 70
1
  0
APPID
  5
23A
100
AcDbSymbolTableRecord
100
AcDbRegAppTableRecord
  2
ACAD
 70
0
  0
ENDTAB
  0
TABLE
  2
BLOCK_RECORD
  5
1
100
AcDbSymbolTable
 70
0
  0
BLOCK_RECORD
  5
23B
100
AcDbSymbolTableRecord
100
AcDbBlockTableRecord
  2
*Model_Space
  0
BLOCK_RECORD
  5
23C
100
AcDbSymbolTableRecord
100
AcDbBlockTableRecord
  2
*Paper_Space
  0
BLOCK_RECORD
  5
23D
100
AcDbSymbolTableRecord
100
AcDbBlockTableRecord
  2
_NONE
  0
ENDTAB
  0
TABLE
  2
DIMSTYLE
  5
A
100
AcDbSymbolTable
 70
1
100
AcDbDimStyleTable
 71
0
  0
DIMSTYLE
105
23E
100
AcDbSymbolTableRecord
100
AcDbDimStyleTableRecord
  2
STANDARD
 70
0
  3

  4

 40
1.0
 41
0.1875
 42
0.0625
 43
0.38
 44
0.125
 45
0.0
 46
0.0
 47
0.0001
 48
0.0001
140
0.15625
141
0.09
142
0.0
143
25.4
144
1.0
145
0.0
146
1.0
147
0.09
 71
0.0
 72
0.0
 73
1
 74
1
 75
0
 76
0
 77
0
 78
4
 79
1
170
0
171
3
172
0
173
0
174
0
175
0
176
0
177
0
178
0
270
2
179
4
271
4
272
4
273
2
274
2
275
0
280
0
281
0
282
0
283
1
284
4
285
0
286
0
287
3
288
0
340
11
278
46
  0
ENDTAB
  0
ENDSEC
  0
SECTION
  2
BLOCKS
  0
BLOCK
  5
20
100
AcDbEntity
  8
0
100
AcDbBlockBegin
  2
*Model_Space
 70
0
 10
0.0
 20
0.0
 30
0.0
  3
*Model_Space
  1

  0
ENDBLK
  5
21
100
AcDbEntity
  8
0
100
AcDbBlockEnd
  0
BLOCK
  5
1C
100
AcDbEntity
  8
0
100
AcDbBlockBegin
  2
*Paper_Space
 70
0
 10
0.0
 20
0.0
 30
0.0
  3
*Paper_Space
  1

  0
ENDBLK
  5
1D
100
AcDbEntity
  8
0
100
AcDbBlockEnd
  0
BLOCK
  5
23F
100
AcDbEntity
  8
0
100
AcDbBlockBegin
  2
_NONE
 70
64
 10
0.0
 20
0.0
  3
_NONE
  1

  0
ENDBLK
  5
240
100
AcDbEntity
  8
0
  6
BYBLOCK
 62
0
100
AcDbBlockEnd
  0
ENDSEC
  0
SECTION
  2
ENTITIES
  0
MTEXT
  5
241
100
AcDbEntity
  8
0
100
AcDbMText
 62
7
  6
CONTINUOUS
  7
STANDARD
 71
1
 72
1
 10
15.9560215477
 20
0.9479130325
 30
0.0
 11
1.0
 21
0.0
 31
0.0
 44
0.9
  1
SCALE: 1:1.000
 40
0.3
 41
3.36
  0
LEADER
  5
242
100
AcDbEntity
  8
0
100
AcDbLeader
 62
2
  6
CONTINUOUS
  3
STANDARD
 71
1
 72
0
 73
0
 75
0
 40
0.15625
 41
1.5
 76
3
 10
3.8647422762
 20
4.8352125408
 30
0.0
 10
11.175300556
 20
2.4537856365
 30
0.0
 10
11.425300556
 20
2.4537856365
 30
0.0
340
243
1001
ACAD
1000
DSTYLE
1002
{
1070
77
1070
0
1070
341
1005
23D
1002
}
  0
MTEXT
  5
243
102
{ACAD_REACTORS
330
242
102
}
100
AcDbEntity
  8
0
100
AcDbMText
 62
2
  6
CONTINUOUS
  7
STANDARD
 71
1
 72
1
 10
11.425300556
 20
2.5319106365
 30
0.0
 11
1.0
 21
0.0
 31
0.0
 44
0.9
  1
 0.375 BOLTS
 40
0.15625
 41
1.5
  0
LINE
  5
244
100
AcDbEntity
  8
0
100
AcDbLine
 62
7
  6
CONTINUOUS
 10
0.0
 20
0.0
 11
0.0
 21
17.0
  0
LINE
  5
245
100
AcDbEntity
  8
0
100
AcDbLine
 62
7
  6
CONTINUOUS
 10
0.0
 20
0.0
 11
22.0
 21
0.0
  0
LINE
  5
246
100
AcDbEntity
  8
0
100
AcDbLine
 62
7
  6
CONTINUOUS
 10
0.0
 20
17.0
 11
22.0
 21
17.0
  0
LINE
  5
247
100
AcDbEntity
  8
0
100
AcDbLine
 62
7
  6
CONTINUOUS
 10
22.0
 20
0.0
 11
22.0
 21
17.0
  0
LINE
  5
248
100
AcDbEntity
  8
0
100
AcDbLine
 62
7
  6
CONTINUOUS
 10
3.3959922762
 20
3.7727125408
 11
3.3959922762
 21
4.6602125408
  0
LINE
  5
249
100
AcDbEntity
  8
0
100
AcDbLine
 62
7
  6
CONTINUOUS
 10
3.5290502416
 20
4.8102125408
 11
3.5290502416
 21
4.7102125408
  0
LINE
  5
24A
100
AcDbEntity
  8
0
100
AcDbLine
 62
7
  6
CONTINUOUS
 10
3.8084922762
 20
4.8102125408
 11
3.8084922762
 21
4.7102125408
  0
LINE
  5
24B
100
AcDbEntity
  8
0
100
AcDbLine
 62
7
  6
CONTINUOUS
 10
4.5228002416
 20
4.7281497394
 11
4.5228002416
 21
4.8102125408
  0
LINE
  5
24C
100
AcDbEntity
  8
0
100
AcDbLine
 62
7
  6
CONTINUOUS
 10
3.3959922762
 20
3.7727125408
 11
9.7084922762
 21
3.7727125408
  0
LINE
  5
24D
100
AcDbEntity
  8
0
100
AcDbLine
 62
7
  6
CONTINUOUS
 10
4.5327301835
 20
4.7472715885
 11
4.8618720802
 21
5.9756458697
  0
LINE
  5
24E
100
AcDbEntity
  8
0
100
AcDbLine
 62
7
  6
CONTINUOUS
 10
9.6584922762
 20
4.7102125408
 11
8.6200506601
 21
4.7102125408
  0
LINE
  5
24F
100
AcDbEntity
  8
0
100
AcDbLine
 62
7
  6
CONTINUOUS
 10
3.4459922762
 20
4.7102125408
 11
4.4844338922
 21
4.7102125408
  0
LINE
  5
250
100
AcDbEntity
  8
0
100
AcDbLine
 62
7
  6
CONTINUOUS
 10
3.5540512124
 20
4.8352125408
 11
4.5562938907
 21
4.8352125408
  0
LINE
  5
251
100
AcDbEntity
  8
0
100
AcDbLine
 62
7
  6
CONTINUOUS
 10
8.5481906617
 20
4.8352125408
 11
9.55043334
 21
4.8352125408
  0
LINE
  5
252
100
AcDbEntity
  8
03__ASM_ALL_CURVES
100
AcDbLine
 62
4
  6
CONTINUOUS
 10
2.5522422762
 20
4.9102125408
 11
4.5763900801
 21
4.9102125408
  0
LINE
  5
253
100
AcDbEntity
  8
03__ASM_ALL_CURVES
100
AcDbLine
 62
4
  6
CONTINUOUS
 10
8.5280944722
 20
4.9102125408
 11
9.5522422762
 21
4.9102125408
  0
LINE
  5
254
100
AcDbEntity
  8
0
100
AcDbLine
 62
7
  6
CONTINUOUS
 10
7.6623357578
 20
6.9900232766
 11
7.618141584
 21
6.9458291027
  0
LINE
  5
255
100
AcDbEntity
  8
0
100
AcDbLine
 62
7
  6
CONTINUOUS
 10
7.6553288548
 20
6.9086418319
 11
7.6401500052
 21
6.8934629823
  0
LINE
  5
256
100
AcDbEntity
  8
0
100
AcDbLine
 62
7
  6
CONTINUOUS
 10
7.7074458975
 20
6.8565247892
 11
7.7516400713
 21
6.900718963
  0
LINE
  5
257
100
AcDbEntity
  8
0
100
AcDbLine
 62
7
  6
CONTINUOUS
 10
7.9302486984
 20
6.7221103359
 11
7.8860545246
 21
6.6779161621
  0
LINE
  5
258
100
AcDbEntity
  8
0
100
AcDbLine
 62
7
  6
CONTINUOUS
 10
7.9229927177
 20
6.6106202698
 11
7.9381715673
 21
6.6257991194
  0
LINE
  5
259
100
AcDbEntity
  8
0
100
AcDbLine
 62
7
  6
CONTINUOUS
 10
8.019553012
 20
6.6328060224
 11
7.9753588381
 21
6.5886118486
  0
LINE
  5
25A
100
AcDbEntity
  8
0
100
AcDbLine
 62
7
  6
CONTINUOUS
 10
7.618141584
 20
6.9458291027
 11
7.9753588381
 21
6.5886118486
  0
LINE
  5
25B
100
AcDbEntity
  8
0
100
AcDbLine
 62
7
  6
CONTINUOUS
 10
7.6623357578
 20
6.9900232766
 11
8.019553012
 21
6.6328060224
  0
LINE
  5
25C
100
AcDbEntity
  8
0
100
AcDbLine
 62
7
  6
CONTINUOUS
 10
8.5717543688
 20
4.7472715885
 11
8.2426124722
 21
5.9756458697
  0
LINE
  5
25D
100
AcDbEntity
  8
0
100
AcDbLine
 62
7
  6
CONTINUOUS
 10
8.0191560859
 20
6.8347283811
 11
7.8642581165
 21
6.9896263505
  0
LINE
  5
25E
100
AcDbEntity
  8
0
100
AcDbLine
 62
7
  6
CONTINUOUS
 10
8.0884317583
 20
6.9881913448
 11
8.0177210802
 21
7.0589020229
  0
LINE
  5
25F
100
AcDbEntity
  8
0
100
AcDbLine
 62
7
  6
CONTINUOUS
 10
8.5816843107
 20
4.8102125408
 11
8.5816843107
 21
4.7281497394
  0
LINE
  5
260
100
AcDbEntity
  8
0
100
AcDbLine
 62
7
  6
CONTINUOUS
 10
9.2959922762
 20
4.7102125408
 11
9.2959922762
 21
4.8102125408
  0
LINE
  5
261
100
AcDbEntity
  8
0
100
AcDbLine
 62
7
  6
CONTINUOUS
 10
9.5754343107
 20
4.8102125408
 11
9.5754343107
 21
4.7102125408
  0
LINE
  5
262
100
AcDbEntity
  8
0
100
AcDbLine
 62
7
  6
CONTINUOUS
 10
9.7084922762
 20
4.6602125408
 11
9.7084922762
 21
3.7727125408
  0
LINE
  5
263
100
AcDbEntity
  8
0
100
AcDbLine
 62
7
  6
CONTINUOUS
 10
3.3364970839
 20
11.9437977814
 11
3.3364970839
 21
14.1312977814
  0
LINE
  5
264
100
AcDbEntity
  8
0
100
AcDbLine
 62
7
  6
CONTINUOUS
 10
3.7489970839
 20
12.6749272149
 11
3.752292635
 21
12.6999272149
  0
LINE
  5
265
100
AcDbEntity
  8
0
100
AcDbLine
 62
7
  6
CONTINUOUS
 10
3.752292635
 20
13.3751683479
 11
3.7489970839
 21
13.4001683479
  0
LINE
  5
266
100
AcDbEntity
  8
0
100
AcDbLine
 62
7
  6
CONTINUOUS
 10
7.5169270839
 20
11.0687977814
 11
5.4685670839
 21
11.0687977814
  0
LINE
  5
267
100
AcDbEntity
  8
0
100
AcDbLine
 62
7
  6
CONTINUOUS
 10
3.3864970839
 20
11.9937977814
 11
3.3364970839
 21
11.9437977814
  0
LINE
  5
268
100
AcDbEntity
  8
0
100
AcDbLine
 62
7
  6
CONTINUOUS
 10
5.3185670839
 20
11.2187977814
 11
5.3185670839
 21
11.9437977814
  0
LINE
  5
269
100
AcDbEntity
  8
0
100
AcDbLine
 62
7
  6
CONTINUOUS
 10
3.3864970839
 20
14.0812977814
 11
3.3364970839
 21
14.1312977814
  0
LINE
  5
26A
100
AcDbEntity
  8
0
100
AcDbLine
 62
7
  6
CONTINUOUS
 10
3.3364970839
 20
11.9437977814
 11
9.6489970839
 21
11.9437977814
  0
LINE
  5
26B
100
AcDbEntity
  8
0
100
AcDbLine
 62
7
  6
CONTINUOUS
 10
9.2364970839
 20
12.6749272149
 11
8.5221891184
 21
12.6749272149
  0
LINE
  5
26C
100
AcDbEntity
  8
0
100
AcDbLine
 62
7
  6
CONTINUOUS
 10
4.4633050493
 20
12.6749272149
 11
3.7489970839
 21
12.6749272149
  0
LINE
  5
26D
100
AcDbEntity
  8
0
100
AcDbLine
 62
7
  6
CONTINUOUS
 10
7.6479507052
 20
12.8187977814
 11
7.7648896409
 21
12.8187977814
  0
LINE
  5
26E
100
AcDbEntity
  8
0
100
AcDbLine
 62
7
  6
CONTINUOUS
 10
7.7980087442
 20
12.8187977814
 11
7.8707535061
 21
12.8187977814
  0
LINE
  5
26F
100
AcDbEntity
  8
0
100
AcDbLine
 62
7
  6
CONTINUOUS
 10
4.2427470839
 20
12.8500477814
 11
3.9927470839
 21
12.8500477814
  0
LINE
  5
270
100
AcDbEntity
  8
0
100
AcDbLine
 62
7
  6
CONTINUOUS
 10
8.7427470839
 20
12.8500477814
 11
8.9927470839
 21
12.8500477814
  0
LINE
  5
271
100
AcDbEntity
  8
0
100
AcDbLine
 62
7
  6
CONTINUOUS
 10
7.6028405655
 20
13.0375477814
 11
7.5586463917
 21
13.0375477814
  0
LINE
  5
272
100
AcDbEntity
  8
03__ASM_ALL_CURVES
100
AcDbLine
 62
4
  6
CONTINUOUS
 10
2.4927470839
 20
13.0375477814
 11
4.7427328591
 21
13.0375477814
  0
LINE
  5
273
100
AcDbEntity
  8
03__ASM_ALL_CURVES
100
AcDbLine
 62
4
  6
CONTINUOUS
 10
8.2427611516
 20
13.0375477814
 11
9.4927470839
 21
13.0375477814
  0
LINE
  5
274
100
AcDbEntity
  8
0
100
AcDbLine
 62
7
  6
CONTINUOUS
 10
8.9927470839
 20
13.2250477814
 11
8.7427470839
 21
13.2250477814
  0
LINE
  5
275
100
AcDbEntity
  8
0
100
AcDbLine
 62
7
  6
CONTINUOUS
 10
3.9927470839
 20
13.2250477814
 11
4.2427470839
 21
13.2250477814
  0
LINE
  5
276
100
AcDbEntity
  8
0
100
AcDbLine
 62
7
  6
CONTINUOUS
 10
7.8707535061
 20
13.2562977814
 11
7.7980087442
 21
13.2562977814
  0
LINE
  5
277
100
AcDbEntity
  8
0
100
AcDbLine
 62
7
  6
CONTINUOUS
 10
7.7648896409
 20
13.2562977814
 11
7.6479507052
 21
13.2562977814
  0
LINE
  5
278
100
AcDbEntity
  8
0
100
AcDbLine
 62
7
  6
CONTINUOUS
 10
9.2364970839
 20
13.4001683479
 11
8.5221891184
 21
13.4001683479
  0
LINE
  5
279
100
AcDbEntity
  8
0
100
AcDbLine
 62
7
  6
CONTINUOUS
 10
4.4633050493
 20
13.4001683479
 11
3.7489970839
 21
13.4001683479
  0
LINE
  5
27A
100
AcDbEntity
  8
0
100
AcDbLine
 62
7
  6
CONTINUOUS
 10
7.6479507052
 20
13.2562977814
 11
7.5586463917
 21
13.0375477814
  0
LINE
  5
27B
100
AcDbEntity
  8
0
100
AcDbLine
 62
7
  6
CONTINUOUS
 10
7.6028405655
 20
13.0375477814
 11
7.6392129465
 21
13.1266415554
  0
LINE
  5
27C
100
AcDbEntity
  8
0
100
AcDbLine
 62
7
  6
CONTINUOUS
 10
7.6557724981
 20
13.1672040073
 11
7.692144879
 21
13.2562977814
  0
LINE
  5
27D
100
AcDbEntity
  8
0
100
AcDbLine
 62
7
  6
CONTINUOUS
 10
7.9046263132
 20
12.9017688749
 11
7.8707535061
 21
12.8187977814
  0
LINE
  5
27E
100
AcDbEntity
  8
0
100
AcDbLine
 62
7
  6
CONTINUOUS
 10
9.5989970839
 20
14.0812977814
 11
9.6489970839
 21
14.1312977814
  0
LINE
  5
27F
100
AcDbEntity
  8
0
100
AcDbLine
 62
7
  6
CONTINUOUS
 10
3.3364970839
 20
14.1312977814
 11
9.6489970839
 21
14.1312977814
  0
LINE
  5
280
100
AcDbEntity
  8
0
100
AcDbLine
 62
7
  6
CONTINUOUS
 10
7.5586463917
 20
13.0375477814
 11
7.6479507052
 21
12.8187977814
  0
LINE
  5
281
100
AcDbEntity
  8
0
100
AcDbLine
 62
7
  6
CONTINUOUS
 10
7.692144879
 20
12.8187977814
 11
7.6557724981
 21
12.9078915554
  0
LINE
  5
282
100
AcDbEntity
  8
0
100
AcDbLine
 62
7
  6
CONTINUOUS
 10
7.6392129465
 20
12.9484540073
 11
7.6028405655
 21
13.0375477814
  0
LINE
  5
283
100
AcDbEntity
  8
0
100
AcDbLine
 62
7
  6
CONTINUOUS
 10
7.6669270839
 20
11.2187977814
 11
7.6669270839
 21
11.9437977814
  0
LINE
  5
284
100
AcDbEntity
  8
0
100
AcDbLine
 62
7
  6
CONTINUOUS
 10
9.6489970839
 20
11.9437977814
 11
9.5989970839
 21
11.9937977814
  0
LINE
  5
285
100
AcDbEntity
  8
0
100
AcDbLine
 62
7
  6
CONTINUOUS
 10
7.8707535061
 20
13.2562977814
 11
7.9041431045
 21
13.1745103027
  0
LINE
  5
286
100
AcDbEntity
  8
0
100
AcDbLine
 62
7
  6
CONTINUOUS
 10
9.2364970839
 20
13.4001683479
 11
9.2332015327
 21
13.3751683479
  0
LINE
  5
287
100
AcDbEntity
  8
0
100
AcDbLine
 62
7
  6
CONTINUOUS
 10
9.2332015327
 20
12.6999272149
 11
9.2364970839
 21
12.6749272149
  0
LINE
  5
288
100
AcDbEntity
  8
0
100
AcDbLine
 62
7
  6
CONTINUOUS
 10
9.2355467669
 20
12.682223866
 11
9.2364970839
 21
12.6749272149
  0
LINE
  5
289
100
AcDbEntity
  8
0
100
AcDbLine
 62
7
  6
CONTINUOUS
 10
9.6489970839
 20
11.9437977814
 11
9.6489970839
 21
14.1312977814
  0
LINE
  5
28A
100
AcDbEntity
  8
0
100
AcDbLine
 62
7
  6
CONTINUOUS
 10
14.9041052569
 20
3.7132173485
 11
17.0916052569
 21
3.7132173485
  0
LINE
  5
28B
100
AcDbEntity
  8
0
100
AcDbLine
 62
7
  6
CONTINUOUS
 10
14.0291052569
 20
4.439037916
 11
14.0291052569
 21
6.4873967809
  0
LINE
  5
28C
100
AcDbEntity
  8
0
100
AcDbLine
 62
7
  6
CONTINUOUS
 10
15.7791052569
 20
6.8412237707
 11
15.8608927356
 21
6.8746133691
  0
LINE
  5
28D
100
AcDbEntity
  8
0
100
AcDbLine
 62
7
  6
CONTINUOUS
 10
14.9041052569
 20
4.2890373485
 11
14.1791052569
 21
4.2890373485
  0
LINE
  5
28E
100
AcDbEntity
  8
0
100
AcDbLine
 62
7
  6
CONTINUOUS
 10
16.2166052569
 20
6.6626151436
 11
16.1275114829
 21
6.6262427627
  0
LINE
  5
28F
100
AcDbEntity
  8
0
100
AcDbLine
 62
7
  6
CONTINUOUS
 10
16.086949031
 20
6.609683211
 11
15.9978552569
 21
6.5733108301
  0
LINE
  5
290
100
AcDbEntity
  8
0
100
AcDbLine
 62
7
  6
CONTINUOUS
 10
15.9978552569
 20
6.5291166563
 11
16.2166052569
 21
6.6184209698
  0
LINE
  5
291
100
AcDbEntity
  8
0
100
AcDbLine
 62
7
  6
CONTINUOUS
 10
14.9541052569
 20
4.6507173485
 11
17.0416052569
 21
4.6507173485
  0
LINE
  5
292
100
AcDbEntity
  8
0
100
AcDbLine
 62
7
  6
CONTINUOUS
 10
14.9041052569
 20
7.1631954849
 11
14.9041052569
 21
3.7132173485
  0
LINE
  5
293
100
AcDbEntity
  8
0
100
AcDbLine
 62
7
  6
CONTINUOUS
 10
16.3354758234
 20
4.7757173485
 11
15.6602346904
 21
4.7757173485
  0
LINE
  5
294
100
AcDbEntity
  8
0
100
AcDbLine
 62
7
  6
CONTINUOUS
 10
15.6352346904
 20
4.6507173485
 11
15.6352346904
 21
4.7507173485
  0
LINE
  5
295
100
AcDbEntity
  8
0
100
AcDbLine
 62
7
  6
CONTINUOUS
 10
15.7791052569
 20
6.8412237707
 11
15.7791052569
 21
6.7684790088
  0
LINE
  5
296
100
AcDbEntity
  8
0
100
AcDbLine
 62
7
  6
CONTINUOUS
 10
15.7791052569
 20
6.7353599055
 11
15.7791052569
 21
6.6184209698
  0
LINE
  5
297
100
AcDbEntity
  8
0
100
AcDbLine
 62
7
  6
CONTINUOUS
 10
15.9978552569
 20
6.5733108301
 11
15.9978552569
 21
6.5291166563
  0
LINE
  5
298
100
AcDbEntity
  8
0
100
AcDbLine
 62
7
  6
CONTINUOUS
 10
16.2166052569
 20
6.6184209698
 11
16.2166052569
 21
6.7353599055
  0
LINE
  5
299
100
AcDbEntity
  8
0
100
AcDbLine
 62
7
  6
CONTINUOUS
 10
16.2166052569
 20
6.7684790088
 11
16.2166052569
 21
6.8412237707
  0
LINE
  5
29A
100
AcDbEntity
  8
0
100
AcDbLine
 62
7
  6
CONTINUOUS
 10
16.3604758234
 20
4.7507173485
 11
16.3604758234
 21
4.6507173485
  0
LINE
  5
29B
100
AcDbEntity
  8
0
100
AcDbLine
 62
7
  6
CONTINUOUS
 10
14.9041052569
 20
6.6373973485
 11
14.1791052569
 21
6.6373973485
  0
LINE
  5
29C
100
AcDbEntity
  8
0
100
AcDbLine
 62
7
  6
CONTINUOUS
 10
15.7791052569
 20
6.6184209698
 11
15.9978552569
 21
6.5291166563
  0
LINE
  5
29D
100
AcDbEntity
  8
0
100
AcDbLine
 62
7
  6
CONTINUOUS
 10
15.9978552569
 20
6.5733108301
 11
15.9087614829
 21
6.609683211
  0
LINE
  5
29E
100
AcDbEntity
  8
0
100
AcDbLine
 62
7
  6
CONTINUOUS
 10
15.868199031
 20
6.6262427627
 11
15.7791052569
 21
6.6626151436
  0
LINE
  5
29F
100
AcDbEntity
  8
0
100
AcDbLine
 62
7
  6
CONTINUOUS
 10
17.0916052569
 20
3.7132173485
 11
17.0916052569
 21
7.1631954849
  0
LINE
  5
2A0
100
AcDbEntity
  8
0
100
AcDbLine
 62
7
  6
CONTINUOUS
 10
16.1336341634
 20
6.8750965778
 11
16.2166052569
 21
6.8412237707
  0
LINE
  5
2A1
100
AcDbEntity
  8
0
100
AcDbLine
 62
7
  6
CONTINUOUS
 10
14.9541052569
 20
7.2132173485
 11
17.0416052569
 21
7.2132173485
  0
LINE
  5
2A2
100
AcDbEntity
  8
0
100
AcDbLine
 62
7
  6
CONTINUOUS
 10
12.7289388128
 20
10.7097146941
 11
12.4582141562
 21
11.261393541
  0
LINE
  5
2A3
100
AcDbEntity
  8
0
100
AcDbLine
 62
7
  6
CONTINUOUS
 10
12.457948551
 20
11.2808558368
 11
12.9845638587
 21
12.9849835971
  0
LINE
  5
2A4
100
AcDbEntity
  8
0
100
AcDbLine
 62
7
  6
CONTINUOUS
 10
12.808520922
 20
12.0461953278
 11
12.8390251087
 21
11.9840343309
  0
LINE
  5
2A5
100
AcDbEntity
  8
0
100
AcDbLine
 62
7
  6
CONTINUOUS
 10
12.9693773501
 20
11.9273483959
 11
12.9998815368
 21
11.8651873991
  0
LINE
  5
2A6
100
AcDbEntity
  8
0
100
AcDbLine
 62
7
  6
CONTINUOUS
 10
13.4894151805
 20
11.341967908
 11
13.4178693594
 21
12.105537606
  0
LINE
  5
2A7
100
AcDbEntity
  8
0
100
AcDbLine
 62
7
  6
CONTINUOUS
 10
13.4423311472
 20
12.3533813842
 11
13.9476445974
 21
13.988576308
  0
LINE
  5
2A8
100
AcDbEntity
  8
0
100
AcDbLine
 62
7
  6
CONTINUOUS
 10
12.7289388128
 20
10.7097146941
 11
14.3006624676
 21
10.7097146941
  0
LINE
  5
2A9
100
AcDbEntity
  8
0
100
AcDbLine
 62
7
  6
CONTINUOUS
 10
15.9535531207
 20
10.7097146941
 11
18.5431363374
 21
10.7097146941
  0
LINE
  5
2AA
100
AcDbEntity
  8
0
100
AcDbLine
 62
7
  6
CONTINUOUS
 10
13.8048801771
 20
11.5762936878
 11
13.9804605397
 21
12.1444684999
  0
LINE
  5
2AB
100
AcDbEntity
  8
0
100
AcDbLine
 62
7
  6
CONTINUOUS
 10
13.9803773482
 20
12.1442059795
 11
13.980470452
 21
12.1444654342
  0
LINE
  5
2AC
100
AcDbEntity
  8
0
100
AcDbLine
 62
7
  6
CONTINUOUS
 10
14.010036628
 20
12.2146437459
 11
14.0102831634
 21
12.2150986082
  0
LINE
  5
2AD
100
AcDbEntity
  8
0
100
AcDbLine
 62
7
  6
CONTINUOUS
 10
14.0125612174
 20
12.2136795761
 11
14.0128120259
 21
12.2141315359
  0
LINE
  5
2AE
100
AcDbEntity
  8
0
100
AcDbLine
 62
7
  6
CONTINUOUS
 10
15.9418469496
 20
13.5663909259
 11
16.0080098323
 21
13.6135710421
  0
LINE
  5
2AF
100
AcDbEntity
  8
0
100
AcDbLine
 62
7
  6
CONTINUOUS
 10
16.0381323495
 20
13.6350511198
 11
16.1042952321
 21
13.6822312359
  0
LINE
  5
2B0
100
AcDbEntity
  8
0
100
AcDbLine
 62
7
  6
CONTINUOUS
 10
18.0542037414
 20
11.8651873991
 11
17.4316202846
 21
11.8651873991
  0
LINE
  5
2B1
100
AcDbEntity
  8
0
100
AcDbLine
 62
7
  6
CONTINUOUS
 10
12.9998815368
 20
11.8651873991
 11
13.4403899662
 21
11.8651873991
  0
LINE
  5
2B2
100
AcDbEntity
  8
0
100
AcDbLine
 62
7
  6
CONTINUOUS
 10
14.3205412093
 20
12.457183301
 11
14.3188865229
 21
12.4584124466
  0
LINE
  5
2B3
100
AcDbEntity
  8
0
100
AcDbLine
 62
7
  6
CONTINUOUS
 10
14.6532354711
 20
12.5247623178
 11
14.6536066491
 21
12.5240059367
  0
LINE
  5
2B4
100
AcDbEntity
  8
0
100
AcDbLine
 62
7
  6
CONTINUOUS
 10
14.8374476699
 20
12.5247623178
 11
14.8378096759
 21
12.5240246271
  0
LINE
  5
2B5
100
AcDbEntity
  8
0
100
AcDbLine
 62
7
  6
CONTINUOUS
 10
15.9418469496
 20
13.5663909259
 11
15.9146224932
 21
13.5389193869
  0
LINE
  5
2B6
100
AcDbEntity
  8
0
100
AcDbLine
 62
7
  6
CONTINUOUS
 10
14.3179479887
 20
12.458059414
 11
14.3190246284
 21
12.4584631745
  0
LINE
  5
2B7
100
AcDbEntity
  8
0
100
AcDbLine
 62
7
  6
CONTINUOUS
 10
14.319437299
 20
12.456805046
 11
14.3205412093
 21
12.457183301
  0
LINE
  5
2B8
100
AcDbEntity
  8
0
100
AcDbLine
 62
7
  6
CONTINUOUS
 10
13.4202560927
 20
12.0800652973
 11
13.2286507124
 21
12.0800652973
  0
LINE
  5
2B9
100
AcDbEntity
  8
0
100
AcDbLine
 62
7
  6
CONTINUOUS
 10
17.6036904339
 20
12.0800652973
 11
17.8339556824
 21
12.0800652973
  0
LINE
  5
2BA
100
AcDbEntity
  8
0
100
AcDbLine
 62
7
  6
CONTINUOUS
 10
18.0164847303
 20
12.1664087344
 11
17.8167977774
 21
12.1664087344
  0
LINE
  5
2BB
100
AcDbEntity
  8
0
100
AcDbLine
 62
7
  6
CONTINUOUS
 10
15.2369161934
 20
12.4584124466
 11
15.2364708169
 21
12.4571914043
  0
LINE
  5
2BC
100
AcDbEntity
  8
0
100
AcDbLine
 62
7
  6
CONTINUOUS
 10
15.9711667593
 20
13.312054174
 11
15.9983912157
 21
13.3395257129
  0
LINE
  5
2BD
100
AcDbEntity
  8
0
100
AcDbLine
 62
7
  6
CONTINUOUS
 10
16.2173837642
 20
13.2285008099
 11
16.1901593079
 21
13.2010292709
  0
LINE
  5
2BE
100
AcDbEntity
  8
0
100
AcDbLine
 62
7
  6
CONTINUOUS
 10
16.3798320468
 20
13.3443411199
 11
16.3136691641
 21
13.2971610038
  0
LINE
  5
2BF
100
AcDbEntity
  8
0
100
AcDbLine
 62
7
  6
CONTINUOUS
 10
16.2835466469
 20
13.2756809261
 11
16.2173837642
 21
13.2285008099
  0
LINE
  5
2C0
100
AcDbEntity
  8
0
100
AcDbLine
 62
7
  6
CONTINUOUS
 10
16.1901593079
 20
13.2010292709
 11
16.3526075904
 21
13.3168695809
  0
LINE
  5
2C1
100
AcDbEntity
  8
03__ASM_ALL_CURVES
100
AcDbLine
 62
4
  6
CONTINUOUS
 10
11.869568517
 20
12.2735598404
 11
13.4234491183
 21
12.2735598404
  0
LINE
  5
2C2
100
AcDbEntity
  8
03__ASM_ALL_CURVES
100
AcDbLine
 62
4
  6
CONTINUOUS
 10
17.1077802821
 20
12.2735598404
 11
18.3169954751
 21
12.2735598404
  0
LINE
  5
2C3
100
AcDbEntity
  8
0
100
AcDbLine
 62
7
  6
CONTINUOUS
 10
17.9247305537
 20
12.3738128884
 11
17.6944653052
 21
12.3738128884
  0
LINE
  5
2C4
100
AcDbEntity
  8
0
100
AcDbLine
 62
7
  6
CONTINUOUS
 10
13.3194255837
 20
12.3738128884
 11
13.4486449596
 21
12.3738128884
  0
LINE
  5
2C5
100
AcDbEntity
  8
0
100
AcDbLine
 62
7
  6
CONTINUOUS
 10
13.1395308868
 20
12.5008661186
 11
13.4879073773
 21
12.5008661186
  0
LINE
  5
2C6
100
AcDbEntity
  8
0
100
AcDbLine
 62
7
  6
CONTINUOUS
 10
17.5181576749
 20
12.5008661186
 11
18.1925556111
 21
12.5008661186
  0
LINE
  5
2C7
100
AcDbEntity
  8
0
100
AcDbLine
 62
7
  6
CONTINUOUS
 10
14.8371238726
 20
12.524780006
 11
14.8375433326
 21
12.5247564981
  0
LINE
  5
2C8
100
AcDbEntity
  8
0
100
AcDbLine
 62
7
  6
CONTINUOUS
 10
14.8373854551
 20
12.524062332
 11
14.8378096759
 21
12.5240246271
  0
LINE
  5
2C9
100
AcDbEntity
  8
0
100
AcDbLine
 62
7
  6
CONTINUOUS
 10
15.7827483532
 20
12.214134592
 11
15.7835959103
 21
12.2135836858
  0
LINE
  5
2CA
100
AcDbEntity
  8
0
100
AcDbLine
 62
7
  6
CONTINUOUS
 10
15.7843223753
 20
12.2150981749
 11
15.7851675414
 21
12.2145433396
  0
LINE
  5
2CB
100
AcDbEntity
  8
0
100
AcDbLine
 62
7
  6
CONTINUOUS
 10
16.3798320468
 20
13.3443411199
 11
16.3526075904
 21
13.3168695809
  0
LINE
  5
2CC
100
AcDbEntity
  8
0
100
AcDbLine
 62
7
  6
CONTINUOUS
 10
13.1390261038
 20
12.5008131643
 11
13.1395334604
 21
12.5008661186
  0
LINE
  5
2CD
100
AcDbEntity
  8
0
100
AcDbLine
 62
7
  6
CONTINUOUS
 10
14.6558367875
 20
12.5249144248
 11
14.6532354711
 21
12.5247623178
  0
LINE
  5
2CE
100
AcDbEntity
  8
0
100
AcDbLine
 62
7
  6
CONTINUOUS
 10
14.6558826803
 20
12.524839641
 11
14.6532354711
 21
12.5247623178
  0
LINE
  5
2CF
100
AcDbEntity
  8
0
100
AcDbLine
 62
7
  6
CONTINUOUS
 10
18.1938078946
 20
12.5007165593
 11
18.1925533731
 21
12.5008661186
  0
LINE
  5
2D0
100
AcDbEntity
  8
0
100
AcDbLine
 62
7
  6
CONTINUOUS
 10
16.1491856406
 20
11.8598298991
 11
16.1498311138
 21
11.8587830075
  0
LINE
  5
2D1
100
AcDbEntity
  8
0
100
AcDbLine
 62
7
  6
CONTINUOUS
 10
16.1468866654
 20
11.8596931354
 11
16.1475062455
 21
11.8586471084
  0
LINE
  5
2D2
100
AcDbEntity
  8
0
100
AcDbLine
 62
7
  6
CONTINUOUS
 10
15.7845036544
 20
12.2149802306
 11
15.7827483532
 21
12.214134592
  0
LINE
  5
2D3
100
AcDbEntity
  8
0
100
AcDbLine
 62
7
  6
CONTINUOUS
 10
15.9283095881
 20
12.1067674411
 11
15.929444555
 21
12.1073142258
  0
LINE
  5
2D4
100
AcDbEntity
  8
0
100
AcDbLine
 62
7
  6
CONTINUOUS
 10
18.7798499905
 20
12.9857548103
 11
17.7873073303
 21
12.9857548103
  0
LINE
  5
2D5
100
AcDbEntity
  8
0
100
AcDbLine
 62
7
  6
CONTINUOUS
 10
13.6377493161
 20
12.9857548103
 11
12.9856093791
 21
12.9857548103
  0
LINE
  5
2D6
100
AcDbEntity
  8
0
100
AcDbLine
 62
7
  6
CONTINUOUS
 10
15.9146224932
 20
13.5389193869
 11
15.9711667593
 21
13.312054174
  0
LINE
  5
2D7
100
AcDbEntity
  8
0
100
AcDbLine
 62
7
  6
CONTINUOUS
 10
15.9983912157
 20
13.3395257129
 11
15.9753615376
 21
13.4319246982
  0
LINE
  5
2D8
100
AcDbEntity
  8
0
100
AcDbLine
 62
7
  6
CONTINUOUS
 10
15.9648766276
 20
13.4739919406
 11
15.9418469496
 21
13.5663909259
  0
LINE
  5
2D9
100
AcDbEntity
  8
0
100
AcDbLine
 62
7
  6
CONTINUOUS
 10
16.2240503554
 20
11.45085858
 11
16.048552271
 21
10.8829465705
  0
LINE
  5
2DA
100
AcDbEntity
  8
0
100
AcDbLine
 62
7
  6
CONTINUOUS
 10
16.1901593079
 20
13.2010292709
 11
15.9711667593
 21
13.312054174
  0
LINE
  5
2DB
100
AcDbEntity
  8
0
100
AcDbLine
 62
7
  6
CONTINUOUS
 10
15.9983912157
 20
13.3395257129
 11
16.0875837763
 21
13.2943068438
  0
LINE
  5
2DC
100
AcDbEntity
  8
0
100
AcDbLine
 62
7
  6
CONTINUOUS
 10
16.1281912036
 20
13.2737196791
 11
16.2173837642
 21
13.2285008099
  0
LINE
  5
2DD
100
AcDbEntity
  8
0
100
AcDbLine
 62
7
  6
CONTINUOUS
 10
16.3568023688
 20
13.4367401052
 11
16.3798320468
 21
13.3443411199
  0
LINE
  5
2DE
100
AcDbEntity
  8
0
100
AcDbLine
 62
7
  6
CONTINUOUS
 10
16.1612624018
 20
13.6533500044
 11
16.1042952321
 21
13.6822312359
  0
LINE
  5
2DF
100
AcDbEntity
  8
0
100
AcDbLine
 62
7
  6
CONTINUOUS
 10
17.36577835
 20
11.9273483959
 11
17.3908109402
 21
11.8763373405
  0
LINE
  5
2E0
100
AcDbEntity
  8
0
100
AcDbLine
 62
7
  6
CONTINUOUS
 10
18.2724116808
 20
11.261393541
 11
18.5431363374
 21
10.7097146941
  0
LINE
  5
2E1
100
AcDbEntity
  8
0
100
AcDbLine
 62
7
  6
CONTINUOUS
 10
17.7131219976
 20
13.0150219275
 11
17.0352566515
 21
13.7785916255
  0
LINE
  5
2E2
100
AcDbEntity
  8
0
100
AcDbLine
 62
7
  6
CONTINUOUS
 10
18.0542037414
 20
11.8651873991
 11
18.0236995547
 21
11.9273483959
  0
LINE
  5
2E3
100
AcDbEntity
  8
0
100
AcDbLine
 62
7
  6
CONTINUOUS
 10
18.3601124374
 20
12.3766023595
 11
18.3906166241
 21
12.3144413626
  0
LINE
  5
2E4
100
AcDbEntity
  8
0
100
AcDbLine
 62
7
  6
CONTINUOUS
 10
19.0726564199
 20
12.4232423089
 11
18.8019317633
 21
12.9749211558
  0
LINE
  5
2E5
100
AcDbEntity
  8
0
100
AcDbLine
 62
7
  6
CONTINUOUS
 10
18.5431363374
 20
10.7097146941
 11
19.0726564199
 21
12.4232423089
  0
ARC
  5
2E6
100
AcDbEntity
  8
0
100
AcDbCircle
 62
7
  6
CONTINUOUS
 10
3.4459922762
 20
4.6602125408
 40
0.05
100
AcDbArc
 50
90.0
 51
180.0
  0
ARC
  5
2E7
100
AcDbEntity
  8
0
100
AcDbCircle
 62
7
  6
CONTINUOUS
 10
4.4844338922
 20
4.7602125408
 40
0.05
100
AcDbArc
 50
270.0
 51
345.0000000002
  0
ARC
  5
2E8
100
AcDbEntity
  8
0
100
AcDbCircle
 62
7
  6
CONTINUOUS
 10
3.5540502416
 20
4.8102125408
 40
0.025
100
AcDbArc
 50
90.0
 51
180.0
  0
ARC
  5
2E9
100
AcDbEntity
  8
0
100
AcDbCircle
 62
7
  6
CONTINUOUS
 10
6.5522422762
 20
5.5227125408
 40
1.75
100
AcDbArc
 50
15.0
 51
165.0
  0
CIRCLE
  5
2EA
100
AcDbEntity
  8
0
100
AcDbCircle
 62
7
  6
CONTINUOUS
 10
6.5522422762
 20
5.5227125408
 40
1.17418
  0
ARC
  5
2EB
100
AcDbEntity
  8
0
100
AcDbCircle
 62
7
  6
CONTINUOUS
 10
8.6200506601
 20
4.7602125408
 40
0.05
100
AcDbArc
 50
195.0
 51
270.0
  0
ARC
  5
2EC
100
AcDbEntity
  8
0
100
AcDbCircle
 62
7
  6
CONTINUOUS
 10
9.6584922762
 20
4.6602125408
 40
0.05
100
AcDbArc
 50
0.0
 51
90.0
  0
ARC
  5
2ED
100
AcDbEntity
  8
0
100
AcDbCircle
 62
7
  6
CONTINUOUS
 10
9.5504343107
 20
4.8102125408
 40
0.025
100
AcDbArc
 50
0.0
 51
90.0
  0
ARC
  5
2EE
100
AcDbEntity
  8
0
100
AcDbCircle
 62
7
  6
CONTINUOUS
 10
7.7597606649
 20
7.097238072
 40
0.15
100
AcDbArc
 50
240.2731847572
 51
314.1588213768
  0
ARC
  5
2EF
100
AcDbEntity
  8
0
100
AcDbCircle
 62
7
  6
CONTINUOUS
 10
8.1267678074
 20
6.7302309295
 40
0.15
100
AcDbArc
 50
135.8411786228
 51
209.7268152428
  0
ARC
  5
2F0
100
AcDbEntity
  8
0
100
AcDbCircle
 62
7
  6
CONTINUOUS
 10
8.024792148
 20
6.9245517345
 40
0.09
100
AcDbArc
 50
266.4096221095
 51
45.0
  0
ARC
  5
2F1
100
AcDbEntity
  8
0
100
AcDbCircle
 62
7
  6
CONTINUOUS
 10
7.9540814699
 20
6.9952624126
 40
0.09
100
AcDbArc
 50
44.9999999999
 51
183.5903778907
  0
ARC
  5
2F2
100
AcDbEntity
  8
0
100
AcDbCircle
 62
7
  6
CONTINUOUS
 10
3.8445550493
 20
13.0375477814
 40
0.375
100
AcDbArc
 50
104.7629931113
 51
255.2370068887
  0
ARC
  5
2F3
100
AcDbEntity
  8
0
100
AcDbCircle
 62
7
  6
CONTINUOUS
 10
4.3677470839
 20
13.0375477814
 40
0.375
100
AcDbArc
 50
284.7629931113
 51
75.2370068887
  0
ARC
  5
2F4
100
AcDbEntity
  8
0
100
AcDbCircle
 62
7
  6
CONTINUOUS
 10
9.1409391184
 20
13.0375477814
 40
0.375
100
AcDbArc
 50
284.7629931113
 51
75.2370068887
  0
ARC
  5
2F5
100
AcDbEntity
  8
0
100
AcDbCircle
 62
7
  6
CONTINUOUS
 10
8.6177470839
 20
13.0375477814
 40
0.375
100
AcDbArc
 50
104.7629931113
 51
255.2370068887
  0
ARC
  5
2F6
100
AcDbEntity
  8
0
100
AcDbCircle
 62
7
  6
CONTINUOUS
 10
3.9927470839
 20
13.0375477814
 40
0.1875
100
AcDbArc
 50
90.0
 51
270.0
  0
ARC
  5
2F7
100
AcDbEntity
  8
0
100
AcDbCircle
 62
7
  6
CONTINUOUS
 10
4.2427470839
 20
13.0375477814
 40
0.1875
100
AcDbArc
 50
270.0
 51
90.0
  0
ARC
  5
2F8
100
AcDbEntity
  8
0
100
AcDbCircle
 62
7
  6
CONTINUOUS
 10
8.9927470839
 20
13.0375477814
 40
0.1875
100
AcDbArc
 50
270.0
 51
90.0
  0
ARC
  5
2F9
100
AcDbEntity
  8
0
100
AcDbCircle
 62
7
  6
CONTINUOUS
 10
8.7427470839
 20
13.0375477814
 40
0.1875
100
AcDbArc
 50
90.0
 51
270.0
  0
ARC
  5
2FA
100
AcDbEntity
  8
0
100
AcDbCircle
 62
7
  6
CONTINUOUS
 10
7.5169270839
 20
11.2187977814
 40
0.15
100
AcDbArc
 50
270.0
 51
360.0
  0
ARC
  5
2FB
100
AcDbEntity
  8
0
100
AcDbCircle
 62
7
  6
CONTINUOUS
 10
5.4685670839
 20
11.2187977814
 40
0.15
100
AcDbArc
 50
180.0
 51
270.0
  0
ARC
  5
2FC
100
AcDbEntity
  8
0
100
AcDbCircle
 62
7
  6
CONTINUOUS
 10
7.7814491926
 20
12.9278593851
 40
0.1103116139
100
AcDbArc
 50
261.3663439789
 51
278.6336560211
  0
ARC
  5
2FD
100
AcDbEntity
  8
0
100
AcDbCircle
 62
7
  6
CONTINUOUS
 10
7.7814491926
 20
13.1472361776
 40
0.1103116139
100
AcDbArc
 50
81.3663439789
 51
98.6336560211
  0
ARC
  5
2FE
100
AcDbEntity
  8
0
100
AcDbCircle
 62
7
  6
CONTINUOUS
 10
14.1791052569
 20
4.4390373485
 40
0.15
100
AcDbArc
 50
180.0
 51
270.0
  0
ARC
  5
2FF
100
AcDbEntity
  8
0
100
AcDbCircle
 62
7
  6
CONTINUOUS
 10
14.1791052569
 20
6.4873973485
 40
0.15
100
AcDbArc
 50
90.0
 51
180.0
  0
ARC
  5
300
100
AcDbEntity
  8
0
100
AcDbCircle
 62
7
  6
CONTINUOUS
 10
15.8881668607
 20
6.7519194572
 40
0.1103116139
100
AcDbArc
 50
171.3663439789
 51
188.6336560211
  0
ARC
  5
301
100
AcDbEntity
  8
0
100
AcDbCircle
 62
7
  6
CONTINUOUS
 10
16.1075436532
 20
6.7519194572
 40
0.1103116139
100
AcDbArc
 50
351.3663439789
 51
8.6336560211
  0
ARC
  5
302
100
AcDbEntity
  8
0
100
AcDbCircle
 62
7
  6
CONTINUOUS
 10
17.0416052569
 20
7.1632173485
 40
0.05
100
AcDbArc
 50
0.0000000001
 51
90.0
  0
ARC
  5
303
100
AcDbEntity
  8
0
100
AcDbCircle
 62
7
  6
CONTINUOUS
 10
14.9541052569
 20
7.1632173485
 40
0.05
100
AcDbArc
 50
90.0
 51
179.9999999999
  0
ARC
  5
304
100
AcDbEntity
  8
0
100
AcDbCircle
 62
7
  6
CONTINUOUS
 10
14.9541052569
 20
4.6007173485
 40
0.05
100
AcDbArc
 50
90.0
 51
180.0
  0
ARC
  5
305
100
AcDbEntity
  8
0
100
AcDbCircle
 62
7
  6
CONTINUOUS
 10
17.0416052569
 20
4.6007173485
 40
0.05
100
AcDbArc
 50
0.0
 51
90.0
  0
ARC
  5
306
100
AcDbEntity
  8
0
100
AcDbCircle
 62
7
  6
CONTINUOUS
 10
16.3354758234
 20
4.7507173485
 40
0.025
100
AcDbArc
 50
0.0
 51
90.0
  0
ARC
  5
307
100
AcDbEntity
  8
0
100
AcDbCircle
 62
7
  6
CONTINUOUS
 10
15.6602346904
 20
4.7507173485
 40
0.025
100
AcDbArc
 50
90.0
 51
180.0
  0
ARC
  5
308
100
AcDbEntity
  8
0
100
AcDbCircle
 62
7
  6
CONTINUOUS
 10
14.6951436835
 20
10.4802391502
 40
2.0510214277
100
AcDbArc
 50
72.9258751117
 51
73.7986393022
  0
ARC
  5
309
100
AcDbEntity
  8
0
100
AcDbCircle
 62
7
  6
CONTINUOUS
 10
14.6961427921
 20
10.4835796039
 40
2.0475346415
100
AcDbArc
 50
72.925155032
 51
73.7994063034
  0
ARC
  5
30A
100
AcDbEntity
  8
0
100
AcDbCircle
 62
7
  6
CONTINUOUS
 10
14.6962437292
 20
10.4840297961
 40
2.0470743914
100
AcDbArc
 50
73.798603384
 51
74.685354293
  0
ARC
  5
30B
100
AcDbEntity
  8
0
100
AcDbCircle
 62
7
  6
CONTINUOUS
 10
14.6964444296
 20
10.4846325239
 40
2.0464393749
100
AcDbArc
 50
73.799291342
 51
74.6881290768
  0
ARC
  5
30C
100
AcDbEntity
  8
0
100
AcDbCircle
 62
7
  6
CONTINUOUS
 10
14.6965868523
 20
10.4848949006
 40
2.0461469355
100
AcDbArc
 50
69.0860556709
 51
72.9262271811
  0
ARC
  5
30D
100
AcDbEntity
  8
0
100
AcDbCircle
 62
7
  6
CONTINUOUS
 10
14.6982732666
 20
10.4897927497
 40
2.0409700322
100
AcDbArc
 50
69.082329835
 51
72.9311143269
  0
ARC
  5
30E
100
AcDbEntity
  8
0
100
AcDbCircle
 62
7
  6
CONTINUOUS
 10
14.7056334246
 20
10.5093342608
 40
2.0200884041
100
AcDbArc
 50
68.8991803827
 51
69.0783000314
  0
ARC
  5
30F
100
AcDbEntity
  8
0
100
AcDbCircle
 62
7
  6
CONTINUOUS
 10
14.619079709
 20
11.6566600056
 40
0.8561091786
100
AcDbArc
 50
110.5269701565
 51
112.12445491
  0
ARC
  5
310
100
AcDbEntity
  8
0
100
AcDbCircle
 62
7
  6
CONTINUOUS
 10
14.6164232361
 20
11.6633882584
 40
0.8488755615
100
AcDbArc
 50
110.5859737833
 51
112.1293780534
  0
ARC
  5
311
100
AcDbEntity
  8
0
100
AcDbCircle
 62
7
  6
CONTINUOUS
 10
14.6047401329
 20
11.6921625274
 40
0.8178202176
100
AcDbArc
 50
112.1305658025
 51
113.7376569778
  0
ARC
  5
312
100
AcDbEntity
  8
0
100
AcDbCircle
 62
7
  6
CONTINUOUS
 10
14.6017838211
 20
11.6991482765
 40
0.8102351314
100
AcDbArc
 50
112.122996872
 51
113.7451361872
  0
ARC
  5
313
100
AcDbEntity
  8
0
100
AcDbCircle
 62
7
  6
CONTINUOUS
 10
14.530449639
 20
11.8395611836
 40
0.6526151515
100
AcDbArc
 50
120.9557420468
 51
121.458914045
  0
ARC
  5
314
100
AcDbEntity
  8
0
100
AcDbCircle
 62
7
  6
CONTINUOUS
 10
14.5256291618
 20
11.8474319391
 40
0.6433851809
100
AcDbArc
 50
121.4763507641
 51
121.8792188902
  0
ARC
  5
315
100
AcDbEntity
  8
0
100
AcDbCircle
 62
7
  6
CONTINUOUS
 10
13.2365753707
 20
12.0394031324
 40
0.4716094249
100
AcDbArc
 50
101.9376745753
 51
102.8008911995
  0
ARC
  5
316
100
AcDbEntity
  8
0
100
AcDbCircle
 62
7
  6
CONTINUOUS
 10
14.3578317523
 20
12.0263973535
 40
0.3954734165
100
AcDbArc
 50
151.5199009644
 51
156.2380960042
  0
ARC
  5
317
100
AcDbEntity
  8
0
100
AcDbCircle
 62
7
  6
CONTINUOUS
 10
14.3563199654
 20
12.0271212958
 40
0.3937979419
100
AcDbArc
 50
151.5631726221
 51
156.2458649736
  0
ARC
  5
318
100
AcDbEntity
  8
0
100
AcDbCircle
 62
7
  6
CONTINUOUS
 10
14.3513861982
 20
12.0293302015
 40
0.3883925235
100
AcDbArc
 50
156.2509409965
 51
159.2362832879
  0
ARC
  5
319
100
AcDbEntity
  8
0
100
AcDbCircle
 62
7
  6
CONTINUOUS
 10
14.3503577071
 20
12.029753664
 40
0.3872804404
100
AcDbArc
 50
156.24700217
 51
159.2409191527
  0
ARC
  5
31A
100
AcDbEntity
  8
0
100
AcDbCircle
 62
7
  6
CONTINUOUS
 10
14.3486710328
 20
12.0303834758
 40
0.3854803063
100
AcDbArc
 50
159.2395975388
 51
161.6079760377
  0
ARC
  5
31B
100
AcDbEntity
  8
0
100
AcDbCircle
 62
7
  6
CONTINUOUS
 10
14.3485210608
 20
12.0304461316
 40
0.3853175932
100
AcDbArc
 50
159.2404035364
 51
162.7874139161
  0
ARC
  5
31C
100
AcDbEntity
  8
0
100
AcDbCircle
 62
7
  6
CONTINUOUS
 10
14.3482420196
 20
12.0305310206
 40
0.3850266543
100
AcDbArc
 50
161.6086675909
 51
162.8281719842
  0
ARC
  5
31D
100
AcDbEntity
  8
0
100
AcDbCircle
 62
7
  6
CONTINUOUS
 10
14.7408700504
 20
10.8032660179
 40
1.7242032209
100
AcDbArc
 50
86.7890167905
 51
87.180747215
  0
ARC
  5
31E
100
AcDbEntity
  8
0
100
AcDbCircle
 62
7
  6
CONTINUOUS
 10
14.7410168898
 20
10.806413307
 40
1.721052197
100
AcDbArc
 50
86.7988243536
 51
87.1804713614
  0
ARC
  5
31F
100
AcDbEntity
  8
0
100
AcDbCircle
 62
7
  6
CONTINUOUS
 10
14.7418394901
 20
10.8229981552
 40
1.7044472838
100
AcDbArc
 50
87.1806710252
 51
87.9061017151
  0
ARC
  5
320
100
AcDbEntity
  8
0
100
AcDbCircle
 62
7
  6
CONTINUOUS
 10
14.7421300615
 20
10.8298237951
 40
1.6976152922
100
AcDbArc
 50
87.179130023
 51
87.9074808948
  0
ARC
  5
321
100
AcDbEntity
  8
0
100
AcDbCircle
 62
7
  6
CONTINUOUS
 10
14.7445746931
 20
10.9108736781
 40
1.6165305698
100
AcDbArc
 50
87.8891824521
 51
92.0882928624
  0
ARC
  5
322
100
AcDbEntity
  8
0
100
AcDbCircle
 62
7
  6
CONTINUOUS
 10
14.8981756277
 20
10.8641421208
 40
1.6156540801
100
AcDbArc
 50
54.9279547676
 51
56.7016565292
  0
ARC
  5
323
100
AcDbEntity
  8
0
100
AcDbCircle
 62
7
  6
CONTINUOUS
 10
14.9049506918
 20
10.8741660402
 40
1.6035573289
100
AcDbArc
 50
54.9202742999
 51
56.7357570182
  0
ARC
  5
324
100
AcDbEntity
  8
0
100
AcDbCircle
 62
7
  6
CONTINUOUS
 10
14.7445774956
 20
10.9244013721
 40
1.6030117353
100
AcDbArc
 50
87.8714691452
 51
92.1060059917
  0
ARC
  5
325
100
AcDbEntity
  8
0
100
AcDbCircle
 62
7
  6
CONTINUOUS
 10
14.9330420542
 20
10.9142564446
 40
1.5546045695
100
AcDbArc
 50
54.0090112138
 51
54.9183628872
  0
ARC
  5
326
100
AcDbEntity
  8
0
100
AcDbCircle
 62
7
  6
CONTINUOUS
 10
14.9355070306
 20
10.9177089868
 40
1.5503626143
100
AcDbArc
 50
54.007735573
 51
54.9195743521
  0
ARC
  5
327
100
AcDbEntity
  8
0
100
AcDbCircle
 62
7
  6
CONTINUOUS
 10
14.7418400306
 20
11.0273387567
 40
1.5000439517
100
AcDbArc
 50
92.1460103749
 51
92.9466057519
  0
ARC
  5
328
100
AcDbEntity
  8
0
100
AcDbCircle
 62
7
  6
CONTINUOUS
 10
14.7414994748
 20
11.0350530227
 40
1.4923220407
100
AcDbArc
 50
92.1440286783
 51
92.9487663347
  0
ARC
  5
329
100
AcDbEntity
  8
0
100
AcDbCircle
 62
7
  6
CONTINUOUS
 10
14.7405455314
 20
11.0535651911
 40
1.4737856489
100
AcDbArc
 50
92.9487591334
 51
93.2950041368
  0
ARC
  5
32A
100
AcDbEntity
  8
0
100
AcDbCircle
 62
7
  6
CONTINUOUS
 10
14.7402553465
 20
11.0592190697
 40
1.4681239896
100
AcDbArc
 50
92.9487933453
 51
93.4134828176
  0
ARC
  5
32B
100
AcDbEntity
  8
0
100
AcDbCircle
 62
7
  6
CONTINUOUS
 10
14.9868769087
 20
10.9876614762
 40
1.4635754436
100
AcDbArc
 50
49.8817352011
 51
54.0255015951
  0
ARC
  5
32C
100
AcDbEntity
  8
0
100
AcDbCircle
 62
7
  6
CONTINUOUS
 10
15.0025643234
 20
11.0076696217
 40
1.4381685003
100
AcDbArc
 50
49.9887026565
 51
54.063036761
  0
ARC
  5
32D
100
AcDbEntity
  8
0
100
AcDbCircle
 62
7
  6
CONTINUOUS
 10
15.0491897518
 20
11.0639649637
 40
1.3650736981
100
AcDbArc
 50
49.8462823954
 51
49.9684210237
  0
ARC
  5
32E
100
AcDbEntity
  8
0
100
AcDbCircle
 62
7
  6
CONTINUOUS
 10
15.5694687054
 20
11.496104497
 40
0.6842117735
100
AcDbArc
 50
26.1226849855
 51
26.5407567628
  0
ARC
  5
32F
100
AcDbEntity
  8
0
100
AcDbCircle
 62
7
  6
CONTINUOUS
 10
15.5704393692
 20
11.4965772893
 40
0.6831320676
100
AcDbArc
 50
26.1390735738
 51
26.5416625612
  0
ARC
  5
330
100
AcDbEntity
  8
0
100
AcDbCircle
 62
7
  6
CONTINUOUS
 10
15.5758075152
 20
11.4992136583
 40
0.6771515049
100
AcDbArc
 50
25.7333431735
 51
26.1226319757
  0
ARC
  5
331
100
AcDbEntity
  8
0
100
AcDbCircle
 62
7
  6
CONTINUOUS
 10
15.5768481293
 20
11.4997275421
 40
0.6759908998
100
AcDbArc
 50
25.7324048627
 51
26.1386769648
  0
ARC
  5
332
100
AcDbEntity
  8
0
100
AcDbCircle
 62
7
  6
CONTINUOUS
 10
15.6096531476
 20
11.5152072348
 40
0.6397184494
100
AcDbArc
 50
20.6910967751
 51
25.7591202397
  0
ARC
  5
333
100
AcDbEntity
  8
0
100
AcDbCircle
 62
7
  6
CONTINUOUS
 10
15.6542263095
 20
11.5329136576
 40
0.5917646639
100
AcDbArc
 50
20.006393395
 51
20.6121551676
  0
ARC
  5
334
100
AcDbEntity
  8
0
100
AcDbCircle
 62
7
  6
CONTINUOUS
 10
15.8547262602
 20
11.5649412312
 40
0.3865416197
100
AcDbArc
 50
342.8343025265
 51
348.474950068
  0
ARC
  5
335
100
AcDbEntity
  8
0
100
AcDbCircle
 62
7
  6
CONTINUOUS
 10
15.8550682262
 20
11.5648465741
 40
0.3861880762
100
AcDbArc
 50
344.0465786245
 51
348.4844046207
  0
ARC
  5
336
100
AcDbEntity
  8
0
100
AcDbCircle
 62
7
  6
CONTINUOUS
 10
15.8560928389
 20
11.5645614956
 40
0.3851245706
100
AcDbArc
 50
342.8282762515
 51
344.0454595734
  0
ARC
  5
337
100
AcDbEntity
  8
0
100
AcDbCircle
 62
7
  6
CONTINUOUS
 10
16.1473224721
 20
13.4062968471
 40
0.2116804645
100
AcDbArc
 50
8.2687826577
 51
12.7826105886
  0
ARC
  5
338
100
AcDbEntity
  8
0
100
AcDbCircle
 62
7
  6
CONTINUOUS
 10
16.1026188751
 20
13.512757504
 40
0.1382542602
100
AcDbArc
 50
117.8030854408
 51
133.1815201919
  0
ARC
  5
339
100
AcDbEntity
  8
0
100
AcDbCircle
 62
7
  6
CONTINUOUS
 10
16.2190601213
 20
13.3979745419
 40
0.1382542602
100
AcDbArc
 50
297.8030854408
 51
313.1815201919
  0
ARC
  5
33A
100
AcDbEntity
  8
0
100
AcDbCircle
 62
7
  6
CONTINUOUS
 10
16.2198626836
 20
13.3968239913
 40
0.1368662371
100
AcDbArc
 50
313.2661310533
 51
328.9988969638
  0
SPLINE
  5
33B
100
AcDbEntity
  8
0
100
AcDbSpline
 62
7
  6
CONTINUOUS
 70
0
 71
3
 72
18
 73
14
 74
0
 42
0.0000001
 43
0.0000001
 44
0.0000000001
 40
0.0
 40
0.0
 40
0.0
 40
0.0
 40
0.0644543579
 40
0.1285714956
 40
0.1922502613
 40
0.2555743338
 40
0.3186209214
 40
0.381440565
 40
0.5064733894
 40
0.6308275274
 40
0.7545332478
 40
0.8775945896
 40
1.0
 40
1.0
 40
1.0
 40
1.0
 10
4.5228002416
 20
4.8102125408
 30
0.0
 10
4.5228002416
 20
4.8110647673
 30
0.0
 10
4.5231496268
 20
4.8127759191
 30
0.0
 10
4.524433315
 20
4.8149995011
 30
0.0
 10
4.526114248
 20
4.8169003663
 30
0.0
 10
4.5280152513
 20
4.8185509837
 30
0.0
 10
4.5300467971
 20
4.8200147265
 30
0.0
 10
4.53286375
 20
4.821770258
 30
0.0
 10
4.53652905
 20
4.8236814006
 30
0.0
 10
4.5410505981
 20
4.8256598769
 30
0.0
 10
4.5456437626
 20
4.8273919387
 30
0.0
 10
4.550281103
 20
4.8289194234
 30
0.0
 10
4.5533999941
 20
4.8298203071
 30
0.0
 10
4.5549622969
 20
4.8302429651
 30
0.0
  0
SPLINE
  5
33C
100
AcDbEntity
  8
0
100
AcDbSpline
 62
7
  6
CONTINUOUS
 70
0
 71
3
 72
19
 73
15
 74
0
 42
0.0000001
 43
0.0000001
 44
0.0000000001
 40
0.0
 40
0.0
 40
0.0
 40
0.0
 40
0.0313937286
 40
0.0435014121
 40
0.0575608521
 40
0.0917212132
 40
0.134035354
 40
0.1842468442
 40
0.2419582496
 40
0.306732102
 40
0.455338148
 40
0.6248408435
 40
0.8091185414
 40
1.0
 40
1.0
 40
1.0
 40
1.0
 10
9.292696725
 20
4.8352125408
 30
0.0
 10
9.2929647075
 20
4.8352125408
 30
0.0
 10
9.2932730531
 20
4.834871427
 30
0.0
 10
9.2935128349
 20
4.8344579142
 30
0.0
 10
9.2937368609
 20
4.8339894911
 30
0.0
 10
9.2939971396
 20
4.8332625857
 30
0.0
 10
9.2942838493
 20
4.8322183729
 30
0.0
 10
9.2945560346
 20
4.8309649461
 30
0.0
 10
9.2948119871
 20
4.8295127843
 30
0.0
 10
9.2951420268
 20
4.8272220896
 30
0.0
 10
9.2954805623
 20
4.8239701201
 30
0.0
 10
9.2957728091
 20
4.8196909987
 30
0.0
 10
9.2959512503
 20
4.8150444974
 30
0.0
 10
9.2959922762
 20
4.8118419396
 30
0.0
 10
9.2959922762
 20
4.8102125408
 30
0.0
  0
SPLINE
  5
33D
100
AcDbEntity
  8
0
100
AcDbSpline
 62
7
  6
CONTINUOUS
 70
0
 71
3
 72
18
 73
14
 74
0
 42
0.0000001
 43
0.0000001
 44
0.0000000001
 40
0.0
 40
0.0
 40
0.0
 40
0.0
 40
0.0644543469
 40
0.1285714093
 40
0.1922502102
 40
0.2555742888
 40
0.3186208826
 40
0.3814405306
 40
0.5064733624
 40
0.6308275083
 40
0.7545332357
 40
0.8775945836
 40
1.0
 40
1.0
 40
1.0
 40
1.0
 10
8.5816843107
 20
4.8102125408
 30
0.0
 10
8.5816843107
 20
4.8110647671
 30
0.0
 10
8.5813349257
 20
4.8127759178
 30
0.0
 10
8.5800512387
 20
4.8149994996
 30
0.0
 10
8.5783703064
 20
4.8169003649
 30
0.0
 10
8.5764693025
 20
4.8185509825
 30
0.0
 10
8.5744377566
 20
4.8200147256
 30
0.0
 10
8.5716208036
 20
4.8217702573
 30
0.0
 10
8.5679555033
 20
4.8236814002
 30
0.0
 10
8.5634339549
 20
4.8256598766
 30
0.0
 10
8.5588407902
 20
4.8273919385
 30
0.0
 10
8.5542034496
 20
4.8289194233
 30
0.0
 10
8.5510845583
 20
4.829820307
 30
0.0
 10
8.5495222555
 20
4.8302429651
 30
0.0
  0
SPLINE
  5
33E
100
AcDbEntity
  8
0
100
AcDbSpline
 62
7
  6
CONTINUOUS
 70
0
 71
3
 72
19
 73
15
 74
0
 42
0.0000001
 43
0.0000001
 44
0.0000000001
 40
0.0
 40
0.0
 40
0.0
 40
0.0
 40
0.1908762054
 40
0.3751517365
 40
0.5446435291
 40
0.6932315894
 40
0.7579961666
 40
0.8156984431
 40
0.8659018661
 40
0.9082117761
 40
0.9423781296
 40
0.9564452722
 40
0.9685632625
 40
1.0
 40
1.0
 40
1.0
 40
1.0
 10
3.8084922762
 20
4.8102125408
 30
0.0
 10
3.8084922762
 20
4.8118419772
 30
0.0
 10
3.808533316
 20
4.8150446339
 30
0.0
 10
3.808711854
 20
4.8196912118
 30
0.0
 10
3.809004397
 20
4.8239702677
 30
0.0
 10
3.8093426148
 20
4.8272220866
 30
0.0
 10
3.8096713994
 20
4.8295127605
 30
0.0
 10
3.8099263346
 20
4.8309649465
 30
0.0
 10
3.810197731
 20
4.8322184277
 30
0.0
 10
3.8104841985
 20
4.8332627202
 30
0.0
 10
3.8107450367
 20
4.8339895867
 30
0.0
 10
3.810969739
 20
4.834457936
 30
0.0
 10
3.8112104833
 20
4.8348715553
 30
0.0
 10
3.8115194641
 20
4.8352125408
 30
0.0
 10
3.8117878274
 20
4.8352125408
 30
0.0
  0
SPLINE
  5
33F
100
AcDbEntity
  8
0
100
AcDbSpline
 62
7
  6
CONTINUOUS
 70
0
 71
3
 72
30
 73
26
 74
0
 42
0.0000001
 43
0.0000001
 44
0.0000000001
 40
0.0
 40
0.0
 40
0.0
 40
0.0
 40
0.0634052736
 40
0.1265989264
 40
0.1580284008
 40
0.1893400422
 40
0.2516319929
 40
0.2827182541
 40
0.313779404
 40
0.3448149584
 40
0.3758398284
 40
0.4378057471
 40
0.4998117689
 40
0.5308665057
 40
0.5619204595
 40
0.5929752971
 40
0.6240227178
 40
0.6860541223
 40
0.7171312348
 40
0.748239004
 40
0.8105847713
 40
0.8733071929
 40
0.9048913304
 40
0.9365900559
 40
1.0
 40
1.0
 40
1.0
 40
1.0
 10
7.8045862776
 20
13.0375477814
 30
0.0
 10
7.8045862776
 20
13.0463687637
 30
0.0
 10
7.8060444447
 20
13.0640130317
 30
0.0
 10
7.8114876288
 20
13.0854282631
 30
0.0
 10
7.8180014307
 20
13.1017161097
 30
0.0
 10
7.8258883215
 20
13.117239734
 30
0.0
 10
7.835881657
 20
13.1315730635
 30
0.0
 10
7.8477860563
 20
13.1441749499
 30
0.0
 10
7.8576200326
 20
13.1526581708
 30
0.0
 10
7.8682736329
 20
13.1600732219
 30
0.0
 10
7.8834329736
 20
13.1683720979
 30
0.0
 10
7.9039551207
 20
13.1755799358
 30
0.0
 10
7.9255796374
 20
13.1780285236
 30
0.0
 10
7.9428507195
 20
13.1770677878
 30
0.0
 10
7.9556547706
 20
13.1748831383
 30
0.0
 10
7.9681366928
 20
13.1712941956
 30
0.0
 10
7.9841288678
 20
13.1647024799
 30
0.0
 10
7.9989438028
 20
13.1555207508
 30
0.0
 10
8.0120495482
 20
13.1442211666
 30
0.0
 10
8.0239673892
 20
13.1316095469
 30
0.0
 10
8.036489123
 20
13.1136792033
 30
0.0
 10
8.045498205
 20
13.0936997
 30
0.0
 10
8.0505649719
 20
13.0768979307
 30
0.0
 10
8.0541978022
 20
13.0596351342
 30
0.0
 10
8.0552969557
 20
13.0463694135
 30
0.0
 10
8.0552969557
 20
13.0375477814
 30
0.0
  0
SPLINE
  5
340
100
AcDbEntity
  8
0
100
AcDbSpline
 62
7
  6
CONTINUOUS
 70
0
 71
3
 72
30
 73
26
 74
0
 42
0.0000001
 43
0.0000001
 44
0.0000000001
 40
0.0
 40
0.0
 40
0.0
 40
0.0
 40
0.0634052736
 40
0.1265989264
 40
0.1580284008
 40
0.1893400422
 40
0.2516319929
 40
0.2827182541
 40
0.313779404
 40
0.3448149584
 40
0.3758398284
 40
0.4378057471
 40
0.4998117689
 40
0.5308665057
 40
0.5619204595
 40
0.5929752971
 40
0.6240227178
 40
0.6860541223
 40
0.7171312348
 40
0.748239004
 40
0.8105847713
 40
0.8733071929
 40
0.9048913304
 40
0.9365900559
 40
1.0
 40
1.0
 40
1.0
 40
1.0
 10
8.0552969557
 20
13.0375477814
 30
0.0
 10
8.0552969557
 20
13.028726799
 30
0.0
 10
8.0538387885
 20
13.011082531
 30
0.0
 10
8.0483956045
 20
12.9896672997
 30
0.0
 10
8.0418818025
 20
12.973379453
 30
0.0
 10
8.0339949117
 20
12.9578558287
 30
0.0
 10
8.0240015762
 20
12.9435224992
 30
0.0
 10
8.0120971769
 20
12.9309206128
 30
0.0
 10
8.0022632007
 20
12.922437392
 30
0.0
 10
7.9916096004
 20
12.9150223409
 30
0.0
 10
7.9764502597
 20
12.9067234648
 30
0.0
 10
7.9559281126
 20
12.8995156269
 30
0.0
 10
7.9343035958
 20
12.8970670392
 30
0.0
 10
7.9170325137
 20
12.8980277749
 30
0.0
 10
7.9042284626
 20
12.9002124244
 30
0.0
 10
7.8917465404
 20
12.9038013672
 30
0.0
 10
7.8757543654
 20
12.9103930828
 30
0.0
 10
7.8609394304
 20
12.9195748119
 30
0.0
 10
7.8478336851
 20
12.9308743961
 30
0.0
 10
7.835915844
 20
12.9434860158
 30
0.0
 10
7.8233941102
 20
12.9614163594
 30
0.0
 10
7.8143850283
 20
12.9813958627
 30
0.0
 10
7.8093182614
 20
12.998197632
 30
0.0
 10
7.8056854311
 20
13.0154604285
 30
0.0
 10
7.8045862776
 20
13.0287261492
 30
0.0
 10
7.8045862776
 20
13.0375477814
 30
0.0
  0
SPLINE
  5
341
100
AcDbEntity
  8
0
100
AcDbSpline
 62
7
  6
CONTINUOUS
 70
0
 71
3
 72
9
 73
5
 74
0
 42
0.0000001
 43
0.0000001
 44
0.0000000001
 40
0.0
 40
0.0
 40
0.0
 40
0.0
 40
0.2450481775
 40
1.0
 40
1.0
 40
1.0
 40
1.0
 10
7.6557724981
 20
13.1672040073
 30
0.0
 10
7.6541307285
 20
13.1640212495
 30
0.0
 10
7.6477299132
 20
13.1508800306
 30
0.0
 10
7.6425104937
 20
13.1371704785
 30
0.0
 10
7.6392129465
 20
13.1266415554
 30
0.0
  0
SPLINE
  5
342
100
AcDbEntity
  8
0
100
AcDbSpline
 62
7
  6
CONTINUOUS
 70
0
 71
3
 72
9
 73
5
 74
0
 42
0.0000001
 43
0.0000001
 44
0.0000000001
 40
0.0
 40
0.0
 40
0.0
 40
0.0
 40
0.2549277235
 40
1.0
 40
1.0
 40
1.0
 40
1.0
 10
7.6392129465
 20
12.9484540073
 30
0.0
 10
7.6403264225
 20
12.9448987275
 30
0.0
 10
7.6449781318
 20
12.9310438777
 30
0.0
 10
7.6507807674
 20
12.917568595
 30
0.0
 10
7.6557724981
 20
12.9078915554
 30
0.0
  0
SPLINE
  5
343
100
AcDbEntity
  8
0
100
AcDbSpline
 62
7
  6
CONTINUOUS
 70
0
 71
3
 72
14
 73
10
 74
0
 42
0.0000001
 43
0.0000001
 44
0.0000000001
 40
0.0
 40
0.0
 40
0.0
 40
0.0
 40
0.2747241428
 40
0.4053726411
 40
0.5315058292
 40
0.6534481355
 40
0.7717256761
 40
0.8870088194
 40
1.0
 40
1.0
 40
1.0
 40
1.0
 10
7.9032089242
 20
13.1744738289
 30
0.0
 10
7.8970204546
 20
13.1854764629
 30
0.0
 10
7.886490025
 20
13.2010142059
 30
0.0
 10
7.8698883233
 20
13.2189721521
 30
0.0
 10
7.8567647096
 20
13.2304565422
 30
0.0
 10
7.8428884258
 20
13.2400541538
 30
0.0
 10
7.8283894538
 20
13.2476733389
 30
0.0
 10
7.8134154531
 20
13.2532186005
 30
0.0
 10
7.8031421945
 20
13.2555205687
 30
0.0
 10
7.7980087442
 20
13.2562977814
 30
0.0
  0
SPLINE
  5
344
100
AcDbEntity
  8
0
100
AcDbSpline
 62
7
  6
CONTINUOUS
 70
0
 71
3
 72
9
 73
5
 74
0
 42
0.0000001
 43
0.0000001
 44
0.0000000001
 40
0.0
 40
0.0
 40
0.0
 40
0.0
 40
0.2456639173
 40
1.0
 40
1.0
 40
1.0
 40
1.0
 10
7.6392129465
 20
13.1266415554
 30
0.0
 10
7.6370034139
 20
13.1195866154
 30
0.0
 10
7.6291742224
 20
13.0905128914
 30
0.0
 10
7.6258857007
 20
13.0602482767
 30
0.0
 10
7.6258857007
 20
13.0375477814
 30
0.0
  0
SPLINE
  5
345
100
AcDbEntity
  8
0
100
AcDbSpline
 62
7
  6
CONTINUOUS
 70
0
 71
3
 72
9
 73
5
 74
0
 42
0.0000001
 43
0.0000001
 44
0.0000000001
 40
0.0
 40
0.0
 40
0.0
 40
0.0
 40
0.2537149426
 40
1.0
 40
1.0
 40
1.0
 40
1.0
 10
7.6258857007
 20
13.0375477814
 30
0.0
 10
7.6258857007
 20
13.0299130034
 30
0.0
 10
7.626991355
 20
12.9998357277
 30
0.0
 10
7.632501074
 20
12.96988472
 30
0.0
 10
7.6392129465
 20
12.9484540073
 30
0.0
  0
SPLINE
  5
346
100
AcDbEntity
  8
0
100
AcDbSpline
 62
7
  6
CONTINUOUS
 70
0
 71
3
 72
14
 73
10
 74
0
 42
0.0000001
 43
0.0000001
 44
0.0000000001
 40
0.0
 40
0.0
 40
0.0
 40
0.0
 40
0.1122667745
 40
0.2269691627
 40
0.3448786077
 40
0.4667171018
 40
0.7237223825
 40
0.859638693
 40
1.0
 40
1.0
 40
1.0
 40
1.0
 10
7.7648896409
 20
13.2562977814
 30
0.0
 10
7.7594845275
 20
13.2554794385
 30
0.0
 10
7.7486648196
 20
13.2530128292
 30
0.0
 10
7.7329317272
 20
13.2469972747
 30
0.0
 10
7.7177435515
 20
13.2386907535
 30
0.0
 10
7.698110036
 20
13.2244735963
 30
0.0
 10
7.6805926402
 20
13.2062065697
 30
0.0
 10
7.6656067869
 20
13.1849727139
 30
0.0
 10
7.6589057828
 20
13.1732782372
 30
0.0
 10
7.6557724981
 20
13.1672040073
 30
0.0
  0
SPLINE
  5
347
100
AcDbEntity
  8
0
100
AcDbSpline
 62
7
  6
CONTINUOUS
 70
0
 71
3
 72
14
 73
10
 74
0
 42
0.0000001
 43
0.0000001
 44
0.0000000001
 40
0.0
 40
0.0
 40
0.0
 40
0.0
 40
0.140361307
 40
0.2762776175
 40
0.5332828982
 40
0.6551213923
 40
0.7730308373
 40
0.8877332255
 40
1.0
 40
1.0
 40
1.0
 40
1.0
 10
7.6557724981
 20
12.9078915554
 30
0.0
 10
7.6589057828
 20
12.9018173256
 30
0.0
 10
7.6656067869
 20
12.8901228488
 30
0.0
 10
7.6805926402
 20
12.8688889931
 30
0.0
 10
7.698110036
 20
12.8506219665
 30
0.0
 10
7.7177435515
 20
12.8364048093
 30
0.0
 10
7.7329317272
 20
12.828098288
 30
0.0
 10
7.7486648196
 20
12.8220827335
 30
0.0
 10
7.7594845275
 20
12.8196161243
 30
0.0
 10
7.7648896409
 20
12.8187977814
 30
0.0
  0
SPLINE
  5
348
100
AcDbEntity
  8
0
100
AcDbSpline
 62
7
  6
CONTINUOUS
 70
0
 71
3
 72
14
 73
10
 74
0
 42
0.0000001
 43
0.0000001
 44
0.0000000001
 40
0.0
 40
0.0
 40
0.0
 40
0.0
 40
0.1128854734
 40
0.2280832876
 40
0.3463055322
 40
0.4682301163
 40
0.5943855917
 40
0.7250940079
 40
1.0
 40
1.0
 40
1.0
 40
1.0
 10
7.7980087442
 20
12.8187977814
 30
0.0
 10
7.8031809797
 20
12.8195808662
 30
0.0
 10
7.8135322154
 20
12.8219060648
 30
0.0
 10
7.8286148995
 20
12.8275174095
 30
0.0
 10
7.8432127509
 20
12.8352329699
 30
0.0
 10
7.857175262
 20
12.8449544772
 30
0.0
 10
7.870369645
 20
12.8565879949
 30
0.0
 10
7.8870440115
 20
12.8747786369
 30
0.0
 10
7.8975943156
 20
12.890510423
 30
0.0
 10
7.9037816621
 20
12.9016462516
 30
0.0
  0
SPLINE
  5
349
100
AcDbEntity
  8
0
100
AcDbSpline
 62
7
  6
CONTINUOUS
 70
0
 71
3
 72
30
 73
26
 74
0
 42
0.0000001
 43
0.0000001
 44
0.0000000001
 40
0.0
 40
0.0
 40
0.0
 40
0.0
 40
0.0634052736
 40
0.1265989264
 40
0.1580284008
 40
0.1893400422
 40
0.2516319929
 40
0.2827182541
 40
0.313779404
 40
0.3448149584
 40
0.3758398284
 40
0.4378057471
 40
0.4998117689
 40
0.5308665057
 40
0.5619204595
 40
0.5929752971
 40
0.6240227178
 40
0.6860541223
 40
0.7171312348
 40
0.748239004
 40
0.8105847713
 40
0.8733071929
 40
0.9048913304
 40
0.9365900559
 40
1.0
 40
1.0
 40
1.0
 40
1.0
 10
15.9978552569
 20
7.0257672203
 30
0.0
 10
16.0066762393
 20
7.0257672203
 30
0.0
 10
16.0243205073
 20
7.0243090531
 30
0.0
 10
16.0457357386
 20
7.0188658691
 30
0.0
 10
16.0620235853
 20
7.0123520671
 30
0.0
 10
16.0775472096
 20
7.0044651763
 30
0.0
 10
16.0918805391
 20
6.9944718408
 30
0.0
 10
16.1044824255
 20
6.9825674415
 30
0.0
 10
16.1129656463
 20
6.9727334653
 30
0.0
 10
16.1203806975
 20
6.962079865
 30
0.0
 10
16.1286795735
 20
6.9469205243
 30
0.0
 10
16.1358874114
 20
6.9263983772
 30
0.0
 10
16.1383359991
 20
6.9047738604
 30
0.0
 10
16.1373752634
 20
6.8875027783
 30
0.0
 10
16.1351906139
 20
6.8746987272
 30
0.0
 10
16.1316016711
 20
6.862216805
 30
0.0
 10
16.1250099555
 20
6.84622463
 30
0.0
 10
16.1158282264
 20
6.831409695
 30
0.0
 10
16.1045286422
 20
6.8183039497
 30
0.0
 10
16.0919170225
 20
6.8063861086
 30
0.0
 10
16.0739866789
 20
6.7938643748
 30
0.0
 10
16.0540071756
 20
6.7848552929
 30
0.0
 10
16.0372054063
 20
6.779788526
 30
0.0
 10
16.0199426098
 20
6.7761556957
 30
0.0
 10
16.0066768891
 20
6.7750565422
 30
0.0
 10
15.9978552569
 20
6.7750565422
 30
0.0
  0
SPLINE
  5
34A
100
AcDbEntity
  8
0
100
AcDbSpline
 62
7
  6
CONTINUOUS
 70
0
 71
3
 72
30
 73
26
 74
0
 42
0.0000001
 43
0.0000001
 44
0.0000000001
 40
0.0
 40
0.0
 40
0.0
 40
0.0
 40
0.0634052736
 40
0.1265989264
 40
0.1580284008
 40
0.1893400422
 40
0.2516319929
 40
0.2827182541
 40
0.313779404
 40
0.3448149584
 40
0.3758398284
 40
0.4378057471
 40
0.4998117689
 40
0.5308665057
 40
0.5619204595
 40
0.5929752971
 40
0.6240227178
 40
0.6860541223
 40
0.7171312348
 40
0.748239004
 40
0.8105847713
 40
0.8733071929
 40
0.9048913304
 40
0.9365900559
 40
1.0
 40
1.0
 40
1.0
 40
1.0
 10
15.9978552569
 20
6.7750565422
 30
0.0
 10
15.9890342746
 20
6.7750565422
 30
0.0
 10
15.9713900066
 20
6.7765147093
 30
0.0
 10
15.9499747752
 20
6.7819578934
 30
0.0
 10
15.9336869286
 20
6.7884716953
 30
0.0
 10
15.9181633043
 20
6.7963585861
 30
0.0
 10
15.9038299748
 20
6.8063519216
 30
0.0
 10
15.8912280884
 20
6.8182563209
 30
0.0
 10
15.8827448675
 20
6.8280902972
 30
0.0
 10
15.8753298164
 20
6.8387438975
 30
0.0
 10
15.8670309404
 20
6.8539032382
 30
0.0
 10
15.8598231025
 20
6.8744253853
 30
0.0
 10
15.8573745147
 20
6.896049902
 30
0.0
 10
15.8583352505
 20
6.9133209841
 30
0.0
 10
15.8605199
 20
6.9261250352
 30
0.0
 10
15.8641088427
 20
6.9386069574
 30
0.0
 10
15.8707005584
 20
6.9545991324
 30
0.0
 10
15.8798822875
 20
6.9694140674
 30
0.0
 10
15.8911818717
 20
6.9825198128
 30
0.0
 10
15.9037934914
 20
6.9944376538
 30
0.0
 10
15.921723835
 20
7.0069593876
 30
0.0
 10
15.9417033383
 20
7.0159684696
 30
0.0
 10
15.9585051076
 20
7.0210352365
 30
0.0
 10
15.9757679041
 20
7.0246680668
 30
0.0
 10
15.9890336248
 20
7.0257672203
 30
0.0
 10
15.9978552569
 20
7.0257672203
 30
0.0
  0
SPLINE
  5
34B
100
AcDbEntity
  8
0
100
AcDbSpline
 62
7
  6
CONTINUOUS
 70
0
 71
3
 72
9
 73
5
 74
0
 42
0.0000001
 43
0.0000001
 44
0.0000000001
 40
0.0
 40
0.0
 40
0.0
 40
0.0
 40
0.2450481775
 40
1.0
 40
1.0
 40
1.0
 40
1.0
 10
15.868199031
 20
6.6262427627
 30
0.0
 10
15.8713817888
 20
6.6246009931
 30
0.0
 10
15.8845230077
 20
6.6182001778
 30
0.0
 10
15.8982325598
 20
6.6129807583
 30
0.0
 10
15.9087614829
 20
6.609683211
 30
0.0
  0
SPLINE
  5
34C
100
AcDbEntity
  8
0
100
AcDbSpline
 62
7
  6
CONTINUOUS
 70
0
 71
3
 72
9
 73
5
 74
0
 42
0.0000001
 43
0.0000001
 44
0.0000000001
 40
0.0
 40
0.0
 40
0.0
 40
0.0
 40
0.2549277235
 40
1.0
 40
1.0
 40
1.0
 40
1.0
 10
16.086949031
 20
6.609683211
 30
0.0
 10
16.0905043108
 20
6.6107966871
 30
0.0
 10
16.1043591606
 20
6.6154483964
 30
0.0
 10
16.1178344433
 20
6.621251032
 30
0.0
 10
16.1275114829
 20
6.6262427627
 30
0.0
  0
SPLINE
  5
34D
100
AcDbEntity
  8
0
100
AcDbSpline
 62
7
  6
CONTINUOUS
 70
0
 71
3
 72
14
 73
10
 74
0
 42
0.0000001
 43
0.0000001
 44
0.0000000001
 40
0.0
 40
0.0
 40
0.0
 40
0.0
 40
0.2747241428
 40
0.4053726411
 40
0.5315058292
 40
0.6534481355
 40
0.7717256761
 40
0.8870088194
 40
1.0
 40
1.0
 40
1.0
 40
1.0
 10
15.8609292094
 20
6.8736791888
 30
0.0
 10
15.8499265754
 20
6.8674907192
 30
0.0
 10
15.8343888324
 20
6.8569602896
 30
0.0
 10
15.8164308863
 20
6.8403585879
 30
0.0
 10
15.8049464961
 20
6.8272349742
 30
0.0
 10
15.7953488845
 20
6.8133586904
 30
0.0
 10
15.7877296994
 20
6.7988597184
 30
0.0
 10
15.7821844378
 20
6.7838857177
 30
0.0
 10
15.7798824696
 20
6.7736124591
 30
0.0
 10
15.7791052569
 20
6.7684790088
 30
0.0
  0
SPLINE
  5
34E
100
AcDbEntity
  8
0
100
AcDbSpline
 62
7
  6
CONTINUOUS
 70
0
 71
3
 72
14
 73
10
 74
0
 42
0.0000001
 43
0.0000001
 44
0.0000000001
 40
0.0
 40
0.0
 40
0.0
 40
0.0
 40
0.1122667745
 40
0.2269691627
 40
0.3448786077
 40
0.4667171018
 40
0.7237223825
 40
0.859638693
 40
1.0
 40
1.0
 40
1.0
 40
1.0
 10
15.7791052569
 20
6.7353599055
 30
0.0
 10
15.7799235998
 20
6.7299547921
 30
0.0
 10
15.7823902091
 20
6.7191350842
 30
0.0
 10
15.7884057636
 20
6.7034019918
 30
0.0
 10
15.7967122848
 20
6.6882138161
 30
0.0
 10
15.810929442
 20
6.6685803006
 30
0.0
 10
15.8291964686
 20
6.6510629048
 30
0.0
 10
15.8504303244
 20
6.6360770515
 30
0.0
 10
15.8621248011
 20
6.6293760474
 30
0.0
 10
15.868199031
 20
6.6262427627
 30
0.0
  0
SPLINE
  5
34F
100
AcDbEntity
  8
0
100
AcDbSpline
 62
7
  6
CONTINUOUS
 70
0
 71
3
 72
14
 73
10
 74
0
 42
0.0000001
 43
0.0000001
 44
0.0000000001
 40
0.0
 40
0.0
 40
0.0
 40
0.0
 40
0.140361307
 40
0.2762776175
 40
0.5332828982
 40
0.6551213923
 40
0.7730308373
 40
0.8877332255
 40
1.0
 40
1.0
 40
1.0
 40
1.0
 10
16.1275114829
 20
6.6262427627
 30
0.0
 10
16.1335857127
 20
6.6293760474
 30
0.0
 10
16.1452801895
 20
6.6360770515
 30
0.0
 10
16.1665140452
 20
6.6510629048
 30
0.0
 10
16.1847810718
 20
6.6685803006
 30
0.0
 10
16.198998229
 20
6.6882138161
 30
0.0
 10
16.2073047503
 20
6.7034019918
 30
0.0
 10
16.2133203048
 20
6.7191350842
 30
0.0
 10
16.215786914
 20
6.7299547921
 30
0.0
 10
16.2166052569
 20
6.7353599055
 30
0.0
  0
SPLINE
  5
350
100
AcDbEntity
  8
0
100
AcDbSpline
 62
7
  6
CONTINUOUS
 70
0
 71
3
 72
14
 73
10
 74
0
 42
0.0000001
 43
0.0000001
 44
0.0000000001
 40
0.0
 40
0.0
 40
0.0
 40
0.0
 40
0.1128854734
 40
0.2280832876
 40
0.3463055322
 40
0.4682301163
 40
0.5943855917
 40
0.7250940079
 40
1.0
 40
1.0
 40
1.0
 40
1.0
 10
16.2166052569
 20
6.7684790088
 30
0.0
 10
16.2158221721
 20
6.7736512443
 30
0.0
 10
16.2134969735
 20
6.78400248
 30
0.0
 10
16.2078856289
 20
6.7990851641
 30
0.0
 10
16.2001700684
 20
6.8136830155
 30
0.0
 10
16.1904485611
 20
6.8276455266
 30
0.0
 10
16.1788150434
 20
6.8408399096
 30
0.0
 10
16.1606244014
 20
6.8575142761
 30
0.0
 10
16.1448926153
 20
6.8680645802
 30
0.0
 10
16.1337567867
 20
6.8742519267
 30
0.0
  0
SPLINE
  5
351
100
AcDbEntity
  8
0
100
AcDbSpline
 62
7
  6
CONTINUOUS
 70
0
 71
3
 72
9
 73
5
 74
0
 42
0.0000001
 43
0.0000001
 44
0.0000000001
 40
0.0
 40
0.0
 40
0.0
 40
0.0
 40
0.2456639173
 40
1.0
 40
1.0
 40
1.0
 40
1.0
 10
15.9087614829
 20
6.609683211
 30
0.0
 10
15.9158164229
 20
6.6074736785
 30
0.0
 10
15.9448901469
 20
6.599644487
 30
0.0
 10
15.9751547616
 20
6.5963559653
 30
0.0
 10
15.9978552569
 20
6.5963559653
 30
0.0
  0
SPLINE
  5
352
100
AcDbEntity
  8
0
100
AcDbSpline
 62
7
  6
CONTINUOUS
 70
0
 71
3
 72
9
 73
5
 74
0
 42
0.0000001
 43
0.0000001
 44
0.0000000001
 40
0.0
 40
0.0
 40
0.0
 40
0.0
 40
0.2537149426
 40
1.0
 40
1.0
 40
1.0
 40
1.0
 10
15.9978552569
 20
6.5963559653
 30
0.0
 10
16.0054900349
 20
6.5963559653
 30
0.0
 10
16.0355673106
 20
6.5974616196
 30
0.0
 10
16.0655183183
 20
6.6029713386
 30
0.0
 10
16.086949031
 20
6.609683211
 30
0.0
  0
SPLINE
  5
353
100
AcDbEntity
  8
0
100
AcDbSpline
 62
7
  6
CONTINUOUS
 70
0
 71
3
 72
9
 73
5
 74
0
 42
0.0000001
 43
0.0000001
 44
0.0000000001
 40
0.0
 40
0.0
 40
0.0
 40
0.0
 40
0.2543430326
 40
1.0
 40
1.0
 40
1.0
 40
1.0
 10
16.1858021013
 20
11.7932215909
 30
0.0
 10
16.1881515187
 20
11.7883468123
 30
0.0
 10
16.197156857
 20
11.7690701618
 30
0.0
 10
16.2052169455
 20
11.7493488556
 30
0.0
 10
16.2106193616
 20
11.7344324567
 30
0.0
  0
SPLINE
  5
354
100
AcDbEntity
  8
0
100
AcDbSpline
 62
7
  6
CONTINUOUS
 70
0
 71
3
 72
15
 73
11
 74
0
 42
0.0000001
 43
0.0000001
 44
0.0000000001
 40
0.0
 40
0.0
 40
0.0
 40
0.0
 40
0.1339223405
 40
0.2646736371
 40
0.3925112602
 40
0.5177458894
 40
0.6407227802
 40
0.7618182304
 40
0.8814346741
 40
1.0
 40
1.0
 40
1.0
 40
1.0
 10
16.2106193616
 20
11.7344324567
 30
0.0
 10
16.2144334391
 20
11.7239015568
 30
0.0
 10
16.2213778329
 20
11.7028674897
 30
0.0
 10
16.2297536556
 20
11.6711060006
 30
0.0
 10
16.2359457944
 20
11.6395851981
 30
0.0
 10
16.2399432122
 20
11.6083657666
 30
0.0
 10
16.2417337617
 20
11.5775058741
 30
0.0
 10
16.2413151823
 20
11.54706523
 30
0.0
 10
16.2386895024
 20
11.517106208
 30
0.0
 10
16.2354558706
 20
11.4974275623
 30
0.0
 10
16.2334742138
 20
11.4877116295
 30
0.0
  0
SPLINE
  5
355
100
AcDbEntity
  8
0
100
AcDbSpline
 62
7
  6
CONTINUOUS
 70
0
 71
3
 72
44
 73
40
 74
0
 42
0.0000001
 43
0.0000001
 44
0.0000000001
 40
0.0
 40
0.0
 40
0.0
 40
0.0
 40
0.0278504476
 40
0.0565197333
 40
0.0860381972
 40
0.1164521836
 40
0.1477695046
 40
0.1799615893
 40
0.2129743012
 40
0.2467328878
 40
0.2811398083
 40
0.3160821575
 40
0.351432958
 40
0.3870560142
 40
0.4228087939
 40
0.4585456293
 40
0.4941213282
 40
0.5293943411
 40
0.5642304452
 40
0.5985049853
 40
0.6321086748
 40
0.6649481545
 40
0.6969525383
 40
0.7280740614
 40
0.758293343
 40
0.7876206601
 40
0.8160978827
 40
0.84379608
 40
0.8708137548
 40
0.8841078712
 40
0.8972784483
 40
0.9103400269
 40
0.9233100356
 40
0.9362068519
 40
0.9490392902
 40
0.961815654
 40
0.974549664
 40
0.9872675771
 40
1.0
 40
1.0
 40
1.0
 40
1.0
 10
13.8487242272
 20
11.1635387228
 30
0.0
 10
13.8594486691
 20
11.141684608
 30
0.0
 10
13.8834056837
 20
11.098382188
 30
0.0
 10
13.9255326082
 20
11.0359823904
 30
0.0
 10
13.9739804819
 20
10.975459935
 30
0.0
 10
14.0283707152
 20
10.9170292016
 30
0.0
 10
14.0883461354
 20
10.8608796487
 30
0.0
 10
14.153539036
 20
10.8072416555
 30
0.0
 10
14.2235477994
 20
10.7563505889
 30
0.0
 10
14.2979470679
 20
10.7084543269
 30
0.0
 10
14.3762794626
 20
10.663798759
 30
0.0
 10
14.4580588062
 20
10.6226316355
 30
0.0
 10
14.5427712655
 20
10.5851901151
 30
0.0
 10
14.6298787601
 20
10.5516954587
 30
0.0
 10
14.7188277066
 20
10.5223578158
 30
0.0
 10
14.809048813
 20
10.4973574167
 30
0.0
 10
14.8999692678
 20
10.4768608573
 30
0.0
 10
14.9910144775
 20
10.4610031155
 30
0.0
 10
15.081616751
 20
10.4498976312
 30
0.0
 10
15.1712217775
 20
10.4436352674
 30
0.0
 10
15.259292945
 20
10.442279842
 30
0.0
 10
15.3453188816
 20
10.4458840369
 30
0.0
 10
15.4288147414
 20
10.4544788102
 30
0.0
 10
15.5093247766
 20
10.4680952486
 30
0.0
 10
15.586420019
 20
10.4867573368
 30
0.0
 10
15.6596888975
 20
10.5105019169
 30
0.0
 10
15.7287273618
 20
10.5393693041
 30
0.0
 10
15.7931022098
 20
10.573412793
 30
0.0
 10
15.8427526468
 20
10.6063166901
 30
0.0
 10
15.8795136271
 20
10.6352292383
 30
0.0
 10
15.9054450811
 20
10.6580888539
 30
0.0
 10
15.9298015731
 20
10.6822195628
 30
0.0
 10
15.9524978878
 20
10.7076000445
 30
0.0
 10
15.9734384522
 20
10.7341943232
 30
0.0
 10
15.992541848
 20
10.7619332551
 30
0.0
 10
16.0097183358
 20
10.790740607
 30
0.0
 10
16.024878482
 20
10.8205474513
 30
0.0
 10
16.0379650464
 20
10.851278069
 30
0.0
 10
16.0452663917
 20
10.8723134614
 30
0.0
 10
16.048552271
 20
10.8829465705
 30
0.0
  0
SPLINE
  5
356
100
AcDbEntity
  8
0
100
AcDbSpline
 62
7
  6
CONTINUOUS
 70
0
 71
3
 72
14
 73
10
 74
0
 42
0.0000001
 43
0.0000001
 44
0.0000000001
 40
0.0
 40
0.0
 40
0.0
 40
0.0
 40
0.1172606425
 40
0.2360672953
 40
0.3567983384
 40
0.4797966538
 40
0.6053726665
 40
0.7338016454
 40
1.0
 40
1.0
 40
1.0
 40
1.0
 10
14.0102831634
 20
12.2150986082
 30
0.0
 10
14.0150055258
 20
12.2237980414
 30
0.0
 10
14.025165842
 20
12.2409652547
 30
0.0
 10
14.0423501826
 20
12.2657303512
 30
0.0
 10
14.0615321543
 20
12.2896077459
 30
0.0
 10
14.0826690957
 20
12.3125532736
 30
0.0
 10
14.1057233777
 20
12.3345251007
 30
0.0
 10
14.1393531126
 20
12.3627948598
 30
0.0
 10
14.1667563332
 20
12.3819033093
 30
0.0
 10
14.1858379024
 20
12.3937710197
 30
0.0
  0
SPLINE
  5
357
100
AcDbEntity
  8
0
100
AcDbSpline
 62
7
  6
CONTINUOUS
 70
0
 71
3
 72
9
 73
5
 74
0
 42
0.0000001
 43
0.0000001
 44
0.0000000001
 40
0.0
 40
0.0
 40
0.0
 40
0.0
 40
0.2436788324
 40
1.0
 40
1.0
 40
1.0
 40
1.0
 10
14.1896877855
 20
12.3961466944
 30
0.0
 10
14.1963933666
 20
12.4002521566
 30
0.0
 10
14.2242173304
 20
12.4165979438
 30
0.0
 10
14.2531901694
 20
12.4309657775
 30
0.0
 10
14.2755272607
 20
12.4407934915
 30
0.0
  0
SPLINE
  5
358
100
AcDbEntity
  8
0
100
AcDbSpline
 62
7
  6
CONTINUOUS
 70
0
 71
3
 72
12
 73
8
 74
0
 42
0.0000001
 43
0.0000001
 44
0.0000000001
 40
0.0
 40
0.0
 40
0.0
 40
0.0
 40
0.2335939703
 40
0.3546606712
 40
0.4785007086
 40
0.7341867867
 40
1.0
 40
1.0
 40
1.0
 40
1.0
 10
14.3190246284
 20
12.4584631745
 30
0.0
 10
14.3439296773
 20
12.467784344
 30
0.0
 10
14.3824071045
 20
12.4802224778
 30
0.0
 10
14.4351559233
 20
12.4938488599
 30
0.0
 10
14.4908538702
 20
12.5059667801
 30
0.0
 10
14.5634633679
 20
12.5175641504
 30
0.0
 10
14.622635031
 20
12.5229365307
 30
0.0
 10
14.652841369
 20
12.5247383787
 30
0.0
  0
SPLINE
  5
359
100
AcDbEntity
  8
0
100
AcDbSpline
 62
7
  6
CONTINUOUS
 70
0
 71
3
 72
11
 73
7
 74
0
 42
0.0000001
 43
0.0000001
 44
0.0000000001
 40
0.0
 40
0.0
 40
0.0
 40
0.0
 40
0.2442009877
 40
0.4930980872
 40
0.7454599101
 40
1.0
 40
1.0
 40
1.0
 40
1.0
 10
14.8375433326
 20
12.5247564981
 30
0.0
 10
14.8704976424
 20
12.5229056163
 30
0.0
 10
14.9369463891
 20
12.5172688422
 30
0.0
 10
15.0367805811
 20
12.5033364682
 30
0.0
 10
15.1371219369
 20
12.4839450014
 30
0.0
 10
15.2036711312
 20
12.4675139257
 30
0.0
 10
15.236853585
 20
12.4584288812
 30
0.0
  0
SPLINE
  5
35A
100
AcDbEntity
  8
0
100
AcDbSpline
 62
7
  6
CONTINUOUS
 70
0
 71
3
 72
11
 73
7
 74
0
 42
0.0000001
 43
0.0000001
 44
0.0000000001
 40
0.0
 40
0.0
 40
0.0
 40
0.0
 40
0.2558004431
 40
0.5085392798
 40
0.7569920048
 40
1.0
 40
1.0
 40
1.0
 40
1.0
 10
15.4328857621
 20
12.3939724749
 30
0.0
 10
15.4643100623
 20
12.3818463148
 30
0.0
 10
15.5261921334
 20
12.3561739781
 30
0.0
 10
15.6162313697
 20
12.3133115765
 30
0.0
 10
15.7024155305
 20
12.2665811807
 30
0.0
 10
15.7575676814
 20
12.2326503715
 30
0.0
 10
15.7843223753
 20
12.2150981749
 30
0.0
  0
SPLINE
  5
35B
100
AcDbEntity
  8
0
100
AcDbSpline
 62
7
  6
CONTINUOUS
 70
0
 71
3
 72
13
 73
9
 74
0
 42
0.0000001
 43
0.0000001
 44
0.0000000001
 40
0.0
 40
0.0
 40
0.0
 40
0.0
 40
0.266806748
 40
0.3961816609
 40
0.522744479
 40
0.6464352747
 40
0.7672249571
 40
1.0
 40
1.0
 40
1.0
 40
1.0
 10
15.9299572696
 20
12.1068810758
 30
0.0
 10
15.9524887902
 20
12.0878531254
 30
0.0
 10
15.9850466563
 20
12.0584979348
 30
0.0
 10
16.0258106929
 20
12.0175338497
 30
0.0
 10
16.0542852798
 20
11.986697603
 30
0.0
 10
16.0809171766
 20
11.9554917497
 30
0.0
 10
16.1134976858
 20
11.9139913843
 30
0.0
 10
16.1356651412
 20
11.8817206851
 30
0.0
 10
16.1491856406
 20
11.8598298991
 30
0.0
  0
SPLINE
  5
35C
100
AcDbEntity
  8
0
100
AcDbSpline
 62
7
  6
CONTINUOUS
 70
0
 71
3
 72
9
 73
5
 74
0
 42
0.0000001
 43
0.0000001
 44
0.0000000001
 40
0.0
 40
0.0
 40
0.0
 40
0.0
 40
0.254409472
 40
1.0
 40
1.0
 40
1.0
 40
1.0
 10
16.1498311138
 20
11.8587830075
 30
0.0
 10
16.1527297854
 20
11.8540734657
 30
0.0
 10
16.1639287548
 20
11.8354429766
 30
0.0
 10
16.1743339325
 20
11.8163326873
 30
0.0
 10
16.1815759246
 20
11.8018337918
 30
0.0
  0
SPLINE
  5
35D
100
AcDbEntity
  8
0
100
AcDbSpline
 62
7
  6
CONTINUOUS
 70
0
 71
3
 72
15
 73
11
 74
0
 42
0.0000001
 43
0.0000001
 44
0.0000000001
 40
0.0
 40
0.0
 40
0.0
 40
0.0
 40
0.1219717932
 40
0.2439823088
 40
0.3666337172
 40
0.4902042112
 40
0.6149378341
 40
0.7412314965
 40
0.8694486183
 40
1.0
 40
1.0
 40
1.0
 40
1.0
 10
13.8048801771
 20
11.5762936878
 30
0.0
 10
13.7997763803
 20
11.5597777951
 30
0.0
 10
13.7913264922
 20
11.526167571
 30
0.0
 10
13.7840588598
 20
11.474624484
 30
0.0
 10
13.7821799241
 20
11.4223782091
 30
0.0
 10
13.7855583109
 20
11.3698280183
 30
0.0
 10
13.7940783892
 20
11.3173466586
 30
0.0
 10
13.8075074702
 20
11.2652295361
 30
0.0
 10
13.8256372826
 20
11.2136915133
 30
0.0
 10
13.8405731047
 20
11.1801489641
 30
0.0
 10
13.8487242272
 20
11.1635387228
 30
0.0
  0
SPLINE
  5
35E
100
AcDbEntity
  8
0
100
AcDbSpline
 62
7
  6
CONTINUOUS
 70
0
 71
3
 72
11
 73
7
 74
0
 42
0.0000001
 43
0.0000001
 44
0.0000000001
 40
0.0
 40
0.0
 40
0.0
 40
0.0
 40
0.2586584463
 40
0.4928899835
 40
0.7299934408
 40
1.0
 40
1.0
 40
1.0
 40
1.0
 10
12.9856093097
 20
12.9857549159
 30
0.0
 10
12.9854883865
 20
12.9857549169
 30
0.0
 10
12.9852558821
 20
12.985730351
 30
0.0
 10
12.9849391152
 20
12.9855843946
 30
0.0
 10
12.9846970754
 20
12.9853253316
 30
0.0
 10
12.9846011075
 20
12.985104242
 30
0.0
 10
12.9845638257
 20
12.9849836448
 30
0.0
  0
SPLINE
  5
35F
100
AcDbEntity
  8
0
100
AcDbSpline
 62
7
  6
CONTINUOUS
 70
0
 71
3
 72
11
 73
7
 74
0
 42
0.0000001
 43
0.0000001
 44
0.0000000001
 40
0.0
 40
0.0
 40
0.0
 40
0.0
 40
0.2730031199
 40
0.5305529422
 40
0.7721247267
 40
1.0
 40
1.0
 40
1.0
 40
1.0
 10
12.4579485023
 20
11.2808558337
 30
0.0
 10
12.4574137596
 20
11.2791255333
 30
0.0
 10
12.4565692288
 20
11.2756966133
 30
0.0
 10
12.4560924695
 20
11.2705731512
 30
0.0
 10
12.4565466031
 20
11.2657390553
 30
0.0
 10
12.4575481976
 20
11.2627506218
 30
0.0
 10
12.4582141562
 20
11.261393541
 30
0.0
  0
SPLINE
  5
360
100
AcDbEntity
  8
0
100
AcDbSpline
 62
7
  6
CONTINUOUS
 70
0
 71
3
 72
9
 73
5
 74
0
 42
0.0000001
 43
0.0000001
 44
0.0000000001
 40
0.0
 40
0.0
 40
0.0
 40
0.0
 40
0.245773414
 40
1.0
 40
1.0
 40
1.0
 40
1.0
 10
15.9648766276
 20
13.4739919406
 30
0.0
 10
15.9653872068
 20
13.4704738026
 30
0.0
 10
15.9678334896
 20
13.456214291
 30
0.0
 10
15.9717243358
 20
13.4422100528
 30
0.0
 10
15.9753615376
 20
13.4319246982
 30
0.0
  0
SPLINE
  5
361
100
AcDbEntity
  8
0
100
AcDbSpline
 62
7
  6
CONTINUOUS
 70
0
 71
3
 72
17
 73
13
 74
0
 42
0.0000001
 43
0.0000001
 44
0.0000000001
 40
0.0
 40
0.0
 40
0.0
 40
0.0
 40
0.1135661584
 40
0.1705134745
 40
0.2278328346
 40
0.3443343439
 40
0.4646643923
 40
0.5266718415
 40
0.5900209952
 40
0.7209517837
 40
0.8578033106
 40
1.0
 40
1.0
 40
1.0
 40
1.0
 10
13.1009824332
 20
12.1557527951
 30
0.0
 10
13.1029257
 20
12.1500775537
 30
0.0
 10
13.1066427664
 20
12.1417998764
 30
0.0
 10
13.1130449242
 20
12.1315957024
 30
0.0
 10
13.1204445896
 20
12.1218890704
 30
0.0
 10
13.1315193798
 20
12.1108689484
 30
0.0
 10
13.144491473
 20
12.1017458826
 30
0.0
 10
13.1559194811
 20
12.0955739827
 30
0.0
 10
13.1682935006
 20
12.0900553633
 30
0.0
 10
13.1850115501
 20
12.0847036774
 30
0.0
 10
13.2063834238
 20
12.0808908938
 30
0.0
 10
13.2211396877
 20
12.0800652973
 30
0.0
 10
13.2286507124
 20
12.0800652973
 30
0.0
  0
SPLINE
  5
362
100
AcDbEntity
  8
0
100
AcDbSpline
 62
7
  6
CONTINUOUS
 70
0
 71
3
 72
9
 73
5
 74
0
 42
0.0000001
 43
0.0000001
 44
0.0000000001
 40
0.0
 40
0.0
 40
0.0
 40
0.0
 40
0.2528483002
 40
1.0
 40
1.0
 40
1.0
 40
1.0
 10
16.0875837763
 20
13.2943068438
 30
0.0
 10
16.0908440556
 20
13.2922779448
 30
0.0
 10
16.1039088411
 20
13.2845321513
 30
0.0
 10
16.1176497152
 20
13.2779188452
 30
0.0
 10
16.1281912036
 20
13.2737196791
 30
0.0
  0
SPLINE
  5
363
100
AcDbEntity
  8
0
100
AcDbSpline
 62
7
  6
CONTINUOUS
 70
0
 71
3
 72
9
 73
5
 74
0
 42
0.0000001
 43
0.0000001
 44
0.0000000001
 40
0.0
 40
0.0
 40
0.0
 40
0.0
 40
0.4996762777
 40
1.0
 40
1.0
 40
1.0
 40
1.0
 10
17.5181576755
 20
12.5008661256
 30
0.0
 10
17.5156568221
 20
12.5008661757
 30
0.0
 10
17.5106511968
 20
12.5007105431
 30
0.0
 10
17.5056611325
 20
12.5002990496
 30
0.0
 10
17.5031709684
 20
12.5000352901
 30
0.0
  0
SPLINE
  5
364
100
AcDbEntity
  8
0
100
AcDbSpline
 62
7
  6
CONTINUOUS
 70
0
 71
3
 72
15
 73
11
 74
0
 42
0.0000001
 43
0.0000001
 44
0.0000000001
 40
0.0
 40
0.0
 40
0.0
 40
0.0
 40
0.1191463571
 40
0.2389127353
 40
0.3598944591
 40
0.4826476392
 40
0.6076539664
 40
0.7353771277
 40
0.8661387054
 40
1.0
 40
1.0
 40
1.0
 40
1.0
 10
18.3601124374
 20
12.3766023595
 30
0.0
 10
18.3563625474
 20
12.3842438319
 30
0.0
 10
18.3478841901
 20
12.3991161051
 30
0.0
 10
18.3324840158
 20
12.4197804557
 30
0.0
 10
18.3145330072
 20
12.4386312278
 30
0.0
 10
18.2942381885
 20
12.4555156109
 30
0.0
 10
18.2717903714
 20
12.4702978644
 30
0.0
 10
18.2474019604
 20
12.4828873481
 30
0.0
 10
18.2212920675
 20
12.4931985704
 30
0.0
 10
18.2031031353
 20
12.4984654294
 30
0.0
 10
18.19380863
 20
12.5007165644
 30
0.0
  0
SPLINE
  5
365
100
AcDbEntity
  8
0
100
AcDbSpline
 62
7
  6
CONTINUOUS
 70
0
 71
3
 72
9
 73
5
 74
0
 42
0.0000001
 43
0.0000001
 44
0.0000000001
 40
0.0
 40
0.0
 40
0.0
 40
0.0
 40
0.2561336952
 40
1.0
 40
1.0
 40
1.0
 40
1.0
 10
14.2755270147
 20
12.440793699
 30
0.0
 10
14.2684254979
 20
12.4376694045
 30
0.0
 10
14.2408803902
 20
12.4250674799
 30
0.0
 10
14.2140828164
 20
12.4108110421
 30
0.0
 10
14.1947601951
 20
12.3992210206
 30
0.0
  0
SPLINE
  5
366
100
AcDbEntity
  8
0
100
AcDbSpline
 62
7
  6
CONTINUOUS
 70
0
 71
3
 72
14
 73
10
 74
0
 42
0.0000001
 43
0.0000001
 44
0.0000000001
 40
0.0
 40
0.0
 40
0.0
 40
0.0
 40
0.2491325771
 40
0.3765302799
 40
0.5043702646
 40
0.6315868543
 40
0.7572250609
 40
0.8803843834
 40
1.0
 40
1.0
 40
1.0
 40
1.0
 10
17.6148662877
 20
12.0805887455
 30
0.0
 10
17.628014879
 20
12.0938347951
 30
0.0
 10
17.6500585188
 20
12.1118210235
 30
0.0
 10
17.6824394109
 20
12.1313579721
 30
0.0
 10
17.7082919513
 20
12.1438183941
 30
0.0
 10
17.7350730325
 20
12.153743944
 30
0.0
 10
17.7623449963
 20
12.1609782031
 30
0.0
 10
17.7896367227
 20
12.1653780987
 30
0.0
 10
17.8078366823
 20
12.1664087344
 30
0.0
 10
17.8167977774
 20
12.1664087344
 30
0.0
  0
SPLINE
  5
367
100
AcDbEntity
  8
0
100
AcDbSpline
 62
7
  6
CONTINUOUS
 70
0
 71
3
 72
17
 73
13
 74
0
 42
0.0000001
 43
0.0000001
 44
0.0000000001
 40
0.0
 40
0.0
 40
0.0
 40
0.0
 40
0.1135661584
 40
0.1705134745
 40
0.2278328346
 40
0.3443343439
 40
0.4646643923
 40
0.5266718415
 40
0.5900209952
 40
0.7209517837
 40
0.8578033106
 40
1.0
 40
1.0
 40
1.0
 40
1.0
 10
17.4760221548
 20
12.1557527951
 30
0.0
 10
17.4779654215
 20
12.1500775537
 30
0.0
 10
17.4816824879
 20
12.1417998764
 30
0.0
 10
17.4880846458
 20
12.1315957024
 30
0.0
 10
17.4954843111
 20
12.1218890704
 30
0.0
 10
17.5065591013
 20
12.1108689484
 30
0.0
 10
17.5195311946
 20
12.1017458826
 30
0.0
 10
17.5309592026
 20
12.0955739827
 30
0.0
 10
17.5433332221
 20
12.0900553633
 30
0.0
 10
17.5600512716
 20
12.0847036774
 30
0.0
 10
17.5814231454
 20
12.0808908938
 30
0.0
 10
17.5961794092
 20
12.0800652973
 30
0.0
 10
17.6036904339
 20
12.0800652973
 30
0.0
  0
SPLINE
  5
368
100
AcDbEntity
  8
0
100
AcDbSpline
 62
7
  6
CONTINUOUS
 70
0
 71
3
 72
14
 73
10
 74
0
 42
0.0000001
 43
0.0000001
 44
0.0000000001
 40
0.0
 40
0.0
 40
0.0
 40
0.0
 40
0.2719377977
 40
0.4011810259
 40
0.5260029075
 40
0.6469240586
 40
0.7650782538
 40
0.8821459163
 40
1.0
 40
1.0
 40
1.0
 40
1.0
 10
18.7798500307
 20
12.9857549159
 30
0.0
 10
18.7822015209
 20
12.9857549196
 30
0.0
 10
18.7856871216
 20
12.9854933399
 30
0.0
 10
18.7901188686
 20
12.9844328427
 30
0.0
 10
18.7931647476
 20
12.9832924996
 30
0.0
 10
18.7959355946
 20
12.9817759674
 30
0.0
 10
18.7983750034
 20
12.9798713342
 30
0.0
 10
18.8004212317
 20
12.9775836514
 30
0.0
 10
18.8014828047
 20
12.9758360371
 30
0.0
 10
18.8019317633
 20
12.9749211558
 30
0.0
  0
SPLINE
  5
369
100
AcDbEntity
  8
0
100
AcDbSpline
 62
7
  6
CONTINUOUS
 70
0
 71
3
 72
18
 73
14
 74
0
 42
0.0000001
 43
0.0000001
 44
0.0000000001
 40
0.0
 40
0.0
 40
0.0
 40
0.0
 40
0.0402729016
 40
0.0870103565
 40
0.1394049298
 40
0.1966779559
 40
0.2580260045
 40
0.32263224
 40
0.4585672067
 40
0.5992606863
 40
0.7397725752
 40
0.8752098499
 40
1.0
 40
1.0
 40
1.0
 40
1.0
 10
17.7131219976
 20
13.0150219275
 30
0.0
 10
17.7138499178
 20
13.0142019744
 30
0.0
 10
17.7154972258
 20
13.0124962742
 30
0.0
 10
17.7183067487
 20
13.0099412767
 30
0.0
 10
17.721628662
 20
13.0072728412
 30
0.0
 10
17.7254297102
 20
13.0045796026
 30
0.0
 10
17.7296508965
 20
13.0019171008
 30
0.0
 10
17.7358707625
 20
12.9984257417
 30
0.0
 10
17.7443117769
 20
12.9945068221
 30
0.0
 10
17.7550241019
 20
12.9906902864
 30
0.0
 10
17.7660296613
 20
12.9878737048
 30
0.0
 10
17.7768219139
 20
12.986172328
 30
0.0
 10
17.7839098724
 20
12.9857548103
 30
0.0
 10
17.7873073303
 20
12.9857548103
 30
0.0
  0
SPLINE
  5
36A
100
AcDbEntity
  8
0
100
AcDbSpline
 62
7
  6
CONTINUOUS
 70
0
 71
3
 72
41
 73
37
 74
0
 42
0.0000001
 43
0.0000001
 44
0.0000000001
 40
0.0
 40
0.0
 40
0.0
 40
0.0
 40
0.0302419328
 40
0.0615380538
 40
0.0938075094
 40
0.1269805443
 40
0.1609806613
 40
0.1957088942
 40
0.2310557836
 40
0.2669041138
 40
0.3031315083
 40
0.3396093803
 40
0.3762063175
 40
0.4127893835
 40
0.4492257135
 40
0.4853846758
 40
0.5211384393
 40
0.5563654642
 40
0.5909499778
 40
0.6247866689
 40
0.6577793289
 40
0.6898467146
 40
0.7209206593
 40
0.750952828
 40
0.7799127819
 40
0.8077947387
 40
0.8346163365
 40
0.8604230259
 40
0.8852888667
 40
0.9093162347
 40
0.9326375588
 40
0.9554014107
 40
0.9666329607
 40
0.9777928174
 40
0.9889063939
 40
1.0
 40
1.0
 40
1.0
 40
1.0
 10
17.0352566515
 20
13.7785916255
 30
0.0
 10
17.0116192022
 20
13.8052176215
 30
0.0
 10
16.9616828058
 20
13.8577895524
 30
0.0
 10
16.8808253297
 20
13.9331068661
 30
0.0
 10
16.7931261756
 20
14.0058660221
 30
0.0
 10
16.6990865997
 20
14.075692414
 30
0.0
 10
16.5991995021
 20
14.1422308594
 30
0.0
 10
16.4940051582
 20
14.2051517718
 30
0.0
 10
16.3840655072
 20
14.2641071229
 30
0.0
 10
16.2699845956
 20
14.3187971376
 30
0.0
 10
16.1523759219
 20
14.36891693
 30
0.0
 10
16.0318844838
 20
14.4142105375
 30
0.0
 10
15.9091616761
 20
14.454418585
 30
0.0
 10
15.7848809303
 20
14.4893363787
 30
0.0
 10
15.6597149689
 20
14.5187591555
 30
0.0
 10
15.5343481111
 20
14.5425392572
 30
0.0
 10
15.4094573242
 20
14.5605303594
 30
0.0
 10
15.285720593
 20
14.5726450124
 30
0.0
 10
15.1638017636
 20
14.5787973319
 30
0.0
 10
15.0443551232
 20
14.5789601786
 30
0.0
 10
14.9280148554
 20
14.5731067594
 30
0.0
 10
14.815395586
 20
14.5612665862
 30
0.0
 10
14.7070876321
 20
14.5434670783
 30
0.0
 10
14.603653688
 20
14.5197864399
 30
0.0
 10
14.5056318265
 20
14.4902979122
 30
0.0
 10
14.4135294179
 20
14.4551170353
 30
0.0
 10
14.3278373893
 20
14.4143533248
 30
0.0
 10
14.2490199978
 20
14.3681560129
 30
0.0
 10
14.1775440301
 20
14.3166752489
 30
0.0
 10
14.1138553807
 20
14.2601105736
 30
0.0
 10
14.0584382142
 20
14.198699795
 30
0.0
 10
14.0193136824
 20
14.1434974977
 30
0.0
 10
13.9927396687
 20
14.097419697
 30
0.0
 10
13.9752092436
 20
14.0620521258
 30
0.0
 10
13.9600311466
 20
14.0257917341
 30
0.0
 10
13.9515007374
 20
14.0010547819
 30
0.0
 10
13.9476445974
 20
13.988576308
 30
0.0
  0
SPLINE
  5
36B
100
AcDbEntity
  8
0
100
AcDbSpline
 62
7
  6
CONTINUOUS
 70
0
 71
3
 72
11
 73
7
 74
0
 42
0.0000001
 43
0.0000001
 44
0.0000000001
 40
0.0
 40
0.0
 40
0.0
 40
0.0
 40
0.2466924581
 40
0.4947120455
 40
0.7453984215
 40
1.0
 40
1.0
 40
1.0
 40
1.0
 10
13.4423311472
 20
12.3533813842
 30
0.0
 10
13.43624765
 20
12.33369518
 30
0.0
 10
13.426054664
 20
12.2935649967
 30
0.0
 10
13.4168971242
 20
12.2318817445
 30
0.0
 10
13.4138607596
 20
12.1689382544
 30
0.0
 10
13.4158855043
 20
12.1267102143
 30
0.0
 10
13.4178693594
 20
12.105537606
 30
0.0
  0
SPLINE
  5
36C
100
AcDbEntity
  8
0
100
AcDbSpline
 62
7
  6
CONTINUOUS
 70
0
 71
3
 72
24
 73
20
 74
0
 42
0.0000001
 43
0.0000001
 44
0.0000000001
 40
0.0
 40
0.0
 40
0.0
 40
0.0
 40
0.0682982551
 40
0.1373331341
 40
0.2066142146
 40
0.2757508765
 40
0.3443418324
 40
0.4119827131
 40
0.5429281366
 40
0.6058906819
 40
0.6669401688
 40
0.6967539561
 40
0.7260953452
 40
0.7549803275
 40
0.7834312397
 40
0.8391244783
 40
0.8935150447
 40
0.946993145
 40
1.0
 40
1.0
 40
1.0
 40
1.0
 10
13.1320838579
 20
12.4992911334
 30
0.0
 10
13.1180687414
 20
12.4961070763
 30
0.0
 10
13.0901624154
 20
12.4884261763
 30
0.0
 10
13.0493549607
 20
12.4732741002
 30
0.0
 10
13.0098374063
 20
12.4545949871
 30
0.0
 10
12.9721460167
 20
12.4326521278
 30
0.0
 10
12.936765384
 20
12.4077292958
 30
0.0
 10
12.8938130215
 20
12.3713762283
 30
0.0
 10
12.8567309412
 20
12.3301448648
 30
0.0
 10
12.8273870955
 20
12.2851326105
 30
0.0
 10
12.8127465428
 20
12.2561730598
 30
0.0
 10
12.8033790632
 20
12.2326625524
 30
0.0
 10
12.7975856629
 20
12.2150520619
 30
0.0
 10
12.7929966802
 20
12.197385079
 30
0.0
 10
12.7885411984
 20
12.1740068122
 30
0.0
 10
12.7860242168
 20
12.1448583427
 30
0.0
 10
12.7881031888
 20
12.1103715668
 30
0.0
 10
12.7953588486
 20
12.0771671909
 30
0.0
 10
12.8036069197
 20
12.0562090116
 30
0.0
 10
12.808520922
 20
12.0461953278
 30
0.0
  0
SPLINE
  5
36D
100
AcDbEntity
  8
0
100
AcDbSpline
 62
7
  6
CONTINUOUS
 70
0
 71
3
 72
32
 73
28
 74
0
 42
0.0000001
 43
0.0000001
 44
0.0000000001
 40
0.0
 40
0.0
 40
0.0
 40
0.0
 40
0.0620101191
 40
0.0930507119
 40
0.1240891557
 40
0.1551253852
 40
0.1861576781
 40
0.2171952976
 40
0.2482436173
 40
0.2793021672
 40
0.3103856673
 40
0.3415023276
 40
0.3726494671
 40
0.435035428
 40
0.4663655553
 40
0.497770663
 40
0.5607413377
 40
0.6239272694
 40
0.6555776159
 40
0.6872135603
 40
0.7188108633
 40
0.7503496719
 40
0.8131371443
 40
0.8756133489
 40
0.9067910995
 40
0.9379323657
 40
1.0
 40
1.0
 40
1.0
 40
1.0
 10
16.1229765133
 20
13.5962198885
 30
0.0
 10
16.1255585769
 20
13.6045754492
 30
0.0
 10
16.130784789
 20
13.6167554658
 30
0.0
 10
16.1401859292
 20
13.6315446537
 30
0.0
 10
16.1484121928
 20
13.6418168937
 30
0.0
 10
16.1576941362
 20
13.6511404884
 30
0.0
 10
16.1679351765
 20
13.6594009596
 30
0.0
 10
16.179013295
 20
13.6665008669
 30
0.0
 10
16.190787836
 20
13.6723815083
 30
0.0
 10
16.2031296226
 20
13.6769719807
 30
0.0
 10
16.2158929358
 20
13.680242761
 30
0.0
 10
16.2289376559
 20
13.6821898582
 30
0.0
 10
16.2465220339
 20
13.6830030451
 30
0.0
 10
16.2641703853
 20
13.6811776993
 30
0.0
 10
16.2813049999
 20
13.6768780882
 30
0.0
 10
16.2980467969
 20
13.6709758752
 30
0.0
 10
16.3179142916
 20
13.6607417526
 30
0.0
 10
16.3356909067
 20
13.6471506737
 30
0.0
 10
16.3483451193
 20
13.6345534765
 30
0.0
 10
16.3569803118
 20
13.6243079102
 30
0.0
 10
16.3646794798
 20
13.6133603431
 30
0.0
 10
16.373579448
 20
13.5979698639
 30
0.0
 10
16.3820387346
 20
13.5773966732
 30
0.0
 10
16.3865237069
 20
13.555648484
 30
0.0
 10
16.3875369721
 20
13.5380504223
 30
0.0
 10
16.3867931805
 20
13.5205036311
 30
0.0
 10
16.3842352884
 20
13.5074842098
 30
0.0
 10
16.38165083
 20
13.4991208993
 30
0.0
  0
SPLINE
  5
36E
100
AcDbEntity
  8
0
100
AcDbSpline
 62
7
  6
CONTINUOUS
 70
0
 71
3
 72
23
 73
19
 74
0
 42
0.0000001
 43
0.0000001
 44
0.0000000001
 40
0.0
 40
0.0
 40
0.0
 40
0.0
 40
0.0658770934
 40
0.1338317042
 40
0.2031696217
 40
0.2732999311
 40
0.3435990993
 40
0.413383278
 40
0.4820089894
 40
0.5488973269
 40
0.6135718194
 40
0.6756760022
 40
0.7350409432
 40
0.7916919146
 40
0.8459028975
 40
0.8981797788
 40
0.9492529302
 40
1.0
 40
1.0
 40
1.0
 40
1.0
 10
17.8339556824
 20
12.0800652973
 30
0.0
 10
17.8422165556
 20
12.0800652973
 30
0.0
 10
17.8590117247
 20
12.0810961768
 30
0.0
 10
17.8841577184
 20
12.0854742066
 30
0.0
 10
17.9092070091
 20
12.0926577775
 30
0.0
 10
17.9336564662
 20
12.1024829748
 30
0.0
 10
17.957033173
 20
12.1147630199
 30
0.0
 10
17.9788828505
 20
12.1292536043
 30
0.0
 10
17.9987720931
 20
12.1456760286
 30
0.0
 10
18.016309974
 20
12.1637102914
 30
0.0
 10
18.0311565044
 20
12.1830030017
 30
0.0
 10
18.0430066815
 20
12.2031895767
 30
0.0
 10
18.051633241
 20
12.223874624
 30
0.0
 10
18.0568337055
 20
12.244667693
 30
0.0
 10
18.0585037737
 20
12.2651574448
 30
0.0
 10
18.0565564505
 20
12.284934062
 30
0.0
 10
18.0510353991
 20
12.3035735311
 30
0.0
 10
18.0450314192
 20
12.3149518479
 30
0.0
 10
18.0415319774
 20
12.3202668495
 30
0.0
  0
SPLINE
  5
36F
100
AcDbEntity
  8
0
100
AcDbSpline
 62
7
  6
CONTINUOUS
 70
0
 71
3
 72
32
 73
28
 74
0
 42
0.0000001
 43
0.0000001
 44
0.0000000001
 40
0.0
 40
0.0
 40
0.0
 40
0.0
 40
0.0620101191
 40
0.0930507119
 40
0.1240891557
 40
0.1551253852
 40
0.1861576781
 40
0.2171952976
 40
0.2482436173
 40
0.2793021672
 40
0.3103856673
 40
0.3415023276
 40
0.3726494671
 40
0.435035428
 40
0.4663655553
 40
0.497770663
 40
0.5607413377
 40
0.6239272694
 40
0.6555776159
 40
0.6872135603
 40
0.7188108633
 40
0.7503496719
 40
0.8131371443
 40
0.8756133489
 40
0.9067910995
 40
0.9379323657
 40
1.0
 40
1.0
 40
1.0
 40
1.0
 10
16.38165083
 20
13.4991208993
 30
0.0
 10
16.3790687665
 20
13.4907653387
 30
0.0
 10
16.3738425544
 20
13.478585322
 30
0.0
 10
16.3644414142
 20
13.4637961341
 30
0.0
 10
16.3562151505
 20
13.4535238941
 30
0.0
 10
16.3469332072
 20
13.4442002994
 30
0.0
 10
16.3366921669
 20
13.4359398282
 30
0.0
 10
16.3256140484
 20
13.4288399209
 30
0.0
 10
16.3138395073
 20
13.4229592796
 30
0.0
 10
16.3014977208
 20
13.4183688072
 30
0.0
 10
16.2887344075
 20
13.4150980268
 30
0.0
 10
16.2756896875
 20
13.4131509297
 30
0.0
 10
16.2581053094
 20
13.4123377428
 30
0.0
 10
16.2404569581
 20
13.4141630885
 30
0.0
 10
16.2233223435
 20
13.4184626997
 30
0.0
 10
16.2065805465
 20
13.4243649127
 30
0.0
 10
16.1867130518
 20
13.4345990353
 30
0.0
 10
16.1689364367
 20
13.4481901142
 30
0.0
 10
16.1562822241
 20
13.4607873113
 30
0.0
 10
16.1476470315
 20
13.4710328776
 30
0.0
 10
16.1399478636
 20
13.4819804447
 30
0.0
 10
16.1310478953
 20
13.4973709239
 30
0.0
 10
16.1225886088
 20
13.5179441147
 30
0.0
 10
16.1181036365
 20
13.5396923039
 30
0.0
 10
16.1170903713
 20
13.5572903656
 30
0.0
 10
16.1178341629
 20
13.5748371567
 30
0.0
 10
16.1203920549
 20
13.587856578
 30
0.0
 10
16.1229765133
 20
13.5962198885
 30
0.0
  0
SPLINE
  5
370
100
AcDbEntity
  8
0
100
AcDbSpline
 62
7
  6
CONTINUOUS
 70
0
 71
3
 72
11
 73
7
 74
0
 42
0.0000001
 43
0.0000001
 44
0.0000000001
 40
0.0
 40
0.0
 40
0.0
 40
0.0
 40
0.2473760356
 40
0.5006703881
 40
0.7535774854
 40
1.0
 40
1.0
 40
1.0
 40
1.0
 10
13.2397911418
 20
12.0805530213
 30
0.0
 10
13.2513597655
 20
12.0922082978
 30
0.0
 10
13.2769968109
 20
12.1136741146
 30
0.0
 10
13.3203785884
 20
12.1390205414
 30
0.0
 10
13.3672552922
 20
12.1569284475
 30
0.0
 10
13.3999709572
 20
12.163409788
 30
0.0
 10
13.4162440317
 20
12.165080298
 30
0.0
  0
SPLINE
  5
371
100
AcDbEntity
  8
0
100
AcDbSpline
 62
7
  6
CONTINUOUS
 70
0
 71
3
 72
9
 73
5
 74
0
 42
0.0000001
 43
0.0000001
 44
0.0000000001
 40
0.0
 40
0.0
 40
0.0
 40
0.0
 40
0.2543899466
 40
1.0
 40
1.0
 40
1.0
 40
1.0
 10
16.1492722362
 20
11.8596931354
 30
0.0
 10
16.1522247048
 20
11.8549108961
 30
0.0
 10
16.1636298339
 20
11.8359890707
 30
0.0
 10
16.1742155316
 20
11.8165706029
 30
0.0
 10
16.1815760096
 20
11.8018337876
 30
0.0
  0
SPLINE
  5
372
100
AcDbEntity
  8
0
100
AcDbSpline
 62
7
  6
CONTINUOUS
 70
0
 71
3
 72
24
 73
20
 74
0
 42
0.0000001
 43
0.0000001
 44
0.0000000001
 40
0.0
 40
0.0
 40
0.0
 40
0.0
 40
0.0690003012
 40
0.1389459946
 40
0.2092568905
 40
0.2794787084
 40
0.3491615434
 40
0.4178395984
 40
0.4850938742
 40
0.5505642072
 40
0.6139697635
 40
0.6751163731
 40
0.7339322224
 40
0.7624911287
 40
0.7905002012
 40
0.8449601113
 40
0.8976884856
 40
0.949170595
 40
1.0
 40
1.0
 40
1.0
 40
1.0
 10
18.0542037414
 20
11.8651873991
 30
0.0
 10
18.0685256445
 20
11.868189242
 30
0.0
 10
18.0971020974
 20
11.8755654971
 30
0.0
 10
18.1389880446
 20
11.8903860429
 30
0.0
 10
18.1796736372
 20
11.9088832141
 30
0.0
 10
18.2185732987
 20
11.9307734673
 30
0.0
 10
18.2551472639
 20
11.95575492
 30
0.0
 10
18.2888825885
 20
11.9834768788
 30
0.0
 10
18.3193004448
 20
12.0135512849
 30
0.0
 10
18.3459680017
 20
12.0455597166
 30
0.0
 10
18.3685160583
 20
12.0790514645
 30
0.0
 10
18.38660742
 20
12.1135657071
 30
0.0
 10
18.3978766172
 20
12.1430721253
 30
0.0
 10
18.4043504307
 20
12.1666870083
 30
0.0
 10
18.4090546566
 20
12.1897728795
 30
0.0
 10
18.4118780073
 20
12.218411485
 30
0.0
 10
18.410154642
 20
12.2521494491
 30
0.0
 10
18.4033162987
 20
12.2844499103
 30
0.0
 10
18.3953628708
 20
12.3047629442
 30
0.0
 10
18.3906150462
 20
12.3144405946
 30
0.0
  0
SPLINE
  5
373
100
AcDbEntity
  8
0
100
AcDbSpline
 62
7
  6
CONTINUOUS
 70
0
 71
3
 72
11
 73
7
 74
0
 42
0.0000001
 43
0.0000001
 44
0.0000000001
 40
0.0
 40
0.0
 40
0.0
 40
0.0
 40
0.2427925819
 40
0.4958019045
 40
0.7509677776
 40
1.0
 40
1.0
 40
1.0
 40
1.0
 10
17.4316202846
 20
11.8651873991
 30
0.0
 10
17.4281614918
 20
11.8651873991
 30
0.0
 10
17.4210919442
 20
11.8657222302
 30
0.0
 10
17.4105909405
 20
11.8679025889
 30
0.0
 10
17.4003581711
 20
11.8713988187
 30
0.0
 10
17.3938819744
 20
11.874561166
 30
0.0
 10
17.3908109402
 20
11.8763373405
 30
0.0
  0
SPLINE
  5
374
100
AcDbEntity
  8
0
100
AcDbSpline
 62
7
  6
CONTINUOUS
 70
0
 71
3
 72
16
 73
12
 74
0
 42
0.0000001
 43
0.0000001
 44
0.0000000001
 40
0.0
 40
0.0
 40
0.0
 40
0.0
 40
0.0520394047
 40
0.1108470513
 40
0.2416057609
 40
0.3797941759
 40
0.5174316392
 40
0.650233557
 40
0.7758639392
 40
0.8928679619
 40
1.0
 40
1.0
 40
1.0
 40
1.0
 10
18.2724116808
 20
11.261393541
 30
0.0
 10
18.2717550316
 20
11.2627316513
 30
0.0
 10
18.2702882527
 20
11.2655485729
 30
0.0
 10
18.2668949285
 20
11.2715805818
 30
0.0
 10
18.2619823661
 20
11.2795841113
 30
0.0
 10
18.2555664251
 20
11.2893045753
 30
0.0
 10
18.248863912
 20
11.2989010719
 30
0.0
 10
18.2421582574
 20
11.3080526381
 30
0.0
 10
18.235617741
 20
11.3165894642
 30
0.0
 10
18.2293526533
 20
11.3244079689
 30
0.0
 10
18.2252197257
 20
11.3293216823
 30
0.0
 10
18.223209854
 20
11.3316403849
 30
0.0
  0
SPLINE
  5
375
100
AcDbEntity
  8
0
100
AcDbSpline
 62
7
  6
CONTINUOUS
 70
0
 71
3
 72
13
 73
9
 74
0
 42
0.0000001
 43
0.0000001
 44
0.0000000001
 40
0.0
 40
0.0
 40
0.0
 40
0.0
 40
0.2649169688
 40
0.5227057496
 40
0.647796966
 40
0.7695213119
 40
0.8871749908
 40
1.0
 40
1.0
 40
1.0
 40
1.0
 10
18.7285233041
 20
12.9668353087
 30
0.0
 10
18.732581552
 20
12.9695684015
 30
0.0
 10
18.740869004
 20
12.9745578662
 30
0.0
 10
18.751761489
 20
12.9795814894
 30
0.0
 10
18.7605745596
 20
12.9826330272
 30
0.0
 10
18.7670894244
 20
12.9843565086
 30
0.0
 10
18.7735071505
 20
12.9854695295
 30
0.0
 10
18.7777662588
 20
12.9857549126
 30
0.0
 10
18.7798500307
 20
12.9857549159
 30
0.0
  0
SPLINE
  5
376
100
AcDbEntity
  8
0
100
AcDbSpline
 62
7
  6
CONTINUOUS
 70
0
 71
3
 72
15
 73
11
 74
0
 42
0.0000001
 43
0.0000001
 44
0.0000000001
 40
0.0
 40
0.0
 40
0.0
 40
0.0
 40
0.1125447636
 40
0.2272759385
 40
0.3451537624
 40
0.4669384045
 40
0.5931832756
 40
0.7242190724
 40
0.8599973216
 40
1.0
 40
1.0
 40
1.0
 40
1.0
 10
18.0415319774
 20
12.3202668495
 30
0.0
 10
18.0387721994
 20
12.3244584391
 30
0.0
 10
18.032541241
 20
12.3325089031
 30
0.0
 10
18.0213854593
 20
12.3431858222
 30
0.0
 10
18.0085142907
 20
12.3524402421
 30
0.0
 10
17.994081617
 20
12.3601460283
 30
0.0
 10
17.9782677344
 20
12.3662273701
 30
0.0
 10
17.9612594611
 20
12.3706083711
 30
0.0
 10
17.9432799633
 20
12.3732397966
 30
0.0
 10
17.9309734901
 20
12.3738128884
 30
0.0
 10
17.9247305537
 20
12.3738128884
 30
0.0
  0
SPLINE
  5
377
100
AcDbEntity
  8
0
100
AcDbSpline
 62
7
  6
CONTINUOUS
 70
0
 71
3
 72
9
 73
5
 74
0
 42
0.0000001
 43
0.0000001
 44
0.0000000001
 40
0.0
 40
0.0
 40
0.0
 40
0.0
 40
0.4960228526
 40
1.0
 40
1.0
 40
1.0
 40
1.0
 10
16.3371785896
 20
13.3263304095
 30
0.0
 10
16.3402030722
 20
13.3313533434
 30
0.0
 10
16.3456679651
 20
13.3418730074
 30
0.0
 10
16.3498174798
 20
13.3529745302
 30
0.0
 10
16.3515763406
 20
13.3586662057
 30
0.0
  0
SPLINE
  5
378
100
AcDbEntity
  8
0
100
AcDbSpline
 62
7
  6
CONTINUOUS
 70
0
 71
3
 72
10
 73
6
 74
0
 42
0.0000001
 43
0.0000001
 44
0.0000000001
 40
0.0
 40
0.0
 40
0.0
 40
0.0
 40
0.2410780484
 40
0.4879574079
 40
1.0
 40
1.0
 40
1.0
 40
1.0
 10
16.3515763406
 20
13.3586662057
 30
0.0
 10
16.3534458758
 20
13.3647160238
 30
0.0
 10
16.3564768087
 20
13.3772083438
 30
0.0
 10
16.3596714237
 20
13.4033195267
 30
0.0
 10
16.3587339822
 20
13.4234303533
 30
0.0
 10
16.3568023688
 20
13.4367401052
 30
0.0
  0
SPLINE
  5
379
100
AcDbEntity
  8
0
100
AcDbSpline
 62
7
  6
CONTINUOUS
 70
0
 71
3
 72
11
 73
7
 74
0
 42
0.0000001
 43
0.0000001
 44
0.0000000001
 40
0.0
 40
0.0
 40
0.0
 40
0.0
 40
0.2466321275
 40
0.4945132792
 40
0.745181898
 40
1.0
 40
1.0
 40
1.0
 40
1.0
 10
16.0080098323
 20
13.6135710421
 30
0.0
 10
16.0036367012
 20
13.6094593167
 30
0.0
 10
15.9954069024
 20
13.6006202483
 30
0.0
 10
15.9848807807
 20
13.5857891767
 30
0.0
 10
15.9762817996
 20
13.5695393935
 30
0.0
 10
15.9719337141
 20
13.5579911471
 30
0.0
 10
15.9701026558
 20
13.5520658402
 30
0.0
  0
SPLINE
  5
37A
100
AcDbEntity
  8
0
100
AcDbSpline
 62
7
  6
CONTINUOUS
 70
0
 71
3
 72
10
 73
6
 74
0
 42
0.0000001
 43
0.0000001
 44
0.0000000001
 40
0.0
 40
0.0
 40
0.0
 40
0.0
 40
0.2410780484
 40
0.4879574079
 40
1.0
 40
1.0
 40
1.0
 40
1.0
 10
15.9701026558
 20
13.5520658402
 30
0.0
 10
15.9682331206
 20
13.546016022
 30
0.0
 10
15.9652021877
 20
13.5335237021
 30
0.0
 10
15.9620075727
 20
13.5074125192
 30
0.0
 10
15.9629450142
 20
13.4873016926
 30
0.0
 10
15.9648766276
 20
13.4739919406
 30
0.0
  0
SPLINE
  5
37B
100
AcDbEntity
  8
0
100
AcDbSpline
 62
7
  6
CONTINUOUS
 70
0
 71
3
 72
11
 73
7
 74
0
 42
0.0000001
 43
0.0000001
 44
0.0000000001
 40
0.0
 40
0.0
 40
0.0
 40
0.0
 40
0.2643306467
 40
0.5184906137
 40
0.7632392634
 40
1.0
 40
1.0
 40
1.0
 40
1.0
 10
16.1563070235
 20
13.6483742602
 30
0.0
 10
16.1458637733
 20
13.6506115618
 30
0.0
 10
16.1250152628
 20
13.6534989023
 30
0.0
 10
16.0940439667
 20
13.6527736613
 30
0.0
 10
16.0647466291
 20
13.6469017547
 30
0.0
 10
16.0465881176
 20
13.6395247433
 30
0.0
 10
16.0381323495
 20
13.6350511198
 30
0.0
  0
SPLINE
  5
37C
100
AcDbEntity
  8
0
100
AcDbSpline
 62
7
  6
CONTINUOUS
 70
0
 71
3
 72
23
 73
19
 74
0
 42
0.0000001
 43
0.0000001
 44
0.0000000001
 40
0.0
 40
0.0
 40
0.0
 40
0.0
 40
0.0647127371
 40
0.1313571884
 40
0.1993432184
 40
0.2681740513
 40
0.3373490435
 40
0.4063092169
 40
0.4744947258
 40
0.541398072
 40
0.6065640756
 40
0.6696281259
 40
0.7303223049
 40
0.7885322058
 40
0.844290087
 40
0.8978233387
 40
0.9495324055
 40
1.0
 40
1.0
 40
1.0
 40
1.0
 10
17.6944653052
 20
12.3738128884
 30
0.0
 10
17.6868822231
 20
12.3738128884
 30
0.0
 10
17.6714795407
 20
12.3729438754
 30
0.0
 10
17.6483781357
 20
12.3692414083
 30
0.0
 10
17.6252885761
 20
12.3631489783
 30
0.0
 10
17.6026056789
 20
12.3547905563
 30
0.0
 10
17.5807041242
 20
12.3442924211
 30
0.0
 10
17.5599362212
 20
12.3318451628
 30
0.0
 10
17.5406595954
 20
12.3176363074
 30
0.0
 10
17.523184008
 20
12.3019172077
 30
0.0
 10
17.5078123194
 20
12.2849323554
 30
0.0
 10
17.494786234
 20
12.2669743003
 30
0.0
 10
17.484342842
 20
12.2483238372
 30
0.0
 10
17.4766429689
 20
12.2292961213
 30
0.0
 10
17.4718452868
 20
12.2101940867
 30
0.0
 10
17.4700237263
 20
12.1913373735
 30
0.0
 10
17.4712488352
 20
12.1730504814
 30
0.0
 10
17.4741063891
 20
12.1613477204
 30
0.0
 10
17.4760221548
 20
12.1557527951
 30
0.0
  0
SPLINE
  5
37D
100
AcDbEntity
  8
0
100
AcDbSpline
 62
7
  6
CONTINUOUS
 70
0
 71
3
 72
18
 73
14
 74
0
 42
0.0000001
 43
0.0000001
 44
0.0000000001
 40
0.0
 40
0.0
 40
0.0
 40
0.0
 40
0.0243925068
 40
0.0518677985
 40
0.1125194562
 40
0.1766191894
 40
0.2417344017
 40
0.3719699656
 40
0.5008980192
 40
0.6281754857
 40
0.7537796492
 40
0.8777238784
 40
1.0
 40
1.0
 40
1.0
 40
1.0
 10
17.36577835
 20
11.9273483959
 30
0.0
 10
17.3656375263
 20
11.9276353644
 30
0.0
 10
17.3652753592
 20
11.9282148356
 30
0.0
 10
17.3643374856
 20
11.9293557062
 30
0.0
 10
17.3628607112
 20
11.9307084962
 30
0.0
 10
17.3608800512
 20
11.9322158217
 30
0.0
 10
17.3580604501
 20
11.9341185345
 30
0.0
 10
17.3544145414
 20
11.9363057331
 30
0.0
 10
17.3499831057
 20
11.9387577689
 30
0.0
 10
17.3455563432
 20
11.9410905254
 30
0.0
 10
17.3411594595
 20
11.9433386783
 30
0.0
 10
17.336803857
 20
11.9455232167
 30
0.0
 10
17.3339125196
 20
11.9469555755
 30
0.0
 10
17.3324755211
 20
11.94766462
 30
0.0
  0
SPLINE
  5
37E
100
AcDbEntity
  8
0
100
AcDbSpline
 62
7
  6
CONTINUOUS
 70
0
 71
3
 72
15
 73
11
 74
0
 42
0.0000001
 43
0.0000001
 44
0.0000000001
 40
0.0
 40
0.0
 40
0.0
 40
0.0
 40
0.1148423049
 40
0.2417529353
 40
0.3761113142
 40
0.5133462515
 40
0.6488736213
 40
0.778106215
 40
0.8965672749
 40
1.0
 40
1.0
 40
1.0
 40
1.0
 10
18.0190897625
 20
11.9624718178
 30
0.0
 10
18.0188846066
 20
11.9611154556
 30
0.0
 10
18.0185962257
 20
11.9582380507
 30
0.0
 10
18.0184752183
 20
11.9537439229
 30
0.0
 10
18.0186615147
 20
11.948984193
 30
0.0
 10
18.0191425788
 20
11.944142119
 30
0.0
 10
18.0199051133
 20
11.9393982604
 30
0.0
 10
18.0209183999
 20
11.9349302688
 30
0.0
 10
18.0221514605
 20
11.9309175106
 30
0.0
 10
18.023155263
 20
11.9284575457
 30
0.0
 10
18.0236995547
 20
11.9273483959
 30
0.0
  0
SPLINE
  5
37F
100
AcDbEntity
  8
0
100
AcDbSpline
 62
7
  6
CONTINUOUS
 70
0
 71
3
 72
10
 73
6
 74
0
 42
0.0000001
 43
0.0000001
 44
0.0000000001
 40
0.0
 40
0.0
 40
0.0
 40
0.0
 40
0.4992736459
 40
0.7495946633
 40
1.0
 40
1.0
 40
1.0
 40
1.0
 10
17.4653458758
 20
12.4914063678
 30
0.0
 10
17.471423809
 20
12.4936234683
 30
0.0
 10
17.4807913334
 20
12.4963201208
 30
0.0
 10
17.4935107461
 20
12.4988120076
 30
0.0
 10
17.4999442183
 20
12.499693511
 30
0.0
 10
17.5031709684
 20
12.5000352901
 30
0.0
  0
SPLINE
  5
380
100
AcDbEntity
  8
0
100
AcDbSpline
 62
7
  6
CONTINUOUS
 70
0
 71
3
 72
12
 73
8
 74
0
 42
0.0000001
 43
0.0000001
 44
0.0000000001
 40
0.0
 40
0.0
 40
0.0
 40
0.0
 40
0.2440950588
 40
0.4947009587
 40
0.621351469
 40
0.7481999949
 40
1.0
 40
1.0
 40
1.0
 40
1.0
 10
15.9753615376
 20
13.4319246982
 30
0.0
 10
15.9802638272
 20
13.4180619026
 30
0.0
 10
15.9928309616
 20
13.3908422165
 30
0.0
 10
16.0141504353
 20
13.3598637103
 30
0.0
 10
16.0343175808
 20
13.337118637
 30
0.0
 10
16.0563184936
 20
13.3160498932
 30
0.0
 10
16.0747056096
 20
13.3023210345
 30
0.0
 10
16.0875837763
 20
13.2943068438
 30
0.0
  0
SPLINE
  5
381
100
AcDbEntity
  8
0
100
AcDbSpline
 62
7
  6
CONTINUOUS
 70
0
 71
3
 72
15
 73
11
 74
0
 42
0.0000001
 43
0.0000001
 44
0.0000000001
 40
0.0
 40
0.0
 40
0.0
 40
0.0
 40
0.1353512512
 40
0.2680252664
 40
0.3975719459
 40
0.5238898926
 40
0.6470447981
 40
0.7672466312
 40
0.8848037513
 40
1.0
 40
1.0
 40
1.0
 40
1.0
 10
16.1281912036
 20
13.2737196791
 30
0.0
 10
16.134906397
 20
13.2710447046
 30
0.0
 10
16.1484487488
 20
13.2663377339
 30
0.0
 10
16.1690927958
 20
13.2612454395
 30
0.0
 10
16.1896620805
 20
13.2582614294
 30
0.0
 10
16.2099226844
 20
13.2574110824
 30
0.0
 10
16.2296620237
 20
13.2587124169
 30
0.0
 10
16.2486723143
 20
13.2621499285
 30
0.0
 10
16.266731898
 20
13.2677004258
 30
0.0
 10
16.2781087965
 20
13.2728039674
 30
0.0
 10
16.2835466469
 20
13.2756809261
 30
0.0
  0
SPLINE
  5
382
100
AcDbEntity
  8
0
100
AcDbSpline
 62
7
  6
CONTINUOUS
 70
0
 71
3
 72
11
 73
7
 74
0
 42
0.0000001
 43
0.0000001
 44
0.0000000001
 40
0.0
 40
0.0
 40
0.0
 40
0.0
 40
0.2177288491
 40
0.4520661867
 40
0.7111879208
 40
1.0
 40
1.0
 40
1.0
 40
1.0
 10
18.1925554712
 20
12.5008654524
 30
0.0
 10
18.1920566591
 20
12.5008656856
 30
0.0
 10
18.1910168966
 20
12.5007191146
 30
0.0
 10
18.1894981364
 20
12.5000937955
 30
0.0
 10
18.188003604
 20
12.4990874031
 30
0.0
 10
18.1870864476
 20
12.4982226901
 30
0.0
 10
18.1866345509
 20
12.4977393822
 30
0.0
  0
SPLINE
  5
383
100
AcDbEntity
  8
0
100
AcDbSpline
 62
7
  6
CONTINUOUS
 70
0
 71
3
 72
9
 73
5
 74
0
 42
0.0000001
 43
0.0000001
 44
0.0000000001
 40
0.0
 40
0.0
 40
0.0
 40
0.0
 40
0.4681719683
 40
1.0
 40
1.0
 40
1.0
 40
1.0
 10
18.1866345509
 20
12.4977393822
 30
0.0
 10
18.1858285574
 20
12.4968773645
 30
0.0
 10
18.1843097
 20
12.4948460034
 30
0.0
 10
18.1831099404
 20
12.4926211256
 30
0.0
 10
18.1825429009
 20
12.4914063678
 30
0.0
  0
SPLINE
  5
384
100
AcDbEntity
  8
0
100
AcDbSpline
 62
7
  6
CONTINUOUS
 70
0
 71
3
 72
23
 73
19
 74
0
 42
0.0000001
 43
0.0000001
 44
0.0000000001
 40
0.0
 40
0.0
 40
0.0
 40
0.0
 40
0.0647127371
 40
0.1313571884
 40
0.1993432184
 40
0.2681740513
 40
0.3373490435
 40
0.4063092169
 40
0.4744947258
 40
0.541398072
 40
0.6065640756
 40
0.6696281259
 40
0.7303223049
 40
0.7885322058
 40
0.844290087
 40
0.8978233387
 40
0.9495324055
 40
1.0
 40
1.0
 40
1.0
 40
1.0
 10
13.3194255837
 20
12.3738128884
 30
0.0
 10
13.3118425015
 20
12.3738128884
 30
0.0
 10
13.2964398192
 20
12.3729438754
 30
0.0
 10
13.2733384142
 20
12.3692414083
 30
0.0
 10
13.2502488545
 20
12.3631489783
 30
0.0
 10
13.2275659574
 20
12.3547905563
 30
0.0
 10
13.2056644027
 20
12.3442924211
 30
0.0
 10
13.1848964997
 20
12.3318451628
 30
0.0
 10
13.1656198739
 20
12.3176363074
 30
0.0
 10
13.1481442865
 20
12.3019172077
 30
0.0
 10
13.1327725978
 20
12.2849323554
 30
0.0
 10
13.1197465125
 20
12.2669743003
 30
0.0
 10
13.1093031205
 20
12.2483238372
 30
0.0
 10
13.1016032473
 20
12.2292961213
 30
0.0
 10
13.0968055653
 20
12.2101940867
 30
0.0
 10
13.0949840047
 20
12.1913373735
 30
0.0
 10
13.0962091137
 20
12.1730504814
 30
0.0
 10
13.0990666676
 20
12.1613477204
 30
0.0
 10
13.1009824332
 20
12.1557527951
 30
0.0
  0
SPLINE
  5
385
100
AcDbEntity
  8
0
100
AcDbSpline
 62
7
  6
CONTINUOUS
 70
0
 71
3
 72
15
 73
11
 74
0
 42
0.0000001
 43
0.0000001
 44
0.0000000001
 40
0.0
 40
0.0
 40
0.0
 40
0.0
 40
0.1792126378
 40
0.3438834864
 40
0.4926678161
 40
0.6245071448
 40
0.7391887074
 40
0.8379630159
 40
0.9233986113
 40
1.0
 40
1.0
 40
1.0
 40
1.0
 10
13.1342915037
 20
12.4914063678
 30
0.0
 10
13.1343899547
 20
12.4920572643
 30
0.0
 10
13.1346110188
 20
12.4933017583
 30
0.0
 10
13.1350358945
 20
12.4950621981
 30
0.0
 10
13.1355348289
 20
12.4966217938
 30
0.0
 10
13.1361027061
 20
12.4979610673
 30
0.0
 10
13.136736406
 20
12.4990643122
 30
0.0
 10
13.1374310202
 20
12.499922534
 30
0.0
 10
13.1381857631
 20
12.500527785
 30
0.0
 10
13.1387488922
 20
12.5007549628
 30
0.0
 10
13.1390242374
 20
12.5008129212
 30
0.0
  0
SPLINE
  5
386
100
AcDbEntity
  8
0
100
AcDbSpline
 62
7
  6
CONTINUOUS
 70
0
 71
3
 72
15
 73
11
 74
0
 42
0.0000001
 43
0.0000001
 44
0.0000000001
 40
0.0
 40
0.0
 40
0.0
 40
0.0
 40
0.1172631605
 40
0.2353846574
 40
0.3551573996
 40
0.4773043627
 40
0.6024661797
 40
0.7311681121
 40
0.8636852046
 40
1.0
 40
1.0
 40
1.0
 40
1.0
 10
12.8390266866
 20
11.984035099
 30
0.0
 10
12.842583189
 20
11.9767857606
 30
0.0
 10
12.8506382835
 20
11.9626634782
 30
0.0
 10
12.8653194851
 20
11.9430319163
 30
0.0
 10
12.8824840221
 20
11.9250602487
 30
0.0
 10
12.901999502
 20
11.9089089029
 30
0.0
 10
12.9237000722
 20
11.8946917813
 30
0.0
 10
12.947416767
 20
11.8825284024
 30
0.0
 10
12.9729372904
 20
11.8725139856
 30
0.0
 10
12.9907557177
 20
11.8673848083
 30
0.0
 10
12.9998815368
 20
11.8651873991
 30
0.0
  0
SPLINE
  5
387
100
AcDbEntity
  8
0
100
AcDbSpline
 62
7
  6
CONTINUOUS
 70
0
 71
3
 72
15
 73
11
 74
0
 42
0.0000001
 43
0.0000001
 44
0.0000000001
 40
0.0
 40
0.0
 40
0.0
 40
0.0
 40
0.1015371073
 40
0.2167334629
 40
0.3425339162
 40
0.4754152572
 40
0.61157485
 40
0.7470839813
 40
0.8779577573
 40
1.0
 40
1.0
 40
1.0
 40
1.0
 10
12.9693773501
 20
11.9273483959
 30
0.0
 10
12.9688393861
 20
11.9284446513
 30
0.0
 10
12.9679282359
 20
11.9309018385
 30
0.0
 10
12.9670379523
 20
11.9349332742
 30
0.0
 10
12.9665814436
 20
11.9394155089
 30
0.0
 10
12.9665651802
 20
11.9441708831
 30
0.0
 10
12.96699519
 20
11.9490237265
 30
0.0
 10
12.9678505114
 20
11.9537958173
 30
0.0
 10
12.96910715
 20
11.9583019334
 30
0.0
 10
12.97021754
 20
11.9611418361
 30
0.0
 10
12.9708383652
 20
11.9624718178
 30
0.0
  0
SPLINE
  5
388
100
AcDbEntity
  8
0
100
AcDbSpline
 62
7
  6
CONTINUOUS
 70
0
 71
3
 72
9
 73
5
 74
0
 42
0.0000001
 43
0.0000001
 44
0.0000000001
 40
0.0
 40
0.0
 40
0.0
 40
0.0
 40
0.4802383977
 40
1.0
 40
1.0
 40
1.0
 40
1.0
 10
17.3765007788
 20
11.8903881863
 30
0.0
 10
17.3784789067
 20
11.8878520248
 30
0.0
 10
17.3829948815
 20
11.8828763347
 30
0.0
 10
17.3880626745
 20
11.8784739258
 30
0.0
 10
17.3908109402
 20
11.8763373405
 30
0.0
  0
SPLINE
  5
389
100
AcDbEntity
  8
0
100
AcDbSpline
 62
7
  6
CONTINUOUS
 70
0
 71
3
 72
18
 73
14
 74
0
 42
0.0000001
 43
0.0000001
 44
0.0000000001
 40
0.0
 40
0.0
 40
0.0
 40
0.0
 40
0.1069734314
 40
0.2199206181
 40
0.3391489843
 40
0.4010674308
 40
0.4643658818
 40
0.528915968
 40
0.5945510636
 40
0.7282629442
 40
0.8640347505
 40
0.9321523912
 40
1.0
 40
1.0
 40
1.0
 40
1.0
 10
17.1771705996
 20
12.1649465509
 30
0.0
 10
17.1780723944
 20
12.1812793507
 30
0.0
 10
17.1834648504
 20
12.2147312706
 30
0.0
 10
17.2010518244
 20
12.2637740425
 30
0.0
 10
17.2230457153
 20
12.3032280207
 30
0.0
 10
17.2447341746
 20
12.3337004605
 30
0.0
 10
17.2632067589
 20
12.3561116654
 30
0.0
 10
17.2835558618
 20
12.3776193113
 30
0.0
 10
17.3131641019
 20
12.4050731021
 30
0.0
 10
17.3540174483
 20
12.4362427204
 30
0.0
 10
17.3986725188
 20
12.4624092018
 30
0.0
 10
17.4362800981
 20
12.4801255677
 30
0.0
 10
17.4555992766
 20
12.487851016
 30
0.0
 10
17.4653458758
 20
12.4914063678
 30
0.0
  0
SPLINE
  5
38A
100
AcDbEntity
  8
0
100
AcDbSpline
 62
7
  6
CONTINUOUS
 70
0
 71
3
 72
16
 73
12
 74
0
 42
0.0000001
 43
0.0000001
 44
0.0000000001
 40
0.0
 40
0.0
 40
0.0
 40
0.0
 40
0.3576695533
 40
0.5138619378
 40
0.6529212375
 40
0.7731072255
 40
0.8722444706
 40
0.9132491453
 40
0.9481949065
 40
0.9770171238
 40
1.0
 40
1.0
 40
1.0
 40
1.0
 10
13.0064318788
 20
12.9668353087
 30
0.0
 10
13.0042124565
 20
12.9693957606
 30
0.0
 10
13.0009649313
 20
12.9730252378
 30
0.0
 10
12.9966644672
 20
12.9774722204
 30
0.0
 10
12.9938377463
 20
12.9802123887
 30
0.0
 10
12.9912981602
 20
12.9824671806
 30
0.0
 10
12.9893510492
 20
12.9839871721
 30
0.0
 10
12.9879581713
 20
12.9848898126
 30
0.0
 10
12.9870825212
 20
12.9853612437
 30
0.0
 10
12.9863164885
 20
12.985663528
 30
0.0
 10
12.9858270438
 20
12.9857549141
 30
0.0
 10
12.9856093097
 20
12.9857549159
 30
0.0
  0
SPLINE
  5
38B
100
AcDbEntity
  8
0
100
AcDbSpline
 62
7
  6
CONTINUOUS
 70
0
 71
3
 72
13
 73
9
 74
0
 42
0.0000001
 43
0.0000001
 44
0.0000000001
 40
0.0
 40
0.0
 40
0.0
 40
0.0
 40
0.2567554791
 40
0.5133753624
 40
0.6400300014
 40
0.7642795636
 40
0.8848256738
 40
1.0
 40
1.0
 40
1.0
 40
1.0
 10
12.5011184287
 20
11.3316403849
 30
0.0
 10
12.4963091733
 20
11.328401514
 30
0.0
 10
12.487074571
 20
11.3213416181
 30
0.0
 10
12.4767155262
 20
11.3111975384
 30
0.0
 10
12.4694345944
 20
11.3023329496
 30
0.0
 10
12.464659409
 20
11.2954219189
 30
0.0
 10
12.4607127888
 20
11.2882991229
 30
0.0
 10
12.4587164737
 20
11.2833408069
 30
0.0
 10
12.4579485023
 20
11.2808558337
 30
0.0
  0
ELLIPSE
  5
38C
100
AcDbEntity
  8
0
100
AcDbEllipse
 62
7
  6
CONTINUOUS
 10
15.9978552569
 20
4.2940901664
 30
0.0
 11
0.0
 21
1.3995190528
 31
0.0
 40
0.2679491924
 41
-1.223255469
 42
1.223255469
  0
ELLIPSE
  5
38D
100
AcDbEntity
  8
0
100
AcDbEllipse
 62
7
  6
CONTINUOUS
 10
17.6808616999
 20
11.9275548355
 30
0.0
 11
-0.7514367864
 21
0.902982622
 31
0.0
 40
0.2216133796
 41
5.2031965479
 42
7.7120986679
  0
ENDSEC
  0
SECTION
  2
OBJECTS
  0
DICTIONARY
  5
C
100
AcDbDictionary
280
0
281
1
  3
ACAD_GROUP
350
D
  3
ACAD_MLINESTYLE
350
17
  3
ACAD_LAYOUT
350
1A
  3
ACAD_PLOTSETTINGS
350
19
  3
ACAD_PLOTSTYLENAME
350
E
  0
DICTIONARY
  5
D
102
{ACAD_REACTORS
330
C
102
}
100
AcDbDictionary
280
0
281
1
  0
ACDBDICTIONARYWDFLT
  5
E
102
{ACAD_REACTORS
330
C
102
}
100
AcDbDictionary
281
1
  3
Normal
350
F
100
AcDbDictionaryWithDefault
340
F
  0
DICTIONARY
  5
17
102
{ACAD_REACTORS
330
C
102
}
100
AcDbDictionary
280
0
281
1
  3
Standard
350
18
  0
DICTIONARY
  5
19
102
{ACAD_REACTORS
330
C
102
}
100
AcDbDictionary
281
1
  0
DICTIONARY
  5
1A
102
{ACAD_REACTORS
330
C
102
}
100
AcDbDictionary
281
1
  3
Model
350
38E
  3
Layout1
350
38F
  0
ACDBPLACEHOLDER
  5
F
102
{ACAD_REACTORS
330
E
102
}
  0
MLINESTYLE
  5
18
102
{ACAD_REACTORS
330
17
102
}
100
AcDbMlineStyle
  2
STANDARD
 70
0
  3

 62
256
 51
90.0
 52
90.0
 71
2
 49
0.5
 62
256
  6
BYLAYER
 49
-0.5
 62
256
  6
BYLAYER
  0
LAYOUT
  5
38E
102
{ACAD_REACTORS
330
1A
102
}
100
AcDbPlotSettings
  1

  2
none_device
  4
ANSI_C_(22.00_x_17.00_Inches)
  6

 40
0.0
 41
0.0
 42
0.0
 43
0.0
 44
558.8
 45
431.8
 46
0.0
 47
0.0
 48
0.0
 49
0.0
140
0.0
141
0.0
142
1.0
143
1.0
 70
1024
 72
0
 73
0
 74
0
  7

 75
0
147
1.0
148
0.0
149
0.0
100
AcDbLayout
  1
Model
 70
0
 71
0
 10
0.0
 20
0.0
 11
22.0
 21
17.0
 12
0.0
 22
0.0
 32
0.0
 14
0.0
 24
0.0
 34
0.0
 15
0.0
 25
0.0
 35
0.0
146
0.0
 13
0.0
 23
0.0
 33
0.0
 16
1.0
 26
0.0
 36
0.0
 17
0.0
 27
1.0
 37
0.0
 76
0
330
23B
345
0
346
0
  0
LAYOUT
  5
38F
102
{ACAD_REACTORS
330
1A
102
}
100
AcDbPlotSettings
  1

  2
none_device
  4
ANSI_C_(22.00_x_17.00_Inches)
  6

 40
0.0
 41
0.0
 42
0.0
 43
0.0
 44
558.8
 45
431.8
 46
0.0
 47
0.0
 48
0.0
 49
0.0
140
0.0
141
0.0
142
1.0
143
1.0
 70
0
 72
0
 73
0
 74
0
  7

 75
0
147
1.0
148
0.0
149
0.0
100
AcDbLayout
  1
Layout1
 70
0
 71
1
 10
0.0
 20
0.0
 11
22.0
 21
17.0
 12
0.0
 22
0.0
 32
0.0
 14
0.0
 24
0.0
 34
0.0
 15
0.0
 25
0.0
 35
0.0
146
0.0
 13
0.0
 23
0.0
 33
0.0
 16
1.0
 26
0.0
 36
0.0
 17
0.0
 27
1.0
 37
0.0
 76
0
330
23C
345
0
346
0
  0
ENDSEC
  0
EOF