999
DXF file: _cgs_temp_output.dxf
999
Pro/ENGINEER 2015110 by Parametric Technology Corporation
  0
SECTION
  2
HEADER
  9
$ACADVER
  1
AC1021
  9
$DWGCODEPAGE
  3
ANSI_1252
  9
$EXTMAX
 10
22.0
 20
17.0
 30
0.0
  9
$EXTMIN
 10
0.0
 20
0.0
 30
0.0
  9
$LIMMIN
 10
0.0
 20
0.0
  9
$LIMMAX
 10
22.0
 20
17.0
  9
$VIEWCTR
 10
11.0
 20
8.5
  9
$VIEWSIZE
 40
17.0
  9
$CLAYER
  8
0
  9
$LTSCALE
 40
1.21
  9
$CELTYPE
  6
BYLAYER
  9
$DIMSCALE
 40
1.0
  9
$DIMASZ
 40
0.1875
  9
$DIMEXO
 40
0.0625
  9
$DIMDLI
 40
0.836
  9
$DIMEXE
 40
0.125
  9
$DIMCEN
 40
0.198
  9
$DIMLFAC
 40
1.0
  9
$DIMBLK
  1
_CLOSED
  9
$DIMALT
 70
0
  9
$DIMALTF
 40
25.4
  9
$DIMTXT
 40
0.15625
  9
$DIMTOL
 70
0
  9
$DIMLIM
 70
0
  9
$DIMTFAC
 40
1.0
  9
$DIMGAP
 40
0.09
  9
$DIMDSEP
 70
46
  9
$AUNITS
 70
0
  9
$PDMODE
 70
3
  9
$PDSIZE
 40
0.3125
  9
$HANDSEED
  5
290
  9
$TILEMODE
 70
1
  9
$MEASUREMENT
 70
0
  9
$INSUNITS
 70
1
  0
ENDSEC
  0
SECTION
  2
CLASSES
  0
CLASS
  1
ACDBDICTIONARYWDFLT
  2
AcDbDictionaryWithDefault
  3
AutoCAD 2000
 90
0
 91
1
280
0
281
0
  0
CLASS
  1
ACDBPLACEHOLDER
  2
AcDbPlaceHolder
  3
AutoCAD 2000
 90
0
 91
1
280
0
281
0
  0
CLASS
  1
LAYOUT
  2
AcDbLayout
  3
AutoCAD 2000
 90
0
 91
0
280
0
281
0
  0
ENDSEC
  0
SECTION
  2
TABLES
  0
TABLE
  2
VPORT
  5
8
100
AcDbSymbolTable
 70
2
  0
VPORT
  5
1F4
100
AcDbSymbolTableRecord
100
AcDbViewportTableRecord
  2
*ACTIVE
 70
0
 10
0.0
 20
0.0
 11
1.0
 21
1.0
 12
11.0
 22
8.5
 13
0.0
 23
0.0
 14
1.0
 24
1.0
 15
0.0
 25
0.0
 16
0.0
 26
0.0
 36
1.0
 17
0.0
 27
0.0
 37
0.0
 40
17.0
 41
1.2941176471
 42
50.0
 43
0.0
 44
0.0
 50
0.0
 51
0.0
 71
0
 72
100
 73
1
 74
1
 75
0
 76
0
 77
0
 78
0
  0
ENDTAB
  0
TABLE
  2
LTYPE
  5
5
100
AcDbSymbolTable
 70
6
  0
LTYPE
  5
14
100
AcDbSymbolTableRecord
100
AcDbLinetypeTableRecord
  2
BYBLOCK
 70
0
  3

 72
65
 73
0
 40
0.0
  0
LTYPE
  5
15
100
AcDbSymbolTableRecord
100
AcDbLinetypeTableRecord
  2
BYLAYER
 70
0
  3

 72
65
 73
0
 40
0.0
  0
LTYPE
  5
16
100
AcDbSymbolTableRecord
100
AcDbLinetypeTableRecord
  2
CONTINUOUS
 70
64
  3
Solid line
 72
65
 73
0
 40
0.0
  0
LTYPE
  5
1F5
100
AcDbSymbolTableRecord
100
AcDbLinetypeTableRecord
  2
CENTER
 70
64
  3
____ _ ____ _ ____ _ ____ _ ____ _ ____ _ ____
 72
65
 73
4
 40
0.6
 49
0.375
 74
0
 49
-0.075
 74
0
 49
0.075
 74
0
 49
-0.075
 74
0
  0
LTYPE
  5
1F6
100
AcDbSymbolTableRecord
100
AcDbLinetypeTableRecord
  2
HIDDEN
 70
64
  3
- - - - - - - - - - - - - - - - - - - -
 72
65
 73
2
 40
0.2
 49
0.1
 74
0
 49
-0.1
 74
0
  0
LTYPE
  5
1F7
100
AcDbSymbolTableRecord
100
AcDbLinetypeTableRecord
  2
PHANTOM
 70
64
  3
_____ _ _ _____ _ _ _____ _ _ _____
 72
65
 73
6
 40
0.8
 49
0.45
 74
0
 49
-0.05
 74
0
 49
0.1
 74
0
 49
-0.05
 74
0
 49
0.1
 74
0
 49
-0.05
 74
0
  0
LTYPE
  5
1F8
100
AcDbSymbolTableRecord
100
AcDbLinetypeTableRecord
  2
DOT
 70
64
  3
. . . . . . . . . . . . . . . . . . . .
 72
65
 73
2
 40
0.2
 49
0.1
 74
0
 49
-0.1
 74
0
  0
LTYPE
  5
1F9
100
AcDbSymbolTableRecord
100
AcDbLinetypeTableRecord
  2
DASHED
 70
64
  3
- - - - - - - - - - - - - - - - - - - -
 72
65
 73
2
 40
0.2
 49
0.1
 74
0
 49
-0.1
 74
0
  0
ENDTAB
  0
TABLE
  2
LAYER
  5
2
100
AcDbSymbolTable
 70
36
  0
LAYER
  5
10
100
AcDbSymbolTableRecord
100
AcDbLayerTableRecord
  2
0
 70
0
 62
7
  6
CONTINUOUS
370
-3
390
F
  0
LAYER
  5
1FA
100
AcDbSymbolTableRecord
100
AcDbLayerTableRecord
  2
DEFAULT_1
 70
0
 62
7
  6
CENTER
370
-3
390
F
  0
LAYER
  5
1FB
100
AcDbSymbolTableRecord
100
AcDbLayerTableRecord
  2
DEFAULT_2
 70
0
 62
8
  6
HIDDEN
370
-3
390
F
  0
LAYER
  5
1FC
100
AcDbSymbolTableRecord
100
AcDbLayerTableRecord
  2
DEFAULT_3
 70
0
 62
7
  6
PHANTOM
370
-3
390
F
  0
LAYER
  5
1FD
100
AcDbSymbolTableRecord
100
AcDbLayerTableRecord
  2
01_ALL_DTM_PLN
 70
0
 62
7
  6
CONTINUOUS
370
-3
390
F
  0
LAYER
  5
1FE
100
AcDbSymbolTableRecord
100
AcDbLayerTableRecord
  2
01__ASM_ALL_DTM_PLN
 70
0
 62
7
  6
CONTINUOUS
370
-3
390
F
  0
LAYER
  5
1FF
100
AcDbSymbolTableRecord
100
AcDbLayerTableRecord
  2
01__ASM_DEF_DTM_PLN
 70
0
 62
7
  6
CONTINUOUS
370
-3
390
F
  0
LAYER
  5
200
100
AcDbSymbolTableRecord
100
AcDbLayerTableRecord
  2
01___PRT_ALL_DTM_PLN
 70
0
 62
7
  6
CONTINUOUS
370
-3
390
F
  0
LAYER
  5
201
100
AcDbSymbolTableRecord
100
AcDbLayerTableRecord
  2
01___PRT_DEF_DTM_PLN
 70
0
 62
7
  6
CONTINUOUS
370
-3
390
F
  0
LAYER
  5
202
100
AcDbSymbolTableRecord
100
AcDbLayerTableRecord
  2
02_ALL_AXES
 70
0
 62
7
  6
CONTINUOUS
370
-3
390
F
  0
LAYER
  5
203
100
AcDbSymbolTableRecord
100
AcDbLayerTableRecord
  2
02__ASM_ALL_AXES
 70
0
 62
7
  6
CONTINUOUS
370
-3
390
F
  0
LAYER
  5
204
100
AcDbSymbolTableRecord
100
AcDbLayerTableRecord
  2
02___PRT_ALL_AXES
 70
0
 62
7
  6
CONTINUOUS
370
-3
390
F
  0
LAYER
  5
205
100
AcDbSymbolTableRecord
100
AcDbLayerTableRecord
  2
03_ALL_CURVES
 70
0
 62
7
  6
CONTINUOUS
370
-3
390
F
  0
LAYER
  5
206
100
AcDbSymbolTableRecord
100
AcDbLayerTableRecord
  2
03__ASM_ALL_CURVES
 70
0
 62
7
  6
CONTINUOUS
370
-3
390
F
  0
LAYER
  5
207
100
AcDbSymbolTableRecord
100
AcDbLayerTableRecord
  2
03___PRT_ALL_CURVES
 70
0
 62
7
  6
CONTINUOUS
370
-3
390
F
  0
LAYER
  5
208
100
AcDbSymbolTableRecord
100
AcDbLayerTableRecord
  2
04_ALL_DTM_PNT
 70
0
 62
7
  6
CONTINUOUS
370
-3
390
F
  0
LAYER
  5
209
100
AcDbSymbolTableRecord
100
AcDbLayerTableRecord
  2
04__ASM_ALL_DTM_PNT
 70
0
 62
7
  6
CONTINUOUS
370
-3
390
F
  0
LAYER
  5
20A
100
AcDbSymbolTableRecord
100
AcDbLayerTableRecord
  2
04___PRT_ALL_DTM_PNT
 70
0
 62
7
  6
CONTINUOUS
370
-3
390
F
  0
LAYER
  5
20B
100
AcDbSymbolTableRecord
100
AcDbLayerTableRecord
  2
05_ALL_DTM_CSYS
 70
0
 62
7
  6
CONTINUOUS
370
-3
390
F
  0
LAYER
  5
20C
100
AcDbSymbolTableRecord
100
AcDbLayerTableRecord
  2
05__ASM_ALL_DTM_CSYS
 70
0
 62
7
  6
CONTINUOUS
370
-3
390
F
  0
LAYER
  5
20D
100
AcDbSymbolTableRecord
100
AcDbLayerTableRecord
  2
05__ASM_DEF_DTM_CSYS
 70
0
 62
7
  6
CONTINUOUS
370
-3
390
F
  0
LAYER
  5
20E
100
AcDbSymbolTableRecord
100
AcDbLayerTableRecord
  2
05___PRT_ALL_DTM_CSYS
 70
0
 62
7
  6
CONTINUOUS
370
-3
390
F
  0
LAYER
  5
20F
100
AcDbSymbolTableRecord
100
AcDbLayerTableRecord
  2
05___PRT_DEF_DTM_CSYS
 70
0
 62
7
  6
CONTINUOUS
370
-3
390
F
  0
LAYER
  5
210
100
AcDbSymbolTableRecord
100
AcDbLayerTableRecord
  2
06_ALL_SURFS
 70
0
 62
7
  6
CONTINUOUS
370
-3
390
F
  0
LAYER
  5
211
100
AcDbSymbolTableRecord
100
AcDbLayerTableRecord
  2
06__ASM_ALL_SURFS
 70
0
 62
7
  6
CONTINUOUS
370
-3
390
F
  0
LAYER
  5
212
100
AcDbSymbolTableRecord
100
AcDbLayerTableRecord
  2
06___PRT_ALL_SURFS
 70
0
 62
7
  6
CONTINUOUS
370
-3
390
F
  0
LAYER
  5
213
100
AcDbSymbolTableRecord
100
AcDbLayerTableRecord
  2
07__ASM_ALL_SKELETONS
 70
0
 62
7
  6
CONTINUOUS
370
-3
390
F
  0
ENDTAB
  0
TABLE
  2
STYLE
  5
3
100
AcDbSymbolTable
 70
1
  0
STYLE
  5
11
100
AcDbSymbolTableRecord
100
AcDbTextStyleTableRecord
  2
STANDARD
 70
0
 40
0.0
 41
0.8
 50
0.0
 71
0
 42
0.2
  3
txt
  4

  0
STYLE
  5
214
100
AcDbSymbolTableRecord
100
AcDbTextStyleTableRecord
  2
TEXTSTYLE_1
 70
0
 40
0.0
 41
0.8
 50
0.0
 71
0
 42
0.2
  3
gdt
  4

  0
ENDTAB
  0
TABLE
  2
VIEW
  5
6
100
AcDbSymbolTable
 70
0
  0
ENDTAB
  0
TABLE
  2
UCS
  5
7
100
AcDbSymbolTable
 70
0
  0
ENDTAB
  0
TABLE
  2
APPID
  5
9
100
AcDbSymbolTable
 70
1
  0
APPID
  5
215
100
AcDbSymbolTableRecord
100
AcDbRegAppTableRecord
  2
ACAD
 70
0
  0
ENDTAB
  0
TABLE
  2
BLOCK_RECORD
  5
1
100
AcDbSymbolTable
 70
0
  0
BLOCK_RECORD
  5
216
100
AcDbSymbolTableRecord
100
AcDbBlockTableRecord
  2
*Model_Space
  0
BLOCK_RECORD
  5
217
100
AcDbSymbolTableRecord
100
AcDbBlockTableRecord
  2
*Paper_Space
  0
ENDTAB
  0
TABLE
  2
DIMSTYLE
  5
A
100
AcDbSymbolTable
 70
1
100
AcDbDimStyleTable
 71
0
  0
DIMSTYLE
105
218
100
AcDbSymbolTableRecord
100
AcDbDimStyleTableRecord
  2
STANDARD
 70
0
  3

  4

 40
1.0
 41
0.1875
 42
0.0625
 43
0.38
 44
0.125
 45
0.0
 46
0.0
 47
0.0001
 48
0.0001
140
0.15625
141
0.09
142
0.0
143
25.4
144
1.0
145
0.0
146
1.0
147
0.09
 71
0.0
 72
0.0
 73
1
 74
1
 75
0
 76
0
 77
0
 78
4
170
0
171
2
172
0
173
0
174
0
175
0
176
0
177
0
178
0
270
2
271
4
272
4
273
2
274
2
275
0
280
0
281
0
282
0
283
1
284
4
285
0
286
0
287
3
288
0
340
11
278
46
  0
ENDTAB
  0
ENDSEC
  0
SECTION
  2
BLOCKS
  0
BLOCK
  5
20
100
AcDbEntity
  8
0
100
AcDbBlockBegin
  2
*Model_Space
 70
0
 10
0.0
 20
0.0
 30
0.0
  3
*Model_Space
  1

  0
ENDBLK
  5
21
100
AcDbEntity
  8
0
100
AcDbBlockEnd
  0
BLOCK
  5
1C
100
AcDbEntity
  8
0
100
AcDbBlockBegin
  2
*Paper_Space
 70
0
 10
0.0
 20
0.0
 30
0.0
  3
*Paper_Space
  1

  0
ENDBLK
  5
1D
100
AcDbEntity
  8
0
100
AcDbBlockEnd
  0
ENDSEC
  0
SECTION
  2
ENTITIES
  0
MTEXT
  5
219
100
AcDbEntity
  8
0
100
AcDbMText
 62
7
  6
CONTINUOUS
  7
STANDARD
 71
1
 72
1
 10
15.9560215477
 20
0.9479130325
 30
0.0
 11
1.0
 21
0.0
 31
0.0
 44
0.9
  1
SCALE: 1:1.000
 40
0.3
 41
3.36
  0
LINE
  5
21A
100
AcDbEntity
  8
0
100
AcDbLine
 62
7
  6
CONTINUOUS
 10
0.0
 20
0.0
 11
0.0
 21
17.0
  0
LINE
  5
21B
100
AcDbEntity
  8
0
100
AcDbLine
 62
7
  6
CONTINUOUS
 10
0.0
 20
0.0
 11
22.0
 21
0.0
  0
LINE
  5
21C
100
AcDbEntity
  8
0
100
AcDbLine
 62
7
  6
CONTINUOUS
 10
0.0
 20
17.0
 11
22.0
 21
17.0
  0
LINE
  5
21D
100
AcDbEntity
  8
0
100
AcDbLine
 62
7
  6
CONTINUOUS
 10
22.0
 20
0.0
 11
22.0
 21
17.0
  0
LINE
  5
21E
100
AcDbEntity
  8
0
100
AcDbLine
 62
7
  6
CONTINUOUS
 10
4.4768239691
 20
5.7169702905
 11
4.4768239691
 21
5.5594899755
  0
LINE
  5
21F
100
AcDbEntity
  8
0
100
AcDbLine
 62
7
  6
CONTINUOUS
 10
4.5801704258
 20
5.513558217
 11
4.5801704258
 21
5.4955135975
  0
LINE
  5
220
100
AcDbEntity
  8
0
100
AcDbLine
 62
7
  6
CONTINUOUS
 10
4.9246586147
 20
5.4955135975
 11
4.9246586147
 21
5.513558217
  0
LINE
  5
221
100
AcDbEntity
  8
0
100
AcDbLine
 62
7
  6
CONTINUOUS
 10
5.1313515281
 20
5.513558217
 11
5.1313515281
 21
5.4955135975
  0
LINE
  5
222
100
AcDbEntity
  8
0
100
AcDbLine
 62
7
  6
CONTINUOUS
 10
5.4758397171
 20
5.4955135975
 11
5.4758397171
 21
5.513558217
  0
LINE
  5
223
100
AcDbEntity
  8
0
100
AcDbLine
 62
7
  6
CONTINUOUS
 10
5.6825326305
 20
5.513558217
 11
5.6825326305
 21
5.4955135975
  0
LINE
  5
224
100
AcDbEntity
  8
0
100
AcDbLine
 62
7
  6
CONTINUOUS
 10
6.0270208195
 20
5.4955135975
 11
6.0270208195
 21
5.513558217
  0
LINE
  5
225
100
AcDbEntity
  8
0
100
AcDbLine
 62
7
  6
CONTINUOUS
 10
6.2337137329
 20
5.513558217
 11
6.2337137329
 21
5.4955135975
  0
LINE
  5
226
100
AcDbEntity
  8
0
100
AcDbLine
 62
7
  6
CONTINUOUS
 10
4.4768239691
 20
5.5594899755
 11
4.5342386672
 21
5.5594899755
  0
LINE
  5
227
100
AcDbEntity
  8
0
100
AcDbLine
 62
7
  6
CONTINUOUS
 10
4.9705903733
 20
5.5594899755
 11
5.0854197696
 21
5.5594899755
  0
LINE
  5
228
100
AcDbEntity
  8
0
100
AcDbLine
 62
7
  6
CONTINUOUS
 10
5.5217714756
 20
5.5594899755
 11
5.636600872
 21
5.5594899755
  0
LINE
  5
229
100
AcDbEntity
  8
0
100
AcDbLine
 62
7
  6
CONTINUOUS
 10
6.072952578
 20
5.5594899755
 11
6.1877819743
 21
5.5594899755
  0
LINE
  5
22A
100
AcDbEntity
  8
0
100
AcDbLine
 62
7
  6
CONTINUOUS
 10
6.6241336804
 20
5.5594899755
 11
6.7389630767
 21
5.5594899755
  0
LINE
  5
22B
100
AcDbEntity
  8
0
100
AcDbLine
 62
7
  6
CONTINUOUS
 10
7.1753147827
 20
5.5594899755
 11
7.2901441791
 21
5.5594899755
  0
LINE
  5
22C
100
AcDbEntity
  8
0
100
AcDbLine
 62
7
  6
CONTINUOUS
 10
7.7264958851
 20
5.5594899755
 11
7.7839105833
 21
5.5594899755
  0
LINE
  5
22D
100
AcDbEntity
  8
0
100
AcDbLine
 62
7
  6
CONTINUOUS
 10
7.7839105833
 20
5.7169702905
 11
4.4768239691
 21
5.7169702905
  0
LINE
  5
22E
100
AcDbEntity
  8
0
100
AcDbLine
 62
7
  6
CONTINUOUS
 10
6.5782019218
 20
5.4955135975
 11
6.5782019218
 21
5.513558217
  0
LINE
  5
22F
100
AcDbEntity
  8
0
100
AcDbLine
 62
7
  6
CONTINUOUS
 10
6.7848948352
 20
5.513558217
 11
6.7848948352
 21
5.4955135975
  0
LINE
  5
230
100
AcDbEntity
  8
0
100
AcDbLine
 62
7
  6
CONTINUOUS
 10
7.1293830242
 20
5.4955135975
 11
7.1293830242
 21
5.513558217
  0
LINE
  5
231
100
AcDbEntity
  8
0
100
AcDbLine
 62
7
  6
CONTINUOUS
 10
7.3360759376
 20
5.513558217
 11
7.3360759376
 21
5.4955135975
  0
LINE
  5
232
100
AcDbEntity
  8
0
100
AcDbLine
 62
7
  6
CONTINUOUS
 10
7.6805641266
 20
5.4955135975
 11
7.6805641266
 21
5.513558217
  0
LINE
  5
233
100
AcDbEntity
  8
0
100
AcDbLine
 62
7
  6
CONTINUOUS
 10
7.7839105833
 20
5.5594899755
 11
7.7839105833
 21
5.7169702905
  0
LINE
  5
234
100
AcDbEntity
  8
0
100
AcDbLine
 62
7
  6
CONTINUOUS
 10
7.7244153909
 20
10.3362682538
 11
4.4173287768
 21
10.3362682538
  0
LINE
  5
235
100
AcDbEntity
  8
0
100
AcDbLine
 62
7
  6
CONTINUOUS
 10
4.4173287768
 20
14.8638273089
 11
4.4173287768
 21
10.3362682538
  0
LINE
  5
236
100
AcDbEntity
  8
0
100
AcDbLine
 62
7
  6
CONTINUOUS
 10
7.7244153909
 20
14.8638273089
 11
7.7244153909
 21
10.3362682538
  0
LINE
  5
237
100
AcDbEntity
  8
0
100
AcDbLine
 62
7
  6
CONTINUOUS
 10
4.4173287768
 20
14.8638273089
 11
7.7244153909
 21
14.8638273089
  0
LINE
  5
238
100
AcDbEntity
  8
0
100
AcDbLine
 62
7
  6
CONTINUOUS
 10
13.2965757294
 20
5.2637743107
 11
13.2965757294
 21
5.6574750981
  0
LINE
  5
239
100
AcDbEntity
  8
0
100
AcDbLine
 62
7
  6
CONTINUOUS
 10
17.8241347845
 20
5.2637743107
 11
13.2965757294
 21
5.2637743107
  0
LINE
  5
23A
100
AcDbEntity
  8
0
100
AcDbLine
 62
7
  6
CONTINUOUS
 10
17.8241347845
 20
5.4999947832
 11
13.2965757294
 21
5.4999947832
  0
LINE
  5
23B
100
AcDbEntity
  8
0
100
AcDbLine
 62
7
  6
CONTINUOUS
 10
17.8241347845
 20
5.6574750981
 11
13.2965757294
 21
5.6574750981
  0
LINE
  5
23C
100
AcDbEntity
  8
0
100
AcDbLine
 62
7
  6
CONTINUOUS
 10
17.8241347845
 20
5.2637743107
 11
17.8241347845
 21
5.6574750981
  0
LINE
  5
23D
100
AcDbEntity
  8
0
100
AcDbLine
 62
7
  6
CONTINUOUS
 10
13.3760943946
 20
10.8598897385
 11
13.4241324838
 21
10.7619984049
  0
LINE
  5
23E
100
AcDbEntity
  8
0
100
AcDbLine
 62
7
  6
CONTINUOUS
 10
13.5333319833
 20
10.7334467659
 11
13.5388363477
 21
10.7222300506
  0
LINE
  5
23F
100
AcDbEntity
  8
0
100
AcDbLine
 62
7
  6
CONTINUOUS
 10
13.8561309814
 20
10.7222300506
 11
13.850626617
 21
10.7334467659
  0
LINE
  5
240
100
AcDbEntity
  8
0
100
AcDbLine
 62
7
  6
CONTINUOUS
 10
14.0410033973
 20
10.7334467659
 11
14.0465077617
 21
10.7222300506
  0
LINE
  5
241
100
AcDbEntity
  8
0
100
AcDbLine
 62
7
  6
CONTINUOUS
 10
13.4241324838
 20
10.7619984049
 11
13.4770149228
 21
10.7619984049
  0
LINE
  5
242
100
AcDbEntity
  8
0
100
AcDbLine
 62
7
  6
CONTINUOUS
 10
13.8789214589
 20
10.7619984049
 11
13.9846863368
 21
10.7619984049
  0
LINE
  5
243
100
AcDbEntity
  8
0
100
AcDbLine
 62
7
  6
CONTINUOUS
 10
14.3865928729
 20
10.7619984049
 11
14.4923577508
 21
10.7619984049
  0
LINE
  5
244
100
AcDbEntity
  8
0
100
AcDbLine
 62
7
  6
CONTINUOUS
 10
14.8942642869
 20
10.7619984049
 11
15.0000291648
 21
10.7619984049
  0
LINE
  5
245
100
AcDbEntity
  8
0
100
AcDbLine
 62
7
  6
CONTINUOUS
 10
15.4019357009
 20
10.7619984049
 11
15.5077005788
 21
10.7619984049
  0
LINE
  5
246
100
AcDbEntity
  8
0
100
AcDbLine
 62
7
  6
CONTINUOUS
 10
15.9096071149
 20
10.7619984049
 11
16.0153719928
 21
10.7619984049
  0
LINE
  5
247
100
AcDbEntity
  8
0
100
AcDbLine
 62
7
  6
CONTINUOUS
 10
16.4172785289
 20
10.7619984049
 11
16.4701609679
 21
10.7619984049
  0
LINE
  5
248
100
AcDbEntity
  8
0
100
AcDbLine
 62
7
  6
CONTINUOUS
 10
14.3638023955
 20
10.7222300506
 11
14.3582980311
 21
10.7334467659
  0
LINE
  5
249
100
AcDbEntity
  8
0
100
AcDbLine
 62
7
  6
CONTINUOUS
 10
14.472063969
 20
14.4064485813
 11
13.3760943946
 21
10.8598897385
  0
LINE
  5
24A
100
AcDbEntity
  8
0
100
AcDbLine
 62
7
  6
CONTINUOUS
 10
16.4221228787
 20
10.8598897385
 11
13.3760943946
 21
10.8598897385
  0
LINE
  5
24B
100
AcDbEntity
  8
0
100
AcDbLine
 62
7
  6
CONTINUOUS
 10
14.5486748113
 20
10.7334467659
 11
14.5541791757
 21
10.7222300506
  0
LINE
  5
24C
100
AcDbEntity
  8
0
100
AcDbLine
 62
7
  6
CONTINUOUS
 10
14.8714738095
 20
10.7222300506
 11
14.8659694451
 21
10.7334467659
  0
LINE
  5
24D
100
AcDbEntity
  8
0
100
AcDbLine
 62
7
  6
CONTINUOUS
 10
15.0563462253
 20
10.7334467659
 11
15.0618505897
 21
10.7222300506
  0
LINE
  5
24E
100
AcDbEntity
  8
0
100
AcDbLine
 62
7
  6
CONTINUOUS
 10
13.8900538787
 20
10.7619984049
 11
13.8620492627
 21
10.6713754345
  0
LINE
  5
24F
100
AcDbEntity
  8
0
100
AcDbLine
 62
7
  6
CONTINUOUS
 10
15.3791452235
 20
10.7222300506
 11
15.3736408591
 21
10.7334467659
  0
LINE
  5
250
100
AcDbEntity
  8
0
100
AcDbLine
 62
7
  6
CONTINUOUS
 10
15.5640176394
 20
10.7334467659
 11
15.5695220037
 21
10.7222300506
  0
LINE
  5
251
100
AcDbEntity
  8
0
100
AcDbLine
 62
7
  6
CONTINUOUS
 10
14.3977252927
 20
10.7619984049
 11
14.3697206768
 21
10.6713754345
  0
LINE
  5
252
100
AcDbEntity
  8
0
100
AcDbLine
 62
7
  6
CONTINUOUS
 10
15.8868166375
 20
10.7222300506
 11
15.8813122731
 21
10.7334467659
  0
LINE
  5
253
100
AcDbEntity
  8
0
100
AcDbLine
 62
7
  6
CONTINUOUS
 10
16.0716890534
 20
10.7334467659
 11
16.0771934178
 21
10.7222300506
  0
LINE
  5
254
100
AcDbEntity
  8
0
100
AcDbLine
 62
7
  6
CONTINUOUS
 10
14.9053967067
 20
10.7619984049
 11
14.8773920908
 21
10.6713754345
  0
LINE
  5
255
100
AcDbEntity
  8
0
100
AcDbLine
 62
7
  6
CONTINUOUS
 10
16.3944880515
 20
10.7222300506
 11
16.3889836871
 21
10.7334467659
  0
LINE
  5
256
100
AcDbEntity
  8
0
100
AcDbLine
 62
7
  6
CONTINUOUS
 10
16.4701609679
 20
10.7619984049
 11
16.4221228787
 21
10.8598897385
  0
LINE
  5
257
100
AcDbEntity
  8
0
100
AcDbLine
 62
7
  6
CONTINUOUS
 10
15.4130681207
 20
10.7619984049
 11
15.3850635048
 21
10.6713754345
  0
LINE
  5
258
100
AcDbEntity
  8
0
100
AcDbLine
 62
7
  6
CONTINUOUS
 10
15.9207395348
 20
10.7619984049
 11
15.8927349188
 21
10.6713754345
  0
LINE
  5
259
100
AcDbEntity
  8
0
100
AcDbLine
 62
7
  6
CONTINUOUS
 10
17.5180924531
 20
14.4064485813
 11
16.4221228787
 21
10.8598897385
  0
LINE
  5
25A
100
AcDbEntity
  8
0
100
AcDbLine
 62
7
  6
CONTINUOUS
 10
16.4284109488
 20
10.7619984049
 11
16.4004063328
 21
10.6713754345
  0
LINE
  5
25B
100
AcDbEntity
  8
0
100
AcDbLine
 62
7
  6
CONTINUOUS
 10
17.5661305424
 20
14.3085572477
 11
16.4701609679
 21
10.7619984049
  0
LINE
  5
25C
100
AcDbEntity
  8
0
100
AcDbLine
 62
7
  6
CONTINUOUS
 10
14.472063969
 20
14.4064485813
 11
17.5180924531
 21
14.4064485813
  0
LINE
  5
25D
100
AcDbEntity
  8
0
100
AcDbLine
 62
7
  6
CONTINUOUS
 10
17.5661305424
 20
14.3085572477
 11
17.5180924531
 21
14.4064485813
  0
ARC
  5
25E
100
AcDbEntity
  8
0
100
AcDbCircle
 62
7
  6
CONTINUOUS
 10
4.7524145203
 20
5.4955135975
 40
0.1722440945
100
AcDbArc
 50
180.0
 51
360.0
  0
ARC
  5
25F
100
AcDbEntity
  8
0
100
AcDbCircle
 62
7
  6
CONTINUOUS
 10
5.3035956226
 20
5.4955135975
 40
0.1722440945
100
AcDbArc
 50
180.0
 51
360.0
  0
ARC
  5
260
100
AcDbEntity
  8
0
100
AcDbCircle
 62
7
  6
CONTINUOUS
 10
7.5083200321
 20
5.4955135975
 40
0.1722440945
100
AcDbArc
 50
180.0
 51
360.0
  0
ARC
  5
261
100
AcDbEntity
  8
0
100
AcDbCircle
 62
7
  6
CONTINUOUS
 10
6.9571389297
 20
5.4955135975
 40
0.1722440945
100
AcDbArc
 50
180.0
 51
360.0
  0
ARC
  5
262
100
AcDbEntity
  8
0
100
AcDbCircle
 62
7
  6
CONTINUOUS
 10
6.4059578273
 20
5.4955135975
 40
0.1722440945
100
AcDbArc
 50
180.0
 51
360.0
  0
ARC
  5
263
100
AcDbEntity
  8
0
100
AcDbCircle
 62
7
  6
CONTINUOUS
 10
5.854776725
 20
5.4955135975
 40
0.1722440945
100
AcDbArc
 50
180.0
 51
360.0
  0
ARC
  5
264
100
AcDbEntity
  8
0
100
AcDbCircle
 62
7
  6
CONTINUOUS
 10
4.5342386672
 20
5.513558217
 40
0.0459317585
100
AcDbArc
 50
0.0
 51
90.0
  0
ARC
  5
265
100
AcDbEntity
  8
0
100
AcDbCircle
 62
7
  6
CONTINUOUS
 10
4.9705903733
 20
5.513558217
 40
0.0459317585
100
AcDbArc
 50
90.0
 51
180.0
  0
ARC
  5
266
100
AcDbEntity
  8
0
100
AcDbCircle
 62
7
  6
CONTINUOUS
 10
5.0854197696
 20
5.513558217
 40
0.0459317585
100
AcDbArc
 50
0.0
 51
90.0
  0
ARC
  5
267
100
AcDbEntity
  8
0
100
AcDbCircle
 62
7
  6
CONTINUOUS
 10
5.5217714756
 20
5.513558217
 40
0.0459317585
100
AcDbArc
 50
90.0
 51
180.0
  0
ARC
  5
268
100
AcDbEntity
  8
0
100
AcDbCircle
 62
7
  6
CONTINUOUS
 10
5.636600872
 20
5.513558217
 40
0.0459317585
100
AcDbArc
 50
0.0
 51
90.0
  0
ARC
  5
269
100
AcDbEntity
  8
0
100
AcDbCircle
 62
7
  6
CONTINUOUS
 10
6.072952578
 20
5.513558217
 40
0.0459317585
100
AcDbArc
 50
90.0
 51
180.0
  0
ARC
  5
26A
100
AcDbEntity
  8
0
100
AcDbCircle
 62
7
  6
CONTINUOUS
 10
6.1877819743
 20
5.513558217
 40
0.0459317585
100
AcDbArc
 50
0.0
 51
90.0
  0
ARC
  5
26B
100
AcDbEntity
  8
0
100
AcDbCircle
 62
7
  6
CONTINUOUS
 10
6.6241336804
 20
5.513558217
 40
0.0459317585
100
AcDbArc
 50
90.0
 51
180.0
  0
ARC
  5
26C
100
AcDbEntity
  8
0
100
AcDbCircle
 62
7
  6
CONTINUOUS
 10
6.7389630767
 20
5.513558217
 40
0.0459317585
100
AcDbArc
 50
0.0
 51
90.0
  0
ARC
  5
26D
100
AcDbEntity
  8
0
100
AcDbCircle
 62
7
  6
CONTINUOUS
 10
7.1753147827
 20
5.513558217
 40
0.0459317585
100
AcDbArc
 50
90.0
 51
180.0
  0
ARC
  5
26E
100
AcDbEntity
  8
0
100
AcDbCircle
 62
7
  6
CONTINUOUS
 10
7.2901441791
 20
5.513558217
 40
0.0459317585
100
AcDbArc
 50
0.0
 51
90.0
  0
ARC
  5
26F
100
AcDbEntity
  8
0
100
AcDbCircle
 62
7
  6
CONTINUOUS
 10
7.7264958851
 20
5.513558217
 40
0.0459317585
100
AcDbArc
 50
90.0
 51
180.0
  0
SPLINE
  5
270
100
AcDbEntity
  8
0
100
AcDbSpline
 62
7
  6
CONTINUOUS
 70
0
 71
3
 72
11
 73
7
 74
0
 42
0.0000001
 43
0.0000001
 44
0.0000000001
 40
0.0
 40
0.0
 40
0.0
 40
0.0
 40
0.2022168993
 40
0.4300144299
 40
0.696256416
 40
1.0
 40
1.0
 40
1.0
 40
1.0
 10
13.8490484796
 20
10.7470079905
 30
0.0
 10
13.8497550531
 20
10.749294662
 30
0.0
 10
13.8525192072
 20
10.753814979
 30
0.0
 10
13.8594537751
 20
10.7585687094
 30
0.0
 10
13.8685544063
 20
10.7614269061
 30
0.0
 10
13.8753264874
 20
10.7619984049
 30
0.0
 10
13.8789214589
 20
10.7619984049
 30
0.0
  0
SPLINE
  5
271
100
AcDbEntity
  8
0
100
AcDbSpline
 62
7
  6
CONTINUOUS
 70
0
 71
3
 72
11
 73
7
 74
0
 42
0.0000001
 43
0.0000001
 44
0.0000000001
 40
0.0
 40
0.0
 40
0.0
 40
0.0
 40
0.2022168993
 40
0.4300144299
 40
0.696256416
 40
1.0
 40
1.0
 40
1.0
 40
1.0
 10
14.3567198937
 20
10.7470079905
 30
0.0
 10
14.3574264671
 20
10.749294662
 30
0.0
 10
14.3601906212
 20
10.753814979
 30
0.0
 10
14.3671251891
 20
10.7585687094
 30
0.0
 10
14.3762258203
 20
10.7614269061
 30
0.0
 10
14.3829979014
 20
10.7619984049
 30
0.0
 10
14.3865928729
 20
10.7619984049
 30
0.0
  0
SPLINE
  5
272
100
AcDbEntity
  8
0
100
AcDbSpline
 62
7
  6
CONTINUOUS
 70
0
 71
3
 72
11
 73
7
 74
0
 42
0.0000001
 43
0.0000001
 44
0.0000000001
 40
0.0
 40
0.0
 40
0.0
 40
0.0
 40
0.2022168993
 40
0.4300144299
 40
0.696256416
 40
1.0
 40
1.0
 40
1.0
 40
1.0
 10
14.8643913077
 20
10.7470079905
 30
0.0
 10
14.8650978811
 20
10.749294662
 30
0.0
 10
14.8678620352
 20
10.753814979
 30
0.0
 10
14.8747966031
 20
10.7585687094
 30
0.0
 10
14.8838972343
 20
10.7614269061
 30
0.0
 10
14.8906693154
 20
10.7619984049
 30
0.0
 10
14.8942642869
 20
10.7619984049
 30
0.0
  0
SPLINE
  5
273
100
AcDbEntity
  8
0
100
AcDbSpline
 62
7
  6
CONTINUOUS
 70
0
 71
3
 72
11
 73
7
 74
0
 42
0.0000001
 43
0.0000001
 44
0.0000000001
 40
0.0
 40
0.0
 40
0.0
 40
0.0
 40
0.2022168993
 40
0.4300144299
 40
0.696256416
 40
1.0
 40
1.0
 40
1.0
 40
1.0
 10
15.3720627217
 20
10.7470079905
 30
0.0
 10
15.3727692952
 20
10.749294662
 30
0.0
 10
15.3755334493
 20
10.753814979
 30
0.0
 10
15.3824680171
 20
10.7585687094
 30
0.0
 10
15.3915686483
 20
10.7614269061
 30
0.0
 10
15.3983407294
 20
10.7619984049
 30
0.0
 10
15.4019357009
 20
10.7619984049
 30
0.0
  0
SPLINE
  5
274
100
AcDbEntity
  8
0
100
AcDbSpline
 62
7
  6
CONTINUOUS
 70
0
 71
3
 72
11
 73
7
 74
0
 42
0.0000001
 43
0.0000001
 44
0.0000000001
 40
0.0
 40
0.0
 40
0.0
 40
0.0
 40
0.2022168993
 40
0.4300144299
 40
0.696256416
 40
1.0
 40
1.0
 40
1.0
 40
1.0
 10
15.8797341357
 20
10.7470079905
 30
0.0
 10
15.8804407092
 20
10.749294662
 30
0.0
 10
15.8832048633
 20
10.753814979
 30
0.0
 10
15.8901394311
 20
10.7585687094
 30
0.0
 10
15.8992400623
 20
10.7614269061
 30
0.0
 10
15.9060121434
 20
10.7619984049
 30
0.0
 10
15.9096071149
 20
10.7619984049
 30
0.0
  0
SPLINE
  5
275
100
AcDbEntity
  8
0
100
AcDbSpline
 62
7
  6
CONTINUOUS
 70
0
 71
3
 72
11
 73
7
 74
0
 42
0.0000001
 43
0.0000001
 44
0.0000000001
 40
0.0
 40
0.0
 40
0.0
 40
0.0
 40
0.2022168993
 40
0.4300144299
 40
0.696256416
 40
1.0
 40
1.0
 40
1.0
 40
1.0
 10
16.3874055497
 20
10.7470079905
 30
0.0
 10
16.3881121232
 20
10.749294662
 30
0.0
 10
16.3908762773
 20
10.753814979
 30
0.0
 10
16.3978108451
 20
10.7585687094
 30
0.0
 10
16.4069114764
 20
10.7614269061
 30
0.0
 10
16.4136835574
 20
10.7619984049
 30
0.0
 10
16.4172785289
 20
10.7619984049
 30
0.0
  0
SPLINE
  5
276
100
AcDbEntity
  8
0
100
AcDbSpline
 62
7
  6
CONTINUOUS
 70
0
 71
3
 72
17
 73
13
 74
0
 42
0.0000001
 43
0.0000001
 44
0.0000000001
 40
0.0
 40
0.0
 40
0.0
 40
0.0
 40
0.1137563052
 40
0.2471371484
 40
0.3933411901
 40
0.542281105
 40
0.6832493338
 40
0.8074179548
 40
0.8618928065
 40
0.9113660806
 40
0.9568207822
 40
1.0
 40
1.0
 40
1.0
 40
1.0
 10
16.0771934178
 20
10.7222300506
 30
0.0
 10
16.083541143
 20
10.7092947466
 30
0.0
 10
16.1032622082
 20
10.684122343
 30
0.0
 10
16.1434196761
 20
10.6540475286
 30
0.0
 10
16.1928632213
 20
10.6308171167
 30
0.0
 10
16.2466426025
 20
10.6168467699
 30
0.0
 10
16.2993053008
 20
10.6134955118
 30
0.0
 10
16.3398194721
 20
10.6201788934
 30
0.0
 10
16.3664469466
 20
10.6317660223
 30
0.0
 10
16.3821149166
 20
10.6426446191
 30
0.0
 10
16.3938557214
 20
10.6558627748
 30
0.0
 10
16.3987912866
 20
10.6661500595
 30
0.0
 10
16.4004062916
 20
10.6713754473
 30
0.0
  0
SPLINE
  5
277
100
AcDbEntity
  8
0
100
AcDbSpline
 62
7
  6
CONTINUOUS
 70
0
 71
3
 72
17
 73
13
 74
0
 42
0.0000001
 43
0.0000001
 44
0.0000000001
 40
0.0
 40
0.0
 40
0.0
 40
0.0
 40
0.1137658663
 40
0.2471373552
 40
0.3933412907
 40
0.5422809546
 40
0.6832498864
 40
0.8074177704
 40
0.8618935677
 40
0.9113653627
 40
0.9568206339
 40
1.0
 40
1.0
 40
1.0
 40
1.0
 10
15.5695220037
 20
10.7222300506
 30
0.0
 10
15.5758702464
 20
10.7092936923
 30
0.0
 10
15.5955913228
 20
10.6841211175
 30
0.0
 10
15.6357499437
 20
10.654048314
 30
0.0
 10
15.6851913626
 20
10.6308165743
 30
0.0
 10
15.7389711221
 20
10.6168482062
 30
0.0
 10
15.7916336286
 20
10.613495013
 30
0.0
 10
15.8321474043
 20
10.620179728
 30
0.0
 10
15.8587753397
 20
10.6317654515
 30
0.0
 10
15.8744424258
 20
10.6426452776
 30
0.0
 10
15.886183147
 20
10.6558632667
 30
0.0
 10
15.8911188425
 20
10.6661503729
 30
0.0
 10
15.892734725
 20
10.6713754945
 30
0.0
  0
SPLINE
  5
278
100
AcDbEntity
  8
0
100
AcDbSpline
 62
7
  6
CONTINUOUS
 70
0
 71
3
 72
17
 73
13
 74
0
 42
0.0000001
 43
0.0000001
 44
0.0000000001
 40
0.0
 40
0.0
 40
0.0
 40
0.0
 40
0.1137676461
 40
0.2471380486
 40
0.393344036
 40
0.5422840271
 40
0.6832513686
 40
0.8074194343
 40
0.8618947818
 40
0.911368946
 40
0.9568233229
 40
1.0
 40
1.0
 40
1.0
 40
1.0
 10
15.0618505897
 20
10.7222300506
 30
0.0
 10
15.068198919
 20
10.7092935158
 30
0.0
 10
15.0879195582
 20
10.6841204291
 30
0.0
 10
15.1280799182
 20
10.6540494043
 30
0.0
 10
15.177520621
 20
10.6308167901
 30
0.0
 10
15.2313001756
 20
10.6168464114
 30
0.0
 10
15.2839625464
 20
10.6134962499
 30
0.0
 10
15.3244762078
 20
10.6201807991
 30
0.0
 10
15.3511037383
 20
10.6317666807
 30
0.0
 10
15.3667734895
 20
10.6426440691
 30
0.0
 10
15.3785086122
 20
10.6558659799
 30
0.0
 10
15.3834490162
 20
10.6661502482
 30
0.0
 10
15.38506372
 20
10.6713753662
 30
0.0
  0
SPLINE
  5
279
100
AcDbEntity
  8
0
100
AcDbSpline
 62
7
  6
CONTINUOUS
 70
0
 71
3
 72
17
 73
13
 74
0
 42
0.0000001
 43
0.0000001
 44
0.0000000001
 40
0.0
 40
0.0
 40
0.0
 40
0.0
 40
0.1137676461
 40
0.2471380486
 40
0.393344036
 40
0.5422840271
 40
0.6832513686
 40
0.8074194343
 40
0.8618947818
 40
0.911368946
 40
0.9568233229
 40
1.0
 40
1.0
 40
1.0
 40
1.0
 10
14.5541791757
 20
10.7222300506
 30
0.0
 10
14.5605275049
 20
10.7092935158
 30
0.0
 10
14.5802481442
 20
10.6841204291
 30
0.0
 10
14.6204085042
 20
10.6540494043
 30
0.0
 10
14.669849207
 20
10.6308167901
 30
0.0
 10
14.7236287616
 20
10.6168464114
 30
0.0
 10
14.7762911324
 20
10.6134962499
 30
0.0
 10
14.8168047938
 20
10.6201807991
 30
0.0
 10
14.8434323243
 20
10.6317666807
 30
0.0
 10
14.8591020754
 20
10.6426440691
 30
0.0
 10
14.8708371982
 20
10.6558659799
 30
0.0
 10
14.8757776022
 20
10.6661502482
 30
0.0
 10
14.877392306
 20
10.6713753662
 30
0.0
  0
SPLINE
  5
27A
100
AcDbEntity
  8
0
100
AcDbSpline
 62
7
  6
CONTINUOUS
 70
0
 71
3
 72
17
 73
13
 74
0
 42
0.0000001
 43
0.0000001
 44
0.0000000001
 40
0.0
 40
0.0
 40
0.0
 40
0.0
 40
0.1137676461
 40
0.2471380486
 40
0.393344036
 40
0.5422840271
 40
0.6832513686
 40
0.8074194343
 40
0.8618947818
 40
0.911368946
 40
0.9568233229
 40
1.0
 40
1.0
 40
1.0
 40
1.0
 10
14.0465077617
 20
10.7222300506
 30
0.0
 10
14.0528560909
 20
10.7092935158
 30
0.0
 10
14.0725767302
 20
10.6841204291
 30
0.0
 10
14.1127370902
 20
10.6540494043
 30
0.0
 10
14.162177793
 20
10.6308167901
 30
0.0
 10
14.2159573476
 20
10.6168464114
 30
0.0
 10
14.2686197184
 20
10.6134962499
 30
0.0
 10
14.3091333798
 20
10.6201807991
 30
0.0
 10
14.3357609103
 20
10.6317666807
 30
0.0
 10
14.3514306614
 20
10.6426440691
 30
0.0
 10
14.3631657842
 20
10.6558659799
 30
0.0
 10
14.3681061882
 20
10.6661502482
 30
0.0
 10
14.3697208919
 20
10.6713753662
 30
0.0
  0
SPLINE
  5
27B
100
AcDbEntity
  8
0
100
AcDbSpline
 62
7
  6
CONTINUOUS
 70
0
 71
3
 72
17
 73
13
 74
0
 42
0.0000001
 43
0.0000001
 44
0.0000000001
 40
0.0
 40
0.0
 40
0.0
 40
0.0
 40
0.1137676461
 40
0.2471380486
 40
0.393344036
 40
0.5422840271
 40
0.6832513686
 40
0.8074194343
 40
0.8618947818
 40
0.911368946
 40
0.9568233229
 40
1.0
 40
1.0
 40
1.0
 40
1.0
 10
13.5388363477
 20
10.7222300506
 30
0.0
 10
13.5451846769
 20
10.7092935158
 30
0.0
 10
13.5649053162
 20
10.6841204291
 30
0.0
 10
13.6050656762
 20
10.6540494043
 30
0.0
 10
13.654506379
 20
10.6308167901
 30
0.0
 10
13.7082859336
 20
10.6168464114
 30
0.0
 10
13.7609483044
 20
10.6134962499
 30
0.0
 10
13.8014619658
 20
10.6201807991
 30
0.0
 10
13.8280894963
 20
10.6317666807
 30
0.0
 10
13.8437592474
 20
10.6426440691
 30
0.0
 10
13.8554943702
 20
10.6558659799
 30
0.0
 10
13.8604347742
 20
10.6661502482
 30
0.0
 10
13.8620494779
 20
10.6713753662
 30
0.0
  0
SPLINE
  5
27C
100
AcDbEntity
  8
0
100
AcDbSpline
 62
7
  6
CONTINUOUS
 70
0
 71
3
 72
11
 73
7
 74
0
 42
0.0000001
 43
0.0000001
 44
0.0000000001
 40
0.0
 40
0.0
 40
0.0
 40
0.0
 40
0.2647300898
 40
0.536646204
 40
0.7885249702
 40
1.0
 40
1.0
 40
1.0
 40
1.0
 10
13.4770149228
 20
10.7619984049
 30
0.0
 10
13.4828130088
 20
10.7619984049
 30
0.0
 10
13.4945907348
 20
10.7604106116
 30
0.0
 10
13.5109292032
 20
10.7544119396
 30
0.0
 10
13.524540905
 20
10.7455649168
 30
0.0
 10
13.5312915215
 20
10.7376047899
 30
0.0
 10
13.5333319833
 20
10.7334467659
 30
0.0
  0
SPLINE
  5
27D
100
AcDbEntity
  8
0
100
AcDbSpline
 62
7
  6
CONTINUOUS
 70
0
 71
3
 72
11
 73
7
 74
0
 42
0.0000001
 43
0.0000001
 44
0.0000000001
 40
0.0
 40
0.0
 40
0.0
 40
0.0
 40
0.2647300898
 40
0.536646204
 40
0.7885249702
 40
1.0
 40
1.0
 40
1.0
 40
1.0
 10
13.9846863368
 20
10.7619984049
 30
0.0
 10
13.9904844229
 20
10.7619984049
 30
0.0
 10
14.0022621488
 20
10.7604106116
 30
0.0
 10
14.0186006172
 20
10.7544119396
 30
0.0
 10
14.032212319
 20
10.7455649168
 30
0.0
 10
14.0389629355
 20
10.7376047899
 30
0.0
 10
14.0410033973
 20
10.7334467659
 30
0.0
  0
SPLINE
  5
27E
100
AcDbEntity
  8
0
100
AcDbSpline
 62
7
  6
CONTINUOUS
 70
0
 71
3
 72
11
 73
7
 74
0
 42
0.0000001
 43
0.0000001
 44
0.0000000001
 40
0.0
 40
0.0
 40
0.0
 40
0.0
 40
0.2647300898
 40
0.536646204
 40
0.7885249702
 40
1.0
 40
1.0
 40
1.0
 40
1.0
 10
14.4923577508
 20
10.7619984049
 30
0.0
 10
14.4981558369
 20
10.7619984049
 30
0.0
 10
14.5099335628
 20
10.7604106116
 30
0.0
 10
14.5262720312
 20
10.7544119396
 30
0.0
 10
14.539883733
 20
10.7455649168
 30
0.0
 10
14.5466343495
 20
10.7376047899
 30
0.0
 10
14.5486748113
 20
10.7334467659
 30
0.0
  0
SPLINE
  5
27F
100
AcDbEntity
  8
0
100
AcDbSpline
 62
7
  6
CONTINUOUS
 70
0
 71
3
 72
11
 73
7
 74
0
 42
0.0000001
 43
0.0000001
 44
0.0000000001
 40
0.0
 40
0.0
 40
0.0
 40
0.0
 40
0.2647300898
 40
0.536646204
 40
0.7885249702
 40
1.0
 40
1.0
 40
1.0
 40
1.0
 10
15.0000291648
 20
10.7619984049
 30
0.0
 10
15.0058272509
 20
10.7619984049
 30
0.0
 10
15.0176049768
 20
10.7604106116
 30
0.0
 10
15.0339434452
 20
10.7544119396
 30
0.0
 10
15.0475551471
 20
10.7455649168
 30
0.0
 10
15.0543057636
 20
10.7376047899
 30
0.0
 10
15.0563462253
 20
10.7334467659
 30
0.0
  0
SPLINE
  5
280
100
AcDbEntity
  8
0
100
AcDbSpline
 62
7
  6
CONTINUOUS
 70
0
 71
3
 72
11
 73
7
 74
0
 42
0.0000001
 43
0.0000001
 44
0.0000000001
 40
0.0
 40
0.0
 40
0.0
 40
0.0
 40
0.2647300898
 40
0.536646204
 40
0.7885249702
 40
1.0
 40
1.0
 40
1.0
 40
1.0
 10
15.5077005788
 20
10.7619984049
 30
0.0
 10
15.5134986649
 20
10.7619984049
 30
0.0
 10
15.5252763909
 20
10.7604106116
 30
0.0
 10
15.5416148592
 20
10.7544119396
 30
0.0
 10
15.5552265611
 20
10.7455649168
 30
0.0
 10
15.5619771776
 20
10.7376047899
 30
0.0
 10
15.5640176394
 20
10.7334467659
 30
0.0
  0
SPLINE
  5
281
100
AcDbEntity
  8
0
100
AcDbSpline
 62
7
  6
CONTINUOUS
 70
0
 71
3
 72
11
 73
7
 74
0
 42
0.0000001
 43
0.0000001
 44
0.0000000001
 40
0.0
 40
0.0
 40
0.0
 40
0.0
 40
0.2647300898
 40
0.536646204
 40
0.7885249702
 40
1.0
 40
1.0
 40
1.0
 40
1.0
 10
16.0153719928
 20
10.7619984049
 30
0.0
 10
16.0211700789
 20
10.7619984049
 30
0.0
 10
16.0329478049
 20
10.7604106116
 30
0.0
 10
16.0492862733
 20
10.7544119396
 30
0.0
 10
16.0628979751
 20
10.7455649168
 30
0.0
 10
16.0696485916
 20
10.7376047899
 30
0.0
 10
16.0716890534
 20
10.7334467659
 30
0.0
  0
SPLINE
  5
282
100
AcDbEntity
  8
0
100
AcDbSpline
 62
7
  6
CONTINUOUS
 70
0
 71
3
 72
9
 73
5
 74
0
 42
0.0000001
 43
0.0000001
 44
0.0000000001
 40
0.0
 40
0.0
 40
0.0
 40
0.0
 40
0.4740000811
 40
1.0
 40
1.0
 40
1.0
 40
1.0
 10
15.892734725
 20
10.6713754945
 30
0.0
 10
15.8951690952
 20
10.6792472797
 30
0.0
 10
15.8964852191
 20
10.6971819402
 30
0.0
 10
15.8908447528
 20
10.7140216146
 30
0.0
 10
15.8868166375
 20
10.7222300506
 30
0.0
  0
SPLINE
  5
283
100
AcDbEntity
  8
0
100
AcDbSpline
 62
7
  6
CONTINUOUS
 70
0
 71
3
 72
9
 73
5
 74
0
 42
0.0000001
 43
0.0000001
 44
0.0000000001
 40
0.0
 40
0.0
 40
0.0
 40
0.0
 40
0.4739980869
 40
1.0
 40
1.0
 40
1.0
 40
1.0
 10
16.4004062916
 20
10.6713754473
 30
0.0
 10
16.4028393308
 20
10.6792476049
 30
0.0
 10
16.4041570234
 20
10.6971816386
 30
0.0
 10
16.3985161808
 20
10.7140215862
 30
0.0
 10
16.3944880515
 20
10.7222300506
 30
0.0
  0
SPLINE
  5
284
100
AcDbEntity
  8
0
100
AcDbSpline
 62
7
  6
CONTINUOUS
 70
0
 71
3
 72
9
 73
5
 74
0
 42
0.0000001
 43
0.0000001
 44
0.0000000001
 40
0.0
 40
0.0
 40
0.0
 40
0.0
 40
0.4740410786
 40
1.0
 40
1.0
 40
1.0
 40
1.0
 10
14.877392306
 20
10.6713753662
 30
0.0
 10
14.8798252588
 20
10.6792483063
 30
0.0
 10
14.8811415596
 20
10.6971823143
 30
0.0
 10
14.8755015972
 20
10.7140222822
 30
0.0
 10
14.8714738095
 20
10.7222300506
 30
0.0
  0
SPLINE
  5
285
100
AcDbEntity
  8
0
100
AcDbSpline
 62
7
  6
CONTINUOUS
 70
0
 71
3
 72
9
 73
5
 74
0
 42
0.0000001
 43
0.0000001
 44
0.0000000001
 40
0.0
 40
0.0
 40
0.0
 40
0.0
 40
0.5257418646
 40
1.0
 40
1.0
 40
1.0
 40
1.0
 10
13.850626617
 20
10.7334467659
 30
0.0
 10
13.849553022
 20
10.7356345226
 30
0.0
 10
13.8480511147
 20
10.7401252613
 30
0.0
 10
13.8483994773
 20
10.7449076355
 30
0.0
 10
13.8490484796
 20
10.7470079905
 30
0.0
  0
SPLINE
  5
286
100
AcDbEntity
  8
0
100
AcDbSpline
 62
7
  6
CONTINUOUS
 70
0
 71
3
 72
9
 73
5
 74
0
 42
0.0000001
 43
0.0000001
 44
0.0000000001
 40
0.0
 40
0.0
 40
0.0
 40
0.0
 40
0.4740410786
 40
1.0
 40
1.0
 40
1.0
 40
1.0
 10
13.8620494779
 20
10.6713753662
 30
0.0
 10
13.8644824308
 20
10.6792483063
 30
0.0
 10
13.8657987316
 20
10.6971823143
 30
0.0
 10
13.8601587692
 20
10.7140222822
 30
0.0
 10
13.8561309814
 20
10.7222300506
 30
0.0
  0
SPLINE
  5
287
100
AcDbEntity
  8
0
100
AcDbSpline
 62
7
  6
CONTINUOUS
 70
0
 71
3
 72
9
 73
5
 74
0
 42
0.0000001
 43
0.0000001
 44
0.0000000001
 40
0.0
 40
0.0
 40
0.0
 40
0.0
 40
0.5257418646
 40
1.0
 40
1.0
 40
1.0
 40
1.0
 10
14.3582980311
 20
10.7334467659
 30
0.0
 10
14.3572244361
 20
10.7356345226
 30
0.0
 10
14.3557225287
 20
10.7401252613
 30
0.0
 10
14.3560708913
 20
10.7449076355
 30
0.0
 10
14.3567198937
 20
10.7470079905
 30
0.0
  0
SPLINE
  5
288
100
AcDbEntity
  8
0
100
AcDbSpline
 62
7
  6
CONTINUOUS
 70
0
 71
3
 72
9
 73
5
 74
0
 42
0.0000001
 43
0.0000001
 44
0.0000000001
 40
0.0
 40
0.0
 40
0.0
 40
0.0
 40
0.5257418646
 40
1.0
 40
1.0
 40
1.0
 40
1.0
 10
14.8659694451
 20
10.7334467659
 30
0.0
 10
14.8648958501
 20
10.7356345226
 30
0.0
 10
14.8633939427
 20
10.7401252613
 30
0.0
 10
14.8637423054
 20
10.7449076355
 30
0.0
 10
14.8643913077
 20
10.7470079905
 30
0.0
  0
SPLINE
  5
289
100
AcDbEntity
  8
0
100
AcDbSpline
 62
7
  6
CONTINUOUS
 70
0
 71
3
 72
9
 73
5
 74
0
 42
0.0000001
 43
0.0000001
 44
0.0000000001
 40
0.0
 40
0.0
 40
0.0
 40
0.0
 40
0.5257418646
 40
1.0
 40
1.0
 40
1.0
 40
1.0
 10
15.3736408591
 20
10.7334467659
 30
0.0
 10
15.3725672641
 20
10.7356345226
 30
0.0
 10
15.3710653567
 20
10.7401252613
 30
0.0
 10
15.3714137194
 20
10.7449076355
 30
0.0
 10
15.3720627217
 20
10.7470079905
 30
0.0
  0
SPLINE
  5
28A
100
AcDbEntity
  8
0
100
AcDbSpline
 62
7
  6
CONTINUOUS
 70
0
 71
3
 72
9
 73
5
 74
0
 42
0.0000001
 43
0.0000001
 44
0.0000000001
 40
0.0
 40
0.0
 40
0.0
 40
0.0
 40
0.4740410786
 40
1.0
 40
1.0
 40
1.0
 40
1.0
 10
15.38506372
 20
10.6713753662
 30
0.0
 10
15.3874966728
 20
10.6792483063
 30
0.0
 10
15.3888129736
 20
10.6971823143
 30
0.0
 10
15.3831730112
 20
10.7140222822
 30
0.0
 10
15.3791452235
 20
10.7222300506
 30
0.0
  0
SPLINE
  5
28B
100
AcDbEntity
  8
0
100
AcDbSpline
 62
7
  6
CONTINUOUS
 70
0
 71
3
 72
9
 73
5
 74
0
 42
0.0000001
 43
0.0000001
 44
0.0000000001
 40
0.0
 40
0.0
 40
0.0
 40
0.0
 40
0.5257418646
 40
1.0
 40
1.0
 40
1.0
 40
1.0
 10
15.8813122731
 20
10.7334467659
 30
0.0
 10
15.8802386781
 20
10.7356345226
 30
0.0
 10
15.8787367708
 20
10.7401252613
 30
0.0
 10
15.8790851334
 20
10.7449076355
 30
0.0
 10
15.8797341357
 20
10.7470079905
 30
0.0
  0
SPLINE
  5
28C
100
AcDbEntity
  8
0
100
AcDbSpline
 62
7
  6
CONTINUOUS
 70
0
 71
3
 72
9
 73
5
 74
0
 42
0.0000001
 43
0.0000001
 44
0.0000000001
 40
0.0
 40
0.0
 40
0.0
 40
0.0
 40
0.4740410786
 40
1.0
 40
1.0
 40
1.0
 40
1.0
 10
14.3697208919
 20
10.6713753662
 30
0.0
 10
14.3721538448
 20
10.6792483063
 30
0.0
 10
14.3734701456
 20
10.6971823143
 30
0.0
 10
14.3678301832
 20
10.7140222822
 30
0.0
 10
14.3638023955
 20
10.7222300506
 30
0.0
  0
SPLINE
  5
28D
100
AcDbEntity
  8
0
100
AcDbSpline
 62
7
  6
CONTINUOUS
 70
0
 71
3
 72
9
 73
5
 74
0
 42
0.0000001
 43
0.0000001
 44
0.0000000001
 40
0.0
 40
0.0
 40
0.0
 40
0.0
 40
0.5257418646
 40
1.0
 40
1.0
 40
1.0
 40
1.0
 10
16.3889836871
 20
10.7334467659
 30
0.0
 10
16.3879100921
 20
10.7356345226
 30
0.0
 10
16.3864081848
 20
10.7401252613
 30
0.0
 10
16.3867565474
 20
10.7449076355
 30
0.0
 10
16.3874055497
 20
10.7470079905
 30
0.0
  0
ENDSEC
  0
SECTION
  2
OBJECTS
  0
DICTIONARY
  5
C
100
AcDbDictionary
280
0
281
1
  3
ACAD_GROUP
350
D
  3
ACAD_MLINESTYLE
350
17
  3
ACAD_LAYOUT
350
1A
  3
ACAD_PLOTSETTINGS
350
19
  3
ACAD_PLOTSTYLENAME
350
E
  0
DICTIONARY
  5
D
102
{ACAD_REACTORS
330
C
102
}
100
AcDbDictionary
280
0
281
1
  0
ACDBDICTIONARYWDFLT
  5
E
102
{ACAD_REACTORS
330
C
102
}
100
AcDbDictionary
281
1
  3
Normal
350
F
100
AcDbDictionaryWithDefault
340
F
  0
DICTIONARY
  5
17
102
{ACAD_REACTORS
330
C
102
}
100
AcDbDictionary
280
0
281
1
  3
Standard
350
18
  0
DICTIONARY
  5
19
102
{ACAD_REACTORS
330
C
102
}
100
AcDbDictionary
281
1
  0
DICTIONARY
  5
1A
102
{ACAD_REACTORS
330
C
102
}
100
AcDbDictionary
281
1
  3
Model
350
28E
  3
Layout1
350
28F
  0
ACDBPLACEHOLDER
  5
F
102
{ACAD_REACTORS
330
E
102
}
  0
MLINESTYLE
  5
18
102
{ACAD_REACTORS
330
17
102
}
100
AcDbMlineStyle
  2
STANDARD
 70
0
  3

 62
256
 51
90.0
 52
90.0
 71
2
 49
0.5
 62
256
  6
BYLAYER
 49
-0.5
 62
256
  6
BYLAYER
  0
LAYOUT
  5
28E
102
{ACAD_REACTORS
330
1A
102
}
100
AcDbPlotSettings
  1

  2
none_device
  4
ANSI_C_(22.00_x_17.00_Inches)
  6

 40
0.0
 41
0.0
 42
0.0
 43
0.0
 44
558.8
 45
431.8
 46
0.0
 47
0.0
 48
0.0
 49
0.0
140
0.0
141
0.0
142
1.0
143
1.0
 70
1024
 72
0
 73
0
 74
0
  7

 75
0
147
1.0
148
0.0
149
0.0
100
AcDbLayout
  1
Model
 70
0
 71
0
 10
0.0
 20
0.0
 11
22.0
 21
17.0
 12
0.0
 22
0.0
 32
0.0
 14
0.0
 24
0.0
 34
0.0
 15
0.0
 25
0.0
 35
0.0
146
0.0
 13
0.0
 23
0.0
 33
0.0
 16
1.0
 26
0.0
 36
0.0
 17
0.0
 27
1.0
 37
0.0
 76
0
330
216
345
0
346
0
  0
LAYOUT
  5
28F
102
{ACAD_REACTORS
330
1A
102
}
100
AcDbPlotSettings
  1

  2
none_device
  4
ANSI_C_(22.00_x_17.00_Inches)
  6

 40
0.0
 41
0.0
 42
0.0
 43
0.0
 44
558.8
 45
431.8
 46
0.0
 47
0.0
 48
0.0
 49
0.0
140
0.0
141
0.0
142
1.0
143
1.0
 70
0
 72
0
 73
0
 74
0
  7

 75
0
147
1.0
148
0.0
149
0.0
100
AcDbLayout
  1
Layout1
 70
0
 71
1
 10
0.0
 20
0.0
 11
22.0
 21
17.0
 12
0.0
 22
0.0
 32
0.0
 14
0.0
 24
0.0
 34
0.0
 15
0.0
 25
0.0
 35
0.0
146
0.0
 13
0.0
 23
0.0
 33
0.0
 16
1.0
 26
0.0
 36
0.0
 17
0.0
 27
1.0
 37
0.0
 76
0
330
217
345
0
346
0
  0
ENDSEC
  0
EOF