999
DXF file: _cgs_temp_output.dxf
999
Pro/ENGINEER 2015110 by Parametric Technology Corporation
  0
SECTION
  2
HEADER
  9
$ACADVER
  1
AC1021
  9
$DWGCODEPAGE
  3
ANSI_1252
  9
$EXTMAX
 10
22.0
 20
17.0
 30
0.0
  9
$EXTMIN
 10
0.0
 20
0.0
 30
0.0
  9
$LIMMIN
 10
0.0
 20
0.0
  9
$LIMMAX
 10
22.0
 20
17.0
  9
$VIEWCTR
 10
11.0
 20
8.5
  9
$VIEWSIZE
 40
17.0
  9
$CLAYER
  8
0
  9
$LTSCALE
 40
1.21
  9
$CELTYPE
  6
BYLAYER
  9
$DIMSCALE
 40
1.0
  9
$DIMASZ
 40
0.1875
  9
$DIMEXO
 40
0.0625
  9
$DIMDLI
 40
0.836
  9
$DIMEXE
 40
0.125
  9
$DIMCEN
 40
0.198
  9
$DIMLFAC
 40
1.0
  9
$DIMBLK
  1
_CLOSED
  9
$DIMALT
 70
0
  9
$DIMALTF
 40
25.4
  9
$DIMTXT
 40
0.15625
  9
$DIMTOL
 70
0
  9
$DIMLIM
 70
0
  9
$DIMTFAC
 40
1.0
  9
$DIMGAP
 40
0.09
  9
$DIMDSEP
 70
46
  9
$AUNITS
 70
0
  9
$PDMODE
 70
3
  9
$PDSIZE
 40
0.3125
  9
$HANDSEED
  5
290
  9
$TILEMODE
 70
1
  9
$MEASUREMENT
 70
0
  9
$INSUNITS
 70
1
  0
ENDSEC
  0
SECTION
  2
CLASSES
  0
CLASS
  1
ACDBDICTIONARYWDFLT
  2
AcDbDictionaryWithDefault
  3
AutoCAD 2000
 90
0
 91
1
280
0
281
0
  0
CLASS
  1
ACDBPLACEHOLDER
  2
AcDbPlaceHolder
  3
AutoCAD 2000
 90
0
 91
1
280
0
281
0
  0
CLASS
  1
LAYOUT
  2
AcDbLayout
  3
AutoCAD 2000
 90
0
 91
0
280
0
281
0
  0
ENDSEC
  0
SECTION
  2
TABLES
  0
TABLE
  2
VPORT
  5
8
100
AcDbSymbolTable
 70
2
  0
VPORT
  5
1F4
100
AcDbSymbolTableRecord
100
AcDbViewportTableRecord
  2
*ACTIVE
 70
0
 10
0.0
 20
0.0
 11
1.0
 21
1.0
 12
11.0
 22
8.5
 13
0.0
 23
0.0
 14
1.0
 24
1.0
 15
0.0
 25
0.0
 16
0.0
 26
0.0
 36
1.0
 17
0.0
 27
0.0
 37
0.0
 40
17.0
 41
1.2941176471
 42
50.0
 43
0.0
 44
0.0
 50
0.0
 51
0.0
 71
0
 72
100
 73
1
 74
1
 75
0
 76
0
 77
0
 78
0
  0
ENDTAB
  0
TABLE
  2
LTYPE
  5
5
100
AcDbSymbolTable
 70
6
  0
LTYPE
  5
14
100
AcDbSymbolTableRecord
100
AcDbLinetypeTableRecord
  2
BYBLOCK
 70
0
  3

 72
65
 73
0
 40
0.0
  0
LTYPE
  5
15
100
AcDbSymbolTableRecord
100
AcDbLinetypeTableRecord
  2
BYLAYER
 70
0
  3

 72
65
 73
0
 40
0.0
  0
LTYPE
  5
16
100
AcDbSymbolTableRecord
100
AcDbLinetypeTableRecord
  2
CONTINUOUS
 70
64
  3
Solid line
 72
65
 73
0
 40
0.0
  0
LTYPE
  5
1F5
100
AcDbSymbolTableRecord
100
AcDbLinetypeTableRecord
  2
CENTER
 70
64
  3
____ _ ____ _ ____ _ ____ _ ____ _ ____ _ ____
 72
65
 73
4
 40
0.6
 49
0.375
 74
0
 49
-0.075
 74
0
 49
0.075
 74
0
 49
-0.075
 74
0
  0
LTYPE
  5
1F6
100
AcDbSymbolTableRecord
100
AcDbLinetypeTableRecord
  2
HIDDEN
 70
64
  3
- - - - - - - - - - - - - - - - - - - -
 72
65
 73
2
 40
0.2
 49
0.1
 74
0
 49
-0.1
 74
0
  0
LTYPE
  5
1F7
100
AcDbSymbolTableRecord
100
AcDbLinetypeTableRecord
  2
PHANTOM
 70
64
  3
_____ _ _ _____ _ _ _____ _ _ _____
 72
65
 73
6
 40
0.8
 49
0.45
 74
0
 49
-0.05
 74
0
 49
0.1
 74
0
 49
-0.05
 74
0
 49
0.1
 74
0
 49
-0.05
 74
0
  0
LTYPE
  5
1F8
100
AcDbSymbolTableRecord
100
AcDbLinetypeTableRecord
  2
DOT
 70
64
  3
. . . . . . . . . . . . . . . . . . . .
 72
65
 73
2
 40
0.2
 49
0.1
 74
0
 49
-0.1
 74
0
  0
LTYPE
  5
1F9
100
AcDbSymbolTableRecord
100
AcDbLinetypeTableRecord
  2
DASHED
 70
64
  3
- - - - - - - - - - - - - - - - - - - -
 72
65
 73
2
 40
0.2
 49
0.1
 74
0
 49
-0.1
 74
0
  0
ENDTAB
  0
TABLE
  2
LAYER
  5
2
100
AcDbSymbolTable
 70
36
  0
LAYER
  5
10
100
AcDbSymbolTableRecord
100
AcDbLayerTableRecord
  2
0
 70
0
 62
7
  6
CONTINUOUS
370
-3
390
F
  0
LAYER
  5
1FA
100
AcDbSymbolTableRecord
100
AcDbLayerTableRecord
  2
DEFAULT_1
 70
0
 62
7
  6
CENTER
370
-3
390
F
  0
LAYER
  5
1FB
100
AcDbSymbolTableRecord
100
AcDbLayerTableRecord
  2
DEFAULT_2
 70
0
 62
8
  6
HIDDEN
370
-3
390
F
  0
LAYER
  5
1FC
100
AcDbSymbolTableRecord
100
AcDbLayerTableRecord
  2
DEFAULT_3
 70
0
 62
7
  6
PHANTOM
370
-3
390
F
  0
LAYER
  5
1FD
100
AcDbSymbolTableRecord
100
AcDbLayerTableRecord
  2
01_ALL_DTM_PLN
 70
0
 62
7
  6
CONTINUOUS
370
-3
390
F
  0
LAYER
  5
1FE
100
AcDbSymbolTableRecord
100
AcDbLayerTableRecord
  2
01__ASM_ALL_DTM_PLN
 70
0
 62
7
  6
CONTINUOUS
370
-3
390
F
  0
LAYER
  5
1FF
100
AcDbSymbolTableRecord
100
AcDbLayerTableRecord
  2
01__ASM_DEF_DTM_PLN
 70
0
 62
7
  6
CONTINUOUS
370
-3
390
F
  0
LAYER
  5
200
100
AcDbSymbolTableRecord
100
AcDbLayerTableRecord
  2
01___PRT_ALL_DTM_PLN
 70
0
 62
7
  6
CONTINUOUS
370
-3
390
F
  0
LAYER
  5
201
100
AcDbSymbolTableRecord
100
AcDbLayerTableRecord
  2
01___PRT_DEF_DTM_PLN
 70
0
 62
7
  6
CONTINUOUS
370
-3
390
F
  0
LAYER
  5
202
100
AcDbSymbolTableRecord
100
AcDbLayerTableRecord
  2
02_ALL_AXES
 70
0
 62
7
  6
CONTINUOUS
370
-3
390
F
  0
LAYER
  5
203
100
AcDbSymbolTableRecord
100
AcDbLayerTableRecord
  2
02__ASM_ALL_AXES
 70
0
 62
7
  6
CONTINUOUS
370
-3
390
F
  0
LAYER
  5
204
100
AcDbSymbolTableRecord
100
AcDbLayerTableRecord
  2
02___PRT_ALL_AXES
 70
0
 62
7
  6
CONTINUOUS
370
-3
390
F
  0
LAYER
  5
205
100
AcDbSymbolTableRecord
100
AcDbLayerTableRecord
  2
03_ALL_CURVES
 70
0
 62
7
  6
CONTINUOUS
370
-3
390
F
  0
LAYER
  5
206
100
AcDbSymbolTableRecord
100
AcDbLayerTableRecord
  2
03__ASM_ALL_CURVES
 70
0
 62
7
  6
CONTINUOUS
370
-3
390
F
  0
LAYER
  5
207
100
AcDbSymbolTableRecord
100
AcDbLayerTableRecord
  2
03___PRT_ALL_CURVES
 70
0
 62
7
  6
CONTINUOUS
370
-3
390
F
  0
LAYER
  5
208
100
AcDbSymbolTableRecord
100
AcDbLayerTableRecord
  2
04_ALL_DTM_PNT
 70
0
 62
7
  6
CONTINUOUS
370
-3
390
F
  0
LAYER
  5
209
100
AcDbSymbolTableRecord
100
AcDbLayerTableRecord
  2
04__ASM_ALL_DTM_PNT
 70
0
 62
7
  6
CONTINUOUS
370
-3
390
F
  0
LAYER
  5
20A
100
AcDbSymbolTableRecord
100
AcDbLayerTableRecord
  2
04___PRT_ALL_DTM_PNT
 70
0
 62
7
  6
CONTINUOUS
370
-3
390
F
  0
LAYER
  5
20B
100
AcDbSymbolTableRecord
100
AcDbLayerTableRecord
  2
05_ALL_DTM_CSYS
 70
0
 62
7
  6
CONTINUOUS
370
-3
390
F
  0
LAYER
  5
20C
100
AcDbSymbolTableRecord
100
AcDbLayerTableRecord
  2
05__ASM_ALL_DTM_CSYS
 70
0
 62
7
  6
CONTINUOUS
370
-3
390
F
  0
LAYER
  5
20D
100
AcDbSymbolTableRecord
100
AcDbLayerTableRecord
  2
05__ASM_DEF_DTM_CSYS
 70
0
 62
7
  6
CONTINUOUS
370
-3
390
F
  0
LAYER
  5
20E
100
AcDbSymbolTableRecord
100
AcDbLayerTableRecord
  2
05___PRT_ALL_DTM_CSYS
 70
0
 62
7
  6
CONTINUOUS
370
-3
390
F
  0
LAYER
  5
20F
100
AcDbSymbolTableRecord
100
AcDbLayerTableRecord
  2
05___PRT_DEF_DTM_CSYS
 70
0
 62
7
  6
CONTINUOUS
370
-3
390
F
  0
LAYER
  5
210
100
AcDbSymbolTableRecord
100
AcDbLayerTableRecord
  2
06_ALL_SURFS
 70
0
 62
7
  6
CONTINUOUS
370
-3
390
F
  0
LAYER
  5
211
100
AcDbSymbolTableRecord
100
AcDbLayerTableRecord
  2
06__ASM_ALL_SURFS
 70
0
 62
7
  6
CONTINUOUS
370
-3
390
F
  0
LAYER
  5
212
100
AcDbSymbolTableRecord
100
AcDbLayerTableRecord
  2
06___PRT_ALL_SURFS
 70
0
 62
7
  6
CONTINUOUS
370
-3
390
F
  0
LAYER
  5
213
100
AcDbSymbolTableRecord
100
AcDbLayerTableRecord
  2
07__ASM_ALL_SKELETONS
 70
0
 62
7
  6
CONTINUOUS
370
-3
390
F
  0
ENDTAB
  0
TABLE
  2
STYLE
  5
3
100
AcDbSymbolTable
 70
1
  0
STYLE
  5
11
100
AcDbSymbolTableRecord
100
AcDbTextStyleTableRecord
  2
STANDARD
 70
0
 40
0.0
 41
0.8
 50
0.0
 71
0
 42
0.2
  3
txt
  4

  0
STYLE
  5
214
100
AcDbSymbolTableRecord
100
AcDbTextStyleTableRecord
  2
TEXTSTYLE_1
 70
0
 40
0.0
 41
0.8
 50
0.0
 71
0
 42
0.2
  3
gdt
  4

  0
ENDTAB
  0
TABLE
  2
VIEW
  5
6
100
AcDbSymbolTable
 70
0
  0
ENDTAB
  0
TABLE
  2
UCS
  5
7
100
AcDbSymbolTable
 70
0
  0
ENDTAB
  0
TABLE
  2
APPID
  5
9
100
AcDbSymbolTable
 70
1
  0
APPID
  5
215
100
AcDbSymbolTableRecord
100
AcDbRegAppTableRecord
  2
ACAD
 70
0
  0
ENDTAB
  0
TABLE
  2
BLOCK_RECORD
  5
1
100
AcDbSymbolTable
 70
0
  0
BLOCK_RECORD
  5
216
100
AcDbSymbolTableRecord
100
AcDbBlockTableRecord
  2
*Model_Space
  0
BLOCK_RECORD
  5
217
100
AcDbSymbolTableRecord
100
AcDbBlockTableRecord
  2
*Paper_Space
  0
ENDTAB
  0
TABLE
  2
DIMSTYLE
  5
A
100
AcDbSymbolTable
 70
1
100
AcDbDimStyleTable
 71
0
  0
DIMSTYLE
105
218
100
AcDbSymbolTableRecord
100
AcDbDimStyleTableRecord
  2
STANDARD
 70
0
  3

  4

 40
1.0
 41
0.1875
 42
0.0625
 43
0.38
 44
0.125
 45
0.0
 46
0.0
 47
0.0001
 48
0.0001
140
0.15625
141
0.09
142
0.0
143
25.4
144
1.0
145
0.0
146
1.0
147
0.09
 71
0.0
 72
0.0
 73
1
 74
1
 75
0
 76
0
 77
0
 78
4
170
0
171
2
172
0
173
0
174
0
175
0
176
0
177
0
178
0
270
2
271
4
272
4
273
2
274
2
275
0
280
0
281
0
282
0
283
1
284
4
285
0
286
0
287
3
288
0
340
11
278
46
  0
ENDTAB
  0
ENDSEC
  0
SECTION
  2
BLOCKS
  0
BLOCK
  5
20
100
AcDbEntity
  8
0
100
AcDbBlockBegin
  2
*Model_Space
 70
0
 10
0.0
 20
0.0
 30
0.0
  3
*Model_Space
  1

  0
ENDBLK
  5
21
100
AcDbEntity
  8
0
100
AcDbBlockEnd
  0
BLOCK
  5
1C
100
AcDbEntity
  8
0
100
AcDbBlockBegin
  2
*Paper_Space
 70
0
 10
0.0
 20
0.0
 30
0.0
  3
*Paper_Space
  1

  0
ENDBLK
  5
1D
100
AcDbEntity
  8
0
100
AcDbBlockEnd
  0
ENDSEC
  0
SECTION
  2
ENTITIES
  0
MTEXT
  5
219
100
AcDbEntity
  8
0
100
AcDbMText
 62
7
  6
CONTINUOUS
  7
STANDARD
 71
1
 72
1
 10
15.9560215477
 20
0.9479130325
 30
0.0
 11
1.0
 21
0.0
 31
0.0
 44
0.9
  1
SCALE: 1:1.000
 40
0.3
 41
3.36
  0
LINE
  5
21A
100
AcDbEntity
  8
0
100
AcDbLine
 62
7
  6
CONTINUOUS
 10
0.0
 20
0.0
 11
0.0
 21
17.0
  0
LINE
  5
21B
100
AcDbEntity
  8
0
100
AcDbLine
 62
7
  6
CONTINUOUS
 10
0.0
 20
0.0
 11
22.0
 21
0.0
  0
LINE
  5
21C
100
AcDbEntity
  8
0
100
AcDbLine
 62
7
  6
CONTINUOUS
 10
0.0
 20
17.0
 11
22.0
 21
17.0
  0
LINE
  5
21D
100
AcDbEntity
  8
0
100
AcDbLine
 62
7
  6
CONTINUOUS
 10
22.0
 20
0.0
 11
22.0
 21
17.0
  0
LINE
  5
21E
100
AcDbEntity
  8
0
100
AcDbLine
 62
7
  6
CONTINUOUS
 10
4.4768239691
 20
5.7169702905
 11
4.4768239691
 21
5.5594899755
  0
LINE
  5
21F
100
AcDbEntity
  8
0
100
AcDbLine
 62
7
  6
CONTINUOUS
 10
4.5801704258
 20
5.513558217
 11
4.5801704258
 21
5.4955135975
  0
LINE
  5
220
100
AcDbEntity
  8
0
100
AcDbLine
 62
7
  6
CONTINUOUS
 10
4.9246586147
 20
5.4955135975
 11
4.9246586147
 21
5.513558217
  0
LINE
  5
221
100
AcDbEntity
  8
0
100
AcDbLine
 62
7
  6
CONTINUOUS
 10
5.1313515281
 20
5.513558217
 11
5.1313515281
 21
5.4955135975
  0
LINE
  5
222
100
AcDbEntity
  8
0
100
AcDbLine
 62
7
  6
CONTINUOUS
 10
5.4758397171
 20
5.4955135975
 11
5.4758397171
 21
5.513558217
  0
LINE
  5
223
100
AcDbEntity
  8
0
100
AcDbLine
 62
7
  6
CONTINUOUS
 10
5.6825326305
 20
5.513558217
 11
5.6825326305
 21
5.4955135975
  0
LINE
  5
224
100
AcDbEntity
  8
0
100
AcDbLine
 62
7
  6
CONTINUOUS
 10
6.0270208195
 20
5.4955135975
 11
6.0270208195
 21
5.513558217
  0
LINE
  5
225
100
AcDbEntity
  8
0
100
AcDbLine
 62
7
  6
CONTINUOUS
 10
6.2337137329
 20
5.513558217
 11
6.2337137329
 21
5.4955135975
  0
LINE
  5
226
100
AcDbEntity
  8
0
100
AcDbLine
 62
7
  6
CONTINUOUS
 10
4.4768239691
 20
5.5594899755
 11
4.5342386672
 21
5.5594899755
  0
LINE
  5
227
100
AcDbEntity
  8
0
100
AcDbLine
 62
7
  6
CONTINUOUS
 10
4.9705903733
 20
5.5594899755
 11
5.0854197696
 21
5.5594899755
  0
LINE
  5
228
100
AcDbEntity
  8
0
100
AcDbLine
 62
7
  6
CONTINUOUS
 10
5.5217714756
 20
5.5594899755
 11
5.636600872
 21
5.5594899755
  0
LINE
  5
229
100
AcDbEntity
  8
0
100
AcDbLine
 62
7
  6
CONTINUOUS
 10
6.072952578
 20
5.5594899755
 11
6.1877819743
 21
5.5594899755
  0
LINE
  5
22A
100
AcDbEntity
  8
0
100
AcDbLine
 62
7
  6
CONTINUOUS
 10
6.6241336804
 20
5.5594899755
 11
6.7389630767
 21
5.5594899755
  0
LINE
  5
22B
100
AcDbEntity
  8
0
100
AcDbLine
 62
7
  6
CONTINUOUS
 10
7.1753147827
 20
5.5594899755
 11
7.2901441791
 21
5.5594899755
  0
LINE
  5
22C
100
AcDbEntity
  8
0
100
AcDbLine
 62
7
  6
CONTINUOUS
 10
7.7264958851
 20
5.5594899755
 11
7.7839105833
 21
5.5594899755
  0
LINE
  5
22D
100
AcDbEntity
  8
0
100
AcDbLine
 62
7
  6
CONTINUOUS
 10
7.7839105833
 20
5.7169702905
 11
4.4768239691
 21
5.7169702905
  0
LINE
  5
22E
100
AcDbEntity
  8
0
100
AcDbLine
 62
7
  6
CONTINUOUS
 10
6.5782019218
 20
5.4955135975
 11
6.5782019218
 21
5.513558217
  0
LINE
  5
22F
100
AcDbEntity
  8
0
100
AcDbLine
 62
7
  6
CONTINUOUS
 10
6.7848948352
 20
5.513558217
 11
6.7848948352
 21
5.4955135975
  0
LINE
  5
230
100
AcDbEntity
  8
0
100
AcDbLine
 62
7
  6
CONTINUOUS
 10
7.1293830242
 20
5.4955135975
 11
7.1293830242
 21
5.513558217
  0
LINE
  5
231
100
AcDbEntity
  8
0
100
AcDbLine
 62
7
  6
CONTINUOUS
 10
7.3360759376
 20
5.513558217
 11
7.3360759376
 21
5.4955135975
  0
LINE
  5
232
100
AcDbEntity
  8
0
100
AcDbLine
 62
7
  6
CONTINUOUS
 10
7.6805641266
 20
5.4955135975
 11
7.6805641266
 21
5.513558217
  0
LINE
  5
233
100
AcDbEntity
  8
0
100
AcDbLine
 62
7
  6
CONTINUOUS
 10
7.7839105833
 20
5.5594899755
 11
7.7839105833
 21
5.7169702905
  0
LINE
  5
234
100
AcDbEntity
  8
0
100
AcDbLine
 62
7
  6
CONTINUOUS
 10
4.4173287768
 20
13.6827249467
 11
4.4173287768
 21
11.517370616
  0
LINE
  5
235
100
AcDbEntity
  8
0
100
AcDbLine
 62
7
  6
CONTINUOUS
 10
7.7244153909
 20
11.517370616
 11
4.4173287768
 21
11.517370616
  0
LINE
  5
236
100
AcDbEntity
  8
0
100
AcDbLine
 62
7
  6
CONTINUOUS
 10
4.4173287768
 20
13.6827249467
 11
7.7244153909
 21
13.6827249467
  0
LINE
  5
237
100
AcDbEntity
  8
0
100
AcDbLine
 62
7
  6
CONTINUOUS
 10
7.7244153909
 20
13.6827249467
 11
7.7244153909
 21
11.517370616
  0
LINE
  5
238
100
AcDbEntity
  8
0
100
AcDbLine
 62
7
  6
CONTINUOUS
 10
14.4776780916
 20
5.2637743107
 11
14.4776780916
 21
5.6574750981
  0
LINE
  5
239
100
AcDbEntity
  8
0
100
AcDbLine
 62
7
  6
CONTINUOUS
 10
16.6430324223
 20
5.2637743107
 11
14.4776780916
 21
5.2637743107
  0
LINE
  5
23A
100
AcDbEntity
  8
0
100
AcDbLine
 62
7
  6
CONTINUOUS
 10
16.6430324223
 20
5.4999947832
 11
14.4776780916
 21
5.4999947832
  0
LINE
  5
23B
100
AcDbEntity
  8
0
100
AcDbLine
 62
7
  6
CONTINUOUS
 10
16.6430324223
 20
5.6574750981
 11
14.4776780916
 21
5.6574750981
  0
LINE
  5
23C
100
AcDbEntity
  8
0
100
AcDbLine
 62
7
  6
CONTINUOUS
 10
16.6430324223
 20
5.2637743107
 11
16.6430324223
 21
5.6574750981
  0
LINE
  5
23D
100
AcDbEntity
  8
0
100
AcDbLine
 62
7
  6
CONTINUOUS
 10
13.661999501
 20
11.7850790018
 11
13.7100375902
 21
11.6871876682
  0
LINE
  5
23E
100
AcDbEntity
  8
0
100
AcDbLine
 62
7
  6
CONTINUOUS
 10
13.8192370897
 20
11.6586360293
 11
13.8247414541
 21
11.647419314
  0
LINE
  5
23F
100
AcDbEntity
  8
0
100
AcDbLine
 62
7
  6
CONTINUOUS
 10
14.1861588627
 20
13.481259318
 11
13.661999501
 21
11.7850790018
  0
LINE
  5
240
100
AcDbEntity
  8
0
100
AcDbLine
 62
7
  6
CONTINUOUS
 10
14.1420360878
 20
11.647419314
 11
14.1365317234
 21
11.6586360293
  0
LINE
  5
241
100
AcDbEntity
  8
0
100
AcDbLine
 62
7
  6
CONTINUOUS
 10
14.3269085037
 20
11.6586360293
 11
14.3324128681
 21
11.647419314
  0
LINE
  5
242
100
AcDbEntity
  8
0
100
AcDbLine
 62
7
  6
CONTINUOUS
 10
14.6497075018
 20
11.647419314
 11
14.6442031375
 21
11.6586360293
  0
LINE
  5
243
100
AcDbEntity
  8
0
100
AcDbLine
 62
7
  6
CONTINUOUS
 10
14.1759589851
 20
11.6871876682
 11
14.1479543691
 21
11.5965646978
  0
LINE
  5
244
100
AcDbEntity
  8
0
100
AcDbLine
 62
7
  6
CONTINUOUS
 10
14.8345799177
 20
11.6586360293
 11
14.8400842821
 21
11.647419314
  0
LINE
  5
245
100
AcDbEntity
  8
0
100
AcDbLine
 62
7
  6
CONTINUOUS
 10
13.7100375902
 20
11.6871876682
 11
13.7629200291
 21
11.6871876682
  0
LINE
  5
246
100
AcDbEntity
  8
0
100
AcDbLine
 62
7
  6
CONTINUOUS
 10
14.1648265652
 20
11.6871876682
 11
14.2705914432
 21
11.6871876682
  0
LINE
  5
247
100
AcDbEntity
  8
0
100
AcDbLine
 62
7
  6
CONTINUOUS
 10
14.6724979793
 20
11.6871876682
 11
14.7782628572
 21
11.6871876682
  0
LINE
  5
248
100
AcDbEntity
  8
0
100
AcDbLine
 62
7
  6
CONTINUOUS
 10
15.1801693933
 20
11.6871876682
 11
15.2859342712
 21
11.6871876682
  0
LINE
  5
249
100
AcDbEntity
  8
0
100
AcDbLine
 62
7
  6
CONTINUOUS
 10
15.6878408073
 20
11.6871876682
 11
15.7936056852
 21
11.6871876682
  0
LINE
  5
24A
100
AcDbEntity
  8
0
100
AcDbLine
 62
7
  6
CONTINUOUS
 10
16.1955122213
 20
11.6871876682
 11
16.3012770992
 21
11.6871876682
  0
LINE
  5
24B
100
AcDbEntity
  8
0
100
AcDbLine
 62
7
  6
CONTINUOUS
 10
16.7031836353
 20
11.6871876682
 11
16.7560660743
 21
11.6871876682
  0
LINE
  5
24C
100
AcDbEntity
  8
0
100
AcDbLine
 62
7
  6
CONTINUOUS
 10
16.7080279851
 20
11.7850790018
 11
13.661999501
 21
11.7850790018
  0
LINE
  5
24D
100
AcDbEntity
  8
0
100
AcDbLine
 62
7
  6
CONTINUOUS
 10
15.1573789159
 20
11.647419314
 11
15.1518745515
 21
11.6586360293
  0
LINE
  5
24E
100
AcDbEntity
  8
0
100
AcDbLine
 62
7
  6
CONTINUOUS
 10
14.6836303991
 20
11.6871876682
 11
14.6556257831
 21
11.5965646978
  0
LINE
  5
24F
100
AcDbEntity
  8
0
100
AcDbLine
 62
7
  6
CONTINUOUS
 10
15.3422513317
 20
11.6586360293
 11
15.3477556961
 21
11.647419314
  0
LINE
  5
250
100
AcDbEntity
  8
0
100
AcDbLine
 62
7
  6
CONTINUOUS
 10
15.6650503299
 20
11.647419314
 11
15.6595459655
 21
11.6586360293
  0
LINE
  5
251
100
AcDbEntity
  8
0
100
AcDbLine
 62
7
  6
CONTINUOUS
 10
15.1913018131
 20
11.6871876682
 11
15.1632971972
 21
11.5965646978
  0
LINE
  5
252
100
AcDbEntity
  8
0
100
AcDbLine
 62
7
  6
CONTINUOUS
 10
15.8499227457
 20
11.6586360293
 11
15.8554271101
 21
11.647419314
  0
LINE
  5
253
100
AcDbEntity
  8
0
100
AcDbLine
 62
7
  6
CONTINUOUS
 10
16.1727217439
 20
11.647419314
 11
16.1672173795
 21
11.6586360293
  0
LINE
  5
254
100
AcDbEntity
  8
0
100
AcDbLine
 62
7
  6
CONTINUOUS
 10
16.3575941598
 20
11.6586360293
 11
16.3630985242
 21
11.647419314
  0
LINE
  5
255
100
AcDbEntity
  8
0
100
AcDbLine
 62
7
  6
CONTINUOUS
 10
15.6989732271
 20
11.6871876682
 11
15.6709686112
 21
11.5965646978
  0
LINE
  5
256
100
AcDbEntity
  8
0
100
AcDbLine
 62
7
  6
CONTINUOUS
 10
16.6803931579
 20
11.647419314
 11
16.6748887935
 21
11.6586360293
  0
LINE
  5
257
100
AcDbEntity
  8
0
100
AcDbLine
 62
7
  6
CONTINUOUS
 10
16.7560660743
 20
11.6871876682
 11
16.7080279851
 21
11.7850790018
  0
LINE
  5
258
100
AcDbEntity
  8
0
100
AcDbLine
 62
7
  6
CONTINUOUS
 10
16.2066446411
 20
11.6871876682
 11
16.1786400252
 21
11.5965646978
  0
LINE
  5
259
100
AcDbEntity
  8
0
100
AcDbLine
 62
7
  6
CONTINUOUS
 10
14.1861588627
 20
13.481259318
 11
17.2321873468
 21
13.481259318
  0
LINE
  5
25A
100
AcDbEntity
  8
0
100
AcDbLine
 62
7
  6
CONTINUOUS
 10
17.2321873468
 20
13.481259318
 11
16.7080279851
 21
11.7850790018
  0
LINE
  5
25B
100
AcDbEntity
  8
0
100
AcDbLine
 62
7
  6
CONTINUOUS
 10
16.7143160552
 20
11.6871876682
 11
16.6863114392
 21
11.5965646978
  0
LINE
  5
25C
100
AcDbEntity
  8
0
100
AcDbLine
 62
7
  6
CONTINUOUS
 10
17.280225436
 20
13.3833679844
 11
16.7560660743
 21
11.6871876682
  0
LINE
  5
25D
100
AcDbEntity
  8
0
100
AcDbLine
 62
7
  6
CONTINUOUS
 10
17.280225436
 20
13.3833679844
 11
17.2321873468
 21
13.481259318
  0
ARC
  5
25E
100
AcDbEntity
  8
0
100
AcDbCircle
 62
7
  6
CONTINUOUS
 10
4.7524145203
 20
5.4955135975
 40
0.1722440945
100
AcDbArc
 50
180.0
 51
360.0
  0
ARC
  5
25F
100
AcDbEntity
  8
0
100
AcDbCircle
 62
7
  6
CONTINUOUS
 10
5.3035956226
 20
5.4955135975
 40
0.1722440945
100
AcDbArc
 50
180.0
 51
360.0
  0
ARC
  5
260
100
AcDbEntity
  8
0
100
AcDbCircle
 62
7
  6
CONTINUOUS
 10
7.5083200321
 20
5.4955135975
 40
0.1722440945
100
AcDbArc
 50
180.0
 51
360.0
  0
ARC
  5
261
100
AcDbEntity
  8
0
100
AcDbCircle
 62
7
  6
CONTINUOUS
 10
6.9571389297
 20
5.4955135975
 40
0.1722440945
100
AcDbArc
 50
180.0
 51
360.0
  0
ARC
  5
262
100
AcDbEntity
  8
0
100
AcDbCircle
 62
7
  6
CONTINUOUS
 10
6.4059578273
 20
5.4955135975
 40
0.1722440945
100
AcDbArc
 50
180.0
 51
360.0
  0
ARC
  5
263
100
AcDbEntity
  8
0
100
AcDbCircle
 62
7
  6
CONTINUOUS
 10
5.854776725
 20
5.4955135975
 40
0.1722440945
100
AcDbArc
 50
180.0
 51
360.0
  0
ARC
  5
264
100
AcDbEntity
  8
0
100
AcDbCircle
 62
7
  6
CONTINUOUS
 10
4.5342386672
 20
5.513558217
 40
0.0459317585
100
AcDbArc
 50
0.0
 51
90.0
  0
ARC
  5
265
100
AcDbEntity
  8
0
100
AcDbCircle
 62
7
  6
CONTINUOUS
 10
4.9705903733
 20
5.513558217
 40
0.0459317585
100
AcDbArc
 50
90.0
 51
180.0
  0
ARC
  5
266
100
AcDbEntity
  8
0
100
AcDbCircle
 62
7
  6
CONTINUOUS
 10
5.0854197696
 20
5.513558217
 40
0.0459317585
100
AcDbArc
 50
0.0
 51
90.0
  0
ARC
  5
267
100
AcDbEntity
  8
0
100
AcDbCircle
 62
7
  6
CONTINUOUS
 10
5.5217714756
 20
5.513558217
 40
0.0459317585
100
AcDbArc
 50
90.0
 51
180.0
  0
ARC
  5
268
100
AcDbEntity
  8
0
100
AcDbCircle
 62
7
  6
CONTINUOUS
 10
5.636600872
 20
5.513558217
 40
0.0459317585
100
AcDbArc
 50
0.0
 51
90.0
  0
ARC
  5
269
100
AcDbEntity
  8
0
100
AcDbCircle
 62
7
  6
CONTINUOUS
 10
6.072952578
 20
5.513558217
 40
0.0459317585
100
AcDbArc
 50
90.0
 51
180.0
  0
ARC
  5
26A
100
AcDbEntity
  8
0
100
AcDbCircle
 62
7
  6
CONTINUOUS
 10
6.1877819743
 20
5.513558217
 40
0.0459317585
100
AcDbArc
 50
0.0
 51
90.0
  0
ARC
  5
26B
100
AcDbEntity
  8
0
100
AcDbCircle
 62
7
  6
CONTINUOUS
 10
6.6241336804
 20
5.513558217
 40
0.0459317585
100
AcDbArc
 50
90.0
 51
180.0
  0
ARC
  5
26C
100
AcDbEntity
  8
0
100
AcDbCircle
 62
7
  6
CONTINUOUS
 10
6.7389630767
 20
5.513558217
 40
0.0459317585
100
AcDbArc
 50
0.0
 51
90.0
  0
ARC
  5
26D
100
AcDbEntity
  8
0
100
AcDbCircle
 62
7
  6
CONTINUOUS
 10
7.1753147827
 20
5.513558217
 40
0.0459317585
100
AcDbArc
 50
90.0
 51
180.0
  0
ARC
  5
26E
100
AcDbEntity
  8
0
100
AcDbCircle
 62
7
  6
CONTINUOUS
 10
7.2901441791
 20
5.513558217
 40
0.0459317585
100
AcDbArc
 50
0.0
 51
90.0
  0
ARC
  5
26F
100
AcDbEntity
  8
0
100
AcDbCircle
 62
7
  6
CONTINUOUS
 10
7.7264958851
 20
5.513558217
 40
0.0459317585
100
AcDbArc
 50
90.0
 51
180.0
  0
SPLINE
  5
270
100
AcDbEntity
  8
0
100
AcDbSpline
 62
7
  6
CONTINUOUS
 70
0
 71
3
 72
11
 73
7
 74
0
 42
0.0000001
 43
0.0000001
 44
0.0000000001
 40
0.0
 40
0.0
 40
0.0
 40
0.0
 40
0.2022282746
 40
0.4300671184
 40
0.6962041366
 40
1.0
 40
1.0
 40
1.0
 40
1.0
 10
14.1349535036
 20
11.6721972716
 30
0.0
 10
14.13566006
 20
11.6744841507
 30
0.0
 10
14.1384222394
 20
11.6790069126
 30
0.0
 10
14.1453596416
 20
11.6837566076
 30
0.0
 10
14.154458766
 20
11.6866177155
 30
0.0
 10
14.161230887
 20
11.6871876682
 30
0.0
 10
14.1648265652
 20
11.6871876682
 30
0.0
  0
SPLINE
  5
271
100
AcDbEntity
  8
0
100
AcDbSpline
 62
7
  6
CONTINUOUS
 70
0
 71
3
 72
11
 73
7
 74
0
 42
0.0000001
 43
0.0000001
 44
0.0000000001
 40
0.0
 40
0.0
 40
0.0
 40
0.0
 40
0.2022282746
 40
0.4300671184
 40
0.6962041366
 40
1.0
 40
1.0
 40
1.0
 40
1.0
 10
14.6426249176
 20
11.6721972716
 30
0.0
 10
14.643331474
 20
11.6744841507
 30
0.0
 10
14.6460936534
 20
11.6790069126
 30
0.0
 10
14.6530310556
 20
11.6837566076
 30
0.0
 10
14.66213018
 20
11.6866177155
 30
0.0
 10
14.668902301
 20
11.6871876682
 30
0.0
 10
14.6724979793
 20
11.6871876682
 30
0.0
  0
SPLINE
  5
272
100
AcDbEntity
  8
0
100
AcDbSpline
 62
7
  6
CONTINUOUS
 70
0
 71
3
 72
11
 73
7
 74
0
 42
0.0000001
 43
0.0000001
 44
0.0000000001
 40
0.0
 40
0.0
 40
0.0
 40
0.0
 40
0.2022282746
 40
0.4300671184
 40
0.6962041366
 40
1.0
 40
1.0
 40
1.0
 40
1.0
 10
15.1502963316
 20
11.6721972716
 30
0.0
 10
15.1510028881
 20
11.6744841507
 30
0.0
 10
15.1537650674
 20
11.6790069126
 30
0.0
 10
15.1607024696
 20
11.6837566076
 30
0.0
 10
15.169801594
 20
11.6866177155
 30
0.0
 10
15.1765737151
 20
11.6871876682
 30
0.0
 10
15.1801693933
 20
11.6871876682
 30
0.0
  0
SPLINE
  5
273
100
AcDbEntity
  8
0
100
AcDbSpline
 62
7
  6
CONTINUOUS
 70
0
 71
3
 72
11
 73
7
 74
0
 42
0.0000001
 43
0.0000001
 44
0.0000000001
 40
0.0
 40
0.0
 40
0.0
 40
0.0
 40
0.2022282746
 40
0.4300671184
 40
0.6962041366
 40
1.0
 40
1.0
 40
1.0
 40
1.0
 10
15.6579677456
 20
11.6721972716
 30
0.0
 10
15.6586743021
 20
11.6744841507
 30
0.0
 10
15.6614364814
 20
11.6790069126
 30
0.0
 10
15.6683738837
 20
11.6837566076
 30
0.0
 10
15.677473008
 20
11.6866177155
 30
0.0
 10
15.6842451291
 20
11.6871876682
 30
0.0
 10
15.6878408073
 20
11.6871876682
 30
0.0
  0
SPLINE
  5
274
100
AcDbEntity
  8
0
100
AcDbSpline
 62
7
  6
CONTINUOUS
 70
0
 71
3
 72
11
 73
7
 74
0
 42
0.0000001
 43
0.0000001
 44
0.0000000001
 40
0.0
 40
0.0
 40
0.0
 40
0.0
 40
0.2022282746
 40
0.4300671184
 40
0.6962041366
 40
1.0
 40
1.0
 40
1.0
 40
1.0
 10
16.1656391597
 20
11.6721972716
 30
0.0
 10
16.1663457161
 20
11.6744841507
 30
0.0
 10
16.1691078954
 20
11.6790069126
 30
0.0
 10
16.1760452977
 20
11.6837566076
 30
0.0
 10
16.185144422
 20
11.6866177155
 30
0.0
 10
16.1919165431
 20
11.6871876682
 30
0.0
 10
16.1955122213
 20
11.6871876682
 30
0.0
  0
SPLINE
  5
275
100
AcDbEntity
  8
0
100
AcDbSpline
 62
7
  6
CONTINUOUS
 70
0
 71
3
 72
11
 73
7
 74
0
 42
0.0000001
 43
0.0000001
 44
0.0000000001
 40
0.0
 40
0.0
 40
0.0
 40
0.0
 40
0.2022282746
 40
0.4300671184
 40
0.6962041366
 40
1.0
 40
1.0
 40
1.0
 40
1.0
 10
16.6733105737
 20
11.6721972716
 30
0.0
 10
16.6740171301
 20
11.6744841507
 30
0.0
 10
16.6767793095
 20
11.6790069126
 30
0.0
 10
16.6837167117
 20
11.6837566076
 30
0.0
 10
16.6928158361
 20
11.6866177155
 30
0.0
 10
16.6995879571
 20
11.6871876682
 30
0.0
 10
16.7031836353
 20
11.6871876682
 30
0.0
  0
SPLINE
  5
276
100
AcDbEntity
  8
0
100
AcDbSpline
 62
7
  6
CONTINUOUS
 70
0
 71
3
 72
17
 73
13
 74
0
 42
0.0000001
 43
0.0000001
 44
0.0000000001
 40
0.0
 40
0.0
 40
0.0
 40
0.0
 40
0.1137563052
 40
0.2471371484
 40
0.3933411901
 40
0.542281105
 40
0.6832493338
 40
0.8074179548
 40
0.8618928065
 40
0.9113660806
 40
0.9568207822
 40
1.0
 40
1.0
 40
1.0
 40
1.0
 10
16.3630985242
 20
11.647419314
 30
0.0
 10
16.3694462494
 20
11.6344840099
 30
0.0
 10
16.3891673146
 20
11.6093116063
 30
0.0
 10
16.4293247825
 20
11.579236792
 30
0.0
 10
16.4787683276
 20
11.55600638
 30
0.0
 10
16.5325477089
 20
11.5420360333
 30
0.0
 10
16.5852104072
 20
11.5386847752
 30
0.0
 10
16.6257245784
 20
11.5453681567
 30
0.0
 10
16.652352053
 20
11.5569552856
 30
0.0
 10
16.668020023
 20
11.5678338824
 30
0.0
 10
16.6797608278
 20
11.5810520382
 30
0.0
 10
16.684696393
 20
11.5913393229
 30
0.0
 10
16.686311398
 20
11.5965647107
 30
0.0
  0
SPLINE
  5
277
100
AcDbEntity
  8
0
100
AcDbSpline
 62
7
  6
CONTINUOUS
 70
0
 71
3
 72
17
 73
13
 74
0
 42
0.0000001
 43
0.0000001
 44
0.0000000001
 40
0.0
 40
0.0
 40
0.0
 40
0.0
 40
0.1137616151
 40
0.2471371614
 40
0.3933409328
 40
0.5422801653
 40
0.6832488572
 40
0.8074164646
 40
0.8618914731
 40
0.9113652841
 40
0.9568198728
 40
1.0
 40
1.0
 40
1.0
 40
1.0
 10
15.8554271101
 20
11.647419314
 30
0.0
 10
15.8617751258
 20
11.6344834181
 30
0.0
 10
15.881496363
 20
11.6093111162
 30
0.0
 10
15.9216538685
 20
11.5792365777
 30
0.0
 10
15.9710967502
 20
11.5560066476
 30
0.0
 10
16.0248759717
 20
11.5420365419
 30
0.0
 10
16.0775385121
 20
11.5386842791
 30
0.0
 10
16.1180524015
 20
11.5453686164
 30
0.0
 10
16.1446799582
 20
11.5569553207
 30
0.0
 10
16.1603482434
 20
11.5678334071
 30
0.0
 10
16.1720897532
 20
11.5810515267
 30
0.0
 10
16.177023627
 20
11.5913396268
 30
0.0
 10
16.17863895
 20
11.5965650316
 30
0.0
  0
SPLINE
  5
278
100
AcDbEntity
  8
0
100
AcDbSpline
 62
7
  6
CONTINUOUS
 70
0
 71
3
 72
17
 73
13
 74
0
 42
0.0000001
 43
0.0000001
 44
0.0000000001
 40
0.0
 40
0.0
 40
0.0
 40
0.0
 40
0.1137616151
 40
0.2471371614
 40
0.3933409328
 40
0.5422801653
 40
0.6832488572
 40
0.8074164646
 40
0.8618914731
 40
0.9113652841
 40
0.9568198728
 40
1.0
 40
1.0
 40
1.0
 40
1.0
 10
15.3477556961
 20
11.647419314
 30
0.0
 10
15.3541037118
 20
11.6344834181
 30
0.0
 10
15.373824949
 20
11.6093111162
 30
0.0
 10
15.4139824545
 20
11.5792365777
 30
0.0
 10
15.4634253361
 20
11.5560066476
 30
0.0
 10
15.5172045577
 20
11.5420365419
 30
0.0
 10
15.5698670981
 20
11.5386842791
 30
0.0
 10
15.6103809874
 20
11.5453686164
 30
0.0
 10
15.6370085442
 20
11.5569553207
 30
0.0
 10
15.6526768294
 20
11.5678334071
 30
0.0
 10
15.6644183392
 20
11.5810515267
 30
0.0
 10
15.6693522129
 20
11.5913396268
 30
0.0
 10
15.670967536
 20
11.5965650316
 30
0.0
  0
SPLINE
  5
279
100
AcDbEntity
  8
0
100
AcDbSpline
 62
7
  6
CONTINUOUS
 70
0
 71
3
 72
17
 73
13
 74
0
 42
0.0000001
 43
0.0000001
 44
0.0000000001
 40
0.0
 40
0.0
 40
0.0
 40
0.0
 40
0.1137637215
 40
0.2471370032
 40
0.3933408777
 40
0.5422808734
 40
0.6832480628
 40
0.8074175057
 40
0.8618913349
 40
0.9113643993
 40
0.9568198677
 40
1.0
 40
1.0
 40
1.0
 40
1.0
 10
14.8400842821
 20
11.647419314
 30
0.0
 10
14.8464324112
 20
11.6344831869
 30
0.0
 10
14.8661537213
 20
11.6093110065
 30
0.0
 10
14.9063111068
 20
11.5792362705
 30
0.0
 10
14.9557541416
 20
11.556007484
 30
0.0
 10
15.0095329455
 20
11.5420354695
 30
0.0
 10
15.0621955092
 20
11.5386858996
 30
0.0
 10
15.1027098864
 20
11.545367348
 30
0.0
 10
15.12933678
 20
11.5569558592
 30
0.0
 10
15.1450045893
 20
11.5678339726
 30
0.0
 10
15.1567473264
 20
11.5810512442
 30
0.0
 10
15.1616804246
 20
11.591339746
 30
0.0
 10
15.1632963648
 20
11.5965649569
 30
0.0
  0
SPLINE
  5
27A
100
AcDbEntity
  8
0
100
AcDbSpline
 62
7
  6
CONTINUOUS
 70
0
 71
3
 72
17
 73
13
 74
0
 42
0.0000001
 43
0.0000001
 44
0.0000000001
 40
0.0
 40
0.0
 40
0.0
 40
0.0
 40
0.1137637215
 40
0.2471370032
 40
0.3933408777
 40
0.5422808734
 40
0.6832480628
 40
0.8074175057
 40
0.8618913349
 40
0.9113643993
 40
0.9568198677
 40
1.0
 40
1.0
 40
1.0
 40
1.0
 10
14.3324128681
 20
11.647419314
 30
0.0
 10
14.3387609972
 20
11.6344831869
 30
0.0
 10
14.3584823073
 20
11.6093110065
 30
0.0
 10
14.3986396928
 20
11.5792362705
 30
0.0
 10
14.4480827275
 20
11.556007484
 30
0.0
 10
14.5018615315
 20
11.5420354695
 30
0.0
 10
14.5545240952
 20
11.5386858996
 30
0.0
 10
14.5950384724
 20
11.545367348
 30
0.0
 10
14.621665366
 20
11.5569558592
 30
0.0
 10
14.6373331753
 20
11.5678339726
 30
0.0
 10
14.6490759124
 20
11.5810512442
 30
0.0
 10
14.6540090105
 20
11.591339746
 30
0.0
 10
14.6556249508
 20
11.5965649569
 30
0.0
  0
SPLINE
  5
27B
100
AcDbEntity
  8
0
100
AcDbSpline
 62
7
  6
CONTINUOUS
 70
0
 71
3
 72
17
 73
13
 74
0
 42
0.0000001
 43
0.0000001
 44
0.0000000001
 40
0.0
 40
0.0
 40
0.0
 40
0.0
 40
0.1137658663
 40
0.2471373552
 40
0.3933412907
 40
0.5422809546
 40
0.6832498864
 40
0.8074177704
 40
0.8618935677
 40
0.9113653627
 40
0.9568206339
 40
1.0
 40
1.0
 40
1.0
 40
1.0
 10
13.8247414541
 20
11.647419314
 30
0.0
 10
13.8310896967
 20
11.6344829556
 30
0.0
 10
13.8508107731
 20
11.6093103809
 30
0.0
 10
13.890969394
 20
11.5792375774
 30
0.0
 10
13.9404108129
 20
11.5560058377
 30
0.0
 10
13.9941905725
 20
11.5420374695
 30
0.0
 10
14.0468530789
 20
11.5386842763
 30
0.0
 10
14.0873668546
 20
11.5453689913
 30
0.0
 10
14.11399479
 20
11.5569547148
 30
0.0
 10
14.1296618762
 20
11.5678345409
 30
0.0
 10
14.1414025973
 20
11.58105253
 30
0.0
 10
14.1463382928
 20
11.5913396362
 30
0.0
 10
14.1479541753
 20
11.5965647578
 30
0.0
  0
SPLINE
  5
27C
100
AcDbEntity
  8
0
100
AcDbSpline
 62
7
  6
CONTINUOUS
 70
0
 71
3
 72
11
 73
7
 74
0
 42
0.0000001
 43
0.0000001
 44
0.0000000001
 40
0.0
 40
0.0
 40
0.0
 40
0.0
 40
0.2647182843
 40
0.5366516816
 40
0.788534549
 40
1.0
 40
1.0
 40
1.0
 40
1.0
 10
13.7629200291
 20
11.6871876682
 30
0.0
 10
13.7687178699
 20
11.6871876682
 30
0.0
 10
13.7804954029
 20
11.6855989264
 30
0.0
 10
13.7968354718
 20
11.6796032774
 30
0.0
 10
13.8104456169
 20
11.6707532147
 30
0.0
 10
13.8171967157
 20
11.6627938743
 30
0.0
 10
13.8192370897
 20
11.6586360293
 30
0.0
  0
SPLINE
  5
27D
100
AcDbEntity
  8
0
100
AcDbSpline
 62
7
  6
CONTINUOUS
 70
0
 71
3
 72
11
 73
7
 74
0
 42
0.0000001
 43
0.0000001
 44
0.0000000001
 40
0.0
 40
0.0
 40
0.0
 40
0.0
 40
0.2647182843
 40
0.5366516816
 40
0.788534549
 40
1.0
 40
1.0
 40
1.0
 40
1.0
 10
14.2705914432
 20
11.6871876682
 30
0.0
 10
14.2763892839
 20
11.6871876682
 30
0.0
 10
14.2881668169
 20
11.6855989264
 30
0.0
 10
14.3045068859
 20
11.6796032774
 30
0.0
 10
14.3181170309
 20
11.6707532147
 30
0.0
 10
14.3248681297
 20
11.6627938743
 30
0.0
 10
14.3269085037
 20
11.6586360293
 30
0.0
  0
SPLINE
  5
27E
100
AcDbEntity
  8
0
100
AcDbSpline
 62
7
  6
CONTINUOUS
 70
0
 71
3
 72
11
 73
7
 74
0
 42
0.0000001
 43
0.0000001
 44
0.0000000001
 40
0.0
 40
0.0
 40
0.0
 40
0.0
 40
0.2647182843
 40
0.5366516816
 40
0.788534549
 40
1.0
 40
1.0
 40
1.0
 40
1.0
 10
14.7782628572
 20
11.6871876682
 30
0.0
 10
14.7840606979
 20
11.6871876682
 30
0.0
 10
14.7958382309
 20
11.6855989264
 30
0.0
 10
14.8121782999
 20
11.6796032774
 30
0.0
 10
14.825788445
 20
11.6707532147
 30
0.0
 10
14.8325395437
 20
11.6627938743
 30
0.0
 10
14.8345799177
 20
11.6586360293
 30
0.0
  0
SPLINE
  5
27F
100
AcDbEntity
  8
0
100
AcDbSpline
 62
7
  6
CONTINUOUS
 70
0
 71
3
 72
11
 73
7
 74
0
 42
0.0000001
 43
0.0000001
 44
0.0000000001
 40
0.0
 40
0.0
 40
0.0
 40
0.0
 40
0.2647182843
 40
0.5366516816
 40
0.788534549
 40
1.0
 40
1.0
 40
1.0
 40
1.0
 10
15.2859342712
 20
11.6871876682
 30
0.0
 10
15.2917321119
 20
11.6871876682
 30
0.0
 10
15.3035096449
 20
11.6855989264
 30
0.0
 10
15.3198497139
 20
11.6796032774
 30
0.0
 10
15.333459859
 20
11.6707532147
 30
0.0
 10
15.3402109577
 20
11.6627938743
 30
0.0
 10
15.3422513317
 20
11.6586360293
 30
0.0
  0
SPLINE
  5
280
100
AcDbEntity
  8
0
100
AcDbSpline
 62
7
  6
CONTINUOUS
 70
0
 71
3
 72
11
 73
7
 74
0
 42
0.0000001
 43
0.0000001
 44
0.0000000001
 40
0.0
 40
0.0
 40
0.0
 40
0.0
 40
0.2647182843
 40
0.5366516816
 40
0.788534549
 40
1.0
 40
1.0
 40
1.0
 40
1.0
 10
15.7936056852
 20
11.6871876682
 30
0.0
 10
15.7994035259
 20
11.6871876682
 30
0.0
 10
15.811181059
 20
11.6855989264
 30
0.0
 10
15.8275211279
 20
11.6796032774
 30
0.0
 10
15.841131273
 20
11.6707532147
 30
0.0
 10
15.8478823717
 20
11.6627938743
 30
0.0
 10
15.8499227457
 20
11.6586360293
 30
0.0
  0
SPLINE
  5
281
100
AcDbEntity
  8
0
100
AcDbSpline
 62
7
  6
CONTINUOUS
 70
0
 71
3
 72
11
 73
7
 74
0
 42
0.0000001
 43
0.0000001
 44
0.0000000001
 40
0.0
 40
0.0
 40
0.0
 40
0.0
 40
0.2647182843
 40
0.5366516816
 40
0.788534549
 40
1.0
 40
1.0
 40
1.0
 40
1.0
 10
16.3012770992
 20
11.6871876682
 30
0.0
 10
16.30707494
 20
11.6871876682
 30
0.0
 10
16.318852473
 20
11.6855989264
 30
0.0
 10
16.3351925419
 20
11.6796032774
 30
0.0
 10
16.348802687
 20
11.6707532147
 30
0.0
 10
16.3555537858
 20
11.6627938743
 30
0.0
 10
16.3575941598
 20
11.6586360293
 30
0.0
  0
SPLINE
  5
282
100
AcDbEntity
  8
0
100
AcDbSpline
 62
7
  6
CONTINUOUS
 70
0
 71
3
 72
10
 73
6
 74
0
 42
0.0000001
 43
0.0000001
 44
0.0000000001
 40
0.0
 40
0.0
 40
0.0
 40
0.0
 40
0.2341179692
 40
0.4753435184
 40
1.0
 40
1.0
 40
1.0
 40
1.0
 10
16.17863895
 20
11.5965650316
 30
0.0
 10
16.17984402
 20
11.6004633099
 30
0.0
 10
16.1814259405
 20
11.6086749488
 30
0.0
 10
16.1810510883
 20
11.6261990292
 30
0.0
 10
16.1767500212
 20
11.639210548
 30
0.0
 10
16.1727217439
 20
11.647419314
 30
0.0
  0
SPLINE
  5
283
100
AcDbEntity
  8
0
100
AcDbSpline
 62
7
  6
CONTINUOUS
 70
0
 71
3
 72
10
 73
6
 74
0
 42
0.0000001
 43
0.0000001
 44
0.0000000001
 40
0.0
 40
0.0
 40
0.0
 40
0.0
 40
0.2341451507
 40
0.4753625673
 40
1.0
 40
1.0
 40
1.0
 40
1.0
 10
16.686311398
 20
11.5965647107
 30
0.0
 10
16.6875163944
 20
11.6004635057
 30
0.0
 10
16.6890964121
 20
11.6086758268
 30
0.0
 10
16.6887225224
 20
11.6261997
 30
0.0
 10
16.6844212872
 20
11.6392108495
 30
0.0
 10
16.6803931579
 20
11.647419314
 30
0.0
  0
SPLINE
  5
284
100
AcDbEntity
  8
0
100
AcDbSpline
 62
7
  6
CONTINUOUS
 70
0
 71
3
 72
10
 73
6
 74
0
 42
0.0000001
 43
0.0000001
 44
0.0000000001
 40
0.0
 40
0.0
 40
0.0
 40
0.0
 40
0.2341056307
 40
0.4753478194
 40
1.0
 40
1.0
 40
1.0
 40
1.0
 10
15.1632963648
 20
11.5965649569
 30
0.0
 10
15.164501833
 20
11.6004628892
 30
0.0
 10
15.1660826264
 20
11.6086748872
 30
0.0
 10
15.1657087158
 20
11.6261988464
 30
0.0
 10
15.1614071622
 20
11.639210611
 30
0.0
 10
15.1573789159
 20
11.647419314
 30
0.0
  0
SPLINE
  5
285
100
AcDbEntity
  8
0
100
AcDbSpline
 62
7
  6
CONTINUOUS
 70
0
 71
3
 72
9
 73
5
 74
0
 42
0.0000001
 43
0.0000001
 44
0.0000000001
 40
0.0
 40
0.0
 40
0.0
 40
0.0
 40
0.5259288626
 40
1.0
 40
1.0
 40
1.0
 40
1.0
 10
14.1365317234
 20
11.6586360293
 30
0.0
 10
14.1354577069
 20
11.6608246449
 30
0.0
 10
14.1339534851
 20
11.6653152798
 30
0.0
 10
14.1343048012
 20
11.6700976462
 30
0.0
 10
14.1349535036
 20
11.6721972716
 30
0.0
  0
SPLINE
  5
286
100
AcDbEntity
  8
0
100
AcDbSpline
 62
7
  6
CONTINUOUS
 70
0
 71
3
 72
10
 73
6
 74
0
 42
0.0000001
 43
0.0000001
 44
0.0000000001
 40
0.0
 40
0.0
 40
0.0
 40
0.0
 40
0.2340954971
 40
0.475365224
 40
1.0
 40
1.0
 40
1.0
 40
1.0
 10
14.1479541753
 20
11.5965647578
 30
0.0
 10
14.1491595716
 20
11.6004625303
 30
0.0
 10
14.1507395263
 20
11.608675007
 30
0.0
 10
14.1503658132
 20
11.6261988937
 30
0.0
 10
14.1460642032
 20
11.6392108779
 30
0.0
 10
14.1420360878
 20
11.647419314
 30
0.0
  0
SPLINE
  5
287
100
AcDbEntity
  8
0
100
AcDbSpline
 62
7
  6
CONTINUOUS
 70
0
 71
3
 72
9
 73
5
 74
0
 42
0.0000001
 43
0.0000001
 44
0.0000000001
 40
0.0
 40
0.0
 40
0.0
 40
0.0
 40
0.5259288626
 40
1.0
 40
1.0
 40
1.0
 40
1.0
 10
14.6442031375
 20
11.6586360293
 30
0.0
 10
14.6431291209
 20
11.6608246449
 30
0.0
 10
14.6416248991
 20
11.6653152798
 30
0.0
 10
14.6419762152
 20
11.6700976462
 30
0.0
 10
14.6426249176
 20
11.6721972716
 30
0.0
  0
SPLINE
  5
288
100
AcDbEntity
  8
0
100
AcDbSpline
 62
7
  6
CONTINUOUS
 70
0
 71
3
 72
9
 73
5
 74
0
 42
0.0000001
 43
0.0000001
 44
0.0000000001
 40
0.0
 40
0.0
 40
0.0
 40
0.0
 40
0.5259288626
 40
1.0
 40
1.0
 40
1.0
 40
1.0
 10
15.1518745515
 20
11.6586360293
 30
0.0
 10
15.1508005349
 20
11.6608246449
 30
0.0
 10
15.1492963131
 20
11.6653152798
 30
0.0
 10
15.1496476292
 20
11.6700976462
 30
0.0
 10
15.1502963316
 20
11.6721972716
 30
0.0
  0
SPLINE
  5
289
100
AcDbEntity
  8
0
100
AcDbSpline
 62
7
  6
CONTINUOUS
 70
0
 71
3
 72
9
 73
5
 74
0
 42
0.0000001
 43
0.0000001
 44
0.0000000001
 40
0.0
 40
0.0
 40
0.0
 40
0.0
 40
0.5259288626
 40
1.0
 40
1.0
 40
1.0
 40
1.0
 10
15.6595459655
 20
11.6586360293
 30
0.0
 10
15.6584719489
 20
11.6608246449
 30
0.0
 10
15.6569677272
 20
11.6653152798
 30
0.0
 10
15.6573190433
 20
11.6700976462
 30
0.0
 10
15.6579677456
 20
11.6721972716
 30
0.0
  0
SPLINE
  5
28A
100
AcDbEntity
  8
0
100
AcDbSpline
 62
7
  6
CONTINUOUS
 70
0
 71
3
 72
10
 73
6
 74
0
 42
0.0000001
 43
0.0000001
 44
0.0000000001
 40
0.0
 40
0.0
 40
0.0
 40
0.0
 40
0.2341179692
 40
0.4753435184
 40
1.0
 40
1.0
 40
1.0
 40
1.0
 10
15.670967536
 20
11.5965650316
 30
0.0
 10
15.672172606
 20
11.6004633099
 30
0.0
 10
15.6737545265
 20
11.6086749488
 30
0.0
 10
15.6733796743
 20
11.6261990292
 30
0.0
 10
15.6690786071
 20
11.639210548
 30
0.0
 10
15.6650503299
 20
11.647419314
 30
0.0
  0
SPLINE
  5
28B
100
AcDbEntity
  8
0
100
AcDbSpline
 62
7
  6
CONTINUOUS
 70
0
 71
3
 72
9
 73
5
 74
0
 42
0.0000001
 43
0.0000001
 44
0.0000000001
 40
0.0
 40
0.0
 40
0.0
 40
0.0
 40
0.5259288626
 40
1.0
 40
1.0
 40
1.0
 40
1.0
 10
16.1672173795
 20
11.6586360293
 30
0.0
 10
16.1661433629
 20
11.6608246449
 30
0.0
 10
16.1646391412
 20
11.6653152798
 30
0.0
 10
16.1649904573
 20
11.6700976462
 30
0.0
 10
16.1656391597
 20
11.6721972716
 30
0.0
  0
SPLINE
  5
28C
100
AcDbEntity
  8
0
100
AcDbSpline
 62
7
  6
CONTINUOUS
 70
0
 71
3
 72
10
 73
6
 74
0
 42
0.0000001
 43
0.0000001
 44
0.0000000001
 40
0.0
 40
0.0
 40
0.0
 40
0.0
 40
0.2341056307
 40
0.4753478194
 40
1.0
 40
1.0
 40
1.0
 40
1.0
 10
14.6556249508
 20
11.5965649569
 30
0.0
 10
14.6568304189
 20
11.6004628892
 30
0.0
 10
14.6584112124
 20
11.6086748872
 30
0.0
 10
14.6580373017
 20
11.6261988464
 30
0.0
 10
14.6537357482
 20
11.639210611
 30
0.0
 10
14.6497075018
 20
11.647419314
 30
0.0
  0
SPLINE
  5
28D
100
AcDbEntity
  8
0
100
AcDbSpline
 62
7
  6
CONTINUOUS
 70
0
 71
3
 72
9
 73
5
 74
0
 42
0.0000001
 43
0.0000001
 44
0.0000000001
 40
0.0
 40
0.0
 40
0.0
 40
0.0
 40
0.5259288626
 40
1.0
 40
1.0
 40
1.0
 40
1.0
 10
16.6748887935
 20
11.6586360293
 30
0.0
 10
16.6738147769
 20
11.6608246449
 30
0.0
 10
16.6723105552
 20
11.6653152798
 30
0.0
 10
16.6726618713
 20
11.6700976462
 30
0.0
 10
16.6733105737
 20
11.6721972716
 30
0.0
  0
ENDSEC
  0
SECTION
  2
OBJECTS
  0
DICTIONARY
  5
C
100
AcDbDictionary
280
0
281
1
  3
ACAD_GROUP
350
D
  3
ACAD_MLINESTYLE
350
17
  3
ACAD_LAYOUT
350
1A
  3
ACAD_PLOTSETTINGS
350
19
  3
ACAD_PLOTSTYLENAME
350
E
  0
DICTIONARY
  5
D
102
{ACAD_REACTORS
330
C
102
}
100
AcDbDictionary
280
0
281
1
  0
ACDBDICTIONARYWDFLT
  5
E
102
{ACAD_REACTORS
330
C
102
}
100
AcDbDictionary
281
1
  3
Normal
350
F
100
AcDbDictionaryWithDefault
340
F
  0
DICTIONARY
  5
17
102
{ACAD_REACTORS
330
C
102
}
100
AcDbDictionary
280
0
281
1
  3
Standard
350
18
  0
DICTIONARY
  5
19
102
{ACAD_REACTORS
330
C
102
}
100
AcDbDictionary
281
1
  0
DICTIONARY
  5
1A
102
{ACAD_REACTORS
330
C
102
}
100
AcDbDictionary
281
1
  3
Model
350
28E
  3
Layout1
350
28F
  0
ACDBPLACEHOLDER
  5
F
102
{ACAD_REACTORS
330
E
102
}
  0
MLINESTYLE
  5
18
102
{ACAD_REACTORS
330
17
102
}
100
AcDbMlineStyle
  2
STANDARD
 70
0
  3

 62
256
 51
90.0
 52
90.0
 71
2
 49
0.5
 62
256
  6
BYLAYER
 49
-0.5
 62
256
  6
BYLAYER
  0
LAYOUT
  5
28E
102
{ACAD_REACTORS
330
1A
102
}
100
AcDbPlotSettings
  1

  2
none_device
  4
ANSI_C_(22.00_x_17.00_Inches)
  6

 40
0.0
 41
0.0
 42
0.0
 43
0.0
 44
558.8
 45
431.8
 46
0.0
 47
0.0
 48
0.0
 49
0.0
140
0.0
141
0.0
142
1.0
143
1.0
 70
1024
 72
0
 73
0
 74
0
  7

 75
0
147
1.0
148
0.0
149
0.0
100
AcDbLayout
  1
Model
 70
0
 71
0
 10
0.0
 20
0.0
 11
22.0
 21
17.0
 12
0.0
 22
0.0
 32
0.0
 14
0.0
 24
0.0
 34
0.0
 15
0.0
 25
0.0
 35
0.0
146
0.0
 13
0.0
 23
0.0
 33
0.0
 16
1.0
 26
0.0
 36
0.0
 17
0.0
 27
1.0
 37
0.0
 76
0
330
216
345
0
346
0
  0
LAYOUT
  5
28F
102
{ACAD_REACTORS
330
1A
102
}
100
AcDbPlotSettings
  1

  2
none_device
  4
ANSI_C_(22.00_x_17.00_Inches)
  6

 40
0.0
 41
0.0
 42
0.0
 43
0.0
 44
558.8
 45
431.8
 46
0.0
 47
0.0
 48
0.0
 49
0.0
140
0.0
141
0.0
142
1.0
143
1.0
 70
0
 72
0
 73
0
 74
0
  7

 75
0
147
1.0
148
0.0
149
0.0
100
AcDbLayout
  1
Layout1
 70
0
 71
1
 10
0.0
 20
0.0
 11
22.0
 21
17.0
 12
0.0
 22
0.0
 32
0.0
 14
0.0
 24
0.0
 34
0.0
 15
0.0
 25
0.0
 35
0.0
146
0.0
 13
0.0
 23
0.0
 33
0.0
 16
1.0
 26
0.0
 36
0.0
 17
0.0
 27
1.0
 37
0.0
 76
0
330
217
345
0
346
0
  0
ENDSEC
  0
EOF