999
DXF file: _cgs_temp_output.dxf
999
Pro/ENGINEER 2016360 by Parametric Technology Corporation
  0
SECTION
  2
HEADER
  9
$ACADVER
  1
AC1021
  9
$DWGCODEPAGE
  3
ANSI_1252
  9
$EXTMAX
 10
22.0
 20
17.0
 30
0.0
  9
$EXTMIN
 10
0.0
 20
0.0
 30
0.0
  9
$LIMMIN
 10
0.0
 20
0.0
  9
$LIMMAX
 10
22.0
 20
17.0
  9
$VIEWCTR
 10
11.0
 20
8.5
  9
$VIEWSIZE
 40
17.0
  9
$CLAYER
  8
0
  9
$LTSCALE
 40
1.21
  9
$CELTYPE
  6
BYLAYER
  9
$DIMSCALE
 40
1.0
  9
$DIMASZ
 40
0.1875
  9
$DIMEXO
 40
0.0625
  9
$DIMDLI
 40
0.836
  9
$DIMEXE
 40
0.125
  9
$DIMCEN
 40
0.198
  9
$DIMLFAC
 40
1.0
  9
$DIMBLK
  1
_CLOSED
  9
$DIMALT
 70
0
  9
$DIMALTF
 40
25.4
  9
$DIMTXT
 40
0.15625
  9
$DIMTOL
 70
0
  9
$DIMLIM
 70
0
  9
$DIMTFAC
 40
1.0
  9
$DIMGAP
 40
0.09
  9
$DIMDSEP
 70
46
  9
$AUNITS
 70
0
  9
$PDMODE
 70
3
  9
$PDSIZE
 40
0.3125
  9
$HANDSEED
  5
371
  9
$TILEMODE
 70
1
  9
$MEASUREMENT
 70
0
  9
$INSUNITS
 70
1
  0
ENDSEC
  0
SECTION
  2
CLASSES
  0
CLASS
  1
ACDBDICTIONARYWDFLT
  2
AcDbDictionaryWithDefault
  3
AutoCAD 2000
 90
0
 91
1
280
0
281
0
  0
CLASS
  1
ACDBPLACEHOLDER
  2
AcDbPlaceHolder
  3
AutoCAD 2000
 90
0
 91
1
280
0
281
0
  0
CLASS
  1
LAYOUT
  2
AcDbLayout
  3
AutoCAD 2000
 90
0
 91
0
280
0
281
0
  0
ENDSEC
  0
SECTION
  2
TABLES
  0
TABLE
  2
VPORT
  5
8
100
AcDbSymbolTable
 70
2
  0
VPORT
  5
1F4
100
AcDbSymbolTableRecord
100
AcDbViewportTableRecord
  2
*ACTIVE
 70
0
 10
0.0
 20
0.0
 11
1.0
 21
1.0
 12
11.0
 22
8.5
 13
0.0
 23
0.0
 14
1.0
 24
1.0
 15
0.0
 25
0.0
 16
0.0
 26
0.0
 36
1.0
 17
0.0
 27
0.0
 37
0.0
 40
17.0
 41
1.2941176471
 42
50.0
 43
0.0
 44
0.0
 50
0.0
 51
0.0
 71
0
 72
100
 73
1
 74
1
 75
0
 76
0
 77
0
 78
0
  0
ENDTAB
  0
TABLE
  2
LTYPE
  5
5
100
AcDbSymbolTable
 70
6
  0
LTYPE
  5
14
100
AcDbSymbolTableRecord
100
AcDbLinetypeTableRecord
  2
BYBLOCK
 70
0
  3

 72
65
 73
0
 40
0.0
  0
LTYPE
  5
15
100
AcDbSymbolTableRecord
100
AcDbLinetypeTableRecord
  2
BYLAYER
 70
0
  3

 72
65
 73
0
 40
0.0
  0
LTYPE
  5
16
100
AcDbSymbolTableRecord
100
AcDbLinetypeTableRecord
  2
CONTINUOUS
 70
64
  3
Solid line
 72
65
 73
0
 40
0.0
  0
LTYPE
  5
1F5
100
AcDbSymbolTableRecord
100
AcDbLinetypeTableRecord
  2
CENTER
 70
64
  3
____ _ ____ _ ____ _ ____ _ ____ _ ____ _ ____
 72
65
 73
4
 40
0.6
 49
0.375
 74
0
 49
-0.075
 74
0
 49
0.075
 74
0
 49
-0.075
 74
0
  0
LTYPE
  5
1F6
100
AcDbSymbolTableRecord
100
AcDbLinetypeTableRecord
  2
HIDDEN
 70
64
  3
- - - - - - - - - - - - - - - - - - - -
 72
65
 73
2
 40
0.2
 49
0.1
 74
0
 49
-0.1
 74
0
  0
LTYPE
  5
1F7
100
AcDbSymbolTableRecord
100
AcDbLinetypeTableRecord
  2
PHANTOM
 70
64
  3
_____ _ _ _____ _ _ _____ _ _ _____
 72
65
 73
6
 40
0.8
 49
0.45
 74
0
 49
-0.05
 74
0
 49
0.1
 74
0
 49
-0.05
 74
0
 49
0.1
 74
0
 49
-0.05
 74
0
  0
LTYPE
  5
1F8
100
AcDbSymbolTableRecord
100
AcDbLinetypeTableRecord
  2
DOT
 70
64
  3
. . . . . . . . . . . . . . . . . . . .
 72
65
 73
2
 40
0.2
 49
0.1
 74
0
 49
-0.1
 74
0
  0
LTYPE
  5
1F9
100
AcDbSymbolTableRecord
100
AcDbLinetypeTableRecord
  2
DASHED
 70
64
  3
- - - - - - - - - - - - - - - - - - - -
 72
65
 73
2
 40
0.2
 49
0.1
 74
0
 49
-0.1
 74
0
  0
ENDTAB
  0
TABLE
  2
LAYER
  5
2
100
AcDbSymbolTable
 70
36
  0
LAYER
  5
10
100
AcDbSymbolTableRecord
100
AcDbLayerTableRecord
  2
0
 70
0
 62
7
  6
CONTINUOUS
370
-3
390
F
  0
LAYER
  5
1FA
100
AcDbSymbolTableRecord
100
AcDbLayerTableRecord
  2
DEFAULT_1
 70
0
 62
7
  6
CENTER
370
-3
390
F
  0
LAYER
  5
1FB
100
AcDbSymbolTableRecord
100
AcDbLayerTableRecord
  2
DEFAULT_2
 70
0
 62
8
  6
HIDDEN
370
-3
390
F
  0
LAYER
  5
1FC
100
AcDbSymbolTableRecord
100
AcDbLayerTableRecord
  2
DEFAULT_3
 70
0
 62
7
  6
PHANTOM
370
-3
390
F
  0
LAYER
  5
1FD
100
AcDbSymbolTableRecord
100
AcDbLayerTableRecord
  2
01_ALL_DTM_PLN
 70
0
 62
7
  6
CONTINUOUS
370
-3
390
F
  0
LAYER
  5
1FE
100
AcDbSymbolTableRecord
100
AcDbLayerTableRecord
  2
01__ASM_ALL_DTM_PLN
 70
0
 62
7
  6
CONTINUOUS
370
-3
390
F
  0
LAYER
  5
1FF
100
AcDbSymbolTableRecord
100
AcDbLayerTableRecord
  2
01__ASM_DEF_DTM_PLN
 70
0
 62
7
  6
CONTINUOUS
370
-3
390
F
  0
LAYER
  5
200
100
AcDbSymbolTableRecord
100
AcDbLayerTableRecord
  2
01___PRT_ALL_DTM_PLN
 70
0
 62
7
  6
CONTINUOUS
370
-3
390
F
  0
LAYER
  5
201
100
AcDbSymbolTableRecord
100
AcDbLayerTableRecord
  2
01___PRT_DEF_DTM_PLN
 70
0
 62
7
  6
CONTINUOUS
370
-3
390
F
  0
LAYER
  5
202
100
AcDbSymbolTableRecord
100
AcDbLayerTableRecord
  2
02_ALL_AXES
 70
0
 62
7
  6
CONTINUOUS
370
-3
390
F
  0
LAYER
  5
203
100
AcDbSymbolTableRecord
100
AcDbLayerTableRecord
  2
02__ASM_ALL_AXES
 70
0
 62
7
  6
CONTINUOUS
370
-3
390
F
  0
LAYER
  5
204
100
AcDbSymbolTableRecord
100
AcDbLayerTableRecord
  2
02___PRT_ALL_AXES
 70
0
 62
7
  6
CONTINUOUS
370
-3
390
F
  0
LAYER
  5
205
100
AcDbSymbolTableRecord
100
AcDbLayerTableRecord
  2
03_ALL_CURVES
 70
0
 62
7
  6
CONTINUOUS
370
-3
390
F
  0
LAYER
  5
206
100
AcDbSymbolTableRecord
100
AcDbLayerTableRecord
  2
03__ASM_ALL_CURVES
 70
0
 62
7
  6
CONTINUOUS
370
-3
390
F
  0
LAYER
  5
207
100
AcDbSymbolTableRecord
100
AcDbLayerTableRecord
  2
03___PRT_ALL_CURVES
 70
0
 62
7
  6
CONTINUOUS
370
-3
390
F
  0
LAYER
  5
208
100
AcDbSymbolTableRecord
100
AcDbLayerTableRecord
  2
04_ALL_DTM_PNT
 70
0
 62
7
  6
CONTINUOUS
370
-3
390
F
  0
LAYER
  5
209
100
AcDbSymbolTableRecord
100
AcDbLayerTableRecord
  2
04__ASM_ALL_DTM_PNT
 70
0
 62
7
  6
CONTINUOUS
370
-3
390
F
  0
LAYER
  5
20A
100
AcDbSymbolTableRecord
100
AcDbLayerTableRecord
  2
04___PRT_ALL_DTM_PNT
 70
0
 62
7
  6
CONTINUOUS
370
-3
390
F
  0
LAYER
  5
20B
100
AcDbSymbolTableRecord
100
AcDbLayerTableRecord
  2
05_ALL_DTM_CSYS
 70
0
 62
7
  6
CONTINUOUS
370
-3
390
F
  0
LAYER
  5
20C
100
AcDbSymbolTableRecord
100
AcDbLayerTableRecord
  2
05__ASM_ALL_DTM_CSYS
 70
0
 62
7
  6
CONTINUOUS
370
-3
390
F
  0
LAYER
  5
20D
100
AcDbSymbolTableRecord
100
AcDbLayerTableRecord
  2
05__ASM_DEF_DTM_CSYS
 70
0
 62
7
  6
CONTINUOUS
370
-3
390
F
  0
LAYER
  5
20E
100
AcDbSymbolTableRecord
100
AcDbLayerTableRecord
  2
05___PRT_ALL_DTM_CSYS
 70
0
 62
7
  6
CONTINUOUS
370
-3
390
F
  0
LAYER
  5
20F
100
AcDbSymbolTableRecord
100
AcDbLayerTableRecord
  2
05___PRT_DEF_DTM_CSYS
 70
0
 62
7
  6
CONTINUOUS
370
-3
390
F
  0
LAYER
  5
210
100
AcDbSymbolTableRecord
100
AcDbLayerTableRecord
  2
06_ALL_SURFS
 70
0
 62
7
  6
CONTINUOUS
370
-3
390
F
  0
LAYER
  5
211
100
AcDbSymbolTableRecord
100
AcDbLayerTableRecord
  2
06__ASM_ALL_SURFS
 70
0
 62
7
  6
CONTINUOUS
370
-3
390
F
  0
LAYER
  5
212
100
AcDbSymbolTableRecord
100
AcDbLayerTableRecord
  2
06___PRT_ALL_SURFS
 70
0
 62
7
  6
CONTINUOUS
370
-3
390
F
  0
LAYER
  5
213
100
AcDbSymbolTableRecord
100
AcDbLayerTableRecord
  2
07__ASM_ALL_SKELETONS
 70
0
 62
7
  6
CONTINUOUS
370
-3
390
F
  0
LAYER
  5
214
100
AcDbSymbolTableRecord
100
AcDbLayerTableRecord
  2
ANNOTATIONS
 70
0
 62
7
  6
CONTINUOUS
370
-3
390
F
  0
LAYER
  5
215
100
AcDbSymbolTableRecord
100
AcDbLayerTableRecord
  2
ASM_DATUMS
 70
0
 62
7
  6
CONTINUOUS
370
-3
390
F
  0
LAYER
  5
216
100
AcDbSymbolTableRecord
100
AcDbLayerTableRecord
  2
ASM_DEF_DATUMS
 70
0
 62
7
  6
CONTINUOUS
370
-3
390
F
  0
LAYER
  5
217
100
AcDbSymbolTableRecord
100
AcDbLayerTableRecord
  2
AXIS
 70
0
 62
7
  6
CONTINUOUS
370
-3
390
F
  0
LAYER
  5
218
100
AcDbSymbolTableRecord
100
AcDbLayerTableRecord
  2
CSYS
 70
0
 62
7
  6
CONTINUOUS
370
-3
390
F
  0
LAYER
  5
219
100
AcDbSymbolTableRecord
100
AcDbLayerTableRecord
  2
CURVES
 70
0
 62
7
  6
CONTINUOUS
370
-3
390
F
  0
LAYER
  5
21A
100
AcDbSymbolTableRecord
100
AcDbLayerTableRecord
  2
DATUMS
 70
0
 62
7
  6
CONTINUOUS
370
-3
390
F
  0
LAYER
  5
21B
100
AcDbSymbolTableRecord
100
AcDbLayerTableRecord
  2
DEF_CSYS
 70
0
 62
7
  6
CONTINUOUS
370
-3
390
F
  0
LAYER
  5
21C
100
AcDbSymbolTableRecord
100
AcDbLayerTableRecord
  2
DEF_DATUMS
 70
0
 62
7
  6
CONTINUOUS
370
-3
390
F
  0
LAYER
  5
21D
100
AcDbSymbolTableRecord
100
AcDbLayerTableRecord
  2
GTOL
 70
0
 62
7
  6
CONTINUOUS
370
-3
390
F
  0
LAYER
  5
21E
100
AcDbSymbolTableRecord
100
AcDbLayerTableRecord
  2
POINTS
 70
0
 62
7
  6
CONTINUOUS
370
-3
390
F
  0
LAYER
  5
21F
100
AcDbSymbolTableRecord
100
AcDbLayerTableRecord
  2
SKELETONS
 70
0
 62
7
  6
CONTINUOUS
370
-3
390
F
  0
LAYER
  5
220
100
AcDbSymbolTableRecord
100
AcDbLayerTableRecord
  2
SURFACES
 70
0
 62
7
  6
CONTINUOUS
370
-3
390
F
  0
LAYER
  5
221
100
AcDbSymbolTableRecord
100
AcDbLayerTableRecord
  2
XSEC_DATUMS
 70
0
 62
7
  6
CONTINUOUS
370
-3
390
F
  0
ENDTAB
  0
TABLE
  2
STYLE
  5
3
100
AcDbSymbolTable
 70
1
  0
STYLE
  5
11
100
AcDbSymbolTableRecord
100
AcDbTextStyleTableRecord
  2
STANDARD
 70
0
 40
0.0
 41
0.8
 50
0.0
 71
0
 42
0.2
  3
txt
  4

  0
STYLE
  5
222
100
AcDbSymbolTableRecord
100
AcDbTextStyleTableRecord
  2
TEXTSTYLE_1
 70
0
 40
0.0
 41
0.8
 50
0.0
 71
0
 42
0.2
  3
gdt
  4

  0
ENDTAB
  0
TABLE
  2
VIEW
  5
6
100
AcDbSymbolTable
 70
0
  0
ENDTAB
  0
TABLE
  2
UCS
  5
7
100
AcDbSymbolTable
 70
0
  0
ENDTAB
  0
TABLE
  2
APPID
  5
9
100
AcDbSymbolTable
 70
1
  0
APPID
  5
223
100
AcDbSymbolTableRecord
100
AcDbRegAppTableRecord
  2
ACAD
 70
0
  0
ENDTAB
  0
TABLE
  2
BLOCK_RECORD
  5
1
100
AcDbSymbolTable
 70
0
  0
BLOCK_RECORD
  5
224
100
AcDbSymbolTableRecord
100
AcDbBlockTableRecord
  2
*Model_Space
  0
BLOCK_RECORD
  5
225
100
AcDbSymbolTableRecord
100
AcDbBlockTableRecord
  2
*Paper_Space
  0
ENDTAB
  0
TABLE
  2
DIMSTYLE
  5
A
100
AcDbSymbolTable
 70
1
100
AcDbDimStyleTable
 71
0
  0
DIMSTYLE
105
226
100
AcDbSymbolTableRecord
100
AcDbDimStyleTableRecord
  2
STANDARD
 70
0
  3

  4

 40
1.0
 41
0.1875
 42
0.0625
 43
0.38
 44
0.125
 45
0.0
 46
0.0
 47
0.0001
 48
0.0001
140
0.15625
141
0.09
142
0.0
143
25.4
144
1.0
145
0.0
146
1.0
147
0.09
 71
0.0
 72
0.0
 73
1
 74
1
 75
0
 76
0
 77
0
 78
4
 79
1
170
0
171
3
172
0
173
0
174
0
175
0
176
0
177
0
178
0
270
2
179
4
271
4
272
4
273
2
274
2
275
0
280
0
281
0
282
0
283
1
284
4
285
0
286
0
287
3
288
0
340
11
278
46
  0
ENDTAB
  0
ENDSEC
  0
SECTION
  2
BLOCKS
  0
BLOCK
  5
20
100
AcDbEntity
  8
0
100
AcDbBlockBegin
  2
*Model_Space
 70
0
 10
0.0
 20
0.0
 30
0.0
  3
*Model_Space
  1

  0
ENDBLK
  5
21
100
AcDbEntity
  8
0
100
AcDbBlockEnd
  0
BLOCK
  5
1C
100
AcDbEntity
  8
0
100
AcDbBlockBegin
  2
*Paper_Space
 70
0
 10
0.0
 20
0.0
 30
0.0
  3
*Paper_Space
  1

  0
ENDBLK
  5
1D
100
AcDbEntity
  8
0
100
AcDbBlockEnd
  0
ENDSEC
  0
SECTION
  2
ENTITIES
  0
MTEXT
  5
227
100
AcDbEntity
  8
0
100
AcDbMText
 62
7
  6
CONTINUOUS
  7
STANDARD
 71
1
 72
1
 10
15.9560215477
 20
0.9479130325
 30
0.0
 11
1.0
 21
0.0
 31
0.0
 44
0.9
  1
SCALE: 1:1.000
 40
0.3
 41
3.36
  0
LINE
  5
228
100
AcDbEntity
  8
0
100
AcDbLine
 62
7
  6
CONTINUOUS
 10
0.0
 20
0.0
 11
0.0
 21
17.0
  0
LINE
  5
229
100
AcDbEntity
  8
0
100
AcDbLine
 62
7
  6
CONTINUOUS
 10
0.0
 20
0.0
 11
22.0
 21
0.0
  0
LINE
  5
22A
100
AcDbEntity
  8
0
100
AcDbLine
 62
7
  6
CONTINUOUS
 10
0.0
 20
17.0
 11
22.0
 21
17.0
  0
LINE
  5
22B
100
AcDbEntity
  8
0
100
AcDbLine
 62
7
  6
CONTINUOUS
 10
22.0
 20
0.0
 11
22.0
 21
17.0
  0
LINE
  5
22C
100
AcDbEntity
  8
02___PRT_ALL_AXES
100
AcDbLine
 62
7
  6
CONTINUOUS
 10
4.4001832681
 20
7.6856198968
 11
4.3141158401
 21
7.6593064433
  0
LINE
  5
22D
100
AcDbEntity
  8
02___PRT_ALL_AXES
100
AcDbLine
 62
7
  6
CONTINUOUS
 10
4.4001832681
 20
3.3546198968
 11
4.3141158401
 21
3.3809333502
  0
LINE
  5
22E
100
AcDbEntity
  8
0
100
AcDbLine
 62
7
  6
CONTINUOUS
 10
4.4391158401
 20
3.5513641613
 11
7.1041158401
 21
3.5513641613
  0
LINE
  5
22F
100
AcDbEntity
  8
0
100
AcDbLine
 62
7
  6
CONTINUOUS
 10
4.4391158401
 20
3.5964638998
 11
7.1041158401
 21
3.5964638998
  0
LINE
  5
230
100
AcDbEntity
  8
02___PRT_ALL_AXES
100
AcDbLine
 62
7
  6
CONTINUOUS
 10
4.3141158401
 20
7.6593064433
 11
4.3141158401
 21
3.3809333502
  0
LINE
  5
231
100
AcDbEntity
  8
02___PRT_ALL_AXES
100
AcDbLine
 62
7
  6
CONTINUOUS
 10
4.4001832681
 20
7.6856198968
 11
4.4001832681
 21
3.3546198968
  0
LINE
  5
232
100
AcDbEntity
  8
02___PRT_ALL_AXES
100
AcDbLine
 62
7
  6
CONTINUOUS
 10
4.4391158401
 20
7.5582771918
 11
4.4391158401
 21
3.4819626017
  0
LINE
  5
233
100
AcDbEntity
  8
0
100
AcDbLine
 62
7
  6
CONTINUOUS
 10
4.4391158401
 20
3.6881917337
 11
7.1041158401
 21
3.6881917337
  0
LINE
  5
234
100
AcDbEntity
  8
0
100
AcDbLine
 62
7
  6
CONTINUOUS
 10
7.9166158401
 20
3.7601198968
 11
7.2291158401
 21
3.7601198968
  0
LINE
  5
235
100
AcDbEntity
  8
0
100
AcDbLine
 62
7
  6
CONTINUOUS
 10
4.4391158401
 20
3.8242890192
 11
7.1041158401
 21
3.8242890192
  0
LINE
  5
236
100
AcDbEntity
  8
0
100
AcDbLine
 62
7
  6
CONTINUOUS
 10
4.4391158401
 20
4.0014045895
 11
7.1041158401
 21
4.0014045895
  0
LINE
  5
237
100
AcDbEntity
  8
0
100
AcDbLine
 62
7
  6
CONTINUOUS
 10
4.4391158401
 20
4.2151772715
 11
7.1041158401
 21
4.2151772715
  0
LINE
  5
238
100
AcDbEntity
  8
02___PRT_ALL_AXES
100
AcDbLine
 62
7
  6
CONTINUOUS
 10
4.4391158401
 20
3.4819626017
 11
4.4001832681
 21
3.3546198968
  0
LINE
  5
239
100
AcDbEntity
  8
0
100
AcDbLine
 62
7
  6
CONTINUOUS
 10
4.4391158401
 20
4.4603432721
 11
7.1041158401
 21
4.4603432721
  0
LINE
  5
23A
100
AcDbEntity
  8
02___PRT_ALL_AXES
100
AcDbLine
 62
7
  6
CONTINUOUS
 10
4.4391158401
 20
7.5582771918
 11
4.4001832681
 21
7.6856198968
  0
LINE
  5
23B
100
AcDbEntity
  8
0
100
AcDbLine
 62
7
  6
CONTINUOUS
 10
4.4391158401
 20
4.7308690169
 11
7.1041158401
 21
4.7308690169
  0
LINE
  5
23C
100
AcDbEntity
  8
02___PRT_ALL_AXES
100
AcDbLine
 62
7
  6
CONTINUOUS
 10
7.1041158401
 20
7.5582771918
 11
7.143048412
 21
7.6856198968
  0
LINE
  5
23D
100
AcDbEntity
  8
02___PRT_ALL_AXES
100
AcDbLine
 62
7
  6
CONTINUOUS
 10
7.1041158401
 20
3.4819626017
 11
7.143048412
 21
3.3546198968
  0
LINE
  5
23E
100
AcDbEntity
  8
0
100
AcDbLine
 62
7
  6
CONTINUOUS
 10
7.1041158401
 20
6.3093707766
 11
4.4391158401
 21
6.3093707766
  0
LINE
  5
23F
100
AcDbEntity
  8
02___PRT_ALL_AXES
100
AcDbLine
 62
7
  6
CONTINUOUS
 10
7.1041158401
 20
3.4819626017
 11
7.1041158401
 21
7.5582771918
  0
LINE
  5
240
100
AcDbEntity
  8
02___PRT_ALL_AXES
100
AcDbLine
 62
7
  6
CONTINUOUS
 10
7.143048412
 20
3.3546198968
 11
7.143048412
 21
7.6856198968
  0
LINE
  5
241
100
AcDbEntity
  8
02___PRT_ALL_AXES
100
AcDbLine
 62
7
  6
CONTINUOUS
 10
7.2291158401
 20
3.3809333502
 11
7.2291158401
 21
7.6593064433
  0
LINE
  5
242
100
AcDbEntity
  8
0
100
AcDbLine
 62
7
  6
CONTINUOUS
 10
7.1041158401
 20
6.5798965214
 11
4.4391158401
 21
6.5798965214
  0
LINE
  5
243
100
AcDbEntity
  8
0
100
AcDbLine
 62
7
  6
CONTINUOUS
 10
7.1041158401
 20
6.825062522
 11
4.4391158401
 21
6.825062522
  0
LINE
  5
244
100
AcDbEntity
  8
0
100
AcDbLine
 62
7
  6
CONTINUOUS
 10
7.1041158401
 20
7.038835204
 11
4.4391158401
 21
7.038835204
  0
LINE
  5
245
100
AcDbEntity
  8
0
100
AcDbLine
 62
7
  6
CONTINUOUS
 10
7.1041158401
 20
7.2159507743
 11
4.4391158401
 21
7.2159507743
  0
LINE
  5
246
100
AcDbEntity
  8
0
100
AcDbLine
 62
7
  6
CONTINUOUS
 10
7.9166158401
 20
3.7601198968
 11
7.9166158401
 21
7.2801198968
  0
LINE
  5
247
100
AcDbEntity
  8
0
100
AcDbLine
 62
7
  6
CONTINUOUS
 10
7.9466158401
 20
3.7901198968
 11
7.9466158401
 21
7.2501198968
  0
LINE
  5
248
100
AcDbEntity
  8
0
100
AcDbLine
 62
7
  6
CONTINUOUS
 10
7.9166158401
 20
7.2801198968
 11
7.2291158401
 21
7.2801198968
  0
LINE
  5
249
100
AcDbEntity
  8
0
100
AcDbLine
 62
7
  6
CONTINUOUS
 10
7.1041158401
 20
7.3520480598
 11
4.4391158401
 21
7.3520480598
  0
LINE
  5
24A
100
AcDbEntity
  8
0
100
AcDbLine
 62
7
  6
CONTINUOUS
 10
7.1041158401
 20
7.4437758937
 11
4.4391158401
 21
7.4437758937
  0
LINE
  5
24B
100
AcDbEntity
  8
0
100
AcDbLine
 62
7
  6
CONTINUOUS
 10
7.1041158401
 20
7.4888756322
 11
4.4391158401
 21
7.4888756322
  0
LINE
  5
24C
100
AcDbEntity
  8
02___PRT_ALL_AXES
100
AcDbLine
 62
7
  6
CONTINUOUS
 10
7.143048412
 20
3.3546198968
 11
7.2291158401
 21
3.3809333502
  0
LINE
  5
24D
100
AcDbEntity
  8
02___PRT_ALL_AXES
100
AcDbLine
 62
7
  6
CONTINUOUS
 10
7.143048412
 20
7.6856198968
 11
7.2291158401
 21
7.6593064433
  0
LINE
  5
24E
100
AcDbEntity
  8
0
100
AcDbLine
 62
7
  6
CONTINUOUS
 10
7.9166159684
 20
3.7601197684
 11
7.9466159663
 21
3.7901197706
  0
LINE
  5
24F
100
AcDbEntity
  8
0
100
AcDbLine
 62
7
  6
CONTINUOUS
 10
7.9166159684
 20
7.2801200251
 11
7.9466159663
 21
7.2501200229
  0
LINE
  5
250
100
AcDbEntity
  8
02___PRT_ALL_AXES
100
AcDbLine
 62
7
  6
CONTINUOUS
 10
4.2546206478
 20
14.7392343279
 11
4.3406880758
 21
14.7655477814
  0
LINE
  5
251
100
AcDbEntity
  8
02___PRT_ALL_AXES
100
AcDbLine
 62
7
  6
CONTINUOUS
 10
4.2546206478
 20
10.4608612348
 11
4.3406880758
 21
10.4345477814
  0
LINE
  5
252
100
AcDbEntity
  8
0
100
AcDbLine
 62
7
  6
CONTINUOUS
 10
4.3796206478
 20
10.6312920459
 11
7.0446206478
 21
10.6312920459
  0
LINE
  5
253
100
AcDbEntity
  8
0
100
AcDbLine
 62
7
  6
CONTINUOUS
 10
4.3796206478
 20
10.6763917845
 11
7.0446206478
 21
10.6763917845
  0
LINE
  5
254
100
AcDbEntity
  8
02___PRT_ALL_AXES
100
AcDbLine
 62
7
  6
CONTINUOUS
 10
4.2546206478
 20
10.4608612348
 11
4.2546206478
 21
14.7392343279
  0
LINE
  5
255
100
AcDbEntity
  8
02___PRT_ALL_AXES
100
AcDbLine
 62
7
  6
CONTINUOUS
 10
4.3406880758
 20
10.4345477814
 11
4.3406880758
 21
14.7655477814
  0
LINE
  5
256
100
AcDbEntity
  8
02___PRT_ALL_AXES
100
AcDbLine
 62
7
  6
CONTINUOUS
 10
4.3796206478
 20
10.5618935851
 11
4.3796206478
 21
14.6382019777
  0
LINE
  5
257
100
AcDbEntity
  8
0
100
AcDbLine
 62
7
  6
CONTINUOUS
 10
4.3796206478
 20
10.7681196183
 11
7.0446206478
 21
10.7681196183
  0
LINE
  5
258
100
AcDbEntity
  8
AXIS
100
AcDbLine
 62
7
  6
CONTINUOUS
 10
7.8571209045
 20
10.8400477814
 11
7.1696206478
 21
10.8400477814
  0
LINE
  5
259
100
AcDbEntity
  8
0
100
AcDbLine
 62
7
  6
CONTINUOUS
 10
4.3796206478
 20
10.9042169039
 11
7.0446206478
 21
10.9042169039
  0
LINE
  5
25A
100
AcDbEntity
  8
0
100
AcDbLine
 62
7
  6
CONTINUOUS
 10
4.3796206478
 20
11.0813324742
 11
7.0446206478
 21
11.0813324742
  0
LINE
  5
25B
100
AcDbEntity
  8
0
100
AcDbLine
 62
7
  6
CONTINUOUS
 10
4.3796206478
 20
11.2951051561
 11
7.0446206478
 21
11.2951051561
  0
LINE
  5
25C
100
AcDbEntity
  8
02___PRT_ALL_AXES
100
AcDbLine
 62
7
  6
CONTINUOUS
 10
4.3406880758
 20
10.4345477814
 11
4.3796206478
 21
10.5618904863
  0
LINE
  5
25D
100
AcDbEntity
  8
0
100
AcDbLine
 62
7
  6
CONTINUOUS
 10
4.3796206478
 20
11.5402711567
 11
7.0446206478
 21
11.5402711567
  0
LINE
  5
25E
100
AcDbEntity
  8
02___PRT_ALL_AXES
100
AcDbLine
 62
7
  6
CONTINUOUS
 10
4.3406880758
 20
14.7655477814
 11
4.3796206478
 21
14.6382050764
  0
LINE
  5
25F
100
AcDbEntity
  8
0
100
AcDbLine
 62
7
  6
CONTINUOUS
 10
4.3796206478
 20
11.8107969015
 11
7.0446206478
 21
11.8107969015
  0
LINE
  5
260
100
AcDbEntity
  8
02___PRT_ALL_AXES
100
AcDbLine
 62
7
  6
CONTINUOUS
 10
7.0835532197
 20
14.7655477814
 11
7.0446206478
 21
14.6382050764
  0
LINE
  5
261
100
AcDbEntity
  8
02___PRT_ALL_AXES
100
AcDbLine
 62
7
  6
CONTINUOUS
 10
7.0835532197
 20
10.4345477814
 11
7.0446206478
 21
10.5618904863
  0
LINE
  5
262
100
AcDbEntity
  8
0
100
AcDbLine
 62
7
  6
CONTINUOUS
 10
7.0446206478
 20
13.3892986612
 11
4.3796206478
 21
13.3892986612
  0
LINE
  5
263
100
AcDbEntity
  8
02___PRT_ALL_AXES
100
AcDbLine
 62
7
  6
CONTINUOUS
 10
7.0446206478
 20
10.5618935851
 11
7.0446206478
 21
14.6382019777
  0
LINE
  5
264
100
AcDbEntity
  8
02___PRT_ALL_AXES
100
AcDbLine
 62
7
  6
CONTINUOUS
 10
7.0835532197
 20
10.4345477814
 11
7.0835532197
 21
14.7655477814
  0
LINE
  5
265
100
AcDbEntity
  8
02___PRT_ALL_AXES
100
AcDbLine
 62
7
  6
CONTINUOUS
 10
7.1696206478
 20
10.4608612348
 11
7.1696206478
 21
14.7392343279
  0
LINE
  5
266
100
AcDbEntity
  8
0
100
AcDbLine
 62
7
  6
CONTINUOUS
 10
7.0446206478
 20
13.659824406
 11
4.3796206478
 21
13.659824406
  0
LINE
  5
267
100
AcDbEntity
  8
0
100
AcDbLine
 62
7
  6
CONTINUOUS
 10
7.0446206478
 20
13.9049904067
 11
4.3796206478
 21
13.9049904067
  0
LINE
  5
268
100
AcDbEntity
  8
0
100
AcDbLine
 62
7
  6
CONTINUOUS
 10
7.0446206478
 20
14.1187630886
 11
4.3796206478
 21
14.1187630886
  0
LINE
  5
269
100
AcDbEntity
  8
0
100
AcDbLine
 62
7
  6
CONTINUOUS
 10
7.0446206478
 20
14.2958786589
 11
4.3796206478
 21
14.2958786589
  0
LINE
  5
26A
100
AcDbEntity
  8
0
100
AcDbLine
 62
7
  6
CONTINUOUS
 10
7.8571206477
 20
10.8400477814
 11
7.8571206477
 21
14.3600477814
  0
LINE
  5
26B
100
AcDbEntity
  8
0
100
AcDbLine
 62
7
  6
CONTINUOUS
 10
7.8871206478
 20
10.8700477815
 11
7.8871206478
 21
14.3300477813
  0
LINE
  5
26C
100
AcDbEntity
  8
AXIS
100
AcDbLine
 62
7
  6
CONTINUOUS
 10
7.8571209045
 20
14.3600477814
 11
7.1696206478
 21
14.3600477814
  0
LINE
  5
26D
100
AcDbEntity
  8
0
100
AcDbLine
 62
7
  6
CONTINUOUS
 10
7.0446206478
 20
14.4319759444
 11
4.3796206478
 21
14.4319759444
  0
LINE
  5
26E
100
AcDbEntity
  8
0
100
AcDbLine
 62
7
  6
CONTINUOUS
 10
7.0446206478
 20
14.5237037783
 11
4.3796206478
 21
14.5237037783
  0
LINE
  5
26F
100
AcDbEntity
  8
0
100
AcDbLine
 62
7
  6
CONTINUOUS
 10
7.0446206478
 20
14.5688035168
 11
4.3796206478
 21
14.5688035168
  0
LINE
  5
270
100
AcDbEntity
  8
02___PRT_ALL_AXES
100
AcDbLine
 62
7
  6
CONTINUOUS
 10
7.1696206478
 20
10.4608612348
 11
7.0835532197
 21
10.4345477814
  0
LINE
  5
271
100
AcDbEntity
  8
02___PRT_ALL_AXES
100
AcDbLine
 62
7
  6
CONTINUOUS
 10
7.1696206478
 20
14.7392343279
 11
7.0835532197
 21
14.7655477814
  0
LINE
  5
272
100
AcDbEntity
  8
0
100
AcDbLine
 62
7
  6
CONTINUOUS
 10
7.8871206478
 20
10.8700475291
 11
7.8571209045
 21
10.8400477814
  0
LINE
  5
273
100
AcDbEntity
  8
0
100
AcDbLine
 62
7
  6
CONTINUOUS
 10
7.8871206478
 20
14.3300480337
 11
7.8571209045
 21
14.3600477814
  0
LINE
  5
274
100
AcDbEntity
  8
0
100
AcDbLine
 62
7
  6
CONTINUOUS
 10
13.7355128242
 20
14.3702968591
 11
13.7394260738
 21
14.3720282853
  0
LINE
  5
275
100
AcDbEntity
  8
02___PRT_ALL_AXES
100
AcDbLine
 62
7
  6
CONTINUOUS
 10
13.7701274419
 20
14.6320451
 11
13.8480762643
 21
14.6581378
  0
LINE
  5
276
100
AcDbEntity
  8
02___PRT_ALL_AXES
100
AcDbLine
 62
7
  6
CONTINUOUS
 10
13.7701274419
 20
10.3895648858
 11
13.8480762643
 21
10.3634721858
  0
LINE
  5
277
100
AcDbEntity
  8
0
100
AcDbLine
 62
7
  6
CONTINUOUS
 10
13.6798303281
 20
10.7114259844
 11
13.6749971576
 21
10.7141121826
  0
LINE
  5
278
100
AcDbEntity
  8
0
100
AcDbLine
 62
7
  6
CONTINUOUS
 10
13.9080767135
 20
10.5495833533
 11
13.9067667727
 21
10.5497504152
  0
LINE
  5
279
100
AcDbEntity
  8
0
100
AcDbLine
 62
7
  6
CONTINUOUS
 10
13.7914731534
 20
10.6074368404
 11
13.7883632946
 21
10.6085109019
  0
LINE
  5
27A
100
AcDbEntity
  8
0
100
AcDbLine
 62
7
  6
CONTINUOUS
 10
16.1367537716
 20
10.5380349813
 11
14.0136808685
 21
10.5380349813
  0
LINE
  5
27B
100
AcDbEntity
  8
0
100
AcDbLine
 62
7
  6
CONTINUOUS
 10
13.908076718
 20
10.5495612271
 11
16.1275238663
 21
10.5495612271
  0
LINE
  5
27C
100
AcDbEntity
  8
0
100
AcDbLine
 62
7
  6
CONTINUOUS
 10
13.7914731407
 20
10.6074284711
 11
16.0813203998
 21
10.6074284711
  0
LINE
  5
27D
100
AcDbEntity
  8
0
100
AcDbLine
 62
7
  6
CONTINUOUS
 10
13.6798303298
 20
10.7114244624
 11
16.0146189561
 21
10.7114244624
  0
LINE
  5
27E
100
AcDbEntity
  8
AXIS
100
AcDbLine
 62
7
  6
CONTINUOUS
 10
17.1959291785
 20
10.7508049929
 11
16.5603968562
 21
10.7508049929
  0
LINE
  5
27F
100
AcDbEntity
  8
0
100
AcDbLine
 62
7
  6
CONTINUOUS
 10
13.5758973018
 20
10.8589884747
 11
15.9392600065
 21
10.8589884747
  0
LINE
  5
280
100
AcDbEntity
  8
0
100
AcDbLine
 62
7
  6
CONTINUOUS
 10
13.4822332327
 20
11.0464869921
 11
15.8628698377
 21
11.0464869921
  0
LINE
  5
281
100
AcDbEntity
  8
0
100
AcDbLine
 62
7
  6
CONTINUOUS
 10
13.4011444428
 20
11.2693031789
 11
15.7933286896
 21
11.2693031789
  0
LINE
  5
282
100
AcDbEntity
  8
02___PRT_ALL_AXES
100
AcDbLine
 62
7
  6
CONTINUOUS
 10
16.3085108052
 20
14.4515824989
 11
16.3078467038
 21
14.4510560852
  0
LINE
  5
283
100
AcDbEntity
  8
02___PRT_ALL_AXES
100
AcDbLine
 62
7
  6
CONTINUOUS
 10
16.3082947841
 20
14.4534713878
 11
16.3076274191
 21
14.4529672744
  0
LINE
  5
284
100
AcDbEntity
  8
0
100
AcDbLine
 62
7
  6
CONTINUOUS
 10
13.3346276072
 20
11.5219505612
 11
15.7335863139
 21
11.5219505612
  0
LINE
  5
285
100
AcDbEntity
  8
02___PRT_ALL_AXES
100
AcDbLine
 62
7
  6
CONTINUOUS
 10
16.2544399068
 20
10.6164056464
 11
16.2535750356
 21
10.6172098044
  0
LINE
  5
286
100
AcDbEntity
  8
02___PRT_ALL_AXES
100
AcDbLine
 62
7
  6
CONTINUOUS
 10
16.2086995732
 20
14.3592428709
 11
16.2078056366
 21
14.3582150407
  0
LINE
  5
287
100
AcDbEntity
  8
02___PRT_ALL_AXES
100
AcDbLine
 62
7
  6
CONTINUOUS
 10
16.2089117347
 20
14.3580240419
 11
16.2080066976
 21
14.3570638228
  0
LINE
  5
288
100
AcDbEntity
  8
0
100
AcDbLine
 62
7
  6
CONTINUOUS
 10
13.2895186522
 20
11.7980224855
 11
15.6879777942
 21
11.7980224855
  0
LINE
  5
289
100
AcDbEntity
  8
0
100
AcDbLine
 62
7
  6
CONTINUOUS
 10
13.2839957123
 20
11.798219724
 11
13.2895186522
 21
11.7980224898
  0
LINE
  5
28A
100
AcDbEntity
  8
02___PRT_ALL_AXES
100
AcDbLine
 62
7
  6
CONTINUOUS
 10
16.2541607489
 20
10.6144897072
 11
16.2532986336
 21
10.6153195054
  0
LINE
  5
28B
100
AcDbEntity
  8
02___PRT_ALL_AXES
100
AcDbLine
 62
7
  6
CONTINUOUS
 10
16.0138338034
 20
14.0402288898
 11
16.0134163048
 21
14.0393812503
  0
LINE
  5
28C
100
AcDbEntity
  8
02___PRT_ALL_AXES
100
AcDbLine
 62
7
  6
CONTINUOUS
 10
16.0788816048
 20
14.2522216891
 11
16.0778478357
 21
14.2503246902
  0
LINE
  5
28D
100
AcDbEntity
  8
02___PRT_ALL_AXES
100
AcDbLine
 62
7
  6
CONTINUOUS
 10
16.0790916589
 20
14.2514656304
 11
16.0780327418
 21
14.2496612912
  0
LINE
  5
28E
100
AcDbEntity
  8
02___PRT_ALL_AXES
100
AcDbLine
 62
7
  6
CONTINUOUS
 10
16.0525906946
 20
10.9021366804
 11
16.0511189877
 21
10.9048610277
  0
LINE
  5
28F
100
AcDbEntity
  8
02___PRT_ALL_AXES
100
AcDbLine
 62
7
  6
CONTINUOUS
 10
16.0522555055
 20
10.9010083122
 11
16.0508139189
 21
10.9038389426
  0
LINE
  5
290
100
AcDbEntity
  8
02___PRT_ALL_AXES
100
AcDbLine
 62
7
  6
CONTINUOUS
 10
16.0337317383
 20
10.8605789727
 11
16.0329438242
 21
10.8621845728
  0
LINE
  5
291
100
AcDbEntity
  8
02___PRT_ALL_AXES
100
AcDbLine
 62
7
  6
CONTINUOUS
 10
16.0332833742
 20
10.8591801924
 11
16.0325066387
 21
10.8608240198
  0
LINE
  5
292
100
AcDbEntity
  8
02___PRT_ALL_AXES
100
AcDbLine
 62
7
  6
CONTINUOUS
 10
15.9374597331
 20
13.8418982128
 11
15.9372117613
 21
13.8411677717
  0
LINE
  5
293
100
AcDbEntity
  8
02___PRT_ALL_AXES
100
AcDbLine
 62
7
  6
CONTINUOUS
 10
15.9368270927
 20
13.8433182833
 11
15.9365785453
 21
13.8425877613
  0
LINE
  5
294
100
AcDbEntity
  8
02___PRT_ALL_AXES
100
AcDbLine
 62
7
  6
CONTINUOUS
 10
15.9963569205
 20
14.0770596601
 11
15.9957684217
 21
14.0756078164
  0
LINE
  5
295
100
AcDbEntity
  8
02___PRT_ALL_AXES
100
AcDbLine
 62
7
  6
CONTINUOUS
 10
16.0134163048
 20
14.0393812503
 11
16.0126466705
 21
14.0374975329
  0
LINE
  5
296
100
AcDbEntity
  8
02___PRT_ALL_AXES
100
AcDbLine
 62
7
  6
CONTINUOUS
 10
15.9958679837
 20
14.0784118413
 11
15.9952697929
 21
14.0769840932
  0
LINE
  5
297
100
AcDbEntity
  8
02___PRT_ALL_AXES
100
AcDbLine
 62
7
  6
CONTINUOUS
 10
16.0138178164
 20
14.040276218
 11
16.0126148872
 21
14.0375912413
  0
LINE
  5
298
100
AcDbEntity
  8
02___PRT_ALL_AXES
100
AcDbLine
 62
7
  6
CONTINUOUS
 10
15.9714681616
 20
11.0829070117
 11
15.97060335
 21
11.0851430536
  0
LINE
  5
299
100
AcDbEntity
  8
02___PRT_ALL_AXES
100
AcDbLine
 62
7
  6
CONTINUOUS
 10
15.9719371856
 20
11.0841050748
 11
15.9710910146
 21
11.0863848605
  0
LINE
  5
29A
100
AcDbEntity
  8
02___PRT_ALL_AXES
100
AcDbLine
 62
7
  6
CONTINUOUS
 10
15.851299803
 20
13.6198688362
 11
15.8514901085
 21
13.6206912485
  0
LINE
  5
29B
100
AcDbEntity
  8
02___PRT_ALL_AXES
100
AcDbLine
 62
7
  6
CONTINUOUS
 10
15.8506146415
 20
13.6209369902
 11
15.8508082174
 21
13.6217553768
  0
LINE
  5
29C
100
AcDbEntity
  8
02___PRT_ALL_AXES
100
AcDbLine
 62
7
  6
CONTINUOUS
 10
15.8788709831
 20
11.2918313408
 11
15.8785083218
 21
11.2931066973
  0
LINE
  5
29D
100
AcDbEntity
  8
02___PRT_ALL_AXES
100
AcDbLine
 62
7
  6
CONTINUOUS
 10
15.878377611
 20
11.2909518588
 11
15.8780269699
 21
11.2922499942
  0
LINE
  5
29E
100
AcDbEntity
  8
0
100
AcDbLine
 62
7
  6
CONTINUOUS
 10
13.2856569143
 20
13.0928929163
 11
15.6719963374
 21
13.0928929163
  0
LINE
  5
29F
100
AcDbEntity
  8
0
100
AcDbLine
 62
7
  6
CONTINUOUS
 10
15.7103283351
 20
13.3753465693
 11
13.3094316434
 21
13.3753465693
  0
LINE
  5
2A0
100
AcDbEntity
  8
0
100
AcDbLine
 62
7
  6
CONTINUOUS
 10
15.7646811614
 20
13.6396459988
 11
13.3686857367
 21
13.6396459988
  0
LINE
  5
2A1
100
AcDbEntity
  8
0
100
AcDbLine
 62
7
  6
CONTINUOUS
 10
15.8296081246
 20
13.8768883159
 11
13.4433110253
 21
13.8768883159
  0
LINE
  5
2A2
100
AcDbEntity
  8
AXIS
100
AcDbLine
 62
7
  6
CONTINUOUS
 10
16.5544579323
 20
14.2782391966
 11
16.5304202122
 21
14.2777065674
  0
LINE
  5
2A3
100
AcDbEntity
  8
0
100
AcDbLine
 62
7
  6
CONTINUOUS
 10
15.9038922056
 20
14.0812318273
 11
13.531469987
 21
14.0812318273
  0
LINE
  5
2A4
100
AcDbEntity
  8
0
100
AcDbLine
 62
7
  6
CONTINUOUS
 10
15.9798755821
 20
14.2476449177
 11
13.6309918556
 21
14.2476449177
  0
LINE
  5
2A5
100
AcDbEntity
  8
AXIS
100
AcDbLine
 62
7
  6
CONTINUOUS
 10
17.1959291785
 20
14.2708049929
 11
16.5603968562
 21
14.2708049929
  0
LINE
  5
2A6
100
AcDbEntity
  8
0
100
AcDbLine
 62
7
  6
CONTINUOUS
 10
16.053289115
 20
14.3720299445
 11
13.7394260725
 21
14.3720299445
  0
LINE
  5
2A7
100
AcDbEntity
  8
0
100
AcDbLine
 62
7
  6
CONTINUOUS
 10
16.1094705446
 20
14.4513241355
 11
13.8541026272
 21
14.4513241355
  0
LINE
  5
2A8
100
AcDbEntity
  8
0
100
AcDbLine
 62
7
  6
CONTINUOUS
 10
16.1375912115
 20
14.4835750046
 11
13.9718776347
 21
14.4835637364
  0
LINE
  5
2A9
100
AcDbEntity
  8
02___PRT_ALL_AXES
100
AcDbLine
 62
7
  6
CONTINUOUS
 10
16.670378778
 20
10.3895648858
 11
16.5924299556
 21
10.3634721858
  0
LINE
  5
2AA
100
AcDbEntity
  8
0
100
AcDbLine
 62
7
  6
CONTINUOUS
 10
13.8519595342
 20
14.4508150407
 11
13.8541026512
 21
14.4513057193
  0
LINE
  5
2AB
100
AcDbEntity
  8
02___PRT_ALL_AXES
100
AcDbLine
 62
7
  6
CONTINUOUS
 10
16.670378778
 20
14.6320451
 11
16.5924299556
 21
14.6581378
  0
CIRCLE
  5
2AC
100
AcDbEntity
  8
02___PRT_ALL_AXES
100
AcDbCircle
 62
7
  6
CONTINUOUS
 10
15.5603552569
 20
5.4606247044
 40
2.1655
  0
CIRCLE
  5
2AD
100
AcDbEntity
  8
02___PRT_ALL_AXES
100
AcDbCircle
 62
7
  6
CONTINUOUS
 10
15.5603552569
 20
5.4606247044
 40
2.1391865466
  0
CIRCLE
  5
2AE
100
AcDbEntity
  8
02___PRT_ALL_AXES
100
AcDbCircle
 62
7
  6
CONTINUOUS
 10
15.5603552569
 20
5.4606247044
 40
2.0247067049
  0
CIRCLE
  5
2AF
100
AcDbEntity
  8
AXIS
100
AcDbCircle
 62
7
  6
CONTINUOUS
 10
15.5603552569
 20
5.4606247044
 40
1.7675
  0
CIRCLE
  5
2B0
100
AcDbEntity
  8
0
100
AcDbCircle
 62
7
  6
CONTINUOUS
 10
15.5603552569
 20
5.4606247044
 40
1.76
  0
CIRCLE
  5
2B1
100
AcDbEntity
  8
0
100
AcDbCircle
 62
7
  6
CONTINUOUS
 10
15.5603552569
 20
5.4606247044
 40
1.73000003
  0
CIRCLE
  5
2B2
100
AcDbEntity
  8
0
100
AcDbCircle
 62
7
  6
CONTINUOUS
 10
15.5603552569
 20
5.4606247044
 40
0.5302472381
  0
CIRCLE
  5
2B3
100
AcDbEntity
  8
0
100
AcDbCircle
 62
7
  6
CONTINUOUS
 10
15.5603552569
 20
5.4606247044
 40
0.50025
  0
ARC
  5
2B4
100
AcDbEntity
  8
0
100
AcDbCircle
 62
7
  6
CONTINUOUS
 10
16.0838182471
 20
12.116223863
 40
2.8185276077
100
AcDbArc
 50
196.6745232344
 51
197.2459747857
  0
ARC
  5
2B5
100
AcDbEntity
  8
0
100
AcDbCircle
 62
7
  6
CONTINUOUS
 10
15.3452925932
 20
11.8511341372
 40
2.0335428548
100
AcDbArc
 50
202.3573776688
 51
203.0679339484
  0
ARC
  5
2B6
100
AcDbEntity
  8
0
100
AcDbCircle
 62
7
  6
CONTINUOUS
 10
14.7359977286
 20
11.5518461952
 40
1.3542549163
100
AcDbArc
 50
209.595315814
 51
210.5272982705
  0
ARC
  5
2B7
100
AcDbEntity
  8
0
100
AcDbCircle
 62
7
  6
CONTINUOUS
 10
15.0736418436
 20
10.6945616692
 40
1.3073782356
100
AcDbArc
 50
179.3629291425
 51
182.2309462176
  0
ARC
  5
2B8
100
AcDbEntity
  8
0
100
AcDbCircle
 62
7
  6
CONTINUOUS
 10
14.9356145628
 20
10.7291181881
 40
1.2796352419
100
AcDbArc
 50
175.8237998907
 51
178.73730394
  0
ARC
  5
2B9
100
AcDbEntity
  8
0
100
AcDbCircle
 62
7
  6
CONTINUOUS
 10
15.1080911139
 20
10.7011565552
 40
1.2306958835
100
AcDbArc
 50
184.3688447331
 51
185.8370304206
  0
ARC
  5
2BA
100
AcDbEntity
  8
0
100
AcDbCircle
 62
7
  6
CONTINUOUS
 10
14.724827584
 20
10.8156180968
 40
1.1753492372
100
AcDbArc
 50
172.1035729153
 51
175.1915481284
  0
ARC
  5
2BB
100
AcDbEntity
  8
0
100
AcDbCircle
 62
7
  6
CONTINUOUS
 10
14.4612824603
 20
10.9598113316
 40
1.0107874908
100
AcDbArc
 50
168.0188504924
 51
171.4388835245
  0
ARC
  5
2BC
100
AcDbEntity
  8
0
100
AcDbCircle
 62
7
  6
CONTINUOUS
 10
14.3120273389
 20
11.2599613727
 40
0.838903326
100
AcDbArc
 50
219.3093611861
 51
220.5921327417
  0
ARC
  5
2BD
100
AcDbEntity
  8
0
100
AcDbCircle
 62
7
  6
CONTINUOUS
 10
14.0805250774
 20
11.0204322036
 40
0.5050125405
100
AcDbArc
 50
232.8540516559
 51
234.6532173357
  0
ARC
  5
2BE
100
AcDbEntity
  8
0
100
AcDbCircle
 62
7
  6
CONTINUOUS
 10
14.0002271277
 20
10.8722231836
 40
0.3357432417
100
AcDbArc
 50
251.4766212512
 51
253.8371419938
  0
ARC
  5
2BF
100
AcDbEntity
  8
AXIS
100
AcDbCircle
 62
7
  6
CONTINUOUS
 10
16.5601495758
 20
11.0164356268
 40
0.2731297696
100
AcDbArc
 50
270.1835998105
 51
282.7379170328
  0
ARC
  5
2C0
100
AcDbEntity
  8
AXIS
100
AcDbCircle
 62
7
  6
CONTINUOUS
 10
16.5603907523
 20
11.011576442
 40
0.2682699318
100
AcDbArc
 50
268.7327948724
 51
270.1354163224
  0
ARC
  5
2C1
100
AcDbEntity
  8
0
100
AcDbCircle
 62
7
  6
CONTINUOUS
 10
13.6893477053
 20
10.7099533796
 40
0.0770014689
100
AcDbArc
 50
359.3635751777
 51
1.0960638216
  0
ARC
  5
2C2
100
AcDbEntity
  8
0
100
AcDbCircle
 62
7
  6
CONTINUOUS
 10
13.5832408847
 20
10.8278441182
 40
0.0763372438
100
AcDbArc
 50
355.8398304147
 51
3.2538827483
  0
ARC
  5
2C3
100
AcDbEntity
  8
0
100
AcDbCircle
 62
7
  6
CONTINUOUS
 10
16.4554845328
 20
12.8001645709
 40
3.204827135
100
AcDbArc
 50
165.056019871
 51
165.579711401
  0
ARC
  5
2C4
100
AcDbEntity
  8
02___PRT_ALL_AXES
100
AcDbCircle
 62
7
  6
CONTINUOUS
 10
16.3792421737
 20
12.8508109937
 40
3.1476063711
100
AcDbArc
 50
162.873150685
 51
165.9781335235
  0
ARC
  5
2C5
100
AcDbEntity
  8
0
100
AcDbCircle
 62
7
  6
CONTINUOUS
 10
15.6869328847
 20
13.0374349435
 40
2.4002103012
100
AcDbArc
 50
159.7672112444
 51
160.4020707013
  0
ARC
  5
2C6
100
AcDbEntity
  8
0
100
AcDbCircle
 62
7
  6
CONTINUOUS
 10
15.0061998448
 20
13.3250301906
 40
1.660830623
100
AcDbArc
 50
153.1556002727
 51
153.9669124617
  0
ARC
  5
2C7
100
AcDbEntity
  8
0
100
AcDbCircle
 62
7
  6
CONTINUOUS
 10
15.0226866587
 20
14.3171517086
 40
1.3073179224
100
AcDbArc
 50
179.3788447396
 51
182.2469314723
  0
ARC
  5
2C8
100
AcDbEntity
  8
0
100
AcDbCircle
 62
7
  6
CONTINUOUS
 10
15.1007567767
 20
14.3278919861
 40
1.2743525114
100
AcDbArc
 50
175.8378521429
 51
178.0147919405
  0
ARC
  5
2C9
100
AcDbEntity
  8
0
100
AcDbCircle
 62
7
  6
CONTINUOUS
 10
14.8601319208
 20
14.2606753072
 40
1.2537689659
100
AcDbArc
 50
182.8911060071
 51
185.8360830127
  0
ARC
  5
2CA
100
AcDbEntity
  8
0
100
AcDbCircle
 62
7
  6
CONTINUOUS
 10
15.0735168077
 20
14.3064318575
 40
1.1361734307
100
AcDbArc
 50
172.1086532855
 51
172.6714618513
  0
ARC
  5
2CB
100
AcDbEntity
  8
0
100
AcDbCircle
 62
7
  6
CONTINUOUS
 10
14.6303900631
 20
14.1502079647
 40
1.1277475961
100
AcDbArc
 50
186.5267181896
 51
189.6826029815
  0
ARC
  5
2CC
100
AcDbEntity
  8
0
100
AcDbCircle
 62
7
  6
CONTINUOUS
 10
14.4897165469
 20
13.626070353
 40
1.0624790419
100
AcDbArc
 50
144.4379267037
 51
145.5304469864
  0
ARC
  5
2CD
100
AcDbEntity
  8
0
100
AcDbCircle
 62
7
  6
CONTINUOUS
 10
14.3568249781
 20
13.9815550571
 40
0.9487395009
100
AcDbArc
 50
190.4550657545
 51
193.9910259598
  0
ARC
  5
2CE
100
AcDbEntity
  8
0
100
AcDbCircle
 62
7
  6
CONTINUOUS
 10
14.1686266922
 20
13.896043198
 40
0.6422648657
100
AcDbArc
 50
132.4040030585
 51
133.9320270716
  0
ARC
  5
2CF
100
AcDbEntity
  8
0
100
AcDbCircle
 62
7
  6
CONTINUOUS
 10
14.024003044
 20
14.0919874862
 40
0.397939924
100
AcDbArc
 50
115.6158610238
 51
117.7189829991
  0
ARC
  5
2D0
100
AcDbEntity
  8
0
100
AcDbCircle
 62
7
  6
CONTINUOUS
 10
13.9931628383
 20
14.1814667147
 40
0.3028459516
100
AcDbArc
 50
94.0302953729
 51
96.5558209957
  0
ARC
  5
2D1
100
AcDbEntity
  8
AXIS
100
AcDbCircle
 62
7
  6
CONTINUOUS
 10
16.5602417253
 20
14.0064145203
 40
0.2718892494
100
AcDbArc
 50
78.6471454607
 51
89.8773322448
  0
ARC
  5
2D2
100
AcDbEntity
  8
AXIS
100
AcDbCircle
 62
7
  6
CONTINUOUS
 10
16.5604862889
 20
14.0080951914
 40
0.2702096502
100
AcDbArc
 50
91.2783693349
 51
96.3759808008
  0
ARC
  5
2D3
100
AcDbEntity
  8
AXIS
100
AcDbCircle
 62
7
  6
CONTINUOUS
 10
16.5604505292
 20
14.0021688801
 40
0.268634608
100
AcDbArc
 50
90.0114475781
 51
96.2371285502
  0
ARC
  5
2D4
100
AcDbEntity
  8
AXIS
100
AcDbCircle
 62
7
  6
CONTINUOUS
 10
16.5604036037
 20
14.0100064339
 40
0.2682970417
100
AcDbArc
 50
89.910259607
 51
91.2698218521
  0
ARC
  5
2D5
100
AcDbEntity
  8
0
100
AcDbCircle
 62
7
  6
CONTINUOUS
 10
13.4861939689
 20
14.2769566057
 40
0.2308805584
100
AcDbArc
 50
352.630336889
 51
354.8032595043
  0
ARC
  5
2D6
100
AcDbEntity
  8
0
100
AcDbCircle
 62
7
  6
CONTINUOUS
 10
13.6407003106
 20
14.2628751329
 40
0.0757338699
100
AcDbArc
 50
354.8252270428
 51
2.2864771009
  0
ARC
  5
2D7
100
AcDbEntity
  8
0
100
AcDbCircle
 62
7
  6
CONTINUOUS
 10
18.2830903564
 20
12.5107180209
 40
5.0586676662
100
AcDbArc
 50
180.6116075411
 51
180.9982180706
  0
ARC
  5
2D8
100
AcDbEntity
  8
0
100
AcDbCircle
 62
7
  6
CONTINUOUS
 10
18.0533136616
 20
12.4987085565
 40
4.8285464317
100
AcDbArc
 50
184.1559326459
 51
184.554808519
  0
ARC
  5
2D9
100
AcDbEntity
  8
0
100
AcDbCircle
 62
7
  6
CONTINUOUS
 10
17.5501417736
 20
12.4423897243
 40
4.3221458113
100
AcDbArc
 50
187.8810396571
 51
188.310579011
  0
ARC
  5
2DA
100
AcDbEntity
  8
02___PRT_ALL_AXES
100
AcDbCircle
 62
7
  6
CONTINUOUS
 10
19.4999891211
 20
12.2654528139
 40
3.7504311157
100
AcDbArc
 50
191.2277817124
 51
195.0398572769
  0
ARC
  5
2DB
100
AcDbEntity
  8
0
100
AcDbCircle
 62
7
  6
CONTINUOUS
 10
16.8568694467
 20
12.3173516997
 40
3.6175392705
100
AcDbArc
 50
191.9712092467
 51
192.4549575116
  0
ARC
  5
2DC
100
AcDbEntity
  8
02___PRT_ALL_AXES
100
AcDbCircle
 62
7
  6
CONTINUOUS
 10
18.4167399824
 20
11.9463494953
 40
2.620658069
100
AcDbArc
 50
199.4479769225
 51
199.9413569875
  0
ARC
  5
2DD
100
AcDbEntity
  8
0
100
AcDbCircle
 62
7
  6
CONTINUOUS
 10
16.9675772835
 20
11.3942215629
 40
0.7043095379
100
AcDbArc
 50
317.1842613178
 51
320.1627857164
  0
ARC
  5
2DE
100
AcDbEntity
  8
0
100
AcDbCircle
 62
7
  6
CONTINUOUS
 10
18.2007112761
 20
12.5136427783
 40
4.9762395931
100
AcDbArc
 50
177.0932219126
 51
177.4840148039
  0
ARC
  5
2DF
100
AcDbEntity
  8
0
100
AcDbCircle
 62
7
  6
CONTINUOUS
 10
17.8201203807
 20
12.5449119994
 40
4.5943063115
100
AcDbArc
 50
173.4500314037
 51
173.8621121906
  0
ARC
  5
2E0
100
AcDbEntity
  8
02___PRT_ALL_AXES
100
AcDbCircle
 62
7
  6
CONTINUOUS
 10
19.8182637889
 20
12.6869326246
 40
4.076101558
100
AcDbArc
 50
166.7534615399
 51
170.4106030731
  0
ARC
  5
2E1
100
AcDbEntity
  8
0
100
AcDbCircle
 62
7
  6
CONTINUOUS
 10
17.2050254034
 20
12.635062965
 40
3.9725222307
100
AcDbArc
 50
169.5112804358
 51
169.9652176705
  0
ARC
  5
2E2
100
AcDbEntity
  8
02___PRT_ALL_AXES
100
AcDbCircle
 62
7
  6
CONTINUOUS
 10
19.1341550476
 20
12.8485433797
 40
3.3731621958
100
AcDbArc
 50
162.8972350095
 51
166.7485707595
  0
ARC
  5
2E3
100
AcDbEntity
  8
02___PRT_ALL_AXES
100
AcDbCircle
 62
7
  6
CONTINUOUS
 10
18.779263692
 20
12.9539414159
 40
3.002970615
100
AcDbArc
 50
162.6090734249
 51
162.8279465307
  0
ARC
  5
2E4
100
AcDbEntity
  8
02___PRT_ALL_AXES
100
AcDbCircle
 62
7
  6
CONTINUOUS
 10
18.5127062269
 20
12.9668348484
 40
2.7209147353
100
AcDbArc
 50
161.2245684943
 51
162.8451475744
  0
ARC
  5
2E5
100
AcDbEntity
  8
0
100
AcDbCircle
 62
7
  6
CONTINUOUS
 10
16.9779543687
 20
13.6365557388
 40
0.6904684414
100
AcDbArc
 50
39.8046942429
 51
42.7648686713
  0
ARC
  5
2E6
100
AcDbEntity
  8
0
100
AcDbCircle
 62
7
  6
CONTINUOUS
 10
17.0168982936
 20
13.6724383408
 40
0.6375139355
100
AcDbArc
 50
42.7738115632
 51
43.9202075741
  0
ARC
  5
2E7
100
AcDbEntity
  8
0
100
AcDbCircle
 62
7
  6
CONTINUOUS
 10
17.243376852
 20
12.8588946401
 40
0.1670181994
100
AcDbArc
 50
133.1995280875
 51
134.6198605895
  0
SPLINE
  5
2E8
100
AcDbEntity
  8
02___PRT_ALL_AXES
100
AcDbSpline
 62
7
  6
CONTINUOUS
 70
0
 71
3
 72
41
 73
37
 74
0
 42
0.0000001
 43
0.0000001
 44
0.0000000001
 40
0.0
 40
0.0
 40
0.0
 40
0.0
 40
0.032027984
 40
0.06523626
 40
0.0995132372
 40
0.1347486352
 40
0.1708206164
 40
0.2076023662
 40
0.2449624806
 40
0.2827655305
 40
0.3208732439
 40
0.3591453853
 40
0.3974407022
 40
0.4356177718
 40
0.4735359112
 40
0.5110561355
 40
0.5480420174
 40
0.5843605871
 40
0.6198834288
 40
0.654487665
 40
0.688056953
 40
0.7204826993
 40
0.7516655555
 40
0.7815167724
 40
0.8099598848
 40
0.8369329594
 40
0.8623913221
 40
0.8863106089
 40
0.9086908683
 40
0.9295620004
 40
0.9489902115
 40
0.9581991841
 40
0.9670929312
 40
0.9840167973
 40
0.9921110624
 40
1.0
 40
1.0
 40
1.0
 40
1.0
 10
13.2252652539
 20
13.8405446742
 30
0.0
 10
13.2136490192
 20
13.8029545249
 30
0.0
 10
13.1914760676
 20
13.725922599
 30
0.0
 10
13.161823531
 20
13.6073057655
 30
0.0
 10
13.1352738296
 20
13.4839230466
 30
0.0
 10
13.1119422969
 20
13.3563159552
 30
0.0
 10
13.0919313287
 20
13.2250340415
 30
0.0
 10
13.0753279899
 20
13.0906485946
 30
0.0
 10
13.062204681
 20
12.9537431846
 30
0.0
 10
13.0526191969
 20
12.8149124768
 30
0.0
 10
13.0466134519
 20
12.674759891
 30
0.0
 10
13.0442133676
 20
12.5338946198
 30
0.0
 10
13.0454294604
 20
12.3929289749
 30
0.0
 10
13.0502567857
 20
12.2524757381
 30
0.0
 10
13.0586740889
 20
12.1131454213
 30
0.0
 10
13.0706443028
 20
11.9755435345
 30
0.0
 10
13.086115158
 20
11.8402680017
 30
0.0
 10
13.1050194269
 20
11.7079065279
 30
0.0
 10
13.1272741815
 20
11.5790337812
 30
0.0
 10
13.1527820349
 20
11.4542089118
 30
0.0
 10
13.1814317867
 20
11.3339732264
 30
0.0
 10
13.2130988681
 20
11.2188476185
 30
0.0
 10
13.2476450223
 20
11.1093298206
 30
0.0
 10
13.2849201691
 20
11.0058924036
 30
0.0
 10
13.3247634345
 20
10.9089807461
 30
0.0
 10
13.3670038283
 20
10.8190106548
 30
0.0
 10
13.4114613495
 20
10.7363658256
 30
0.0
 10
13.4579491967
 20
10.6613976162
 30
0.0
 10
13.5062787556
 20
10.5944218074
 30
0.0
 10
13.55625321
 20
10.5357269036
 30
0.0
 10
13.5998699005
 20
10.493183091
 30
0.0
 10
13.6354098538
 20
10.4637768411
 30
0.0
 10
13.6700953498
 20
10.4382889727
 30
0.0
 10
13.7058919089
 20
10.4166984439
 30
0.0
 10
13.7425558058
 20
10.3996070695
 30
0.0
 10
13.760937673
 20
10.3926414661
 30
0.0
 10
13.77012746
 20
10.3895652427
 30
0.0
  0
SPLINE
  5
2E9
100
AcDbEntity
  8
02___PRT_ALL_AXES
100
AcDbSpline
 62
7
  6
CONTINUOUS
 70
0
 71
3
 72
21
 73
17
 74
0
 42
0.0000001
 43
0.0000001
 44
0.0000000001
 40
0.0
 40
0.0
 40
0.0
 40
0.0
 40
0.0580683643
 40
0.1151364892
 40
0.1715570333
 40
0.2276977764
 40
0.2839335309
 40
0.340636715
 40
0.3981685487
 40
0.4568707209
 40
0.5170604446
 40
0.579024105
 40
0.7091909925
 40
0.7778773828
 40
0.8491660437
 40
1.0
 40
1.0
 40
1.0
 40
1.0
 10
13.8480762696
 20
14.6581376944
 30
0.0
 10
13.8576159555
 20
14.6613311516
 30
0.0
 10
13.8767963739
 20
14.6669044799
 30
0.0
 10
13.9059713061
 20
14.6727582937
 30
0.0
 10
13.9352167411
 20
14.676011391
 30
0.0
 10
13.9644913366
 20
14.6766547919
 30
0.0
 10
13.993756005
 20
14.6746902123
 30
0.0
 10
14.0229711699
 20
14.6701193664
 30
0.0
 10
14.0520981539
 20
14.6629503832
 30
0.0
 10
14.0810997774
 20
14.6531967172
 30
0.0
 10
14.1099405567
 20
14.6408705181
 30
0.0
 10
14.1487632853
 20
14.6207075727
 30
0.0
 10
14.186523544
 20
14.5956052001
 30
0.0
 10
14.2230090351
 20
14.5662676899
 30
0.0
 10
14.2604218815
 20
14.5324908558
 30
0.0
 10
14.286867511
 20
14.5044228531
 30
0.0
 10
14.3039395097
 20
14.4846394796
 30
0.0
  0
SPLINE
  5
2EA
100
AcDbEntity
  8
02___PRT_ALL_AXES
100
AcDbSpline
 62
7
  6
CONTINUOUS
 70
0
 71
3
 72
23
 73
19
 74
0
 42
0.0000001
 43
0.0000001
 44
0.0000000001
 40
0.0
 40
0.0
 40
0.0
 40
0.0
 40
0.0838346687
 40
0.1650436693
 40
0.2434895293
 40
0.3190804931
 40
0.3917410857
 40
0.4614081462
 40
0.528039855
 40
0.591620661
 40
0.6521628064
 40
0.7097098985
 40
0.7643437711
 40
0.8161881557
 40
0.8654171491
 40
0.9122586948
 40
0.95700246
 40
1.0
 40
1.0
 40
1.0
 40
1.0
 10
13.2252652539
 20
13.8405446742
 30
0.0
 10
13.2334499687
 20
13.8670304208
 30
0.0
 10
13.2502800399
 20
13.9189546441
 30
0.0
 10
13.2773642715
 20
13.9947897822
 30
0.0
 10
13.3058386155
 20
14.0671946085
 30
0.0
 10
13.3356336583
 20
14.1359976738
 30
0.0
 10
13.3666825613
 20
14.2010436974
 30
0.0
 10
13.3989139366
 20
14.2621844933
 30
0.0
 10
13.4322550054
 20
14.3192790758
 30
0.0
 10
13.4666301171
 20
14.3721970409
 30
0.0
 10
13.5019620759
 20
14.420818149
 30
0.0
 10
13.5381738738
 20
14.4650307994
 30
0.0
 10
13.5751853497
 20
14.5047345628
 30
0.0
 10
13.6129192913
 20
14.5398357912
 30
0.0
 10
13.651293582
 20
14.5702525436
 30
0.0
 10
13.6902321677
 20
14.5959066352
 30
0.0
 10
13.72964304
 20
14.6167290863
 30
0.0
 10
13.7566448446
 20
14.6275314847
 30
0.0
 10
13.7701274592
 20
14.6320447599
 30
0.0
  0
SPLINE
  5
2EB
100
AcDbEntity
  8
02___PRT_ALL_AXES
100
AcDbSpline
 62
7
  6
CONTINUOUS
 70
0
 71
3
 72
22
 73
18
 74
0
 42
0.0000001
 43
0.0000001
 44
0.0000000001
 40
0.0
 40
0.0
 40
0.0
 40
0.0
 40
0.0580891317
 40
0.1151789146
 40
0.171620541
 40
0.2277810321
 40
0.2840339267
 40
0.3407507068
 40
0.3982913472
 40
0.4569975207
 40
0.517184824
 40
0.5791400563
 40
0.6431183011
 40
0.7093411155
 40
0.77799984
 40
0.8492534748
 40
1.0
 40
1.0
 40
1.0
 40
1.0
 10
13.8480762711
 20
10.3634723203
 30
0.0
 10
13.8576005741
 20
10.3602842741
 30
0.0
 10
13.8767496351
 20
10.3547187532
 30
0.0
 10
13.9058761496
 20
10.3488672677
 30
0.0
 10
13.9350733458
 20
10.3456103174
 30
0.0
 10
13.9642995605
 20
10.3449519367
 30
0.0
 10
13.9935162565
 20
10.3468944732
 30
0.0
 10
14.0226837789
 20
10.3514347858
 30
0.0
 10
14.0517642087
 20
10.3585632365
 30
0.0
 10
14.0807196492
 20
10.3682705715
 30
0.0
 10
14.1095150218
 20
10.3805393598
 30
0.0
 10
14.138115564
 20
10.3953526069
 30
0.0
 10
14.1664876228
 20
10.4126900971
 30
0.0
 10
14.1945994324
 20
10.4325272148
 30
0.0
 10
14.2224189014
 20
10.4548413788
 30
0.0
 10
14.2597776432
 20
10.4884858246
 30
0.0
 10
14.2861907953
 20
10.5164522181
 30
0.0
 10
14.3032429117
 20
10.5361644948
 30
0.0
  0
SPLINE
  5
2EC
100
AcDbEntity
  8
02___PRT_ALL_AXES
100
AcDbSpline
 62
7
  6
CONTINUOUS
 70
0
 71
3
 72
33
 73
29
 74
0
 42
0.0000001
 43
0.0000001
 44
0.0000000001
 40
0.0
 40
0.0
 40
0.0
 40
0.0
 40
0.0932641436
 40
0.1820106337
 40
0.2659742221
 40
0.3449728026
 40
0.3825746613
 40
0.4188986676
 40
0.4539444875
 40
0.4877196965
 40
0.5202386843
 40
0.5515250067
 40
0.5816120832
 40
0.6105433241
 40
0.6383749206
 40
0.6651751192
 40
0.7159917277
 40
0.7402511777
 40
0.7638971249
 40
0.7870690588
 40
0.809917935
 40
0.8326028022
 40
0.8552869874
 40
0.878133821
 40
0.9013024387
 40
0.924943822
 40
0.9491976181
 40
1.0
 40
1.0
 40
1.0
 40
1.0
 10
13.3712160297
 20
13.7777438844
 30
0.0
 10
13.3827852397
 20
13.8151818618
 30
0.0
 10
13.4068513486
 20
13.8877973155
 30
0.0
 10
13.4468206809
 20
13.9921984696
 30
0.0
 10
13.4896036629
 20
14.0889661811
 30
0.0
 10
13.5280259492
 20
14.1640287165
 30
0.0
 10
13.5600908343
 20
14.2197191105
 30
0.0
 10
13.5843040559
 20
14.2585887072
 30
0.0
 10
13.6090479157
 20
14.2951984198
 30
0.0
 10
13.6342899109
 20
14.3295023432
 30
0.0
 10
13.6599991968
 20
14.3614557741
 30
0.0
 10
13.6861434179
 20
14.3910174663
 30
0.0
 10
13.7126894803
 20
14.4181502309
 30
0.0
 10
13.7396049577
 20
14.4428166501
 30
0.0
 10
13.7668594034
 20
14.4649880474
 30
0.0
 10
13.8029501353
 20
14.4907167521
 30
0.0
 10
13.8402936624
 20
14.5120120639
 30
0.0
 10
13.8785536386
 20
14.5281304882
 30
0.0
 10
13.9069751866
 20
14.5374169558
 30
0.0
 10
13.9355197281
 20
14.5440647872
 30
0.0
 10
13.9641485426
 20
14.5480629494
 30
0.0
 10
13.9928197434
 20
14.5494047953
 30
0.0
 10
14.0214910923
 20
14.5480850661
 30
0.0
 10
14.0501205105
 20
14.5441092158
 30
0.0
 10
14.0786657156
 20
14.5374832732
 30
0.0
 10
14.107089073
 20
14.5282186159
 30
0.0
 10
14.1453475229
 20
14.5121315094
 30
0.0
 10
14.1728836075
 20
14.4964512976
 30
0.0
 10
14.190692787
 20
14.484685967
 30
0.0
  0
SPLINE
  5
2ED
100
AcDbEntity
  8
02___PRT_ALL_AXES
100
AcDbSpline
 62
7
  6
CONTINUOUS
 70
0
 71
3
 72
22
 73
18
 74
0
 42
0.0000001
 43
0.0000001
 44
0.0000000001
 40
0.0
 40
0.0
 40
0.0
 40
0.0
 40
0.0808574187
 40
0.1594889329
 40
0.2357852204
 40
0.3096710849
 40
0.3810857988
 40
0.4499759899
 40
0.5162982275
 40
0.580027119
 40
0.6411530092
 40
0.6996862587
 40
0.7556571613
 40
0.8091218712
 40
0.8601631085
 40
0.9088959942
 40
1.0
 40
1.0
 40
1.0
 40
1.0
 10
13.2965118998
 20
13.8569013792
 30
0.0
 10
13.3038654006
 20
13.8806973164
 30
0.0
 10
13.318942892
 20
13.9274597169
 30
0.0
 10
13.343024659
 20
13.9959879784
 30
0.0
 10
13.3682231398
 20
14.0618204913
 30
0.0
 10
13.3944891942
 20
14.1248334949
 30
0.0
 10
13.4217773253
 20
14.1849149404
 30
0.0
 10
13.4500368734
 20
14.2419582407
 30
0.0
 10
13.4792190479
 20
14.2958592279
 30
0.0
 10
13.5092695027
 20
14.346521238
 30
0.0
 10
13.5401365829
 20
14.3938525402
 30
0.0
 10
13.571763766
 20
14.4377689943
 30
0.0
 10
13.6040980335
 20
14.4781910812
 30
0.0
 10
13.6370793195
 20
14.5150453503
 30
0.0
 10
13.6706606041
 20
14.5482695549
 30
0.0
 10
13.7151298304
 20
14.5867640558
 30
0.0
 10
13.7507215404
 20
14.6114474242
 30
0.0
 10
13.7751282881
 20
14.6252970523
 30
0.0
  0
SPLINE
  5
2EE
100
AcDbEntity
  8
02___PRT_ALL_AXES
100
AcDbSpline
 62
7
  6
CONTINUOUS
 70
0
 71
3
 72
9
 73
5
 74
0
 42
0.0000001
 43
0.0000001
 44
0.0000000001
 40
0.0
 40
0.0
 40
0.0
 40
0.0
 40
0.5089350077
 40
1.0
 40
1.0
 40
1.0
 40
1.0
 10
13.7751282881
 20
14.6252970523
 30
0.0
 10
13.7869456195
 20
14.6320028063
 30
0.0
 10
13.8107583757
 20
14.6441676874
 30
0.0
 10
13.8356440815
 20
14.6539759576
 30
0.0
 10
13.8480762696
 20
14.6581376944
 30
0.0
  0
SPLINE
  5
2EF
100
AcDbEntity
  8
02___PRT_ALL_AXES
100
AcDbSpline
 62
7
  6
CONTINUOUS
 70
0
 71
3
 72
39
 73
35
 74
0
 42
0.0000001
 43
0.0000001
 44
0.0000000001
 40
0.0
 40
0.0
 40
0.0
 40
0.0
 40
0.0313362518
 40
0.0637836953
 40
0.0972421564
 40
0.1316134552
 40
0.166789
 40
0.2026557041
 40
0.2390964678
 40
0.275990461
 40
0.313214156
 40
0.3506421018
 40
0.3881476636
 40
0.4256037251
 40
0.4628834698
 40
0.4998611363
 40
0.5364127032
 40
0.5724166905
 40
0.6077550088
 40
0.6423136785
 40
0.6759836517
 40
0.7086618945
 40
0.7402523162
 40
0.7706667678
 40
0.7998263855
 40
0.8276632304
 40
0.85412185
 40
0.8791613782
 40
0.9027584233
 40
0.9249103887
 40
0.9456394776
 40
0.9649979194
 40
0.9830743077
 40
1.0
 40
1.0
 40
1.0
 40
1.0
 10
13.2965118998
 20
13.8569013792
 30
0.0
 10
13.2852569808
 20
13.820480448
 30
0.0
 10
13.2637269442
 20
13.7459149867
 30
0.0
 10
13.234779941
 20
13.6311965519
 30
0.0
 10
13.2087061545
 20
13.5120090508
 30
0.0
 10
13.1856096536
 20
13.3888328359
 30
0.0
 10
13.1655831885
 20
13.2621545947
 30
0.0
 10
13.148706758
 20
13.1324802115
 30
0.0
 10
13.1350478918
 20
13.0003264715
 30
0.0
 10
13.1246618585
 20
12.8662200981
 30
0.0
 10
13.1175900607
 20
12.73069601
 30
0.0
 10
13.113860643
 20
12.5942947746
 30
0.0
 10
13.1134887307
 20
12.4575604806
 30
0.0
 10
13.1164761201
 20
12.3210385938
 30
0.0
 10
13.1228104421
 20
12.1852737019
 30
0.0
 10
13.1324662173
 20
12.050807322
 30
0.0
 10
13.1454050399
 20
11.9181757745
 30
0.0
 10
13.1615750448
 20
11.7879079187
 30
0.0
 10
13.1809110587
 20
11.660522942
 30
0.0
 10
13.203335615
 20
11.5365284117
 30
0.0
 10
13.2287592882
 20
11.4164182112
 30
0.0
 10
13.2570799925
 20
11.300670203
 30
0.0
 10
13.2881842614
 20
11.1897443789
 30
0.0
 10
13.3219480983
 20
11.0840811695
 30
0.0
 10
13.358237305
 20
10.9840993733
 30
0.0
 10
13.3969074352
 20
10.8901939672
 30
0.0
 10
13.4378058196
 20
10.8027348631
 30
0.0
 10
13.4807729133
 20
10.7220655453
 30
0.0
 10
13.5256425756
 20
10.6485011987
 30
0.0
 10
13.5722447309
 20
10.5823275069
 30
0.0
 10
13.6204062867
 20
10.5238023838
 30
0.0
 10
13.6699602195
 20
10.4731539226
 30
0.0
 10
13.7207227488
 20
10.4305950076
 30
0.0
 10
13.7563367
 20
10.4070301135
 30
0.0
 10
13.7742218074
 20
10.3968286516
 30
0.0
  0
SPLINE
  5
2F0
100
AcDbEntity
  8
02___PRT_ALL_AXES
100
AcDbSpline
 62
7
  6
CONTINUOUS
 70
0
 71
3
 72
9
 73
5
 74
0
 42
0.0000001
 43
0.0000001
 44
0.0000000001
 40
0.0
 40
0.0
 40
0.0
 40
0.0
 40
0.509066216
 40
1.0
 40
1.0
 40
1.0
 40
1.0
 10
13.7742218074
 20
10.3968286516
 30
0.0
 10
13.7861808225
 20
10.3900073653
 30
0.0
 10
13.8102817654
 20
10.3776402052
 30
0.0
 10
13.8354856388
 20
10.3676867513
 30
0.0
 10
13.8480762711
 20
10.3634723203
 30
0.0
  0
SPLINE
  5
2F1
100
AcDbEntity
  8
02___PRT_ALL_AXES
100
AcDbSpline
 62
7
  6
CONTINUOUS
 70
0
 71
3
 72
52
 73
48
 74
0
 42
0.0000001
 43
0.0000001
 44
0.0000000001
 40
0.0
 40
0.0
 40
0.0
 40
0.0
 40
0.0368265323
 40
0.0748866853
 40
0.1140143077
 40
0.154033028
 40
0.1947593203
 40
0.2360033509
 40
0.277571066
 40
0.3192657108
 40
0.360889502
 40
0.4022452484
 40
0.443137959
 40
0.4833764754
 40
0.5227751473
 40
0.5611556039
 40
0.5983486398
 40
0.6341962009
 40
0.6685536067
 40
0.7012921001
 40
0.7170203361
 40
0.7323045563
 40
0.7471344322
 40
0.7615016954
 40
0.7753997013
 40
0.7888239534
 40
0.8017723845
 40
0.8142451934
 40
0.8262458335
 40
0.8377805893
 40
0.8488595787
 40
0.8594968448
 40
0.8697107626
 40
0.8795248746
 40
0.8889677448
 40
0.8980739423
 40
0.9068837769
 40
0.9154435493
 40
0.9238052169
 40
0.932025524
 40
0.9401650924
 40
0.9482867305
 40
0.9564537963
 40
0.9647283259
 40
0.9731694647
 40
0.9818319233
 40
1.0
 40
1.0
 40
1.0
 40
1.0
 10
13.3254239971
 20
13.6134514144
 30
0.0
 10
13.3145200799
 20
13.5699230137
 30
0.0
 10
13.2940876582
 20
13.4809642122
 30
0.0
 10
13.2678727185
 20
13.3445060052
 30
0.0
 10
13.2456891736
 20
13.2033958759
 30
0.0
 10
13.2276626798
 20
13.0584227171
 30
0.0
 10
13.2138940742
 20
12.9103942714
 30
0.0
 10
13.2044610088
 20
12.7601361146
 30
0.0
 10
13.1994165329
 20
12.6084865786
 30
0.0
 10
13.198789074
 20
12.4562919176
 30
0.0
 10
13.2025820441
 20
12.3044014911
 30
0.0
 10
13.2107740756
 20
12.153662895
 30
0.0
 10
13.2233190981
 20
12.0049171582
 30
0.0
 10
13.2401466066
 20
11.8589939803
 30
0.0
 10
13.2611621029
 20
11.7167070206
 30
0.0
 10
13.286247547
 20
11.5788490582
 30
0.0
 10
13.3152619751
 20
11.4461876905
 30
0.0
 10
13.3480426939
 20
11.3194595873
 30
0.0
 10
13.384406111
 20
11.1993706547
 30
0.0
 10
13.4179591911
 20
11.1041455814
 30
0.0
 10
13.4465233766
 20
11.0318989918
 30
0.0
 10
13.4684229873
 20
10.9805041001
 30
0.0
 10
13.491055649
 20
10.9312466864
 30
0.0
 10
13.514388946
 20
10.8841946199
 30
0.0
 10
13.5383910584
 20
10.839413478
 30
0.0
 10
13.5630291059
 20
10.7969655734
 30
0.0
 10
13.588268027
 20
10.7569091832
 30
0.0
 10
13.6140749194
 20
10.7193007246
 30
0.0
 10
13.6404127521
 20
10.6841912561
 30
0.0
 10
13.6672472743
 20
10.6516302975
 30
0.0
 10
13.6945416874
 20
10.621662733
 30
0.0
 10
13.722259282
 20
10.5943300961
 30
0.0
 10
13.7503644354
 20
10.5696721395
 30
0.0
 10
13.7788184308
 20
10.5477225328
 30
0.0
 10
13.8075855306
 20
10.5285157064
 30
0.0
 10
13.836626277
 20
10.5120795093
 30
0.0
 10
13.8659022588
 20
10.4984413518
 30
0.0
 10
13.8953729949
 20
10.4876253815
 30
0.0
 10
13.9249955847
 20
10.4796499035
 30
0.0
 10
13.9547262785
 20
10.4745337255
 30
0.0
 10
13.984518075
 20
10.4722846011
 30
0.0
 10
14.0143235385
 20
10.4729099673
 30
0.0
 10
14.0440946032
 20
10.476407288
 30
0.0
 10
14.0737835544
 20
10.4827681938
 30
0.0
 10
14.1033470013
 20
10.4919829819
 30
0.0
 10
14.1431533757
 20
10.5082952686
 30
0.0
 10
14.1717724972
 20
10.5244537543
 30
0.0
 10
14.1902568179
 20
10.5366363995
 30
0.0
  0
SPLINE
  5
2F2
100
AcDbEntity
  8
02___PRT_ALL_AXES
100
AcDbSpline
 62
7
  6
CONTINUOUS
 70
0
 71
3
 72
28
 73
24
 74
0
 42
0.0000001
 43
0.0000001
 44
0.0000000001
 40
0.0
 40
0.0
 40
0.0
 40
0.0
 40
0.022910253
 40
0.0454449955
 40
0.0677236623
 40
0.0898711362
 40
0.112014933
 40
0.1342827335
 40
0.1567994808
 40
0.1796851489
 40
0.2030525826
 40
0.2270056094
 40
0.2770098096
 40
0.3303593094
 40
0.3875243486
 40
0.4488308955
 40
0.5144813152
 40
0.5845749623
 40
0.6591273658
 40
0.7380837637
 40
0.8213278067
 40
0.9087067175
 40
1.0
 40
1.0
 40
1.0
 40
1.0
 10
16.5924299488
 20
14.6581376655
 30
0.0
 10
16.5835510474
 20
14.6611096781
 30
0.0
 10
16.5657097114
 20
14.666347874
 30
0.0
 10
16.538595252
 20
14.6720418179
 30
0.0
 10
16.5114159216
 20
14.6754868481
 30
0.0
 10
16.4842049094
 20
14.6766788471
 30
0.0
 10
16.4569927996
 20
14.6756163533
 30
0.0
 10
16.4298112899
 20
14.6722991312
 30
0.0
 10
16.4026909624
 20
14.6667342354
 30
0.0
 10
16.3756623666
 20
14.6589283705
 30
0.0
 10
16.3487542047
 20
14.6488911815
 30
0.0
 10
16.3125631168
 20
14.6323193714
 30
0.0
 10
16.2676360078
 20
14.6057587999
 30
0.0
 10
16.2155195742
 20
14.5656951798
 30
0.0
 10
16.1645952335
 20
14.5171785101
 30
0.0
 10
16.1150503335
 20
14.4604218301
 30
0.0
 10
16.0670613709
 20
14.3956569795
 30
0.0
 10
16.0208095706
 20
14.3231456459
 30
0.0
 10
15.9764747418
 20
14.2431790987
 30
0.0
 10
15.9342342642
 20
14.1560809864
 30
0.0
 10
15.8942559756
 20
14.0622022641
 30
0.0
 10
15.8567069979
 20
13.9619300619
 30
0.0
 10
15.8338737667
 20
13.8925484273
 30
0.0
 10
15.8228579957
 20
13.8569013792
 30
0.0
  0
SPLINE
  5
2F3
100
AcDbEntity
  8
02___PRT_ALL_AXES
100
AcDbSpline
 62
7
  6
CONTINUOUS
 70
0
 71
3
 72
15
 73
11
 74
0
 42
0.0000001
 43
0.0000001
 44
0.0000000001
 40
0.0
 40
0.0
 40
0.0
 40
0.0
 40
0.1533550413
 40
0.2979687212
 40
0.4339400907
 40
0.5615198154
 40
0.6811408883
 40
0.7934530355
 40
0.8993513997
 40
1.0
 40
1.0
 40
1.0
 40
1.0
 10
17.0353612145
 20
10.7493008661
 30
0.0
 10
17.0221982465
 20
10.7260101161
 30
0.0
 10
16.9954258922
 20
10.6814151524
 30
0.0
 10
16.9525732036
 20
10.6189495116
 30
0.0
 10
16.9083386502
 20
10.5630710096
 30
0.0
 10
16.8628642676
 20
10.5139743951
 30
0.0
 10
16.8162910988
 20
10.4718327256
 30
0.0
 10
16.7687564378
 20
10.4368000419
 30
0.0
 10
16.7204168602
 20
10.4090245961
 30
0.0
 10
16.6870289339
 20
10.3951388343
 30
0.0
 10
16.6703787607
 20
10.3895652259
 30
0.0
  0
SPLINE
  5
2F4
100
AcDbEntity
  8
02___PRT_ALL_AXES
100
AcDbSpline
 62
7
  6
CONTINUOUS
 70
0
 71
3
 72
16
 73
12
 74
0
 42
0.0000001
 43
0.0000001
 44
0.0000000001
 40
0.0
 40
0.0
 40
0.0
 40
0.0
 40
0.1533543366
 40
0.2979656723
 40
0.4339328928
 40
0.5615064529
 40
0.6811194885
 40
0.7934217445
 40
0.8993083767
 40
0.9502260669
 40
1.0
 40
1.0
 40
1.0
 40
1.0
 10
17.0354595765
 20
14.2721350447
 30
0.0
 10
17.0222939481
 20
14.2954376008
 30
0.0
 10
16.9955159708
 20
14.3400551378
 30
0.0
 10
16.9526532482
 20
14.4025525296
 30
0.0
 10
16.9084074322
 20
14.4584593042
 30
0.0
 10
16.8629214347
 20
14.507579969
 30
0.0
 10
16.8163331679
 20
14.5497426966
 30
0.0
 10
16.7687919683
 20
14.5847893756
 30
0.0
 10
16.7279576545
 20
14.6082502087
 30
0.0
 10
16.6950903562
 20
14.6231211017
 30
0.0
 10
16.6786164141
 20
14.6292872401
 30
0.0
 10
16.6703787598
 20
14.6320447431
 30
0.0
  0
SPLINE
  5
2F5
100
AcDbEntity
  8
02___PRT_ALL_AXES
100
AcDbSpline
 62
7
  6
CONTINUOUS
 70
0
 71
3
 72
51
 73
47
 74
0
 42
0.0000001
 43
0.0000001
 44
0.0000000001
 40
0.0
 40
0.0
 40
0.0
 40
0.0
 40
0.0081714454
 40
0.0161957385
 40
0.0241301345
 40
0.0320343358
 40
0.0399688934
 40
0.0479935344
 40
0.0561654719
 40
0.0645381762
 40
0.0731603068
 40
0.0820750813
 40
0.0913202393
 40
0.1009276876
 40
0.1109242538
 40
0.1213315067
 40
0.1321665922
 40
0.1434424753
 40
0.1551682523
 40
0.1673499345
 40
0.1799901888
 40
0.193089343
 40
0.2066450501
 40
0.2206529291
 40
0.2351066795
 40
0.2499980496
 40
0.2810512447
 40
0.3137205666
 40
0.3478916827
 40
0.3834338098
 40
0.4202023121
 40
0.4580409341
 40
0.4967837796
 40
0.5362571118
 40
0.5762810488
 40
0.616671197
 40
0.6572402064
 40
0.6977992945
 40
0.7381597508
 40
0.7781344514
 40
0.8175394108
 40
0.8561952607
 40
0.8939293
 40
0.9305756893
 40
0.9659813465
 40
1.0
 40
1.0
 40
1.0
 40
1.0
 10
16.5924299502
 20
10.3634722914
 30
0.0
 10
16.5822206426
 20
10.360054675
 30
0.0
 10
16.5616810202
 20
10.3541494446
 30
0.0
 10
16.5304117725
 20
10.3481706812
 30
0.0
 10
16.4990665082
 20
10.3451791644
 30
0.0
 10
16.4676971578
 20
10.3451842017
 30
0.0
 10
16.4363523819
 20
10.3481826365
 30
0.0
 10
16.4050816777
 20
10.3541712804
 30
0.0
 10
16.3739320437
 20
10.3631351633
 30
0.0
 10
16.3429492657
 20
10.3750586512
 30
0.0
 10
16.3121767668
 20
10.3899199547
 30
0.0
 10
16.2816554891
 20
10.4076933726
 30
0.0
 10
16.2514268546
 20
10.4283526684
 30
0.0
 10
16.2215285264
 20
10.4518648482
 30
0.0
 10
16.1920008552
 20
10.4781979912
 30
0.0
 10
16.1628807672
 20
10.5073136101
 30
0.0
 10
16.1342068973
 20
10.539172164
 30
0.0
 10
16.1060170441
 20
10.5737299813
 30
0.0
 10
16.0783475247
 20
10.6109393676
 30
0.0
 10
16.0512367662
 20
10.6507506404
 30
0.0
 10
16.0247192687
 20
10.6931086498
 30
0.0
 10
15.9988324065
 20
10.7379566603
 30
0.0
 10
15.9736100237
 20
10.7852330722
 30
0.0
 10
15.9490868394
 20
10.8348736659
 30
0.0
 10
15.9252962309
 20
10.8868110505
 30
0.0
 10
15.8941601746
 20
10.9600527925
 30
0.0
 10
15.8574156306
 20
11.0569423985
 30
0.0
 10
15.8173300541
 20
11.1795756976
 30
0.0
 10
15.7808757542
 20
11.3094878545
 30
0.0
 10
15.7482529042
 20
11.4459691025
 30
0.0
 10
15.7196407696
 20
11.5882763268
 30
0.0
 10
15.6951969385
 20
11.7356323436
 30
0.0
 10
15.6750561853
 20
11.8872318319
 30
0.0
 10
15.6593296183
 20
12.0422455069
 30
0.0
 10
15.6481039088
 20
12.1998249534
 30
0.0
 10
15.6414409608
 20
12.3591074213
 30
0.0
 10
15.6393775228
 20
12.5192206778
 30
0.0
 10
15.6419249955
 20
12.6792878564
 30
0.0
 10
15.6490693541
 20
12.838432326
 30
0.0
 10
15.660771239
 20
12.9957826082
 30
0.0
 10
15.6769661323
 20
13.1504771212
 30
0.0
 10
15.6975644475
 20
13.3016696849
 30
0.0
 10
15.7224529502
 20
13.4485321352
 30
0.0
 10
15.751493966
 20
13.5902649519
 30
0.0
 10
15.7845279068
 20
13.7260883005
 30
0.0
 10
15.8096247965
 20
13.8140787309
 30
0.0
 10
15.8228579957
 20
13.8569013792
 30
0.0
  0
SPLINE
  5
2F6
100
AcDbEntity
  8
02___PRT_ALL_AXES
100
AcDbSpline
 62
7
  6
CONTINUOUS
 70
0
 71
3
 72
23
 73
19
 74
0
 42
0.0000001
 43
0.0000001
 44
0.0000000001
 40
0.0
 40
0.0
 40
0.0
 40
0.0
 40
0.0525328732
 40
0.1039877445
 40
0.1549656553
 40
0.2060884247
 40
0.2579713187
 40
0.3111971611
 40
0.3662944275
 40
0.4237251009
 40
0.4838777281
 40
0.5470689701
 40
0.6135470512
 40
0.6834986708
 40
0.7570560196
 40
0.8343028995
 40
0.9152821414
 40
1.0
 40
1.0
 40
1.0
 40
1.0
 10
16.6703787598
 20
14.6320447431
 30
0.0
 10
16.6576663455
 20
14.6363001439
 30
0.0
 10
16.6320180514
 20
14.6433636791
 30
0.0
 10
16.5928431141
 20
14.6493786955
 30
0.0
 10
16.5535820345
 20
14.6506523167
 30
0.0
 10
16.514347033
 20
14.6471738665
 30
0.0
 10
16.4752415202
 20
14.6389614236
 30
0.0
 10
16.4363656654
 20
14.62604377
 30
0.0
 10
16.3978097433
 20
14.6084677653
 30
0.0
 10
16.3596581758
 20
14.5862851809
 30
0.0
 10
16.3219886697
 20
14.5595572217
 30
0.0
 10
16.2848770528
 20
14.5283491528
 30
0.0
 10
16.248397077
 20
14.4927336021
 30
0.0
 10
16.2126220284
 20
14.4527900224
 30
0.0
 10
16.1776254108
 20
14.4086055551
 30
0.0
 10
16.1434789016
 20
14.3602761479
 30
0.0
 10
16.1102557387
 20
14.3079068817
 30
0.0
 10
16.0892393706
 20
14.2711978804
 30
0.0
 10
16.0788816048
 20
14.2522216891
 30
0.0
  0
SPLINE
  5
2F7
100
AcDbEntity
  8
02___PRT_ALL_AXES
100
AcDbSpline
 62
7
  6
CONTINUOUS
 70
0
 71
3
 72
9
 73
5
 74
0
 42
0.0000001
 43
0.0000001
 44
0.0000000001
 40
0.0
 40
0.0
 40
0.0
 40
0.0
 40
0.4865605665
 40
1.0
 40
1.0
 40
1.0
 40
1.0
 10
16.0778478357
 20
14.2503246902
 30
0.0
 10
16.0630803284
 20
14.2231821232
 30
0.0
 10
16.0343382159
 20
14.1665129543
 30
0.0
 10
16.0084787252
 20
14.1084812987
 30
0.0
 10
15.9958679837
 20
14.0784118413
 30
0.0
  0
SPLINE
  5
2F8
100
AcDbEntity
  8
02___PRT_ALL_AXES
100
AcDbSpline
 62
7
  6
CONTINUOUS
 70
0
 71
3
 72
9
 73
5
 74
0
 42
0.0000001
 43
0.0000001
 44
0.0000000001
 40
0.0
 40
0.0
 40
0.0
 40
0.0
 40
0.4874374297
 40
1.0
 40
1.0
 40
1.0
 40
1.0
 10
15.9952697929
 20
14.0769840932
 30
0.0
 10
15.9802201117
 20
14.0410285363
 30
0.0
 10
15.9512839407
 20
13.9664429136
 30
0.0
 10
15.9258165984
 20
13.890611954
 30
0.0
 10
15.9135658518
 20
13.8514983238
 30
0.0
  0
SPLINE
  5
2F9
100
AcDbEntity
  8
02___PRT_ALL_AXES
100
AcDbSpline
 62
7
  6
CONTINUOUS
 70
0
 71
3
 72
23
 73
19
 74
0
 42
0.0000001
 43
0.0000001
 44
0.0000000001
 40
0.0
 40
0.0
 40
0.0
 40
0.0
 40
0.081071223
 40
0.1579732083
 40
0.2308265507
 40
0.2998174626
 40
0.3652062655
 40
0.4273389818
 40
0.4866521791
 40
0.5436789342
 40
0.5990411346
 40
0.653436033
 40
0.7076075446
 40
0.7623110177
 40
0.8182752753
 40
0.8761691918
 40
0.9365795626
 40
1.0
 40
1.0
 40
1.0
 40
1.0
 10
16.9191178516
 20
14.2724378139
 30
0.0
 10
16.9079605358
 20
14.2886701703
 30
0.0
 10
16.8853756195
 20
14.3197332771
 30
0.0
 10
16.8497003634
 20
14.363051929
 30
0.0
 10
16.8132086788
 20
14.4017516937
 30
0.0
 10
16.775986079
 20
14.4357340809
 30
0.0
 10
16.7381150874
 20
14.4649098882
 30
0.0
 10
16.6996823359
 20
14.4892004099
 30
0.0
 10
16.6607740401
 20
14.5085291492
 30
0.0
 10
16.6214859831
 20
14.5228325919
 30
0.0
 10
16.5819204276
 20
14.5320496574
 30
0.0
 10
16.5421934919
 20
14.5361419815
 30
0.0
 10
16.5024289591
 20
14.5350854517
 30
0.0
 10
16.4627535154
 20
14.5288884516
 30
0.0
 10
16.4232886836
 20
14.5175791409
 30
0.0
 10
16.3841438099
 20
14.501207308
 30
0.0
 10
16.3454218745
 20
14.4798369773
 30
0.0
 10
16.3205971586
 20
14.4627492055
 30
0.0
 10
16.3082947841
 20
14.4534713878
 30
0.0
  0
SPLINE
  5
2FA
100
AcDbEntity
  8
02___PRT_ALL_AXES
100
AcDbSpline
 62
7
  6
CONTINUOUS
 70
0
 71
3
 72
9
 73
5
 74
0
 42
0.0000001
 43
0.0000001
 44
0.0000000001
 40
0.0
 40
0.0
 40
0.0
 40
0.0
 40
0.4818442768
 40
1.0
 40
1.0
 40
1.0
 40
1.0
 10
16.3076274191
 20
14.4529672744
 30
0.0
 10
16.2901495498
 20
14.4397433517
 30
0.0
 10
16.2555424369
 20
14.4100596264
 30
0.0
 10
16.2241810664
 20
14.3770135407
 30
0.0
 10
16.2086995732
 20
14.3592428709
 30
0.0
  0
SPLINE
  5
2FB
100
AcDbEntity
  8
02___PRT_ALL_AXES
100
AcDbSpline
 62
7
  6
CONTINUOUS
 70
0
 71
3
 72
11
 73
7
 74
0
 42
0.0000001
 43
0.0000001
 44
0.0000000001
 40
0.0
 40
0.0
 40
0.0
 40
0.0
 40
0.234898553
 40
0.4797840715
 40
0.7347950863
 40
1.0
 40
1.0
 40
1.0
 40
1.0
 10
16.2078056366
 20
14.3582150407
 30
0.0
 10
16.1981623935
 20
14.3471089643
 30
0.0
 10
16.1790672409
 20
14.3238967955
 30
0.0
 10
16.1515630184
 20
14.2869937751
 30
0.0
 10
16.1246473495
 20
14.2473449353
 30
0.0
 10
16.1074601738
 20
14.2196630397
 30
0.0
 10
16.098963149
 20
14.205395527
 30
0.0
  0
SPLINE
  5
2FC
100
AcDbEntity
  8
02___PRT_ALL_AXES
100
AcDbSpline
 62
7
  6
CONTINUOUS
 70
0
 71
3
 72
9
 73
5
 74
0
 42
0.0000001
 43
0.0000001
 44
0.0000000001
 40
0.0
 40
0.0
 40
0.0
 40
0.0
 40
0.4849865251
 40
1.0
 40
1.0
 40
1.0
 40
1.0
 10
16.098963149
 20
14.205395527
 30
0.0
 10
16.0835891887
 20
14.1795808233
 30
0.0
 10
16.053661613
 20
14.1252860304
 30
0.0
 10
16.0268852729
 20
14.0693836811
 30
0.0
 10
16.0138178164
 20
14.040276218
 30
0.0
  0
SPLINE
  5
2FD
100
AcDbEntity
  8
02___PRT_ALL_AXES
100
AcDbSpline
 62
7
  6
CONTINUOUS
 70
0
 71
3
 72
9
 73
5
 74
0
 42
0.0000001
 43
0.0000001
 44
0.0000000001
 40
0.0
 40
0.0
 40
0.0
 40
0.0
 40
0.4874399954
 40
1.0
 40
1.0
 40
1.0
 40
1.0
 10
16.0126148872
 20
14.0375912413
 30
0.0
 10
15.9987815271
 20
14.0066516149
 30
0.0
 10
15.9720592516
 20
13.9424285064
 30
0.0
 10
15.9483110374
 20
13.8770551975
 30
0.0
 10
15.9368270927
 20
13.8433182833
 30
0.0
  0
SPLINE
  5
2FE
100
AcDbEntity
  8
02___PRT_ALL_AXES
100
AcDbSpline
 62
7
  6
CONTINUOUS
 70
0
 71
3
 72
23
 73
19
 74
0
 42
0.0000001
 43
0.0000001
 44
0.0000000001
 40
0.0
 40
0.0
 40
0.0
 40
0.0
 40
0.0813189703
 40
0.1587747419
 40
0.2324630906
 40
0.302531642
 40
0.3691841709
 40
0.4326900632
 40
0.4933884131
 40
0.5516939508
 40
0.6080950493
 40
0.6631484067
 40
0.7174636349
 40
0.7716818
 40
0.8264482542
 40
0.8823845342
 40
0.9400652316
 40
1.0
 40
1.0
 40
1.0
 40
1.0
 10
16.919564171
 20
10.749821794
 30
0.0
 10
16.9092323535
 20
10.7347680147
 30
0.0
 10
16.8883344734
 20
10.7058629029
 30
0.0
 10
16.8554484816
 20
10.6652961115
 30
0.0
 10
16.8218546083
 20
10.6286660728
 30
0.0
 10
16.7876220841
 20
10.5960515471
 30
0.0
 10
16.7528165973
 20
10.5675248602
 30
0.0
 10
16.7175073884
 20
10.5431496647
 30
0.0
 10
16.6817625473
 20
10.5229868694
 30
0.0
 10
16.6456553969
 20
10.507088536
 30
0.0
 10
16.6092622367
 20
10.4955042882
 30
0.0
 10
16.5726676996
 20
10.4882713272
 30
0.0
 10
16.5359624175
 20
10.4854190316
 30
0.0
 10
16.4992425351
 20
10.4869566919
 30
0.0
 10
16.4626051766
 20
10.4928801294
 30
0.0
 10
16.4261418775
 20
10.5031648828
 30
0.0
 10
16.3899432261
 20
10.5177749076
 30
0.0
 10
16.3665359263
 20
10.5301051706
 30
0.0
 10
16.3549278204
 20
10.5369125501
 30
0.0
  0
SPLINE
  5
2FF
100
AcDbEntity
  8
02___PRT_ALL_AXES
100
AcDbSpline
 62
7
  6
CONTINUOUS
 70
0
 71
3
 72
10
 73
6
 74
0
 42
0.0000001
 43
0.0000001
 44
0.0000000001
 40
0.0
 40
0.0
 40
0.0
 40
0.0
 40
0.2372159684
 40
0.6084316559
 40
1.0
 40
1.0
 40
1.0
 40
1.0
 10
16.3549278204
 20
10.5369125501
 30
0.0
 10
16.3462361638
 20
10.5420096267
 30
0.0
 10
16.3243843036
 20
10.5558461766
 30
0.0
 10
16.290360716
 20
10.5813703436
 30
0.0
 10
16.2661541992
 20
10.602966338
 30
0.0
 10
16.2541607489
 20
10.6144897072
 30
0.0
  0
SPLINE
  5
300
100
AcDbEntity
  8
02___PRT_ALL_AXES
100
AcDbSpline
 62
7
  6
CONTINUOUS
 70
0
 71
3
 72
9
 73
5
 74
0
 42
0.0000001
 43
0.0000001
 44
0.0000000001
 40
0.0
 40
0.0
 40
0.0
 40
0.0
 40
0.4818669142
 40
1.0
 40
1.0
 40
1.0
 40
1.0
 10
16.2532986336
 20
10.6153195054
 30
0.0
 10
16.2360729291
 20
10.6319289436
 30
0.0
 10
16.2021372216
 20
10.6683032224
 30
0.0
 10
16.1715505308
 20
10.707499408
 30
0.0
 10
16.1564785267
 20
10.7283528484
 30
0.0
  0
SPLINE
  5
301
100
AcDbEntity
  8
02___PRT_ALL_AXES
100
AcDbSpline
 62
7
  6
CONTINUOUS
 70
0
 71
3
 72
11
 73
7
 74
0
 42
0.0000001
 43
0.0000001
 44
0.0000000001
 40
0.0
 40
0.0
 40
0.0
 40
0.0
 40
0.2357928557
 40
0.4810599681
 40
0.7358130783
 40
1.0
 40
1.0
 40
1.0
 40
1.0
 10
16.1564785267
 20
10.7283528484
 30
0.0
 10
16.147184823
 20
10.7412115032
 30
0.0
 10
16.1288201668
 20
10.7678806391
 30
0.0
 10
16.1024379432
 20
10.809790571
 30
0.0
 10
16.0767199246
 20
10.8543308238
 30
0.0
 10
16.0603379268
 20
10.8851758759
 30
0.0
 10
16.0522555055
 20
10.9010083122
 30
0.0
  0
SPLINE
  5
302
100
AcDbEntity
  8
02___PRT_ALL_AXES
100
AcDbSpline
 62
7
  6
CONTINUOUS
 70
0
 71
3
 72
9
 73
5
 74
0
 42
0.0000001
 43
0.0000001
 44
0.0000000001
 40
0.0
 40
0.0
 40
0.0
 40
0.0
 40
0.4864811688
 40
1.0
 40
1.0
 40
1.0
 40
1.0
 10
16.0508139189
 20
10.9038389426
 30
0.0
 10
16.0364231026
 20
10.9321635147
 30
0.0
 10
16.008511695
 20
10.9912446996
 30
0.0
 10
15.9835818451
 20
11.0516347893
 30
0.0
 10
15.9714681616
 20
11.0829070117
 30
0.0
  0
SPLINE
  5
303
100
AcDbEntity
  8
02___PRT_ALL_AXES
100
AcDbSpline
 62
7
  6
CONTINUOUS
 70
0
 71
3
 72
27
 73
23
 74
0
 42
0.0000001
 43
0.0000001
 44
0.0000000001
 40
0.0
 40
0.0
 40
0.0
 40
0.0
 40
0.0260732872
 40
0.0529675728
 40
0.080648201
 40
0.1090771905
 40
0.1680097131
 40
0.2294108337
 40
0.2928866966
 40
0.3580157481
 40
0.4243553112
 40
0.4914477086
 40
0.5588261169
 40
0.6260202692
 40
0.6925621217
 40
0.7579915068
 40
0.8218620458
 40
0.8837469237
 40
0.9138194411
 40
0.9432498525
 40
0.9719934919
 40
1.0
 40
1.0
 40
1.0
 40
1.0
 10
15.97060335
 20
11.0851430536
 30
0.0
 10
15.9620688487
 20
11.1072440817
 30
0.0
 10
15.9454246564
 20
11.1524126488
 30
0.0
 10
15.9220576984
 20
11.2218779533
 30
0.0
 10
15.8999392448
 20
11.2939931304
 30
0.0
 10
15.8718388247
 20
11.3946886921
 30
0.0
 10
15.8402838392
 20
11.5261828156
 30
0.0
 10
15.8084876994
 20
11.6901966026
 30
0.0
 10
15.782584141
 20
11.860938643
 30
0.0
 10
15.7627877096
 20
12.0370083324
 30
0.0
 10
15.7492625529
 20
12.216964048
 30
0.0
 10
15.7421208502
 20
12.3993300584
 30
0.0
 10
15.7414218552
 20
12.5826105718
 30
0.0
 10
15.7471713563
 20
12.7653020613
 30
0.0
 10
15.7593216836
 20
12.9459057196
 30
0.0
 10
15.7777719715
 20
13.1229413702
 30
0.0
 10
15.8023694464
 20
13.2949554855
 30
0.0
 10
15.8280585364
 20
13.4342460628
 30
0.0
 10
15.851614844
 20
13.5420088846
 30
0.0
 10
15.870509258
 20
13.6199444594
 30
0.0
 10
15.8907593512
 20
13.6955967026
 30
0.0
 10
15.9053285301
 20
13.745069068
 30
0.0
 10
15.9128420612
 20
13.7693828635
 30
0.0
  0
SPLINE
  5
304
100
AcDbEntity
  8
02___PRT_ALL_AXES
100
AcDbSpline
 62
7
  6
CONTINUOUS
 70
0
 71
3
 72
23
 73
19
 74
0
 42
0.0000001
 43
0.0000001
 44
0.0000000001
 40
0.0
 40
0.0
 40
0.0
 40
0.0
 40
0.054154831
 40
0.10724211
 40
0.159786122
 40
0.2123311624
 40
0.2654214645
 40
0.3195812418
 40
0.3752961137
 40
0.4330024184
 40
0.4930778352
 40
0.5558420934
 40
0.6215554434
 40
0.6904256513
 40
0.7626098316
 40
0.8382226539
 40
0.9173388306
 40
1.0
 40
1.0
 40
1.0
 40
1.0
 10
16.6703787607
 20
10.3895652259
 30
0.0
 10
16.6586309573
 20
10.3856326749
 30
0.0
 10
16.6349553162
 20
10.3790070342
 30
0.0
 10
16.5988356979
 20
10.3729611818
 30
0.0
 10
16.5626316621
 20
10.3709468359
 30
0.0
 10
16.5264287605
 20
10.3729761334
 30
0.0
 10
16.4903066052
 20
10.3790378309
 30
0.0
 10
16.4543443659
 20
10.3891169247
 30
0.0
 10
16.4186141302
 20
10.4031801207
 30
0.0
 10
16.3831856692
 20
10.4211939984
 30
0.0
 10
16.348121408
 20
10.4431125716
 30
0.0
 10
16.3134845381
 20
10.468890962
 30
0.0
 10
16.2793329454
 20
10.4984744027
 30
0.0
 10
16.2457273336
 20
10.5318073128
 30
0.0
 10
16.2127245491
 20
10.5688250395
 30
0.0
 10
16.1803839599
 20
10.6094600432
 30
0.0
 10
16.148762642
 20
10.653635196
 30
0.0
 10
16.1286398145
 20
10.6847118905
 30
0.0
 10
16.1186965775
 20
10.7007963028
 30
0.0
  0
SPLINE
  5
305
100
AcDbEntity
  8
02___PRT_ALL_AXES
100
AcDbSpline
 62
7
  6
CONTINUOUS
 70
0
 71
3
 72
9
 73
5
 74
0
 42
0.0000001
 43
0.0000001
 44
0.0000000001
 40
0.0
 40
0.0
 40
0.0
 40
0.0
 40
0.4856077647
 40
1.0
 40
1.0
 40
1.0
 40
1.0
 10
16.1186965775
 20
10.7007963028
 30
0.0
 10
16.1033743926
 20
10.725581827
 30
0.0
 10
16.0734600502
 20
10.7776458075
 30
0.0
 10
16.0464835102
 20
10.8312787348
 30
0.0
 10
16.0332833742
 20
10.8591801924
 30
0.0
  0
SPLINE
  5
306
100
AcDbEntity
  8
02___PRT_ALL_AXES
100
AcDbSpline
 62
7
  6
CONTINUOUS
 70
0
 71
3
 72
9
 73
5
 74
0
 42
0.0000001
 43
0.0000001
 44
0.0000000001
 40
0.0
 40
0.0
 40
0.0
 40
0.0
 40
0.4874196153
 40
1.0
 40
1.0
 40
1.0
 40
1.0
 10
16.0325066387
 20
10.8608240198
 30
0.0
 10
16.0181156184
 20
10.8913176459
 30
0.0
 10
15.9902345824
 20
10.9546632835
 30
0.0
 10
15.9653049082
 20
11.0192193715
 30
0.0
 10
15.9532108299
 20
11.0525526341
 30
0.0
  0
SPLINE
  5
307
100
AcDbEntity
  8
02___PRT_ALL_AXES
100
AcDbSpline
 62
7
  6
CONTINUOUS
 70
0
 71
3
 72
9
 73
5
 74
0
 42
0.0000001
 43
0.0000001
 44
0.0000000001
 40
0.0
 40
0.0
 40
0.0
 40
0.0
 40
0.4900158139
 40
1.0
 40
1.0
 40
1.0
 40
1.0
 10
15.9456056812
 20
11.0737992219
 30
0.0
 10
15.9332398622
 20
11.1088168628
 30
0.0
 10
15.9094922596
 20
11.1808107871
 30
0.0
 10
15.8884636889
 20
11.2536408444
 30
0.0
 10
15.878377611
 20
11.2909518588
 30
0.0
  0
SPLINE
  5
308
100
AcDbEntity
  8
02___PRT_ALL_AXES
100
AcDbSpline
 62
7
  6
CONTINUOUS
 70
0
 71
3
 72
17
 73
13
 74
0
 42
0.0000001
 43
0.0000001
 44
0.0000000001
 40
0.0
 40
0.0
 40
0.0
 40
0.0
 40
0.1191692446
 40
0.2425697974
 40
0.3689635208
 40
0.4970568481
 40
0.6255254669
 40
0.7530383888
 40
0.8160285322
 40
0.8782898606
 40
0.9396646369
 40
1.0
 40
1.0
 40
1.0
 40
1.0
 10
15.8213380346
 20
11.5352064606
 30
0.0
 10
15.8070321301
 20
11.6068946215
 30
0.0
 10
15.7817885947
 20
11.7536118211
 30
0.0
 10
15.7541385449
 20
11.9783255401
 30
0.0
 10
15.7362593408
 20
12.2095189664
 30
0.0
 10
15.7283735771
 20
12.444375171
 30
0.0
 10
15.7305786696
 20
12.6800371762
 30
0.0
 10
15.7408424057
 20
12.8755020598
 30
0.0
 10
15.7541316123
 20
13.0299948963
 30
0.0
 10
15.7665245004
 20
13.1438144175
 30
0.0
 10
15.7813447788
 20
13.2557000063
 30
0.0
 10
15.7929209873
 20
13.3294663583
 30
0.0
 10
15.7991180782
 20
13.3659552073
 30
0.0
  0
LINE
  5
309
100
AcDbEntity
  8
0
100
AcDbLine
 62
7
  6
CONTINUOUS
 10
13.2938826667
 20
13.0932237474
 11
13.2951303822
 21
13.0940315493
  0
SPLINE
  5
30A
100
AcDbEntity
  8
0
100
AcDbSpline
 62
7
  6
CONTINUOUS
 70
0
 71
3
 72
9
 73
5
 74
0
 42
0.0000001
 43
0.0000001
 44
0.0000000001
 40
0.0
 40
0.0
 40
0.0
 40
0.0
 40
0.496575879
 40
1.0
 40
1.0
 40
1.0
 40
1.0
 10
13.2856569143
 20
13.0928929057
 30
0.0
 10
13.2823435278
 20
13.0928929131
 30
0.0
 10
13.2756642291
 20
13.0924616525
 30
0.0
 10
13.2690951824
 20
13.0911858737
 30
0.0
 10
13.265842207
 20
13.0903482716
 30
0.0
  0
SPLINE
  5
30B
100
AcDbEntity
  8
0
100
AcDbSpline
 62
7
  6
CONTINUOUS
 70
0
 71
3
 72
15
 73
11
 74
0
 42
0.0000001
 43
0.0000001
 44
0.0000000001
 40
0.0
 40
0.0
 40
0.0
 40
0.0
 40
0.0803419151
 40
0.1678704894
 40
0.2677496556
 40
0.3828844784
 40
0.5144472334
 40
0.6623937212
 40
0.8250297373
 40
1.0
 40
1.0
 40
1.0
 40
1.0
 10
13.3346275937
 20
11.5219540326
 30
0.0
 10
13.3341078972
 20
11.5219553925
 30
0.0
 10
13.3330159982
 20
11.522150285
 30
0.0
 10
13.3314685874
 20
11.5229751516
 30
0.0
 10
13.3300080076
 20
11.5242998455
 30
0.0
 10
13.3286406251
 20
11.5260875199
 30
0.0
 10
13.3273786262
 20
11.528313752
 30
0.0
 10
13.3262435815
 20
11.5309436884
 30
0.0
 10
13.3252489723
 20
11.5339260937
 30
0.0
 10
13.3247099708
 20
11.5360444467
 30
0.0
 10
13.3244658619
 20
11.537149618
 30
0.0
  0
SPLINE
  5
30C
100
AcDbEntity
  8
0
100
AcDbSpline
 62
7
  6
CONTINUOUS
 70
0
 71
3
 72
14
 73
10
 74
0
 42
0.0000001
 43
0.0000001
 44
0.0000000001
 40
0.0
 40
0.0
 40
0.0
 40
0.0
 40
0.0860671452
 40
0.1777218928
 40
0.2795352346
 40
0.3944700765
 40
0.5242271899
 40
0.6690970271
 40
1.0
 40
1.0
 40
1.0
 40
1.0
 10
13.4011444347
 20
11.2693069625
 30
0.0
 10
13.4007032977
 20
11.2693058845
 30
0.0
 10
13.3997871572
 20
11.2694391003
 30
0.0
 10
13.3984676479
 20
11.2700340309
 30
0.0
 10
13.397200164
 20
11.2709961041
 30
0.0
 10
13.3959917127
 20
11.272307296
 30
0.0
 10
13.3948528436
 20
11.2739536478
 30
0.0
 10
13.3933756524
 20
11.2766880305
 30
0.0
 10
13.3925123122
 20
11.2789825654
 30
0.0
 10
13.392009456
 20
11.2806023534
 30
0.0
  0
SPLINE
  5
30D
100
AcDbEntity
  8
0
100
AcDbSpline
 62
7
  6
CONTINUOUS
 70
0
 71
3
 72
14
 73
10
 74
0
 42
0.0000001
 43
0.0000001
 44
0.0000000001
 40
0.0
 40
0.0
 40
0.0
 40
0.0
 40
0.092788608
 40
0.189808828
 40
0.2947459229
 40
0.4104028787
 40
0.538519838
 40
0.6796320459
 40
1.0
 40
1.0
 40
1.0
 40
1.0
 10
13.4822332381
 20
11.0464860147
 30
0.0
 10
13.4818706864
 20
11.0464856113
 30
0.0
 10
13.4811262401
 20
11.0465760764
 30
0.0
 10
13.4800371478
 20
11.0469759611
 30
0.0
 10
13.4789747393
 20
11.0476310121
 30
0.0
 10
13.4779471019
 20
11.048533507
 30
0.0
 10
13.4769605077
 20
11.0496735602
 30
0.0
 10
13.4756511573
 20
11.0515729696
 30
0.0
 10
13.4748404336
 20
11.0531950911
 30
0.0
 10
13.4743499381
 20
11.0543467605
 30
0.0
  0
SPLINE
  5
30E
100
AcDbEntity
  8
0
100
AcDbSpline
 62
7
  6
CONTINUOUS
 70
0
 71
3
 72
11
 73
7
 74
0
 42
0.0000001
 43
0.0000001
 44
0.0000000001
 40
0.0
 40
0.0
 40
0.0
 40
0.0
 40
0.2039333409
 40
0.4304429331
 40
0.6939024993
 40
1.0
 40
1.0
 40
1.0
 40
1.0
 10
13.5758972986
 20
10.858986954
 30
0.0
 10
13.5753213286
 20
10.858986959
 30
0.0
 10
13.5740967615
 20
10.8592301896
 30
0.0
 10
13.5723966454
 20
10.8602597896
 30
0.0
 10
13.5708079268
 20
10.8618729635
 30
0.0
 10
13.5698989653
 20
10.8632093374
 30
0.0
 10
13.5694598122
 20
10.8639540031
 30
0.0
  0
SPLINE
  5
30F
100
AcDbEntity
  8
0
100
AcDbSpline
 62
7
  6
CONTINUOUS
 70
0
 71
3
 72
14
 73
10
 74
0
 42
0.0000001
 43
0.0000001
 44
0.0000000001
 40
0.0
 40
0.0
 40
0.0
 40
0.0
 40
0.0859016192
 40
0.1777457213
 40
0.2797042204
 40
0.3945960981
 40
0.5239267438
 40
0.6681655434
 40
1.0
 40
1.0
 40
1.0
 40
1.0
 10
14.0136809047
 20
10.538035261
 30
0.0
 10
14.0132435162
 20
10.53803597
 30
0.0
 10
14.0123344968
 20
10.5381742394
 30
0.0
 10
14.0110225158
 20
10.5387623561
 30
0.0
 10
14.0097566561
 20
10.5397118217
 30
0.0
 10
14.0085526239
 20
10.5410090294
 30
0.0
 10
14.0074179192
 20
10.5426352381
 30
0.0
 10
14.0059398513
 20
10.5453453788
 30
0.0
 10
14.0050818543
 20
10.5476266512
 30
0.0
 10
14.0045776361
 20
10.5492392787
 30
0.0
  0
SPLINE
  5
310
100
AcDbEntity
  8
0
100
AcDbSpline
 62
7
  6
CONTINUOUS
 70
0
 71
3
 72
15
 73
11
 74
0
 42
0.0000001
 43
0.0000001
 44
0.0000000001
 40
0.0
 40
0.0
 40
0.0
 40
0.0
 40
0.1756024077
 40
0.3394411889
 40
0.4886205821
 40
0.621126084
 40
0.7366310689
 40
0.8359847924
 40
0.9220108998
 40
1.0
 40
1.0
 40
1.0
 40
1.0
 10
13.2988809716
 20
13.3582286106
 30
0.0
 10
13.2991086013
 20
13.359458006
 30
0.0
 10
13.2996249524
 20
13.3618213076
 30
0.0
 10
13.3006118241
 20
13.3651608363
 30
0.0
 10
13.3017673548
 20
13.3681201735
 30
0.0
 10
13.3030751568
 20
13.3706351522
 30
0.0
 10
13.304507945
 20
13.3726630858
 30
0.0
 10
13.3060544788
 20
13.3741694176
 30
0.0
 10
13.3077020541
 20
13.3751154995
 30
0.0
 10
13.3088763956
 20
13.3753440599
 30
0.0
 10
13.309431677
 20
13.3753455259
 30
0.0
  0
SPLINE
  5
311
100
AcDbEntity
  8
0
100
AcDbSpline
 62
7
  6
CONTINUOUS
 70
0
 71
3
 72
13
 73
9
 74
0
 42
0.0000001
 43
0.0000001
 44
0.0000000001
 40
0.0
 40
0.0
 40
0.0
 40
0.0
 40
0.1077119811
 40
0.2250340556
 40
0.4789968818
 40
0.7438875691
 40
0.8744789433
 40
1.0
 40
1.0
 40
1.0
 40
1.0
 10
13.2954227626
 20
13.2942326869
 30
0.0
 10
13.2950080413
 20
13.2953586135
 30
0.0
 10
13.2942607124
 20
13.2977554827
 30
0.0
 10
13.2930704766
 20
13.3029608228
 30
0.0
 10
13.2922132028
 20
13.3100162304
 30
0.0
 10
13.2921673254
 20
13.3172668857
 30
0.0
 10
13.2926316961
 20
13.3230547455
 30
0.0
 10
13.2930305487
 20
13.3258821582
 30
0.0
 10
13.2932741996
 20
13.3272590303
 30
0.0
  0
SPLINE
  5
312
100
AcDbEntity
  8
0
100
AcDbSpline
 62
7
  6
CONTINUOUS
 70
0
 71
3
 72
9
 73
5
 74
0
 42
0.0000001
 43
0.0000001
 44
0.0000000001
 40
0.0
 40
0.0
 40
0.0
 40
0.0
 40
0.5124636051
 40
1.0
 40
1.0
 40
1.0
 40
1.0
 10
13.2954227626
 20
13.2942326869
 30
0.0
 10
13.2982771042
 20
13.2864834378
 30
0.0
 10
13.3041549437
 20
13.2714729774
 30
0.0
 10
13.3107134433
 20
13.25674531
 30
0.0
 10
13.3140953869
 20
13.2496539512
 30
0.0
  0
SPLINE
  5
313
100
AcDbEntity
  8
0
100
AcDbSpline
 62
7
  6
CONTINUOUS
 70
0
 71
3
 72
9
 73
5
 74
0
 42
0.0000001
 43
0.0000001
 44
0.0000000001
 40
0.0
 40
0.0
 40
0.0
 40
0.0
 40
0.527560371
 40
1.0
 40
1.0
 40
1.0
 40
1.0
 10
13.3166326678
 20
13.2422363699
 30
0.0
 10
13.3163083788
 20
13.2435781562
 30
0.0
 10
13.3155924218
 20
13.2460986418
 30
0.0
 10
13.3146275208
 20
13.2485381572
 30
0.0
 10
13.3140953869
 20
13.2496539512
 30
0.0
  0
SPLINE
  5
314
100
AcDbEntity
  8
0
100
AcDbSpline
 62
7
  6
CONTINUOUS
 70
0
 71
3
 72
15
 73
11
 74
0
 42
0.0000001
 43
0.0000001
 44
0.0000000001
 40
0.0
 40
0.0
 40
0.0
 40
0.0
 40
0.169792476
 40
0.3310237286
 40
0.4802558269
 40
0.6149428557
 40
0.7338922106
 40
0.8366953593
 40
0.9243911435
 40
1.0
 40
1.0
 40
1.0
 40
1.0
 10
13.2558022484
 20
13.068983055
 30
0.0
 10
13.2559612893
 20
13.0703680601
 30
0.0
 10
13.2563546204
 20
13.073059581
 30
0.0
 10
13.2571823404
 20
13.0769180769
 30
0.0
 10
13.2582182811
 20
13.0804276204
 30
0.0
 10
13.2594448207
 20
13.0835056265
 30
0.0
 10
13.2608308225
 20
13.0860922031
 30
0.0
 10
13.2623609416
 20
13.0881369262
 30
0.0
 10
13.2640060949
 20
13.0896017542
 30
0.0
 10
13.2652410187
 20
13.0901934728
 30
0.0
 10
13.265842207
 20
13.0903482716
 30
0.0
  0
SPLINE
  5
315
100
AcDbEntity
  8
0
100
AcDbSpline
 62
7
  6
CONTINUOUS
 70
0
 71
3
 72
12
 73
8
 74
0
 42
0.0000001
 43
0.0000001
 44
0.0000000001
 40
0.0
 40
0.0
 40
0.0
 40
0.0
 40
0.0994155878
 40
0.2103511822
 40
0.4587071762
 40
0.7286214714
 40
1.0
 40
1.0
 40
1.0
 40
1.0
 10
13.2562851482
 20
13.0043858194
 30
0.0
 10
13.2558008246
 20
13.0053433818
 30
0.0
 10
13.2549085279
 20
13.0074371671
 30
0.0
 10
13.2534026392
 20
13.0121589626
 30
0.0
 10
13.2521322576
 20
13.0188570369
 30
0.0
 10
13.2515726692
 20
13.0273774843
 30
0.0
 10
13.2518379164
 20
13.0332300202
 30
0.0
 10
13.2521511239
 20
13.0361424477
 30
0.0
  0
SPLINE
  5
316
100
AcDbEntity
  8
0
100
AcDbSpline
 62
7
  6
CONTINUOUS
 70
0
 71
3
 72
9
 73
5
 74
0
 42
0.0000001
 43
0.0000001
 44
0.0000000001
 40
0.0
 40
0.0
 40
0.0
 40
0.0
 40
0.5151638223
 40
1.0
 40
1.0
 40
1.0
 40
1.0
 10
13.2562851482
 20
13.0043858194
 30
0.0
 10
13.2595584315
 20
12.9979141689
 30
0.0
 10
13.2662389902
 20
12.9855133768
 30
0.0
 10
13.2736514779
 20
12.973532029
 30
0.0
 10
13.277443549
 20
12.9678569603
 30
0.0
  0
SPLINE
  5
317
100
AcDbEntity
  8
0
100
AcDbSpline
 62
7
  6
CONTINUOUS
 70
0
 71
3
 72
9
 73
5
 74
0
 42
0.0000001
 43
0.0000001
 44
0.0000000001
 40
0.0
 40
0.0
 40
0.0
 40
0.0
 40
0.5345434202
 40
1.0
 40
1.0
 40
1.0
 40
1.0
 10
13.2804014594
 20
12.9615499609
 30
0.0
 10
13.2800048305
 20
12.9627288845
 30
0.0
 10
13.2791594262
 20
12.9649017236
 30
0.0
 10
13.2780452958
 20
12.9669564091
 30
0.0
 10
13.277443549
 20
12.9678569603
 30
0.0
  0
SPLINE
  5
318
100
AcDbEntity
  8
0
100
AcDbSpline
 62
7
  6
CONTINUOUS
 70
0
 71
3
 72
10
 73
6
 74
0
 42
0.0000001
 43
0.0000001
 44
0.0000000001
 40
0.0
 40
0.0
 40
0.0
 40
0.0
 40
0.2203192405
 40
0.5842250105
 40
1.0
 40
1.0
 40
1.0
 40
1.0
 10
13.2645124435
 20
12.8036724506
 30
0.0
 10
13.2648413141
 20
12.8037816179
 30
0.0
 10
13.2656853971
 20
12.8041596421
 30
0.0
 10
13.2669597377
 20
12.8051049376
 30
0.0
 10
13.2677876793
 20
12.8060183307
 30
0.0
 10
13.2681923105
 20
12.8065320369
 30
0.0
  0
SPLINE
  5
319
100
AcDbEntity
  8
0
100
AcDbSpline
 62
7
  6
CONTINUOUS
 70
0
 71
3
 72
9
 73
5
 74
0
 42
0.0000001
 43
0.0000001
 44
0.0000000001
 40
0.0
 40
0.0
 40
0.0
 40
0.0
 40
0.4860461097
 40
1.0
 40
1.0
 40
1.0
 40
1.0
 10
13.2645124435
 20
12.8036724506
 30
0.0
 10
13.2601982756
 20
12.8022403791
 30
0.0
 10
13.2515418763
 20
12.7986019059
 30
0.0
 10
13.2434732166
 20
12.7938176499
 30
0.0
 10
13.2394891009
 20
12.7911286616
 30
0.0
  0
SPLINE
  5
31A
100
AcDbEntity
  8
0
100
AcDbSpline
 62
7
  6
CONTINUOUS
 70
0
 71
3
 72
15
 73
11
 74
0
 42
0.0000001
 43
0.0000001
 44
0.0000000001
 40
0.0
 40
0.0
 40
0.0
 40
0.0
 40
0.1593846756
 40
0.3139404812
 40
0.4602256712
 40
0.5954811446
 40
0.7179769284
 40
0.8264111593
 40
0.9202489909
 40
1.0
 40
1.0
 40
1.0
 40
1.0
 10
13.2308742868
 20
12.765993303
 30
0.0
 10
13.2309477496
 20
12.7674399626
 30
0.0
 10
13.2311763828
 20
12.7702859406
 30
0.0
 10
13.2317617262
 20
12.7744300188
 30
0.0
 10
13.2325744977
 20
12.7783125688
 30
0.0
 10
13.2336013857
 20
12.7818423538
 30
0.0
 10
13.2348147651
 20
12.7849469542
 30
0.0
 10
13.2361972262
 20
12.7875644433
 30
0.0
 10
13.237714498
 20
12.7896420713
 30
0.0
 10
13.2388883352
 20
12.7907231885
 30
0.0
 10
13.2394891009
 20
12.7911286616
 30
0.0
  0
SPLINE
  5
31B
100
AcDbEntity
  8
0
100
AcDbSpline
 62
7
  6
CONTINUOUS
 70
0
 71
3
 72
13
 73
9
 74
0
 42
0.0000001
 43
0.0000001
 44
0.0000000001
 40
0.0
 40
0.0
 40
0.0
 40
0.0
 40
0.0911752737
 40
0.1954875074
 40
0.3115876696
 40
0.4377967007
 40
0.7125510694
 40
1.0
 40
1.0
 40
1.0
 40
1.0
 10
13.2352864047
 20
12.7023853538
 30
0.0
 10
13.2347432154
 20
12.7031456594
 30
0.0
 10
13.2337238415
 20
12.7048801215
 30
0.0
 10
13.2324455636
 20
12.7078118635
 30
0.0
 10
13.2313445324
 20
12.7111944842
 30
0.0
 10
13.2301184463
 20
12.7163544885
 30
0.0
 10
13.229219862
 20
12.7233724795
 30
0.0
 10
13.2291393881
 20
12.7291472369
 30
0.0
 10
13.2292687126
 20
12.7320903134
 30
0.0
  0
SPLINE
  5
31C
100
AcDbEntity
  8
0
100
AcDbSpline
 62
7
  6
CONTINUOUS
 70
0
 71
3
 72
9
 73
5
 74
0
 42
0.0000001
 43
0.0000001
 44
0.0000000001
 40
0.0
 40
0.0
 40
0.0
 40
0.0
 40
0.5171994703
 40
1.0
 40
1.0
 40
1.0
 40
1.0
 10
13.2352864047
 20
12.7023853538
 30
0.0
 10
13.238896434
 20
12.6973323723
 30
0.0
 10
13.2462192953
 20
12.6878008485
 30
0.0
 10
13.254305844
 20
12.6789003262
 30
0.0
 10
13.258409592
 20
12.6748058332
 30
0.0
  0
SPLINE
  5
31D
100
AcDbEntity
  8
0
100
AcDbSpline
 62
7
  6
CONTINUOUS
 70
0
 71
3
 72
9
 73
5
 74
0
 42
0.0000001
 43
0.0000001
 44
0.0000000001
 40
0.0
 40
0.0
 40
0.0
 40
0.0
 40
0.5410687559
 40
1.0
 40
1.0
 40
1.0
 40
1.0
 10
13.2617152982
 20
12.6697647148
 30
0.0
 10
13.2612582243
 20
12.6707557214
 30
0.0
 10
13.2603071045
 20
12.6725415192
 30
0.0
 10
13.2590648732
 20
12.6741520298
 30
0.0
 10
13.258409592
 20
12.6748058332
 30
0.0
  0
SPLINE
  5
31E
100
AcDbEntity
  8
0
100
AcDbSpline
 62
7
  6
CONTINUOUS
 70
0
 71
3
 72
9
 73
5
 74
0
 42
0.0000001
 43
0.0000001
 44
0.0000000001
 40
0.0
 40
0.0
 40
0.0
 40
0.0
 40
0.4563999343
 40
1.0
 40
1.0
 40
1.0
 40
1.0
 10
13.2556395557
 20
12.5074481123
 30
0.0
 10
13.2563138177
 20
12.5079565773
 30
0.0
 10
13.2576155568
 20
12.5093029295
 30
0.0
 10
13.2586152881
 20
12.5108693515
 30
0.0
 10
13.2590999159
 20
12.5117507432
 30
0.0
  0
SPLINE
  5
31F
100
AcDbEntity
  8
0
100
AcDbSpline
 62
7
  6
CONTINUOUS
 70
0
 71
3
 72
9
 73
5
 74
0
 42
0.0000001
 43
0.0000001
 44
0.0000000001
 40
0.0
 40
0.0
 40
0.0
 40
0.0
 40
0.4825829821
 40
1.0
 40
1.0
 40
1.0
 40
1.0
 10
13.2556395557
 20
12.5074481123
 30
0.0
 10
13.2514188368
 20
12.5042652426
 30
0.0
 10
13.2430574004
 20
12.4971509977
 30
0.0
 10
13.2354472034
 20
12.4892488074
 30
0.0
 10
13.2316884401
 20
12.4850065525
 30
0.0
  0
SPLINE
  5
320
100
AcDbEntity
  8
0
100
AcDbSpline
 62
7
  6
CONTINUOUS
 70
0
 71
3
 72
13
 73
9
 74
0
 42
0.0000001
 43
0.0000001
 44
0.0000000001
 40
0.0
 40
0.0
 40
0.0
 40
0.0
 40
0.2965394999
 40
0.5738290903
 40
0.6989152085
 40
0.8124760112
 40
0.9131289217
 40
1.0
 40
1.0
 40
1.0
 40
1.0
 10
13.2247108958
 20
12.4567199679
 30
0.0
 10
13.2246796237
 20
12.4596490886
 30
0.0
 10
13.2249410673
 20
12.4653247308
 30
0.0
 10
13.2260639452
 20
12.4721595091
 30
0.0
 10
13.2274623243
 20
12.4770659278
 30
0.0
 10
13.2286697835
 20
12.4801988993
 30
0.0
 10
13.2300395405
 20
12.4828457239
 30
0.0
 10
13.2311193541
 20
12.4843642647
 30
0.0
 10
13.2316884401
 20
12.4850065525
 30
0.0
  0
SPLINE
  5
321
100
AcDbEntity
  8
0
100
AcDbSpline
 62
7
  6
CONTINUOUS
 70
0
 71
3
 72
13
 73
9
 74
0
 42
0.0000001
 43
0.0000001
 44
0.0000000001
 40
0.0
 40
0.0
 40
0.0
 40
0.0
 40
0.0834143146
 40
0.1809376013
 40
0.2922297923
 40
0.4162370493
 40
0.6955520543
 40
1.0
 40
1.0
 40
1.0
 40
1.0
 10
13.2329435909
 20
12.3956675438
 30
0.0
 10
13.2323568883
 20
12.396203833
 30
0.0
 10
13.2312308275
 20
12.3975277008
 30
0.0
 10
13.2297900606
 20
12.3999193204
 30
0.0
 10
13.2284986381
 20
12.4028236752
 30
0.0
 10
13.2269598867
 20
12.4074862604
 30
0.0
 10
13.225651415
 20
12.4141279349
 30
0.0
 10
13.2252409498
 20
12.4196886835
 30
0.0
 10
13.2251904064
 20
12.4225894001
 30
0.0
  0
SPLINE
  5
322
100
AcDbEntity
  8
0
100
AcDbSpline
 62
7
  6
CONTINUOUS
 70
0
 71
3
 72
9
 73
5
 74
0
 42
0.0000001
 43
0.0000001
 44
0.0000000001
 40
0.0
 40
0.0
 40
0.0
 40
0.0
 40
0.2629581288
 40
1.0
 40
1.0
 40
1.0
 40
1.0
 10
13.2329435909
 20
12.3956675438
 30
0.0
 10
13.2349119818
 20
12.3938682903
 30
0.0
 10
13.2425641355
 20
12.3872143797
 30
0.0
 10
13.2509314204
 20
12.3813525469
 30
0.0
 10
13.257462195
 20
12.3777164611
 30
0.0
  0
SPLINE
  5
323
100
AcDbEntity
  8
0
100
AcDbSpline
 62
7
  6
CONTINUOUS
 70
0
 71
3
 72
9
 73
5
 74
0
 42
0.0000001
 43
0.0000001
 44
0.0000000001
 40
0.0
 40
0.0
 40
0.0
 40
0.0
 40
0.5444556122
 40
1.0
 40
1.0
 40
1.0
 40
1.0
 10
13.2610342996
 20
12.3740653529
 30
0.0
 10
13.260528923
 20
12.3748505395
 30
0.0
 10
13.2594906026
 20
12.3762282746
 30
0.0
 10
13.2581448079
 20
12.3773364084
 30
0.0
 10
13.257462195
 20
12.3777164611
 30
0.0
  0
SPLINE
  5
324
100
AcDbEntity
  8
0
100
AcDbSpline
 62
7
  6
CONTINUOUS
 70
0
 71
3
 72
9
 73
5
 74
0
 42
0.0000001
 43
0.0000001
 44
0.0000000001
 40
0.0
 40
0.0
 40
0.0
 40
0.0
 40
0.4617666745
 40
1.0
 40
1.0
 40
1.0
 40
1.0
 10
13.2649214355
 20
12.2113064315
 30
0.0
 10
13.2655546094
 20
12.2120772905
 30
0.0
 10
13.2667407964
 20
12.2138988582
 30
0.0
 10
13.267646226
 20
12.215866179
 30
0.0
 10
13.2680770832
 20
12.216946162
 30
0.0
  0
SPLINE
  5
325
100
AcDbEntity
  8
0
100
AcDbSpline
 62
7
  6
CONTINUOUS
 70
0
 71
3
 72
9
 73
5
 74
0
 42
0.0000001
 43
0.0000001
 44
0.0000000001
 40
0.0
 40
0.0
 40
0.0
 40
0.0
 40
0.4835707728
 40
1.0
 40
1.0
 40
1.0
 40
1.0
 10
13.2649214355
 20
12.2113064315
 30
0.0
 10
13.260946939
 20
12.2064676717
 30
0.0
 10
13.2531452731
 20
12.1961144396
 30
0.0
 10
13.2460979921
 20
12.1852388559
 30
0.0
 10
13.2426323029
 20
12.1795196867
 30
0.0
  0
SPLINE
  5
326
100
AcDbEntity
  8
0
100
AcDbSpline
 62
7
  6
CONTINUOUS
 70
0
 71
3
 72
13
 73
9
 74
0
 42
0.0000001
 43
0.0000001
 44
0.0000000001
 40
0.0
 40
0.0
 40
0.0
 40
0.0
 40
0.2799416003
 40
0.5524741012
 40
0.679539855
 40
0.7976974992
 40
0.9050710682
 40
1.0
 40
1.0
 40
1.0
 40
1.0
 10
13.2374638385
 20
12.1487783857
 30
0.0
 10
13.2372503244
 20
12.1517165343
 30
0.0
 10
13.2371735678
 20
12.1575438715
 30
0.0
 10
13.2378780697
 20
12.1646787749
 30
0.0
 10
13.2389527405
 20
12.1700243867
 30
0.0
 10
13.2399573483
 20
12.1736007757
 30
0.0
 10
13.2411512488
 20
12.1767592673
 30
0.0
 10
13.2421145914
 20
12.1786653459
 30
0.0
 10
13.2426323029
 20
12.1795196867
 30
0.0
  0
SPLINE
  5
327
100
AcDbEntity
  8
0
100
AcDbSpline
 62
7
  6
CONTINUOUS
 70
0
 71
3
 72
15
 73
11
 74
0
 42
0.0000001
 43
0.0000001
 44
0.0000000001
 40
0.0
 40
0.0
 40
0.0
 40
0.0
 40
0.0772923085
 40
0.1681495568
 40
0.2740581981
 40
0.3950827616
 40
0.5302574441
 40
0.6780554802
 40
0.8357887244
 40
1.0
 40
1.0
 40
1.0
 40
1.0
 10
13.2493143946
 20
12.0917848
 30
0.0
 10
13.2487088706
 20
12.0920756185
 30
0.0
 10
13.2475014746
 20
12.0929387263
 30
0.0
 10
13.2459241041
 20
12.0947400258
 30
0.0
 10
13.2444706536
 20
12.0971007152
 30
0.0
 10
13.243174473
 20
12.099975343
 30
0.0
 10
13.2420525546
 20
12.1033073482
 30
0.0
 10
13.2411344649
 20
12.1070296524
 30
0.0
 10
13.2404356366
 20
12.111054696
 30
0.0
 10
13.2401299639
 20
12.1138380104
 30
0.0
 10
13.2400166269
 20
12.1152606475
 30
0.0
  0
SPLINE
  5
328
100
AcDbEntity
  8
0
100
AcDbSpline
 62
7
  6
CONTINUOUS
 70
0
 71
3
 72
9
 73
5
 74
0
 42
0.0000001
 43
0.0000001
 44
0.0000000001
 40
0.0
 40
0.0
 40
0.0
 40
0.0
 40
0.5098754105
 40
1.0
 40
1.0
 40
1.0
 40
1.0
 10
13.2493143946
 20
12.0917848
 30
0.0
 10
13.2533874851
 20
12.0898285935
 30
0.0
 10
13.2616490043
 20
12.086527168
 30
0.0
 10
13.2703262103
 20
12.0845277069
 30
0.0
 10
13.2746246861
 20
12.0839041703
 30
0.0
  0
SPLINE
  5
329
100
AcDbEntity
  8
0
100
AcDbSpline
 62
7
  6
CONTINUOUS
 70
0
 71
3
 72
10
 73
6
 74
0
 42
0.0000001
 43
0.0000001
 44
0.0000000001
 40
0.0
 40
0.0
 40
0.0
 40
0.0
 40
0.5369144423
 40
0.7750458751
 40
1.0
 40
1.0
 40
1.0
 40
1.0
 10
13.2783752321
 20
12.0817329747
 30
0.0
 10
13.2778307839
 20
12.0823028208
 30
0.0
 10
13.2769466994
 20
12.0830524014
 30
0.0
 10
13.2756153909
 20
12.0836865154
 30
0.0
 10
13.2749514731
 20
12.0838567667
 30
0.0
 10
13.2746246861
 20
12.0839041703
 30
0.0
  0
SPLINE
  5
32A
100
AcDbEntity
  8
0
100
AcDbSpline
 62
7
  6
CONTINUOUS
 70
0
 71
3
 72
9
 73
5
 74
0
 42
0.0000001
 43
0.0000001
 44
0.0000000001
 40
0.0
 40
0.0
 40
0.0
 40
0.0
 40
0.4686780589
 40
1.0
 40
1.0
 40
1.0
 40
1.0
 10
13.2921295321
 20
11.9225393992
 30
0.0
 10
13.2927009423
 20
11.9235428143
 30
0.0
 10
13.2937490274
 20
11.9257818666
 30
0.0
 10
13.2945379488
 20
11.9281201751
 30
0.0
 10
13.2949027649
 20
11.9293773604
 30
0.0
  0
SPLINE
  5
32B
100
AcDbEntity
  8
0
100
AcDbSpline
 62
7
  6
CONTINUOUS
 70
0
 71
3
 72
9
 73
5
 74
0
 42
0.0000001
 43
0.0000001
 44
0.0000000001
 40
0.0
 40
0.0
 40
0.0
 40
0.0
 40
0.4860521684
 40
1.0
 40
1.0
 40
1.0
 40
1.0
 10
13.2921295321
 20
11.9225393992
 30
0.0
 10
13.2885148924
 20
11.9161919729
 30
0.0
 10
13.2814741198
 20
11.9029049041
 30
0.0
 10
13.2751421201
 20
11.8892684326
 30
0.0
 10
13.2720512149
 20
11.8821901646
 30
0.0
  0
SPLINE
  5
32C
100
AcDbEntity
  8
0
100
AcDbSpline
 62
7
  6
CONTINUOUS
 70
0
 71
3
 72
13
 73
9
 74
0
 42
0.0000001
 43
0.0000001
 44
0.0000000001
 40
0.0
 40
0.0
 40
0.0
 40
0.0
 40
0.1302715227
 40
0.2643327468
 40
0.5319324976
 40
0.7829028606
 40
0.8967851035
 40
1.0
 40
1.0
 40
1.0
 40
1.0
 10
13.2688190953
 20
11.8497510999
 30
0.0
 10
13.2686229489
 20
11.8511679421
 30
0.0
 10
13.2683195898
 20
11.8540566059
 30
0.0
 10
13.2680478138
 20
11.8598933228
 30
0.0
 10
13.2683229913
 20
11.8670695897
 30
0.0
 10
13.2694058726
 20
11.873951825
 30
0.0
 10
13.2707699524
 20
11.8789113138
 30
0.0
 10
13.2715976945
 20
11.8811515889
 30
0.0
 10
13.2720512149
 20
11.8821901646
 30
0.0
  0
SPLINE
  5
32D
100
AcDbEntity
  8
0
100
AcDbSpline
 62
7
  6
CONTINUOUS
 70
0
 71
3
 72
15
 73
11
 74
0
 42
0.0000001
 43
0.0000001
 44
0.0000000001
 40
0.0
 40
0.0
 40
0.0
 40
0.0
 40
0.0757049211
 40
0.1612824123
 40
0.2613969352
 40
0.3782213381
 40
0.5120150452
 40
0.6619826366
 40
0.8257695201
 40
1.0
 40
1.0
 40
1.0
 40
1.0
 10
13.2839957123
 20
11.798219724
 30
0.0
 10
13.2834064324
 20
11.7982618216
 30
0.0
 10
13.2821636842
 20
11.7986123543
 30
0.0
 10
13.2804613352
 20
11.7997798899
 30
0.0
 10
13.2788709419
 20
11.8015464637
 30
0.0
 10
13.277414952
 20
11.8038756444
 30
0.0
 10
13.276106126
 20
11.8067217353
 30
0.0
 10
13.2749759263
 20
11.8100315212
 30
0.0
 10
13.2740434907
 20
11.8137272087
 30
0.0
 10
13.2735788323
 20
11.8163261381
 30
0.0
 10
13.2733823033
 20
11.8176715094
 30
0.0
  0
SPLINE
  5
32E
100
AcDbEntity
  8
0
100
AcDbSpline
 62
7
  6
CONTINUOUS
 70
0
 71
3
 72
9
 73
5
 74
0
 42
0.0000001
 43
0.0000001
 44
0.0000000001
 40
0.0
 40
0.0
 40
0.0
 40
0.0
 40
0.4755518333
 40
1.0
 40
1.0
 40
1.0
 40
1.0
 10
13.3365938919
 20
11.6482574182
 30
0.0
 10
13.3370901018
 20
11.6494609506
 30
0.0
 10
13.33798014
 20
11.6520557855
 30
0.0
 10
13.3386289389
 20
11.6547186505
 30
0.0
 10
13.3389164236
 20
11.6561252369
 30
0.0
  0
SPLINE
  5
32F
100
AcDbEntity
  8
0
100
AcDbSpline
 62
7
  6
CONTINUOUS
 70
0
 71
3
 72
9
 73
5
 74
0
 42
0.0000001
 43
0.0000001
 44
0.0000000001
 40
0.0
 40
0.0
 40
0.0
 40
0.0
 40
0.241544387
 40
1.0
 40
1.0
 40
1.0
 40
1.0
 10
13.3365938919
 20
11.6482574182
 30
0.0
 10
13.3350293699
 20
11.6444627489
 30
0.0
 10
13.3287327211
 20
11.6286785331
 30
0.0
 10
13.3231314719
 20
11.6126199566
 30
0.0
 10
13.3192207849
 20
11.6003392258
 30
0.0
  0
SPLINE
  5
330
100
AcDbEntity
  8
0
100
AcDbSpline
 62
7
  6
CONTINUOUS
 70
0
 71
3
 72
13
 73
9
 74
0
 42
0.0000001
 43
0.0000001
 44
0.0000000001
 40
0.0
 40
0.0
 40
0.0
 40
0.0
 40
0.1215670756
 40
0.249250082
 40
0.5118216081
 40
0.7682451595
 40
0.8884604122
 40
1.0
 40
1.0
 40
1.0
 40
1.0
 10
13.3180045957
 20
11.567001155
 30
0.0
 10
13.3177215225
 20
11.5683360463
 30
0.0
 10
13.3172430335
 20
11.5710952532
 30
0.0
 10
13.3166161335
 20
11.5768089001
 30
0.0
 10
13.3164651066
 20
11.58408293
 30
0.0
 10
13.3171274747
 20
11.5912465052
 30
0.0
 10
13.3181651771
 20
11.5966305989
 30
0.0
 10
13.3188408879
 20
11.5991462351
 30
0.0
 10
13.3192207849
 20
11.6003392258
 30
0.0
  0
SPLINE
  5
331
100
AcDbEntity
  8
0
100
AcDbSpline
 62
7
  6
CONTINUOUS
 70
0
 71
3
 72
9
 73
5
 74
0
 42
0.0000001
 43
0.0000001
 44
0.0000000001
 40
0.0
 40
0.0
 40
0.0
 40
0.0
 40
0.4819995763
 40
1.0
 40
1.0
 40
1.0
 40
1.0
 10
13.3972196548
 20
11.3952142212
 30
0.0
 10
13.3976307904
 20
11.3965834606
 30
0.0
 10
13.3983459914
 20
11.3994663584
 30
0.0
 10
13.3988336022
 20
11.4023949171
 30
0.0
 10
13.399034297
 20
11.4039181654
 30
0.0
  0
SPLINE
  5
332
100
AcDbEntity
  8
0
100
AcDbSpline
 62
7
  6
CONTINUOUS
 70
0
 71
3
 72
9
 73
5
 74
0
 42
0.0000001
 43
0.0000001
 44
0.0000000001
 40
0.0
 40
0.0
 40
0.0
 40
0.0
 40
0.2434871846
 40
1.0
 40
1.0
 40
1.0
 40
1.0
 10
13.3972196548
 20
11.3952142212
 30
0.0
 10
13.3959090836
 20
11.3908495163
 30
0.0
 10
13.3906922668
 20
11.3728741677
 30
0.0
 10
13.3861181662
 20
11.3547139758
 30
0.0
 10
13.3829795416
 20
11.3409069759
 30
0.0
  0
SPLINE
  5
333
100
AcDbEntity
  8
0
100
AcDbSpline
 62
7
  6
CONTINUOUS
 70
0
 71
3
 72
13
 73
9
 74
0
 42
0.0000001
 43
0.0000001
 44
0.0000000001
 40
0.0
 40
0.0
 40
0.0
 40
0.0
 40
0.1131220869
 40
0.2345257846
 40
0.4919467304
 40
0.7535554183
 40
0.8800462514
 40
1.0
 40
1.0
 40
1.0
 40
1.0
 10
13.3838092293
 20
11.3074907928
 30
0.0
 10
13.3834441434
 20
11.3087094828
 30
0.0
 10
13.3827987683
 20
11.311270166
 30
0.0
 10
13.3818250932
 20
11.316719737
 30
0.0
 10
13.3812437143
 20
11.323917357
 30
0.0
 10
13.3814762352
 20
11.3311903182
 30
0.0
 10
13.3821696718
 20
11.3368646808
 30
0.0
 10
13.3826805073
 20
11.3395915056
 30
0.0
 10
13.3829795416
 20
11.3409069759
 30
0.0
  0
SPLINE
  5
334
100
AcDbEntity
  8
0
100
AcDbSpline
 62
7
  6
CONTINUOUS
 70
0
 71
3
 72
9
 73
5
 74
0
 42
0.0000001
 43
0.0000001
 44
0.0000000001
 40
0.0
 40
0.0
 40
0.0
 40
0.0
 40
0.2403953658
 40
1.0
 40
1.0
 40
1.0
 40
1.0
 10
13.4725140133
 20
11.1696405713
 30
0.0
 10
13.4726709217
 20
11.1703785414
 30
0.0
 10
13.4732610643
 20
11.1734615159
 30
0.0
 10
13.473617869
 20
11.1765876025
 30
0.0
 10
13.4737760834
 20
11.1789663212
 30
0.0
  0
SPLINE
  5
335
100
AcDbEntity
  8
0
100
AcDbSpline
 62
7
  6
CONTINUOUS
 70
0
 71
3
 72
13
 73
9
 74
0
 42
0.0000001
 43
0.0000001
 44
0.0000000001
 40
0.0
 40
0.0
 40
0.0
 40
0.0
 40
0.1047878795
 40
0.219878998
 40
0.4719099786
 40
0.7385639636
 40
0.8714042077
 40
1.0
 40
1.0
 40
1.0
 40
1.0
 10
13.4646126677
 20
11.0776100198
 30
0.0
 10
13.4641724343
 20
11.0786801766
 30
0.0
 10
13.4633723203
 20
11.0809772646
 30
0.0
 10
13.4620683042
 20
11.0860270607
 30
0.0
 10
13.4610637996
 20
11.0929754634
 30
0.0
 10
13.4608684483
 20
11.1001834928
 30
0.0
 10
13.4612076956
 20
11.1060078693
 30
0.0
 10
13.4615446467
 20
11.1088774661
 30
0.0
 10
13.4617575328
 20
11.1102814978
 30
0.0
  0
SPLINE
  5
336
100
AcDbEntity
  8
0
100
AcDbSpline
 62
7
  6
CONTINUOUS
 70
0
 71
3
 72
9
 73
5
 74
0
 42
0.0000001
 43
0.0000001
 44
0.0000000001
 40
0.0
 40
0.0
 40
0.0
 40
0.0
 40
0.2446460467
 40
1.0
 40
1.0
 40
1.0
 40
1.0
 10
13.5606229704
 20
10.9770908406
 30
0.0
 10
13.5607323335
 20
10.9778780242
 30
0.0
 10
13.5611213171
 20
10.9811035449
 30
0.0
 10
13.5612898415
 20
10.9843549896
 30
0.0
 10
13.5613013922
 20
10.9868087652
 30
0.0
  0
SPLINE
  5
337
100
AcDbEntity
  8
0
100
AcDbSpline
 62
7
  6
CONTINUOUS
 70
0
 71
3
 72
13
 73
9
 74
0
 42
0.0000001
 43
0.0000001
 44
0.0000000001
 40
0.0
 40
0.0
 40
0.0
 40
0.0
 40
0.0964900041
 40
0.205111764
 40
0.3240946444
 40
0.45149266
 40
0.72309818
 40
1.0
 40
1.0
 40
1.0
 40
1.0
 10
13.558425262
 20
10.8830192636
 30
0.0
 10
13.5579188506
 20
10.8839106733
 30
0.0
 10
13.5569798042
 20
10.8858842653
 30
0.0
 10
13.5558224452
 20
10.8891318223
 30
0.0
 10
13.5548591169
 20
10.8927829359
 30
0.0
 10
13.5538480686
 20
10.8981969158
 30
0.0
 10
13.5532242968
 20
10.905369514
 30
0.0
 10
13.5533666109
 20
10.9112099546
 30
0.0
 10
13.5536149828
 20
10.9141415562
 30
0.0
  0
SPLINE
  5
338
100
AcDbEntity
  8
0
100
AcDbSpline
 62
7
  6
CONTINUOUS
 70
0
 71
3
 72
13
 73
9
 74
0
 42
0.0000001
 43
0.0000001
 44
0.0000000001
 40
0.0
 40
0.0
 40
0.0
 40
0.0
 40
0.0883566409
 40
0.1902956112
 40
0.3047606347
 40
0.4302558637
 40
0.7066719978
 40
1.0
 40
1.0
 40
1.0
 40
1.0
 10
13.662937035
 20
10.7285099943
 30
0.0
 10
13.6623764449
 20
10.7291944573
 30
0.0
 10
13.6613170757
 20
10.7307902301
 30
0.0
 10
13.6599783585
 20
10.7335388251
 30
0.0
 10
13.6588072388
 20
10.7367616894
 30
0.0
 10
13.6574683533
 20
10.7417610761
 30
0.0
 10
13.6564233507
 20
10.7486654987
 30
0.0
 10
13.6562246423
 20
10.7543803462
 30
0.0
 10
13.6562900564
 20
10.7573167675
 30
0.0
  0
SPLINE
  5
339
100
AcDbEntity
  8
0
100
AcDbSpline
 62
7
  6
CONTINUOUS
 70
0
 71
3
 72
13
 73
9
 74
0
 42
0.0000001
 43
0.0000001
 44
0.0000000001
 40
0.0
 40
0.0
 40
0.0
 40
0.0
 40
0.0809799684
 40
0.1761191915
 40
0.2855975832
 40
0.4086789582
 40
0.6894129289
 40
1.0
 40
1.0
 40
1.0
 40
1.0
 10
13.7755745598
 20
10.617886743
 30
0.0
 10
13.7749777746
 20
10.6183386432
 30
0.0
 10
13.7738197548
 20
10.6195064054
 30
0.0
 10
13.7723284795
 20
10.6216954373
 30
0.0
 10
13.7709768251
 20
10.6244153313
 30
0.0
 10
13.7693346472
 20
10.6288742302
 30
0.0
 10
13.7678876926
 20
10.6353455139
 30
0.0
 10
13.7673665739
 20
10.6407998078
 30
0.0
 10
13.7672545526
 20
10.6436686784
 30
0.0
  0
SPLINE
  5
33A
100
AcDbEntity
  8
0
100
AcDbSpline
 62
7
  6
CONTINUOUS
 70
0
 71
3
 72
15
 73
11
 74
0
 42
0.0000001
 43
0.0000001
 44
0.0000000001
 40
0.0
 40
0.0
 40
0.0
 40
0.0
 40
0.0760114655
 40
0.1647523075
 40
0.2686552324
 40
0.388378891
 40
0.5232956865
 40
0.6720820445
 40
0.8321335742
 40
1.0
 40
1.0
 40
1.0
 40
1.0
 10
13.8935643267
 20
10.5538734212
 30
0.0
 10
13.8929603606
 20
10.5540756678
 30
0.0
 10
13.8917332207
 20
10.5547641359
 30
0.0
 10
13.8901116266
 20
10.5563481688
 30
0.0
 10
13.8886075517
 20
10.5585050031
 30
0.0
 10
13.8872520513
 20
10.5611943679
 30
0.0
 10
13.8860611976
 20
10.5643637385
 30
0.0
 10
13.8850656964
 20
10.5679506044
 30
0.0
 10
13.8842824461
 20
10.57187056
 30
0.0
 10
13.8839193768
 20
10.5745963751
 30
0.0
 10
13.8837761571
 20
10.575995682
 30
0.0
  0
SPLINE
  5
33B
100
AcDbEntity
  8
0
100
AcDbSpline
 62
7
  6
CONTINUOUS
 70
0
 71
3
 72
9
 73
5
 74
0
 42
0.0000001
 43
0.0000001
 44
0.0000000001
 40
0.0
 40
0.0
 40
0.0
 40
0.0
 40
0.48578382
 40
1.0
 40
1.0
 40
1.0
 40
1.0
 10
13.6081062904
 20
14.0806559489
 30
0.0
 10
13.6096350791
 20
14.0874580735
 30
0.0
 10
13.6119791616
 20
14.1016458102
 30
0.0
 10
13.6130065648
 20
14.1159809606
 30
0.0
 10
13.6132162638
 20
14.1233578395
 30
0.0
  0
SPLINE
  5
33C
100
AcDbEntity
  8
0
100
AcDbSpline
 62
7
  6
CONTINUOUS
 70
0
 71
3
 72
13
 73
9
 74
0
 42
0.0000001
 43
0.0000001
 44
0.0000000001
 40
0.0
 40
0.0
 40
0.0
 40
0.0
 40
0.1092201841
 40
0.2248499921
 40
0.3460566087
 40
0.4719048537
 40
0.7334630819
 40
1.0
 40
1.0
 40
1.0
 40
1.0
 10
13.5099881576
 20
13.8762057476
 30
0.0
 10
13.5108880956
 20
13.8788128888
 30
0.0
 10
13.5125685357
 20
13.8842406511
 30
0.0
 10
13.5146920711
 20
13.8927213116
 30
0.0
 10
13.516470815
 20
13.9017093451
 30
0.0
 10
13.5183880274
 20
13.9144130227
 30
0.0
 10
13.5197880558
 20
13.9308869245
 30
0.0
 10
13.5198781934
 20
13.9442377769
 30
0.0
 10
13.5196570649
 20
13.9509648907
 30
0.0
  0
SPLINE
  5
33D
100
AcDbEntity
  8
0
100
AcDbSpline
 62
7
  6
CONTINUOUS
 70
0
 71
3
 72
15
 73
11
 74
0
 42
0.0000001
 43
0.0000001
 44
0.0000000001
 40
0.0
 40
0.0
 40
0.0
 40
0.0
 40
0.0989194849
 40
0.2090174288
 40
0.3288569957
 40
0.456494661
 40
0.5898069838
 40
0.7265372731
 40
0.8642414459
 40
1.0
 40
1.0
 40
1.0
 40
1.0
 10
13.4232765608
 20
13.6391651686
 30
0.0
 10
13.4248910515
 20
13.642270993
 30
0.0
 10
13.4278774978
 20
13.6490571995
 30
0.0
 10
13.4315233908
 20
13.6601220713
 30
0.0
 10
13.4345079686
 20
13.6724306767
 30
0.0
 10
13.4367769573
 20
13.6857225192
 30
0.0
 10
13.4382723842
 20
13.6997238054
 30
0.0
 10
13.4389680859
 20
13.7141437059
 30
0.0
 10
13.4388397979
 20
13.7286656033
 30
0.0
 10
13.4382099139
 20
13.7383283475
 30
0.0
 10
13.4377516462
 20
13.7431104256
 30
0.0
  0
SPLINE
  5
33E
100
AcDbEntity
  8
0
100
AcDbSpline
 62
7
  6
CONTINUOUS
 70
0
 71
3
 72
27
 73
23
 74
0
 42
0.0000001
 43
0.0000001
 44
0.0000000001
 40
0.0
 40
0.0
 40
0.0
 40
0.0
 40
0.0202810659
 40
0.0417797032
 40
0.064509062
 40
0.0884643291
 40
0.1136243767
 40
0.1399598365
 40
0.167431831
 40
0.1959886358
 40
0.2561165987
 40
0.3198218832
 40
0.3864902855
 40
0.4554435718
 40
0.5259610987
 40
0.597288121
 40
0.6686587836
 40
0.7393038742
 40
0.8084598023
 40
0.8754016633
 40
0.9394761428
 40
1.0
 40
1.0
 40
1.0
 40
1.0
 10
17.1362595132
 20
12.0302784448
 30
0.0
 10
17.132634468
 20
12.0346219746
 30
0.0
 10
17.1254975684
 20
12.04384948
 30
0.0
 10
17.1154146348
 20
12.0587666389
 30
0.0
 10
17.1056771391
 20
12.0751160926
 30
0.0
 10
17.0963155597
 20
12.0928454923
 30
0.0
 10
17.0873560467
 20
12.1118981678
 30
0.0
 10
17.0788284544
 20
12.1322153876
 30
0.0
 10
17.0707612162
 20
12.1537341591
 30
0.0
 10
17.0604717918
 20
12.1844654711
 30
0.0
 10
17.0490117481
 20
12.2254330624
 30
0.0
 10
17.0376722643
 20
12.2773762967
 30
0.0
 10
17.0286675234
 20
12.3322694126
 30
0.0
 10
17.0221076645
 20
12.3894185483
 30
0.0
 10
17.0180819466
 20
12.4481034199
 30
0.0
 10
17.0166406813
 20
12.5075823498
 30
0.0
 10
17.0178015092
 20
12.5671029993
 30
0.0
 10
17.0215509759
 20
12.6259105099
 30
0.0
 10
17.0278367546
 20
12.6832596574
 30
0.0
 10
17.036587616
 20
12.7384325789
 30
0.0
 10
17.047682051
 20
12.7907235603
 30
0.0
 10
17.0568275449
 20
12.8242829346
 30
0.0
 10
17.0618123221
 20
12.8404136786
 30
0.0
  0
SPLINE
  5
33F
100
AcDbEntity
  8
0
100
AcDbSpline
 62
7
  6
CONTINUOUS
 70
0
 71
3
 72
9
 73
5
 74
0
 42
0.0000001
 43
0.0000001
 44
0.0000000001
 40
0.0
 40
0.0
 40
0.0
 40
0.0
 40
0.2553809476
 40
1.0
 40
1.0
 40
1.0
 40
1.0
 10
17.1290460298
 20
12.9806466094
 30
0.0
 10
17.1298412964
 20
12.9813931455
 30
0.0
 10
17.1329847778
 20
12.984284757
 30
0.0
 10
17.1362480044
 20
12.9870469204
 30
0.0
 10
17.1387454784
 20
12.9890160099
 30
0.0
  0
SPLINE
  5
340
100
AcDbEntity
  8
0
100
AcDbSpline
 62
7
  6
CONTINUOUS
 70
0
 71
3
 72
11
 73
7
 74
0
 42
0.0000001
 43
0.0000001
 44
0.0000000001
 40
0.0
 40
0.0
 40
0.0
 40
0.0
 40
0.2723052941
 40
0.5261275025
 40
0.7665825798
 40
1.0
 40
1.0
 40
1.0
 40
1.0
 10
17.1387454784
 20
12.9890160099
 30
0.0
 10
17.1431925402
 20
12.9925222177
 30
0.0
 10
17.1522193639
 20
12.9987773116
 30
0.0
 10
17.1665944444
 20
13.0058259125
 30
0.0
 10
17.1811955706
 20
13.0100932528
 30
0.0
 10
17.1910744874
 20
13.0110541299
 30
0.0
 10
17.1959287767
 20
13.0110546916
 30
0.0
  0
SPLINE
  5
341
100
AcDbEntity
  8
0
100
AcDbSpline
 62
7
  6
CONTINUOUS
 70
0
 71
3
 72
18
 73
14
 74
0
 42
0.0000001
 43
0.0000001
 44
0.0000000001
 40
0.0
 40
0.0
 40
0.0
 40
0.0
 40
0.1491038443
 40
0.2896182502
 40
0.4221049297
 40
0.4855969792
 40
0.5473968272
 40
0.6664178751
 40
0.7804747454
 40
0.8361333006
 40
0.8911291558
 40
0.9456772083
 40
1.0
 40
1.0
 40
1.0
 40
1.0
 10
17.4857010144
 20
10.9158478158
 30
0.0
 10
17.4747324558
 20
10.9027075712
 30
0.0
 10
17.4525512859
 20
10.8778933096
 30
0.0
 10
17.4174859878
 20
10.8443756542
 30
0.0
 10
17.3872582445
 20
10.8202232655
 30
0.0
 10
17.3627996789
 20
10.8035443164
 30
0.0
 10
17.338820561
 20
10.7889774451
 30
0.0
 10
17.3084726034
 20
10.7738031521
 30
0.0
 10
17.277145043
 20
10.7626808667
 30
0.0
 10
17.2520824424
 20
10.7565037918
 30
0.0
 10
17.2333892714
 20
10.7532163615
 30
0.0
 10
17.2146672998
 20
10.7512440786
 30
0.0
 10
17.2021649136
 20
10.7508061597
 30
0.0
 10
17.1959288756
 20
10.7508064711
 30
0.0
  0
SPLINE
  5
342
100
AcDbEntity
  8
0
100
AcDbSpline
 62
7
  6
CONTINUOUS
 70
0
 71
3
 72
33
 73
29
 74
0
 42
0.0000001
 43
0.0000001
 44
0.0000000001
 40
0.0
 40
0.0
 40
0.0
 40
0.0
 40
0.0202795893
 40
0.0417780603
 40
0.0645069549
 40
0.0884599862
 40
0.1136197405
 40
0.1399547243
 40
0.1674244583
 40
0.1959803001
 40
0.2255641233
 40
0.2561133193
 40
0.287557787
 40
0.3198227029
 40
0.3528295623
 40
0.3864944483
 40
0.4207314613
 40
0.4554511549
 40
0.5259653048
 40
0.5972891113
 40
0.6686547051
 40
0.7392931428
 40
0.8084501247
 40
0.8753934182
 40
0.9078250193
 40
0.9394585088
 40
0.9702123887
 40
1.0
 40
1.0
 40
1.0
 40
1.0
 10
17.5083936829
 20
14.0785747457
 30
0.0
 10
17.5202209541
 20
14.0644045079
 30
0.0
 10
17.5435077291
 20
14.0343002402
 30
0.0
 10
17.5764012302
 20
13.9856288119
 30
0.0
 10
17.6081689728
 20
13.9322863768
 30
0.0
 10
17.6387174889
 20
13.8744454036
 30
0.0
 10
17.6679445399
 20
13.8122820495
 30
0.0
 10
17.6957650104
 20
13.7459943282
 30
0.0
 10
17.7220894621
 20
13.6757896137
 30
0.0
 10
17.7468315209
 20
13.6018885855
 30
0.0
 10
17.7699192707
 20
13.5245261004
 30
0.0
 10
17.7912723292
 20
13.4439452809
 30
0.0
 10
17.8108273562
 20
13.3604022891
 30
0.0
 10
17.8285218266
 20
13.2741616603
 30
0.0
 10
17.8442953279
 20
13.1854963972
 30
0.0
 10
17.8581038286
 20
13.094688676
 30
0.0
 10
17.8698975952
 20
13.0020256344
 30
0.0
 10
17.882956243
 20
12.8757496957
 30
0.0
 10
17.8939570999
 20
12.7153724675
 30
0.0
 10
17.8986620739
 20
12.5213212669
 30
0.0
 10
17.8948755729
 20
12.327134774
 30
0.0
 10
17.882645269
 20
12.1352707369
 30
0.0
 10
17.862129146
 20
11.9481627246
 30
0.0
 10
17.8381033998
 20
11.7965946606
 30
0.0
 10
17.8148145229
 20
11.6796410897
 30
0.0
 10
17.7956534871
 20
11.5954832499
 30
0.0
 10
17.7746818457
 20
11.514241756
 30
0.0
 10
17.7592877318
 20
11.4613224184
 30
0.0
 10
17.7512832012
 20
11.4354197478
 30
0.0
  0
SPLINE
  5
343
100
AcDbEntity
  8
0
100
AcDbSpline
 62
7
  6
CONTINUOUS
 70
0
 71
3
 72
11
 73
7
 74
0
 42
0.0000001
 43
0.0000001
 44
0.0000000001
 40
0.0
 40
0.0
 40
0.0
 40
0.0
 40
0.2336339618
 40
0.4742174227
 40
0.7279744663
 40
1.0
 40
1.0
 40
1.0
 40
1.0
 10
17.1959287766
 20
12.0105552942
 30
0.0
 10
17.1911139
 20
12.010554737
 30
0.0
 10
17.1813171646
 20
12.0114997452
 30
0.0
 10
17.1668353014
 20
12.0157007165
 30
0.0
 10
17.1525697767
 20
12.0226317767
 30
0.0
 10
17.1436067952
 20
12.0287919527
 30
0.0
 10
17.1391903331
 20
12.032244913
 30
0.0
  0
SPLINE
  5
344
100
AcDbEntity
  8
0
100
AcDbSpline
 62
7
  6
CONTINUOUS
 70
0
 71
3
 72
9
 73
5
 74
0
 42
0.0000001
 43
0.0000001
 44
0.0000000001
 40
0.0
 40
0.0
 40
0.0
 40
0.0
 40
0.2427828712
 40
1.0
 40
1.0
 40
1.0
 40
1.0
 10
17.1391903331
 20
12.032244913
 30
0.0
 10
17.1380531614
 20
12.0331339977
 30
0.0
 10
17.1334276818
 20
12.0368705168
 30
0.0
 10
17.1290345193
 20
12.0408918215
 30
0.0
 10
17.1258353779
 20
12.0440594991
 30
0.0
  0
SPLINE
  5
345
100
AcDbEntity
  8
0
100
AcDbSpline
 62
7
  6
CONTINUOUS
 70
0
 71
3
 72
15
 73
11
 74
0
 42
0.0000001
 43
0.0000001
 44
0.0000000001
 40
0.0
 40
0.0
 40
0.0
 40
0.0
 40
0.1088238119
 40
0.2194327549
 40
0.333511561
 40
0.4525511373
 40
0.5778193011
 40
0.7103327245
 40
0.8508671038
 40
1.0
 40
1.0
 40
1.0
 40
1.0
 10
17.1959288756
 20
14.2708035147
 30
0.0
 10
17.2084192732
 20
14.2708028909
 30
0.0
 10
17.2336394044
 20
14.2690220299
 30
0.0
 10
17.2711934071
 20
14.2610478927
 30
0.0
 10
17.308470589
 20
14.2478037786
 30
0.0
 10
17.3453471743
 20
14.2293703845
 30
0.0
 10
17.381716433
 20
14.2058168528
 30
0.0
 10
17.4174821876
 20
14.1772329813
 30
0.0
 10
17.4525537364
 20
14.1437180066
 30
0.0
 10
17.4747329021
 20
14.1189025507
 30
0.0
 10
17.4857011441
 20
14.1057615144
 30
0.0
  0
SPLINE
  5
346
100
AcDbEntity
  8
0
100
AcDbSpline
 62
7
  6
CONTINUOUS
 70
0
 71
3
 72
18
 73
14
 74
0
 42
0.0000001
 43
0.0000001
 44
0.0000000001
 40
0.0
 40
0.0
 40
0.0
 40
0.0
 40
0.041138578
 40
0.0864674451
 40
0.1359664334
 40
0.1895151837
 40
0.2468620332
 40
0.3076552609
 40
0.4379427123
 40
0.5766346498
 40
0.7195112223
 40
0.8622468827
 40
1.0
 40
1.0
 40
1.0
 40
1.0
 10
13.3497074578
 20
13.3750488555
 30
0.0
 10
13.3509089083
 20
13.3764462938
 30
0.0
 10
13.353239225
 20
13.3795533783
 30
0.0
 10
13.3563797184
 20
13.3847813794
 30
0.0
 10
13.3593110657
 20
13.3907547903
 30
0.0
 10
13.3620038318
 20
13.3974221133
 30
0.0
 10
13.3644363323
 20
13.4047232131
 30
0.0
 10
13.3673728369
 20
13.415462503
 30
0.0
 10
13.3701865253
 20
13.429988398
 30
0.0
 10
13.3721876249
 20
13.4483475986
 30
0.0
 10
13.3728015775
 20
13.4673640515
 30
0.0
 10
13.3720014021
 20
13.4863292644
 30
0.0
 10
13.3705148789
 20
13.49882275
 30
0.0
 10
13.369516791
 20
13.5049125109
 30
0.0
  0
SPLINE
  5
347
100
AcDbEntity
  8
0
100
AcDbSpline
 62
7
  6
CONTINUOUS
 70
0
 71
3
 72
15
 73
11
 74
0
 42
0.0000001
 43
0.0000001
 44
0.0000000001
 40
0.0
 40
0.0
 40
0.0
 40
0.0
 40
0.1732292304
 40
0.3364645689
 40
0.4863110596
 40
0.6203621429
 40
0.7377178779
 40
0.8384615303
 40
0.9244708843
 40
1.0
 40
1.0
 40
1.0
 40
1.0
 10
13.9481027009
 20
14.4624227313
 30
0.0
 10
13.9482905644
 20
14.4637780101
 30
0.0
 10
13.9487387848
 20
14.4663998121
 30
0.0
 10
13.9496470988
 20
14.4701353656
 30
0.0
 10
13.9507557094
 20
14.4734934733
 30
0.0
 10
13.9520457983
 20
14.4763951698
 30
0.0
 10
13.9534858766
 20
14.4787856473
 30
0.0
 10
13.955062454
 20
14.4806181655
 30
0.0
 10
13.9567513834
 20
14.4818565796
 30
0.0
 10
13.9579939042
 20
14.4822642876
 30
0.0
 10
13.9585865655
 20
14.4823323854
 30
0.0
  0
SPLINE
  5
348
100
AcDbEntity
  8
0
100
AcDbSpline
 62
7
  6
CONTINUOUS
 70
0
 71
3
 72
15
 73
11
 74
0
 42
0.0000001
 43
0.0000001
 44
0.0000000001
 40
0.0
 40
0.0
 40
0.0
 40
0.0
 40
0.163081557
 40
0.3200813514
 40
0.4675436236
 40
0.6027601148
 40
0.7241507887
 40
0.8306615387
 40
0.9222003401
 40
1.0
 40
1.0
 40
1.0
 40
1.0
 10
13.8297651865
 20
14.4203836131
 30
0.0
 10
13.8298692585
 20
14.4218125406
 30
0.0
 10
13.830157075
 20
14.4246118178
 30
0.0
 10
13.8308296178
 20
14.4286666308
 30
0.0
 10
13.831723439
 20
14.4324282106
 30
0.0
 10
13.8328235833
 20
14.435808091
 30
0.0
 10
13.8341009016
 20
14.4387378778
 30
0.0
 10
13.8355382264
 20
14.4411597538
 30
0.0
 10
13.8371018147
 20
14.4430265636
 30
0.0
 10
13.8383020379
 20
14.4439417797
 30
0.0
 10
13.8389071121
 20
14.4442596525
 30
0.0
  0
SPLINE
  5
349
100
AcDbEntity
  8
0
100
AcDbSpline
 62
7
  6
CONTINUOUS
 70
0
 71
3
 72
21
 73
17
 74
0
 42
0.0000001
 43
0.0000001
 44
0.0000000001
 40
0.0
 40
0.0
 40
0.0
 40
0.0
 40
0.0371940208
 40
0.0793346056
 40
0.1265802403
 40
0.1788483329
 40
0.2358593102
 40
0.2972236448
 40
0.3623964267
 40
0.4307270982
 40
0.5015233347
 40
0.574012835
 40
0.7208405156
 40
0.8649769916
 40
0.934063068
 40
1.0
 40
1.0
 40
1.0
 40
1.0
 10
13.2951303822
 20
13.0940315493
 30
0.0
 10
13.2966299481
 20
13.0952314835
 30
0.0
 10
13.29956387
 20
13.0981258066
 30
0.0
 10
13.3034912042
 20
13.1033710272
 30
0.0
 10
13.3071600195
 20
13.1097156353
 30
0.0
 10
13.3105173406
 20
13.1170785568
 30
0.0
 10
13.3135320466
 20
13.1253664714
 30
0.0
 10
13.3161607344
 20
13.134478946
 30
0.0
 10
13.3183737385
 20
13.1443001458
 30
0.0
 10
13.3201431938
 20
13.1547045997
 30
0.0
 10
13.3214391453
 20
13.1655588785
 30
0.0
 10
13.3225262097
 20
13.1805041486
 30
0.0
 10
13.3226303435
 20
13.1992967255
 30
0.0
 10
13.3210997139
 20
13.2178539056
 30
0.0
 10
13.3188674267
 20
13.2320997104
 30
0.0
 10
13.3174325104
 20
13.2389269215
 30
0.0
 10
13.3166326678
 20
13.2422363699
 30
0.0
  0
SPLINE
  5
34A
100
AcDbEntity
  8
0
100
AcDbSpline
 62
7
  6
CONTINUOUS
 70
0
 71
3
 72
13
 73
9
 74
0
 42
0.0000001
 43
0.0000001
 44
0.0000000001
 40
0.0
 40
0.0
 40
0.0
 40
0.0
 40
0.3025811944
 40
0.5814360859
 40
0.705708307
 40
0.8175421012
 40
0.9157987966
 40
1.0
 40
1.0
 40
1.0
 40
1.0
 10
13.7154455613
 20
14.3313243318
 30
0.0
 10
13.7154770729
 20
14.3342330546
 30
0.0
 10
13.7158530456
 20
14.3398232126
 30
0.0
 10
13.7171184759
 20
14.3465131721
 30
0.0
 10
13.7186248518
 20
14.3512351905
 30
0.0
 10
13.7198971339
 20
14.354194416
 30
0.0
 10
13.7213217906
 20
14.3566468464
 30
0.0
 10
13.7224374529
 20
14.3580172673
 30
0.0
 10
13.7230204433
 20
14.3585788492
 30
0.0
  0
SPLINE
  5
34B
100
AcDbEntity
  8
0
100
AcDbSpline
 62
7
  6
CONTINUOUS
 70
0
 71
3
 72
11
 73
7
 74
0
 42
0.0000001
 43
0.0000001
 44
0.0000000001
 40
0.0
 40
0.0
 40
0.0
 40
0.0
 40
0.296330409
 40
0.5565403793
 40
0.7871256359
 40
1.0
 40
1.0
 40
1.0
 40
1.0
 10
13.6254048094
 20
14.2439918165
 30
0.0
 10
13.6258021486
 20
14.244547441
 30
0.0
 10
13.6266194164
 20
14.2455443324
 30
0.0
 10
13.6280111971
 20
14.2467273067
 30
0.0
 10
13.6294728818
 20
14.2474725007
 30
0.0
 10
13.6305011362
 20
14.2476461617
 30
0.0
 10
13.6309918385
 20
14.2476463254
 30
0.0
  0
SPLINE
  5
34C
100
AcDbEntity
  8
0
100
AcDbSpline
 62
7
  6
CONTINUOUS
 70
0
 71
3
 72
13
 73
9
 74
0
 42
0.0000001
 43
0.0000001
 44
0.0000000001
 40
0.0
 40
0.0
 40
0.0
 40
0.0
 40
0.2856721938
 40
0.5599100952
 40
0.6863269707
 40
0.8029168583
 40
0.9079506869
 40
1.0
 40
1.0
 40
1.0
 40
1.0
 10
13.6079587537
 20
14.1974378225
 30
0.0
 10
13.6078097596
 20
14.2003811323
 30
0.0
 10
13.6078536446
 20
14.2061708375
 30
0.0
 10
13.6087070035
 20
14.2132194425
 30
0.0
 10
13.6098979999
 20
14.2184254276
 30
0.0
 10
13.6109769193
 20
14.2218550079
 30
0.0
 10
13.612235972
 20
14.2248411998
 30
0.0
 10
13.6132425926
 20
14.2266168613
 30
0.0
 10
13.6137800734
 20
14.2273997211
 30
0.0
  0
SPLINE
  5
34D
100
AcDbEntity
  8
0
100
AcDbSpline
 62
7
  6
CONTINUOUS
 70
0
 71
3
 72
9
 73
5
 74
0
 42
0.0000001
 43
0.0000001
 44
0.0000000001
 40
0.0
 40
0.0
 40
0.0
 40
0.0
 40
0.2517647382
 40
1.0
 40
1.0
 40
1.0
 40
1.0
 10
13.6132162638
 20
14.1233578395
 30
0.0
 10
13.613239731
 20
14.1241833764
 30
0.0
 10
13.6132797097
 20
14.1274636051
 30
0.0
 10
13.6131120305
 20
14.1307469165
 30
0.0
 10
13.6128614029
 20
14.1331885425
 30
0.0
  0
SPLINE
  5
34E
100
AcDbEntity
  8
0
100
AcDbSpline
 62
7
  6
CONTINUOUS
 70
0
 71
3
 72
13
 73
9
 74
0
 42
0.0000001
 43
0.0000001
 44
0.0000000001
 40
0.0
 40
0.0
 40
0.0
 40
0.0
 40
0.3130882794
 40
0.4520055147
 40
0.5793634151
 40
0.8024601515
 40
0.9030000465
 40
1.0
 40
1.0
 40
1.0
 40
1.0
 10
13.5243467143
 20
14.0750099622
 30
0.0
 10
13.5248138861
 20
14.0759328428
 30
0.0
 10
13.5255744225
 20
14.0772278036
 30
0.0
 10
13.5267697447
 20
14.0787275018
 30
0.0
 10
13.5279089641
 20
14.0798758559
 30
0.0
 10
13.5291646356
 20
14.0807336773
 30
0.0
 10
13.5304949425
 20
14.081163162
 30
0.0
 10
13.531149534
 20
14.081233357
 30
0.0
 10
13.5314700045
 20
14.0812333123
 30
0.0
  0
SPLINE
  5
34F
100
AcDbEntity
  8
0
100
AcDbSpline
 62
7
  6
CONTINUOUS
 70
0
 71
3
 72
13
 73
9
 74
0
 42
0.0000001
 43
0.0000001
 44
0.0000000001
 40
0.0
 40
0.0
 40
0.0
 40
0.0
 40
0.1334262393
 40
0.2697770363
 40
0.5391266967
 40
0.7880833512
 40
0.8997035249
 40
1.0
 40
1.0
 40
1.0
 40
1.0
 10
13.5099514457
 20
14.0220208152
 30
0.0
 10
13.509786653
 20
14.0234580471
 30
0.0
 10
13.5095460437
 20
14.026375296
 30
0.0
 10
13.5093995116
 20
14.0322213207
 30
0.0
 10
13.5098213942
 20
14.0393224065
 30
0.0
 10
13.5110478743
 20
14.0460661583
 30
0.0
 10
13.5125210818
 20
14.0508460405
 30
0.0
 10
13.513398568
 20
14.0529752324
 30
0.0
 10
13.5138758628
 20
14.0539523338
 30
0.0
  0
SPLINE
  5
350
100
AcDbEntity
  8
0
100
AcDbSpline
 62
7
  6
CONTINUOUS
 70
0
 71
3
 72
9
 73
5
 74
0
 42
0.0000001
 43
0.0000001
 44
0.0000000001
 40
0.0
 40
0.0
 40
0.0
 40
0.0
 40
0.2559850166
 40
1.0
 40
1.0
 40
1.0
 40
1.0
 10
13.5196570649
 20
13.9509648907
 30
0.0
 10
13.5196301018
 20
13.9517851534
 30
0.0
 10
13.5194729191
 20
13.9549874029
 30
0.0
 10
13.5191108706
 20
13.9581809635
 30
0.0
 10
13.5187077017
 20
13.9605320091
 30
0.0
  0
SPLINE
  5
351
100
AcDbEntity
  8
0
100
AcDbSpline
 62
7
  6
CONTINUOUS
 70
0
 71
3
 72
21
 73
17
 74
0
 42
0.0000001
 43
0.0000001
 44
0.0000000001
 40
0.0
 40
0.0
 40
0.0
 40
0.0
 40
0.0425887588
 40
0.0902200396
 40
0.1426635564
 40
0.1995622709
 40
0.2604518401
 40
0.3248049534
 40
0.391981122
 40
0.4612629946
 40
0.5319110091
 40
0.6031427223
 40
0.7441641931
 40
0.8783681813
 40
0.941129308
 40
1.0
 40
1.0
 40
1.0
 40
1.0
 10
13.2681923105
 20
12.8065320369
 30
0.0
 10
13.269597064
 20
12.8083154645
 30
0.0
 10
13.2722954804
 20
12.8123143074
 30
0.0
 10
13.2758501404
 20
12.8190490167
 30
0.0
 10
13.2790883653
 20
12.826775129
 30
0.0
 10
13.2819604252
 20
12.8353904134
 30
0.0
 10
13.284437911
 20
12.8447842734
 30
0.0
 10
13.2864841127
 20
12.8548402704
 30
0.0
 10
13.2880761094
 20
12.865430034
 30
0.0
 10
13.2891941621
 20
12.8764172642
 30
0.0
 10
13.2898169933
 20
12.8876601556
 30
0.0
 10
13.2899840538
 20
12.9027435954
 30
0.0
 10
13.2889746415
 20
12.9212092743
 30
0.0
 10
13.2863401017
 20
12.9390658186
 30
0.0
 10
13.28324766
 20
12.9523543779
 30
0.0
 10
13.2814021243
 20
12.9585756251
 30
0.0
 10
13.2804014594
 20
12.9615499609
 30
0.0
  0
SPLINE
  5
352
100
AcDbEntity
  8
0
100
AcDbSpline
 62
7
  6
CONTINUOUS
 70
0
 71
3
 72
14
 73
10
 74
0
 42
0.0000001
 43
0.0000001
 44
0.0000000001
 40
0.0
 40
0.0
 40
0.0
 40
0.0
 40
0.3257351521
 40
0.4686550235
 40
0.5975137142
 40
0.7127103415
 40
0.8160505457
 40
0.9104458173
 40
1.0
 40
1.0
 40
1.0
 40
1.0
 10
13.4348269248
 20
13.8675121902
 30
0.0
 10
13.4353282993
 20
13.868872272
 30
0.0
 10
13.4361698048
 20
13.8707931367
 30
0.0
 10
13.4375637878
 20
13.8730617661
 30
0.0
 10
13.4386235994
 20
13.8744247478
 30
0.0
 10
13.4397369373
 20
13.8755060663
 30
0.0
 10
13.4408950442
 20
13.8762948773
 30
0.0
 10
13.4420900381
 20
13.8767793893
 30
0.0
 10
13.4429125025
 20
13.8768887693
 30
0.0
 10
13.443311025
 20
13.8768875579
 30
0.0
  0
SPLINE
  5
353
100
AcDbEntity
  8
0
100
AcDbSpline
 62
7
  6
CONTINUOUS
 70
0
 71
3
 72
13
 73
9
 74
0
 42
0.0000001
 43
0.0000001
 44
0.0000000001
 40
0.0
 40
0.0
 40
0.0
 40
0.0
 40
0.1245886647
 40
0.2544958954
 40
0.5188448908
 40
0.7733902191
 40
0.8913920719
 40
1.0
 40
1.0
 40
1.0
 40
1.0
 10
13.4238369025
 20
13.809392659
 30
0.0
 10
13.4235839299
 20
13.8107603498
 30
0.0
 10
13.4231662789
 20
13.8135731028
 30
0.0
 10
13.4226637036
 20
13.819346259
 30
0.0
 10
13.4226635731
 20
13.8266056843
 30
0.0
 10
13.423475404
 20
13.8336896724
 30
0.0
 10
13.4246302711
 20
13.8389394087
 30
0.0
 10
13.425361078
 20
13.8413653011
 30
0.0
 10
13.4257677849
 20
13.8425075375
 30
0.0
  0
SPLINE
  5
354
100
AcDbEntity
  8
0
100
AcDbSpline
 62
7
  6
CONTINUOUS
 70
0
 71
3
 72
9
 73
5
 74
0
 42
0.0000001
 43
0.0000001
 44
0.0000000001
 40
0.0
 40
0.0
 40
0.0
 40
0.0
 40
0.2604026802
 40
1.0
 40
1.0
 40
1.0
 40
1.0
 10
13.4377516462
 20
13.7431104256
 30
0.0
 10
13.4376754749
 20
13.743905282
 30
0.0
 10
13.437331592
 20
13.7469522255
 30
0.0
 10
13.4367825373
 20
13.7499785343
 30
0.0
 10
13.4362311573
 20
13.7521783852
 30
0.0
  0
SPLINE
  5
355
100
AcDbEntity
  8
0
100
AcDbSpline
 62
7
  6
CONTINUOUS
 70
0
 71
3
 72
14
 73
10
 74
0
 42
0.0000001
 43
0.0000001
 44
0.0000000001
 40
0.0
 40
0.0
 40
0.0
 40
0.0
 40
0.3343705476
 40
0.4807461141
 40
0.6113123106
 40
0.7262451295
 40
0.8270433294
 40
0.9166610266
 40
1.0
 40
1.0
 40
1.0
 40
1.0
 10
13.3590497151
 20
13.6266077843
 30
0.0
 10
13.3595436246
 20
13.6284580787
 30
0.0
 10
13.3604125889
 20
13.6310858468
 30
0.0
 10
13.361945987
 20
13.6342386581
 30
0.0
 10
13.3631453434
 20
13.6361425907
 30
0.0
 10
13.3644295322
 20
13.6376644215
 30
0.0
 10
13.3657869018
 20
13.6387868065
 30
0.0
 10
13.3672120212
 20
13.6394823367
 30
0.0
 10
13.3682083958
 20
13.6396411274
 30
0.0
 10
13.3686857133
 20
13.6396411177
 30
0.0
  0
SPLINE
  5
356
100
AcDbEntity
  8
0
100
AcDbSpline
 62
7
  6
CONTINUOUS
 70
0
 71
3
 72
13
 73
9
 74
0
 42
0.0000001
 43
0.0000001
 44
0.0000000001
 40
0.0
 40
0.0
 40
0.0
 40
0.0
 40
0.116071729
 40
0.2396800038
 40
0.4989316839
 40
0.7587388422
 40
0.8830219408
 40
1.0
 40
1.0
 40
1.0
 40
1.0
 10
13.3517355499
 20
13.5647889646
 30
0.0
 10
13.3513986131
 20
13.5660522968
 30
0.0
 10
13.3508107155
 20
13.5686904218
 30
0.0
 10
13.3499574786
 20
13.5742486379
 30
0.0
 10
13.3495271444
 20
13.5814929981
 30
0.0
 10
13.3499111419
 20
13.5887473637
 30
0.0
 10
13.3507271596
 20
13.5943354325
 30
0.0
 10
13.3512971887
 20
13.5969956214
 30
0.0
 10
13.3516253529
 20
13.5982718049
 30
0.0
  0
SPLINE
  5
357
100
AcDbEntity
  8
0
100
AcDbSpline
 62
7
  6
CONTINUOUS
 70
0
 71
3
 72
9
 73
5
 74
0
 42
0.0000001
 43
0.0000001
 44
0.0000000001
 40
0.0
 40
0.0
 40
0.0
 40
0.0
 40
0.2572569191
 40
1.0
 40
1.0
 40
1.0
 40
1.0
 10
13.3517355499
 20
13.5647889646
 30
0.0
 10
13.3529262893
 20
13.5603243306
 30
0.0
 10
13.3577024492
 20
13.5430095526
 30
0.0
 10
13.3630804927
 20
13.5258584818
 30
0.0
 10
13.3674626157
 20
13.5132580285
 30
0.0
  0
SPLINE
  5
358
100
AcDbEntity
  8
0
100
AcDbSpline
 62
7
  6
CONTINUOUS
 70
0
 71
3
 72
9
 73
5
 74
0
 42
0.0000001
 43
0.0000001
 44
0.0000000001
 40
0.0
 40
0.0
 40
0.0
 40
0.0
 40
0.5209037652
 40
1.0
 40
1.0
 40
1.0
 40
1.0
 10
13.369516791
 20
13.5049125109
 30
0.0
 10
13.3692752067
 20
13.50638652
 30
0.0
 10
13.3687112066
 20
13.5092010453
 30
0.0
 10
13.3679138761
 20
13.5119604645
 30
0.0
 10
13.3674626157
 20
13.5132580285
 30
0.0
  0
SPLINE
  5
359
100
AcDbEntity
  8
0
100
AcDbSpline
 62
7
  6
CONTINUOUS
 70
0
 71
3
 72
19
 73
15
 74
0
 42
0.0000001
 43
0.0000001
 44
0.0000000001
 40
0.0
 40
0.0
 40
0.0
 40
0.0
 40
0.0486841812
 40
0.1021167727
 40
0.1598191952
 40
0.2212529595
 40
0.3528917455
 40
0.491752149
 40
0.6317622791
 40
0.7667573895
 40
0.8306178996
 40
0.8911829588
 40
0.9478373168
 40
1.0
 40
1.0
 40
1.0
 40
1.0
 10
13.2590999159
 20
12.5117507432
 30
0.0
 10
13.2603678467
 20
12.5140567267
 30
0.0
 10
13.2627689604
 20
12.5190374262
 30
0.0
 10
13.26587266
 20
12.5271072755
 30
0.0
 10
13.2686049196
 20
12.5360336051
 30
0.0
 10
13.2717669546
 20
12.5492220419
 30
0.0
 10
13.2744954896
 20
12.5669897658
 30
0.0
 10
13.2758308694
 20
12.5891673255
 30
0.0
 10
13.2752170786
 20
12.611557832
 30
0.0
 10
13.2730788478
 20
12.629780726
 30
0.0
 10
13.2703729107
 20
12.6435459785
 30
0.0
 10
13.2679428911
 20
12.6530339869
 30
0.0
 10
13.2651145296
 20
12.6617484359
 30
0.0
 10
13.2628962089
 20
12.6672043184
 30
0.0
 10
13.2617152982
 20
12.6697647148
 30
0.0
  0
SPLINE
  5
35A
100
AcDbEntity
  8
0
100
AcDbSpline
 62
7
  6
CONTINUOUS
 70
0
 71
3
 72
15
 73
11
 74
0
 42
0.0000001
 43
0.0000001
 44
0.0000000001
 40
0.0
 40
0.0
 40
0.0
 40
0.0
 40
0.1460030887
 40
0.2864843746
 40
0.4210833956
 40
0.5495513262
 40
0.6717394671
 40
0.7875502834
 40
0.8969557831
 40
1.0
 40
1.0
 40
1.0
 40
1.0
 10
17.7512832012
 20
11.4354197478
 30
0.0
 10
17.7433463592
 20
11.4097361178
 30
0.0
 10
17.7269400745
 20
11.3595920537
 30
0.0
 10
17.7001891443
 20
11.2868051504
 30
0.0
 10
17.6718413323
 20
11.2181017949
 30
0.0
 10
17.6419955713
 20
11.1537272742
 30
0.0
 10
17.6107537001
 20
11.0938913558
 30
0.0
 10
17.5782082616
 20
11.0387876652
 30
0.0
 10
17.544475731
 20
10.9885951162
 30
0.0
 10
17.5205516245
 20
10.9575998593
 30
0.0
 10
17.5083937599
 20
10.9430348345
 30
0.0
  0
SPLINE
  5
35B
100
AcDbEntity
  8
0
100
AcDbSpline
 62
7
  6
CONTINUOUS
 70
0
 71
3
 72
14
 73
10
 74
0
 42
0.0000001
 43
0.0000001
 44
0.0000000001
 40
0.0
 40
0.0
 40
0.0
 40
0.0
 40
0.2863734522
 40
0.4210155822
 40
0.5495228895
 40
0.67173082
 40
0.78755059
 40
0.8969512368
 40
1.0
 40
1.0
 40
1.0
 40
1.0
 10
17.0618123221
 20
12.8404136786
 30
0.0
 10
17.0665835745
 20
12.855853458
 30
0.0
 10
17.0743326434
 20
12.8783419171
 30
0.0
 10
17.0861608528
 20
12.907014659
 30
0.0
 10
17.0953105775
 20
12.9267503868
 30
0.0
 10
17.1048871715
 20
12.9450928856
 30
0.0
 10
17.1148598196
 20
12.9619844157
 30
0.0
 10
17.1252000449
 20
12.9773674504
 30
0.0
 10
17.1325332897
 20
12.9868664571
 30
0.0
 10
17.1362596743
 20
12.9913306843
 30
0.0
  0
SPLINE
  5
35C
100
AcDbEntity
  8
0
100
AcDbSpline
 62
7
  6
CONTINUOUS
 70
0
 71
3
 72
18
 73
14
 74
0
 42
0.0000001
 43
0.0000001
 44
0.0000000001
 40
0.0
 40
0.0
 40
0.0
 40
0.0
 40
0.0552031988
 40
0.1146408112
 40
0.2435290717
 40
0.381328017
 40
0.5222384964
 40
0.6600425761
 40
0.7887747826
 40
0.8481405531
 40
0.9034276173
 40
0.9541729151
 40
1.0
 40
1.0
 40
1.0
 40
1.0
 10
13.2680770832
 20
12.216946162
 30
0.0
 10
13.2691781133
 20
12.2197059945
 30
0.0
 10
13.2712306398
 20
12.2255321998
 30
0.0
 10
13.2747644139
 20
12.2381622474
 30
0.0
 10
13.2779771982
 20
12.2554579344
 30
0.0
 10
13.2799039763
 20
12.2773403065
 30
0.0
 10
13.279901049
 20
12.29978926
 30
0.0
 10
13.2779608019
 20
12.3216625692
 30
0.0
 10
13.2747430406
 20
12.3389444494
 30
0.0
 10
13.2712078967
 20
12.3515668382
 30
0.0
 10
13.2682342824
 20
12.3599668545
 30
0.0
 10
13.2649138782
 20
12.3674452771
 30
0.0
 10
13.2623693211
 20
12.3719911748
 30
0.0
 10
13.2610342996
 20
12.3740653529
 30
0.0
  0
SPLINE
  5
35D
100
AcDbEntity
  8
0
100
AcDbSpline
 62
7
  6
CONTINUOUS
 70
0
 71
3
 72
21
 73
17
 74
0
 42
0.0000001
 43
0.0000001
 44
0.0000000001
 40
0.0
 40
0.0
 40
0.0
 40
0.0
 40
0.0620714855
 40
0.1277100278
 40
0.2664641379
 40
0.410186035
 40
0.4820249754
 40
0.5527766523
 40
0.6216610049
 40
0.6879573079
 40
0.7509752311
 40
0.8101132306
 40
0.8649003021
 40
0.9149464015
 40
0.9600047626
 40
1.0
 40
1.0
 40
1.0
 40
1.0
 10
13.2949027649
 20
11.9293773604
 30
0.0
 10
13.2958134742
 20
11.9325157371
 30
0.0
 10
13.2974745784
 20
11.939035825
 30
0.0
 10
13.3001783695
 20
11.9528067698
 30
0.0
 10
13.3023106563
 20
11.971040248
 30
0.0
 10
13.3028123847
 20
11.9897120253
 30
0.0
 10
13.3022227293
 20
12.0047780156
 30
0.0
 10
13.3012878679
 20
12.0158762108
 30
0.0
 10
13.2998662741
 20
12.0266284747
 30
0.0
 10
13.2979832698
 20
12.0368963801
 30
0.0
 10
13.2956624299
 20
12.0465481386
 30
0.0
 10
13.2929299422
 20
12.0554607182
 30
0.0
 10
13.2898258067
 20
12.0635245375
 30
0.0
 10
13.2863801894
 20
12.0706366487
 30
0.0
 10
13.2826448596
 20
12.0767042733
 30
0.0
 10
13.2798298074
 20
12.080210545
 30
0.0
 10
13.2783752321
 20
12.0817329747
 30
0.0
  0
SPLINE
  5
35E
100
AcDbEntity
  8
0
100
AcDbSpline
 62
7
  6
CONTINUOUS
 70
0
 71
3
 72
21
 73
17
 74
0
 42
0.0000001
 43
0.0000001
 44
0.0000000001
 40
0.0
 40
0.0
 40
0.0
 40
0.0
 40
0.0683321696
 40
0.1393368974
 40
0.2859189469
 40
0.4334870896
 40
0.5058106063
 40
0.5761576651
 40
0.6438058244
 40
0.7081187225
 40
0.768518301
 40
0.8245019328
 40
0.8757422089
 40
0.9220358869
 40
0.9633693206
 40
1.0
 40
1.0
 40
1.0
 40
1.0
 10
13.3389164236
 20
11.6561252369
 30
0.0
 10
13.3395980699
 20
11.6594603511
 30
0.0
 10
13.3408034592
 20
11.6662998127
 30
0.0
 10
13.3426016499
 20
11.6804335125
 30
0.0
 10
13.3436574019
 20
11.6986187113
 30
0.0
 10
13.3431662393
 20
11.7168924296
 30
0.0
 10
13.3418203975
 20
11.7312925163
 30
0.0
 10
13.3403674448
 20
11.7416727134
 30
0.0
 10
13.3384762543
 20
11.7515764719
 30
0.0
 10
13.3361737042
 20
11.7608836689
 30
0.0
 10
13.3334912271
 20
11.7694827785
 30
0.0
 10
13.3304549231
 20
11.7772699587
 30
0.0
 10
13.3271054321
 20
11.7841559433
 30
0.0
 10
13.3234758523
 20
11.7900621384
 30
0.0
 10
13.3196044662
 20
11.7949137054
 30
0.0
 10
13.316729552
 20
11.7975607231
 30
0.0
 10
13.3152660922
 20
11.7986507725
 30
0.0
  0
SPLINE
  5
35F
100
AcDbEntity
  8
0
100
AcDbSpline
 62
7
  6
CONTINUOUS
 70
0
 71
3
 72
17
 73
13
 74
0
 42
0.0000001
 43
0.0000001
 44
0.0000000001
 40
0.0
 40
0.0
 40
0.0
 40
0.0
 40
0.1372922629
 40
0.2780046423
 40
0.4181762697
 40
0.5543984451
 40
0.6834146762
 40
0.8021636847
 40
0.8569214708
 40
0.908255602
 40
0.9559733469
 40
1.0
 40
1.0
 40
1.0
 40
1.0
 10
13.399034297
 20
11.4039181654
 30
0.0
 10
13.3997661727
 20
11.4094730104
 30
0.0
 10
13.4008258214
 20
11.420779847
 30
0.0
 10
13.4012736903
 20
11.4378514834
 30
0.0
 10
13.4005801456
 20
11.454872407
 30
0.0
 10
13.3987740539
 20
11.47133234
 30
0.0
 10
13.3959125821
 20
11.4867546014
 30
0.0
 10
13.3926329741
 20
11.498678456
 30
0.0
 10
13.3895020614
 20
11.5073079469
 30
0.0
 10
13.3870172603
 20
11.5130768183
 30
0.0
 10
13.3843473412
 20
11.518274893
 30
0.0
 10
13.382377561
 20
11.5214654247
 30
0.0
 10
13.3813608012
 20
11.5229467678
 30
0.0
  0
SPLINE
  5
360
100
AcDbEntity
  8
0
100
AcDbSpline
 62
7
  6
CONTINUOUS
 70
0
 71
3
 72
14
 73
10
 74
0
 42
0.0000001
 43
0.0000001
 44
0.0000000001
 40
0.0
 40
0.0
 40
0.0
 40
0.0
 40
0.1347535262
 40
0.2704832334
 40
0.5363328692
 40
0.6630331787
 40
0.7834653983
 40
0.8962126381
 40
1.0
 40
1.0
 40
1.0
 40
1.0
 10
13.4737760834
 20
11.1789663212
 30
0.0
 10
13.4740522364
 20
11.1831182195
 30
0.0
 10
13.4743945386
 20
11.1914678872
 30
0.0
 10
13.4742726783
 20
11.2080327609
 30
0.0
 10
13.472970611
 20
11.2243278951
 30
0.0
 10
13.4704412298
 20
11.239971806
 30
0.0
 10
13.4680260711
 20
11.2508266088
 30
0.0
 10
13.46511051
 20
11.2608229161
 30
0.0
 10
13.4627527342
 20
11.2670899268
 30
0.0
 10
13.4614826756
 20
11.2700323922
 30
0.0
  0
SPLINE
  5
361
100
AcDbEntity
  8
0
100
AcDbSpline
 62
7
  6
CONTINUOUS
 70
0
 71
3
 72
11
 73
7
 74
0
 42
0.0000001
 43
0.0000001
 44
0.0000000001
 40
0.0
 40
0.0
 40
0.0
 40
0.0
 40
0.2629711728
 40
0.5213011877
 40
0.7686076843
 40
1.0
 40
1.0
 40
1.0
 40
1.0
 10
13.5613013922
 20
10.9868087652
 30
0.0
 10
13.5613263832
 20
10.9921177494
 30
0.0
 10
13.5610472466
 20
11.0026463134
 30
0.0
 10
13.5596721383
 20
11.0181130364
 30
0.0
 10
13.5573587811
 20
11.0328231724
 30
0.0
 10
13.5551530861
 20
11.0422453433
 30
0.0
 10
13.5538823233
 20
11.0467406901
 30
0.0
  0
SPLINE
  5
362
100
AcDbEntity
  8
0
100
AcDbSpline
 62
7
  6
CONTINUOUS
 70
0
 71
3
 72
9
 73
5
 74
0
 42
0.0000001
 43
0.0000001
 44
0.0000000001
 40
0.0
 40
0.0
 40
0.0
 40
0.0
 40
0.5080087727
 40
1.0
 40
1.0
 40
1.0
 40
1.0
 10
13.6594550596
 20
10.8321770542
 30
0.0
 10
13.6591942637
 20
10.8367635547
 30
0.0
 10
13.6584297155
 20
10.8457794725
 30
0.0
 10
13.6571459155
 20
10.8547372938
 30
0.0
 10
13.6563711342
 20
10.8591183752
 30
0.0
  0
SPLINE
  5
363
100
AcDbEntity
  8
AXIS
100
AcDbSpline
 62
7
  6
CONTINUOUS
 70
0
 71
3
 72
23
 73
19
 74
0
 42
0.0000001
 43
0.0000001
 44
0.0000000001
 40
0.0
 40
0.0
 40
0.0
 40
0.0
 40
0.0866544458
 40
0.1702948842
 40
0.2507336336
 40
0.327832856
 40
0.401511495
 40
0.4717105695
 40
0.5384005259
 40
0.6015820601
 40
0.6613026137
 40
0.7176682836
 40
0.7708404435
 40
0.8210569795
 40
0.8686333122
 40
0.9139723553
 40
0.9575698426
 40
1.0
 40
1.0
 40
1.0
 40
1.0
 10
16.0235231709
 20
13.6048385371
 30
0.0
 10
16.0310033399
 20
13.6290443728
 30
0.0
 10
16.0464314127
 20
13.6763935613
 30
0.0
 10
16.071442913
 20
13.7453167815
 30
0.0
 10
16.0978565815
 20
13.810714073
 30
0.0
 10
16.1255950859
 20
13.8723822627
 30
0.0
 10
16.1545740978
 20
13.9301494395
 30
0.0
 10
16.1847197303
 20
13.9838556734
 30
0.0
 10
16.2159430222
 20
14.0333538811
 30
0.0
 10
16.2481598555
 20
14.0785026873
 30
0.0
 10
16.2812857365
 20
14.1191710511
 30
0.0
 10
16.315226038
 20
14.1552489499
 30
0.0
 10
16.3499000183
 20
14.186626876
 30
0.0
 10
16.3852148999
 20
14.213214835
 30
0.0
 10
16.4210813706
 20
14.2349271709
 30
0.0
 10
16.4574114924
 20
14.2516778009
 30
0.0
 10
16.4940885731
 20
14.2634042563
 30
0.0
 10
16.518933064
 20
14.2678667305
 30
0.0
 10
16.5312651096
 20
14.269213378
 30
0.0
  0
SPLINE
  5
364
100
AcDbEntity
  8
AXIS
100
AcDbSpline
 62
7
  6
CONTINUOUS
 70
0
 71
3
 72
45
 73
41
 74
0
 42
0.0000001
 43
0.0000001
 44
0.0000000001
 40
0.0
 40
0.0
 40
0.0
 40
0.0
 40
0.0330436115
 40
0.0673831631
 40
0.1028740391
 40
0.1393843802
 40
0.1767785458
 40
0.2149062224
 40
0.2536121553
 40
0.2927375707
 40
0.3321214131
 40
0.3715998144
 40
0.4110085798
 40
0.4501839248
 40
0.488963813
 40
0.5271890705
 40
0.5647045389
 40
0.601360537
 40
0.6370139672
 40
0.6715299124
 40
0.7047831295
 40
0.7366596928
 40
0.7670593385
 40
0.7958972532
 40
0.8231079182
 40
0.848647516
 40
0.860786409
 40
0.8725043768
 40
0.8946864047
 40
0.9051702869
 40
0.9152624267
 40
0.9343264571
 40
0.9433488373
 40
0.9520639453
 40
0.9605034759
 40
0.9687041442
 40
0.9767073281
 40
0.9845582078
 40
0.9923053414
 40
1.0
 40
1.0
 40
1.0
 40
1.0
 10
16.0235231709
 20
13.6048385371
 30
0.0
 10
16.01336962
 20
13.5719816343
 30
0.0
 10
15.9940493909
 20
13.5045448281
 30
0.0
 10
15.968407151
 20
13.4005729822
 30
0.0
 10
15.945657159
 20
13.2922409916
 30
0.0
 10
15.9259067926
 20
13.1800950729
 30
0.0
 10
15.9092560863
 20
13.0646750579
 30
0.0
 10
15.8957800107
 20
12.9465423468
 30
0.0
 10
15.88555327
 20
12.826276428
 30
0.0
 10
15.8786194312
 20
12.7044668491
 30
0.0
 10
15.8750183863
 20
12.5817092381
 30
0.0
 10
15.8747623452
 20
12.4586043062
 30
0.0
 10
15.8778579196
 20
12.3357550097
 30
0.0
 10
15.8842849936
 20
12.2137626107
 30
0.0
 10
15.8940162196
 20
12.0932244446
 30
0.0
 10
15.9069997716
 20
11.9747301077
 30
0.0
 10
15.9231750896
 20
11.858859621
 30
0.0
 10
15.942459601
 20
11.7461792163
 30
0.0
 10
15.9647607303
 20
11.6372398373
 30
0.0
 10
15.9899669938
 20
11.532572941
 30
0.0
 10
16.0179557594
 20
11.4326891078
 30
0.0
 10
16.0485893219
 20
11.3380740914
 30
0.0
 10
16.0817178232
 20
11.2491874765
 30
0.0
 10
16.1171814556
 20
11.1664583563
 30
0.0
 10
16.1548069624
 20
11.0902879446
 30
0.0
 10
16.1883631343
 20
11.031620815
 30
0.0
 10
16.2162200377
 20
10.9883997987
 30
0.0
 10
16.2436659882
 20
10.9491158859
 30
0.0
 10
16.2723456948
 20
10.9128182694
 30
0.0
 10
16.3023482237
 20
10.8799298931
 30
0.0
 10
16.331653009
 20
10.8508760322
 30
0.0
 10
16.3620890539
 20
10.8251635641
 30
0.0
 10
16.393600078
 20
10.8033501602
 30
0.0
 10
16.4170159297
 20
10.7893801873
 30
0.0
 10
16.4406182653
 20
10.777524137
 30
0.0
 10
16.4643794183
 20
10.7677990097
 30
0.0
 10
16.4882684906
 20
10.7602167679
 30
0.0
 10
16.512256063
 20
10.754789617
 30
0.0
 10
16.5363084003
 20
10.751530751
 30
0.0
 10
16.5523886771
 20
10.7508063127
 30
0.0
 10
16.5603968558
 20
10.7508065031
 30
0.0
  0
SPLINE
  5
365
100
AcDbEntity
  8
AXIS
100
AcDbSpline
 62
7
  6
CONTINUOUS
 70
0
 71
3
 72
23
 73
19
 74
0
 42
0.0000001
 43
0.0000001
 44
0.0000000001
 40
0.0
 40
0.0
 40
0.0
 40
0.0
 40
0.0866242229
 40
0.1702391475
 40
0.2506575384
 40
0.3277417027
 40
0.4014106954
 40
0.4716055599
 40
0.5382966328
 40
0.6014843615
 40
0.6612155532
 40
0.7175955333
 40
0.7707845543
 40
0.8210189334
 40
0.8686122595
 40
0.9139650436
 40
0.9575704489
 40
1.0
 40
1.0
 40
1.0
 40
1.0
 10
16.0212353569
 20
13.6095006118
 30
0.0
 10
16.0287391109
 20
13.6337827687
 30
0.0
 10
16.0442153562
 20
13.6812825082
 30
0.0
 10
16.0693029476
 20
13.7504275565
 30
0.0
 10
16.0957956792
 20
13.8160400407
 30
0.0
 10
16.1236161961
 20
13.8779165107
 30
0.0
 10
16.1526800563
 20
13.9358848348
 30
0.0
 10
16.1829133252
 20
13.9897848981
 30
0.0
 10
16.2142270349
 20
14.0394694002
 30
0.0
 10
16.2465368723
 20
14.0847968239
 30
0.0
 10
16.2797584104
 20
14.1256358091
 30
0.0
 10
16.3137968393
 20
14.1618761495
 30
0.0
 10
16.3485712867
 20
14.1934082025
 30
0.0
 10
16.3839890287
 20
14.220141613
 30
0.0
 10
16.4199604602
 20
14.2419908513
 30
0.0
 10
16.4563978369
 20
14.2588694615
 30
0.0
 10
16.4931844265
 20
14.2707148704
 30
0.0
 10
16.5181071551
 20
14.2752518605
 30
0.0
 10
16.5304788801
 20
14.2766334764
 30
0.0
  0
SPLINE
  5
366
100
AcDbEntity
  8
0
100
AcDbSpline
 62
7
  6
CONTINUOUS
 70
0
 71
3
 72
40
 73
36
 74
0
 42
0.0000001
 43
0.0000001
 44
0.0000000001
 40
0.0
 40
0.0
 40
0.0
 40
0.0
 40
0.0223641945
 40
0.0427865025
 40
0.0615345406
 40
0.0704074454
 40
0.0790205299
 40
0.0874437921
 40
0.0957527162
 40
0.1040266257
 40
0.1123465021
 40
0.1207915278
 40
0.1294362596
 40
0.1475734916
 40
0.1672333238
 40
0.1887324995
 40
0.2122736775
 40
0.2379553778
 40
0.2658068164
 40
0.2957911317
 40
0.3278295667
 40
0.3618024288
 40
0.3975602768
 40
0.4349295732
 40
0.4737135715
 40
0.5137021692
 40
0.5963645122
 40
0.681013322
 40
0.7656498034
 40
0.8073409803
 40
0.8482781923
 40
0.8882276407
 40
0.9269771279
 40
0.9643119804
 40
1.0
 40
1.0
 40
1.0
 40
1.0
 10
17.1362596743
 20
12.9913306843
 30
0.0
 10
17.1412482332
 20
12.9973070027
 30
0.0
 10
17.1513870967
 20
13.0082713664
 30
0.0
 10
17.1678701299
 20
13.0220502781
 30
0.0
 10
17.1822654481
 20
13.0307337091
 30
0.0
 10
17.1938755685
 20
13.0357047446
 30
0.0
 10
17.2024849815
 20
13.0384413641
 30
0.0
 10
17.2111363773
 20
13.0402488731
 30
0.0
 10
17.21981339
 20
13.0411229273
 30
0.0
 10
17.2284984162
 20
13.0410596503
 30
0.0
 10
17.2371728769
 20
13.0400567248
 30
0.0
 10
17.2458194181
 20
13.0381196188
 30
0.0
 10
17.257470894
 20
13.0342408056
 30
0.0
 10
17.2719879659
 20
13.0269103149
 30
0.0
 10
17.2886823081
 20
13.0146452345
 30
0.0
 10
17.3048649796
 20
12.9988952243
 30
0.0
 10
17.320436961
 20
12.9797705467
 30
0.0
 10
17.3353219101
 20
12.9574080047
 30
0.0
 10
17.3494169753
 20
12.9319507284
 30
0.0
 10
17.3626392415
 20
12.9035739477
 30
0.0
 10
17.3748924979
 20
12.872467204
 30
0.0
 10
17.3860968776
 20
12.8388451434
 30
0.0
 10
17.3961730039
 20
12.8029387367
 30
0.0
 10
17.4050493435
 20
12.7649968278
 30
0.0
 10
17.412667234
 20
12.7252825483
 30
0.0
 10
17.4211605566
 20
12.6697233463
 30
0.0
 10
17.4282125025
 20
12.5978466579
 30
0.0
 10
17.4310002419
 20
12.5101331441
 30
0.0
 10
17.4285932826
 20
12.4366759843
 30
0.0
 10
17.4237808967
 20
12.3786429012
 30
0.0
 10
17.4187964442
 20
12.3362578251
 30
0.0
 10
17.4124506482
 20
12.2950907906
 30
0.0
 10
17.4047933742
 20
12.2554224762
 30
0.0
 10
17.3958779736
 20
12.2175400813
 30
0.0
 10
17.3889769663
 20
12.1930651325
 30
0.0
 10
17.3853092217
 20
12.1811963072
 30
0.0
  0
SPLINE
  5
367
100
AcDbEntity
  8
0
100
AcDbSpline
 62
7
  6
CONTINUOUS
 70
0
 71
3
 72
53
 73
49
 74
0
 42
0.0000001
 43
0.0000001
 44
0.0000000001
 40
0.0
 40
0.0
 40
0.0
 40
0.0
 40
0.0109218531
 40
0.0213646381
 40
0.0313560306
 40
0.0409314155
 40
0.0501332104
 40
0.0590117292
 40
0.0676260359
 40
0.07604226
 40
0.0843324191
 40
0.0925730156
 40
0.1008421528
 40
0.1092168832
 40
0.1177709997
 40
0.1265722291
 40
0.1356811529
 40
0.145151014
 40
0.1550266481
 40
0.1653444777
 40
0.1761342274
 40
0.1874193058
 40
0.199215988
 40
0.2115355337
 40
0.224385303
 40
0.2377678005
 40
0.2516812908
 40
0.2661215976
 40
0.2810819045
 40
0.2965516292
 40
0.328965002
 40
0.3632433453
 40
0.3992356119
 40
0.4367682077
 40
0.47564911
 40
0.5156697683
 40
0.5566104093
 40
0.5982404182
 40
0.6403230879
 40
0.682616643
 40
0.7248774791
 40
0.766861891
 40
0.8083300323
 40
0.8490459117
 40
0.8887793201
 40
0.9273161262
 40
0.9644598963
 40
1.0
 40
1.0
 40
1.0
 40
1.0
 10
17.4842187556
 20
10.9155426366
 30
0.0
 10
17.4758704633
 20
10.9065473825
 30
0.0
 10
17.4590406751
 20
10.8894047318
 30
0.0
 10
17.4328061107
 20
10.8658496907
 30
0.0
 10
17.4062008984
 20
10.8450848157
 30
0.0
 10
17.3792708747
 20
10.8271447203
 30
0.0
 10
17.3520578932
 20
10.8120634862
 30
0.0
 10
17.3246039103
 20
10.7998775054
 30
0.0
 10
17.296957871
 20
10.7906096175
 30
0.0
 10
17.269169093
 20
10.7842799927
 30
0.0
 10
17.2412888083
 20
10.7809106486
 30
0.0
 10
17.2133729643
 20
10.7805118076
 30
0.0
 10
17.1854777945
 20
10.7830788474
 30
0.0
 10
17.157658069
 20
10.7886063474
 30
0.0
 10
17.1299688515
 20
10.7970849591
 30
0.0
 10
17.1024592365
 20
10.8084873391
 30
0.0
 10
17.0751753209
 20
10.8227865083
 30
0.0
 10
17.0481640855
 20
10.8399572528
 30
0.0
 10
17.0214688183
 20
10.8599653343
 30
0.0
 10
16.9951291925
 20
10.8827704877
 30
0.0
 10
16.9691877323
 20
10.9083345141
 30
0.0
 10
16.9436886574
 20
10.9366162324
 30
0.0
 10
16.9186696581
 20
10.9675640915
 30
0.0
 10
16.8941709102
 20
11.0011257333
 30
0.0
 10
16.8702355261
 20
11.0372473522
 30
0.0
 10
16.8469023586
 20
11.0758675226
 30
0.0
 10
16.8242078499
 20
11.1169195144
 30
0.0
 10
16.8021913443
 20
11.1603353514
 30
0.0
 10
16.780891961
 20
11.2060434569
 30
0.0
 10
16.7530597093
 20
11.2709508729
 30
0.0
 10
16.7204357598
 20
11.3573695146
 30
0.0
 10
16.6852664383
 20
11.4673045815
 30
0.0
 10
16.6537256793
 20
11.5842998905
 30
0.0
 10
16.6260261885
 20
11.7075645596
 30
0.0
 10
16.6023619387
 20
11.8362689465
 30
0.0
 10
16.5828872429
 20
11.9695421961
 30
0.0
 10
16.5677429369
 20
12.1064831405
 30
0.0
 10
16.5570261337
 20
12.2461640506
 30
0.0
 10
16.5508138343
 20
12.3876385846
 30
0.0
 10
16.5491481708
 20
12.5299481086
 30
0.0
 10
16.5520374638
 20
12.6721277164
 30
0.0
 10
16.5594679828
 20
12.8132141376
 30
0.0
 10
16.5713817973
 20
12.9522515256
 30
0.0
 10
16.5877038485
 20
13.0882949774
 30
0.0
 10
16.6083161376
 20
13.2204239312
 30
0.0
 10
16.6330842233
 20
13.3477544424
 30
0.0
 10
16.6618379155
 20
13.4694083023
 30
0.0
 10
16.6840478144
 20
13.5480360749
 30
0.0
 10
16.6958383426
 20
13.586190238
 30
0.0
  0
SPLINE
  5
368
100
AcDbEntity
  8
0
100
AcDbSpline
 62
7
  6
CONTINUOUS
 70
0
 71
3
 72
44
 73
40
 74
0
 42
0.0000001
 43
0.0000001
 44
0.0000000001
 40
0.0
 40
0.0
 40
0.0
 40
0.0
 40
0.0076947634
 40
0.015441964
 40
0.0232928152
 40
0.0312961772
 40
0.039497128
 40
0.0479366629
 40
0.0656641122
 40
0.0750215932
 40
0.0847366989
 40
0.1053063183
 40
0.1161942006
 40
0.1274940039
 40
0.1513468131
 40
0.1768869751
 40
0.2040977945
 40
0.2329363245
 40
0.2633361653
 40
0.2952133599
 40
0.3284668158
 40
0.3629834065
 40
0.3986371466
 40
0.4352938141
 40
0.472809653
 40
0.5110355305
 40
0.5498157551
 40
0.5889915846
 40
0.6284006618
 40
0.667879488
 40
0.7072636503
 40
0.7463895219
 40
0.7850959988
 40
0.8232240066
 40
0.8606179829
 40
0.8971279864
 40
0.9326189458
 40
0.9669580128
 40
1.0
 40
1.0
 40
1.0
 40
1.0
 10
17.1959288756
 20
10.7508064711
 30
0.0
 10
17.1879206483
 20
10.7508068711
 30
0.0
 10
17.1718404111
 20
10.7515327766
 30
0.0
 10
17.1477880716
 20
10.7547904236
 30
0.0
 10
17.1237997306
 20
10.7602149002
 30
0.0
 10
17.0999110784
 20
10.7677990064
 30
0.0
 10
17.0761498978
 20
10.7775267719
 30
0.0
 10
17.044161125
 20
10.7935927793
 30
0.0
 10
17.0130367853
 20
10.8137973711
 30
0.0
 10
16.9829706129
 20
10.8375447165
 30
0.0
 10
16.9521249001
 20
10.8649758891
 30
0.0
 10
16.9225056622
 20
10.8960591605
 30
0.0
 10
16.8940704765
 20
10.9302993378
 30
0.0
 10
16.8650671117
 20
10.9684583809
 30
0.0
 10
16.8299489414
 20
11.0210395108
 30
0.0
 10
16.7903388448
 20
11.0902889417
 30
0.0
 10
16.752711254
 20
11.1664622374
 30
0.0
 10
16.7172490723
 20
11.2491914564
 30
0.0
 10
16.6841192661
 20
11.3380786641
 30
0.0
 10
16.6534869204
 20
11.4326943885
 30
0.0
 10
16.6254970771
 20
11.5325787567
 30
0.0
 10
16.6002919738
 20
11.6372463755
 30
0.0
 10
16.5779899178
 20
11.7461864302
 30
0.0
 10
16.5587064957
 20
11.8588675744
 30
0.0
 10
16.5425303713
 20
11.9747387975
 30
0.0
 10
16.5295478726
 20
12.0932337361
 30
0.0
 10
16.5198159659
 20
12.2137724327
 30
0.0
 10
16.5133898852
 20
12.3357651434
 30
0.0
 10
16.5102939668
 20
12.4586147753
 30
0.0
 10
16.5105513446
 20
12.5817198754
 30
0.0
 10
16.5141520285
 20
12.7044778134
 30
0.0
 10
16.5210863136
 20
12.8262878192
 30
0.0
 10
16.5313127355
 20
12.9465542506
 30
0.0
 10
16.5447905927
 20
13.064686577
 30
0.0
 10
16.5614409789
 20
13.1801055216
 30
0.0
 10
16.5811899985
 20
13.292250325
 30
0.0
 10
16.6039384394
 20
13.4005810254
 30
0.0
 10
16.6295819476
 20
13.5045495801
 30
0.0
 10
16.6489022818
 20
13.5719834975
 30
0.0
 10
16.6590552568
 20
13.6048385371
 30
0.0
  0
SPLINE
  5
369
100
AcDbEntity
  8
0
100
AcDbSpline
 62
7
  6
CONTINUOUS
 70
0
 71
3
 72
35
 73
31
 74
0
 42
0.0000001
 43
0.0000001
 44
0.0000000001
 40
0.0
 40
0.0
 40
0.0
 40
0.0
 40
0.0154281895
 40
0.0312696218
 40
0.0478985919
 40
0.0656280673
 40
0.084693754
 40
0.1052648772
 40
0.1274502058
 40
0.1513044026
 40
0.1768473653
 40
0.2040611323
 40
0.2329014208
 40
0.263305245
 40
0.2951849578
 40
0.3284414144
 40
0.3629614328
 40
0.3986177195
 40
0.4352773687
 40
0.4727964567
 40
0.5498011818
 40
0.5889807905
 40
0.6283938759
 40
0.6678771774
 40
0.7072664003
 40
0.7851011894
 40
0.8606151352
 40
0.9326230826
 40
0.9669664757
 40
1.0
 40
1.0
 40
1.0
 40
1.0
 10
17.1959287767
 20
13.0110546916
 30
0.0
 10
17.2004922128
 20
13.0110552196
 30
0.0
 10
17.2097618003
 20
13.0102089097
 30
0.0
 10
17.2234867848
 20
13.0064408159
 30
0.0
 10
17.2370330206
 20
13.0002155143
 30
0.0
 10
17.2503251559
 20
12.9915820233
 30
0.0
 10
17.2633163347
 20
12.9806074207
 30
0.0
 10
17.2759522891
 20
12.9673474342
 30
0.0
 10
17.2881803368
 20
12.9518680762
 30
0.0
 10
17.299952905
 20
12.9342463349
 30
0.0
 10
17.3112106696
 20
12.9145619192
 30
0.0
 10
17.3219052482
 20
12.8929109738
 30
0.0
 10
17.3319864171
 20
12.8693968807
 30
0.0
 10
17.3414012038
 20
12.844131494
 30
0.0
 10
17.3501093936
 20
12.81723877
 30
0.0
 10
17.3580648749
 20
12.7888482365
 30
0.0
 10
17.3652283817
 20
12.7590981639
 30
0.0
 10
17.3715682887
 20
12.7281342282
 30
0.0
 10
17.3770487569
 20
12.6961064524
 30
0.0
 10
17.383231343
 20
12.6518125721
 30
0.0
 10
17.3875052312
 20
12.6065205489
 30
0.0
 10
17.3899280611
 20
12.5605568756
 30
0.0
 10
17.3908081593
 20
12.5256381193
 30
0.0
 10
17.3907364947
 20
12.4906465473
 30
0.0
 10
17.3893786426
 20
12.444310081
 30
0.0
 10
17.3853627631
 20
12.3874099244
 30
0.0
 10
17.3768941619
 20
12.3212567851
 30
0.0
 10
17.3667820027
 20
12.2683781877
 30
0.0
 10
17.3569025908
 20
12.2283437762
 30
0.0
 10
17.3514109506
 20
12.2091798712
 30
0.0
 10
17.3485261359
 20
12.1998446063
 30
0.0
  0
SPLINE
  5
36A
100
AcDbEntity
  8
0
100
AcDbSpline
 62
7
  6
CONTINUOUS
 70
0
 71
3
 72
36
 73
32
 74
0
 42
0.0000001
 43
0.0000001
 44
0.0000000001
 40
0.0
 40
0.0
 40
0.0
 40
0.0
 40
0.0939237292
 40
0.1827624572
 40
0.2251549281
 40
0.2661544371
 40
0.3057399584
 40
0.3438959363
 40
0.3806150269
 40
0.4158968537
 40
0.4497487377
 40
0.4821909235
 40
0.5132584911
 40
0.5429985244
 40
0.5987293282
 40
0.6249359543
 40
0.6501778059
 40
0.6745952525
 40
0.6983501523
 40
0.7216212948
 40
0.7446017992
 40
0.7674948421
 40
0.7905059242
 40
0.8138367885
 40
0.8376797149
 40
0.862210601
 40
0.8875869787
 40
0.9139475229
 40
0.9414091034
 40
0.9700671555
 40
1.0
 40
1.0
 40
1.0
 40
1.0
 10
16.6958383426
 20
13.586190238
 30
0.0
 10
16.7067548357
 20
13.6215160226
 30
0.0
 10
16.7295562581
 20
13.6897869171
 30
0.0
 10
16.7619222915
 20
13.7723520498
 30
0.0
 10
16.7894363336
 20
13.834328926
 30
0.0
 10
16.8104453557
 20
13.877953463
 30
0.0
 10
16.8321175942
 20
13.9193797873
 30
0.0
 10
16.8544224089
 20
13.958542296
 30
0.0
 10
16.8773220514
 20
13.9953808355
 30
0.0
 10
16.9007791401
 20
14.0298371283
 30
0.0
 10
16.9247590877
 20
14.0618539173
 30
0.0
 10
16.949224251
 20
14.0913779157
 30
0.0
 10
16.974137682
 20
14.1183679902
 30
0.0
 10
17.0071769098
 20
14.1502183501
 30
0.0
 10
17.0416700756
 20
14.1777506134
 30
0.0
 10
17.0774862019
 20
14.2001248064
 30
0.0
 10
17.1040560469
 20
14.2138429975
 30
0.0
 10
17.1308373719
 20
14.2248095307
 30
0.0
 10
17.1577857851
 20
14.2330066762
 30
0.0
 10
17.1848554616
 20
14.2384156392
 30
0.0
 10
17.2119985574
 20
14.2410167576
 30
0.0
 10
17.2391631898
 20
14.2408058569
 30
0.0
 10
17.2662983964
 20
14.2377873401
 30
0.0
 10
17.2933539771
 20
14.2319662481
 30
0.0
 10
17.3202798871
 20
14.2233530231
 30
0.0
 10
17.3470316873
 20
14.2119735826
 30
0.0
 10
17.3735669171
 20
14.197852126
 30
0.0
 10
17.3998420799
 20
14.1810117748
 30
0.0
 10
17.4258177637
 20
14.1614842923
 30
0.0
 10
17.4514560727
 20
14.1393076043
 30
0.0
 10
17.4679297912
 20
14.1231409762
 30
0.0
 10
17.4761037327
 20
14.1146536533
 30
0.0
  0
SPLINE
  5
36B
100
AcDbEntity
  8
0
100
AcDbSpline
 62
7
  6
CONTINUOUS
 70
0
 71
3
 72
27
 73
23
 74
0
 42
0.0000001
 43
0.0000001
 44
0.0000000001
 40
0.0
 40
0.0
 40
0.0
 40
0.0
 40
0.0937849238
 40
0.1823063164
 40
0.2651357926
 40
0.3420507765
 40
0.4129742169
 40
0.4779928046
 40
0.5373866286
 40
0.5917072278
 40
0.6418423115
 40
0.6657442278
 40
0.6890993907
 40
0.7121143655
 40
0.7350068561
 40
0.7579999656
 40
0.7813130754
 40
0.8051534866
 40
0.8297121371
 40
0.8816024731
 40
0.9381212168
 40
1.0
 40
1.0
 40
1.0
 40
1.0
 10
17.3853092217
 20
12.1811963072
 30
0.0
 10
17.3818322239
 20
12.1699447376
 30
0.0
 10
17.3745556849
 20
12.148227706
 30
0.0
 10
17.3622988651
 20
12.1172543232
 30
0.0
 10
17.3490776677
 20
12.0889977261
 30
0.0
 10
17.3349898722
 20
12.0636584391
 30
0.0
 10
17.3201188468
 20
12.041406949
 30
0.0
 10
17.3045602708
 20
12.0223868509
 30
0.0
 10
17.2884002499
 20
12.0067252293
 30
0.0
 10
17.2717266586
 20
11.9945436042
 30
0.0
 10
17.2572360315
 20
11.9872681117
 30
0.0
 10
17.2456052476
 20
11.9834303324
 30
0.0
 10
17.2369739188
 20
11.9815207843
 30
0.0
 10
17.2283155475
 20
11.9805410907
 30
0.0
 10
17.2196470503
 20
11.9804945412
 30
0.0
 10
17.2109868035
 20
11.9813843683
 30
0.0
 10
17.2023527234
 20
11.9832052315
 30
0.0
 10
17.1937609782
 20
11.9859510874
 30
0.0
 10
17.1821735787
 20
11.9909255717
 30
0.0
 10
17.1678079256
 20
11.9996060023
 30
0.0
 10
17.1513595547
 20
12.0133685702
 30
0.0
 10
17.1412382216
 20
12.0243129555
 30
0.0
 10
17.1362595132
 20
12.0302784448
 30
0.0
  0
SPLINE
  5
36C
100
AcDbEntity
  8
AXIS
100
AcDbSpline
 62
7
  6
CONTINUOUS
 70
0
 71
3
 72
44
 73
40
 74
0
 42
0.0000001
 43
0.0000001
 44
0.0000000001
 40
0.0
 40
0.0
 40
0.0
 40
0.0
 40
0.0329765768
 40
0.0672421514
 40
0.1026534209
 40
0.1390797454
 40
0.1763869872
 40
0.2144264318
 40
0.253044395
 40
0.2920836905
 40
0.3313849
 40
0.3707857808
 40
0.4101237048
 40
0.449236441
 40
0.4879633751
 40
0.5261467567
 40
0.5636325988
 40
0.6002724311
 40
0.6359239689
 40
0.6704531941
 40
0.703735184
 40
0.7356564549
 40
0.7661163864
 40
0.795029916
 40
0.8223301944
 40
0.847972048
 40
0.8601658547
 40
0.8719408549
 40
0.8942415475
 40
0.9047855024
 40
0.9149373769
 40
0.9341165322
 40
0.9519453841
 40
0.9604273831
 40
0.9686631549
 40
0.9766927345
 40
0.9845600243
 40
0.9923123668
 40
1.0
 40
1.0
 40
1.0
 40
1.0
 10
16.0212353569
 20
13.6095006118
 30
0.0
 10
16.0110785795
 20
13.5766332679
 30
0.0
 10
15.9917480608
 20
13.5091810656
 30
0.0
 10
15.9660785923
 20
13.4051938485
 30
0.0
 10
15.943290562
 20
13.296857367
 30
0.0
 10
15.9234906655
 20
13.1847138796
 30
0.0
 10
15.9067785711
 20
13.069299031
 30
0.0
 10
15.893228645
 20
12.9511698123
 30
0.0
 10
15.8829157278
 20
12.8309012158
 30
0.0
 10
15.8758831031
 20
12.7090783528
 30
0.0
 10
15.8721712969
 20
12.5862923239
 30
0.0
 10
15.8717923945
 20
12.4631393782
 30
0.0
 10
15.8747542256
 20
12.340218065
 30
0.0
 10
15.8810367197
 20
12.2181254039
 30
0.0
 10
15.8906143242
 20
12.0974546451
 30
0.0
 10
15.9034353612
 20
11.9787914984
 30
0.0
 10
15.9194416661
 20
11.8627124137
 30
0.0
 10
15.9385508533
 20
11.7497802476
 30
0.0
 10
15.9606733383
 20
11.640543086
 30
0.0
 10
15.9856977744
 20
11.5355296385
 30
0.0
 10
16.0135051041
 20
11.4352485524
 30
0.0
 10
16.0439575939
 20
11.3401835445
 30
0.0
 10
16.0769094997
 20
11.2507934181
 30
0.0
 10
16.1122006512
 20
11.1675059844
 30
0.0
 10
16.1496623577
 20
11.0907229985
 30
0.0
 10
16.1830807303
 20
11.0315004162
 30
0.0
 10
16.2108332402
 20
10.987804179
 30
0.0
 10
16.2381915847
 20
10.9480300339
 30
0.0
 10
16.2667837718
 20
10.9112154752
 30
0.0
 10
16.2967015419
 20
10.8777760947
 30
0.0
 10
16.3259384432
 20
10.848167262
 30
0.0
 10
16.3632089008
 20
10.8158895813
 30
0.0
 10
16.4027570231
 20
10.7893831512
 30
0.0
 10
16.4347121266
 20
10.7726563116
 30
0.0
 10
16.4584491685
 20
10.762438251
 30
0.0
 10
16.4823199079
 20
10.7543530561
 30
0.0
 10
16.5062960312
 20
10.7484125437
 30
0.0
 10
16.5303441561
 20
10.7446296888
 30
0.0
 10
16.5464402187
 20
10.7435494728
 30
0.0
 10
16.5544579363
 20
10.7433721207
 30
0.0
  0
SPLINE
  5
36D
100
AcDbEntity
  8
0
100
AcDbSpline
 62
7
  6
CONTINUOUS
 70
0
 71
3
 72
21
 73
17
 74
0
 42
0.0000001
 43
0.0000001
 44
0.0000000001
 40
0.0
 40
0.0
 40
0.0
 40
0.0
 40
0.17260407
 40
0.3316370406
 40
0.4057079366
 40
0.4760514021
 40
0.5426434679
 40
0.6055097991
 40
0.6647313228
 40
0.7204440328
 40
0.7728640223
 40
0.8223073944
 40
0.8691811765
 40
0.9139951594
 40
0.9573690845
 40
1.0
 40
1.0
 40
1.0
 40
1.0
 10
17.3485261359
 20
12.1998446063
 30
0.0
 10
17.3441507525
 20
12.1856858623
 30
0.0
 10
17.3348936706
 20
12.1587330756
 30
0.0
 10
17.3211313441
 20
12.126686396
 30
0.0
 10
17.3092131698
 20
12.1035086393
 30
0.0
 10
17.3001306634
 20
12.0878235465
 30
0.0
 10
17.2907183213
 20
12.0734700889
 30
0.0
 10
17.2810041758
 20
12.0604916359
 30
0.0
 10
17.2710184413
 20
12.0489267414
 30
0.0
 10
17.2607876485
 20
12.0388136351
 30
0.0
 10
17.250338096
 20
12.030188475
 30
0.0
 10
17.2397021041
 20
12.0230771069
 30
0.0
 10
17.2289093656
 20
12.0175061714
 30
0.0
 10
17.2179892412
 20
12.0135063383
 30
0.0
 10
17.2069837672
 20
12.0110957233
 30
0.0
 10
17.1995889668
 20
12.0105557178
 30
0.0
 10
17.1959287766
 20
12.0105552942
 30
0.0
  0
SPLINE
  5
36E
100
AcDbEntity
  8
0
100
AcDbSpline
 62
7
  6
CONTINUOUS
 70
0
 71
3
 72
26
 73
22
 74
0
 42
0.0000001
 43
0.0000001
 44
0.0000000001
 40
0.0
 40
0.0
 40
0.0
 40
0.0
 40
0.0879398645
 40
0.1726588171
 40
0.2539501841
 40
0.3316667961
 40
0.4057218745
 40
0.4760553877
 40
0.5426450921
 40
0.6055067703
 40
0.6647158472
 40
0.7204179454
 40
0.772829373
 40
0.7979035315
 40
0.8222804077
 40
0.8691437765
 40
0.9139514616
 40
0.9357867387
 40
0.9573465976
 40
0.9787201822
 40
1.0
 40
1.0
 40
1.0
 40
1.0
 10
16.6590552568
 20
13.6048385371
 30
0.0
 10
16.6668991837
 20
13.6302214936
 30
0.0
 10
16.6830988211
 20
13.6798158861
 30
0.0
 10
16.7094536443
 20
13.7518846129
 30
0.0
 10
16.7373468825
 20
13.8200494689
 30
0.0
 10
16.7666879283
 20
13.884078761
 30
0.0
 10
16.797378098
 20
13.9437768301
 30
0.0
 10
16.8293302965
 20
13.9989614771
 30
0.0
 10
16.8624407764
 20
14.0494667115
 30
0.0
 10
16.896614762
 20
14.0951321553
 30
0.0
 10
16.9317541814
 20
14.1358134567
 30
0.0
 10
16.9677476313
 20
14.1713867317
 30
0.0
 10
16.9988294312
 20
14.1970454118
 30
0.0
 10
17.0240029875
 20
14.2147685644
 30
0.0
 10
17.0486650101
 20
14.2302316417
 30
0.0
 10
17.0798958014
 20
14.246348993
 30
0.0
 10
17.1121946492
 20
14.2581794823
 30
0.0
 10
17.1380380444
 20
14.2647474848
 30
0.0
 10
17.1573078083
 20
14.2682417188
 30
0.0
 10
17.1766092862
 20
14.2703383041
 30
0.0
 10
17.1895000802
 20
14.2708038358
 30
0.0
 10
17.1959288756
 20
14.2708035147
 30
0.0
  0
ENDSEC
  0
SECTION
  2
OBJECTS
  0
DICTIONARY
  5
C
100
AcDbDictionary
280
0
281
1
  3
ACAD_GROUP
350
D
  3
ACAD_MLINESTYLE
350
17
  3
ACAD_LAYOUT
350
1A
  3
ACAD_PLOTSETTINGS
350
19
  3
ACAD_PLOTSTYLENAME
350
E
  0
DICTIONARY
  5
D
102
{ACAD_REACTORS
330
C
102
}
100
AcDbDictionary
280
0
281
1
  0
ACDBDICTIONARYWDFLT
  5
E
102
{ACAD_REACTORS
330
C
102
}
100
AcDbDictionary
281
1
  3
Normal
350
F
100
AcDbDictionaryWithDefault
340
F
  0
DICTIONARY
  5
17
102
{ACAD_REACTORS
330
C
102
}
100
AcDbDictionary
280
0
281
1
  3
Standard
350
18
  0
DICTIONARY
  5
19
102
{ACAD_REACTORS
330
C
102
}
100
AcDbDictionary
281
1
  0
DICTIONARY
  5
1A
102
{ACAD_REACTORS
330
C
102
}
100
AcDbDictionary
281
1
  3
Model
350
36F
  3
Layout1
350
370
  0
ACDBPLACEHOLDER
  5
F
102
{ACAD_REACTORS
330
E
102
}
  0
MLINESTYLE
  5
18
102
{ACAD_REACTORS
330
17
102
}
100
AcDbMlineStyle
  2
STANDARD
 70
0
  3

 62
256
 51
90.0
 52
90.0
 71
2
 49
0.5
 62
256
  6
BYLAYER
 49
-0.5
 62
256
  6
BYLAYER
  0
LAYOUT
  5
36F
102
{ACAD_REACTORS
330
1A
102
}
100
AcDbPlotSettings
  1

  2
none_device
  4
ANSI_C_(22.00_x_17.00_Inches)
  6

 40
0.0
 41
0.0
 42
0.0
 43
0.0
 44
558.8
 45
431.8
 46
0.0
 47
0.0
 48
0.0
 49
0.0
140
0.0
141
0.0
142
1.0
143
1.0
 70
1024
 72
0
 73
0
 74
0
  7

 75
0
147
1.0
148
0.0
149
0.0
100
AcDbLayout
  1
Model
 70
0
 71
0
 10
0.0
 20
0.0
 11
22.0
 21
17.0
 12
0.0
 22
0.0
 32
0.0
 14
0.0
 24
0.0
 34
0.0
 15
0.0
 25
0.0
 35
0.0
146
0.0
 13
0.0
 23
0.0
 33
0.0
 16
1.0
 26
0.0
 36
0.0
 17
0.0
 27
1.0
 37
0.0
 76
0
330
224
345
0
346
0
  0
LAYOUT
  5
370
102
{ACAD_REACTORS
330
1A
102
}
100
AcDbPlotSettings
  1

  2
none_device
  4
ANSI_C_(22.00_x_17.00_Inches)
  6

 40
0.0
 41
0.0
 42
0.0
 43
0.0
 44
558.8
 45
431.8
 46
0.0
 47
0.0
 48
0.0
 49
0.0
140
0.0
141
0.0
142
1.0
143
1.0
 70
0
 72
0
 73
0
 74
0
  7

 75
0
147
1.0
148
0.0
149
0.0
100
AcDbLayout
  1
Layout1
 70
0
 71
1
 10
0.0
 20
0.0
 11
22.0
 21
17.0
 12
0.0
 22
0.0
 32
0.0
 14
0.0
 24
0.0
 34
0.0
 15
0.0
 25
0.0
 35
0.0
146
0.0
 13
0.0
 23
0.0
 33
0.0
 16
1.0
 26
0.0
 36
0.0
 17
0.0
 27
1.0
 37
0.0
 76
0
330
225
345
0
346
0
  0
ENDSEC
  0
EOF