999
DXF file: _cgs_temp_output.dxf
999
Pro/ENGINEER 2016360 by Parametric Technology Corporation
  0
SECTION
  2
HEADER
  9
$ACADVER
  1
AC1021
  9
$DWGCODEPAGE
  3
ANSI_1252
  9
$EXTMAX
 10
22.0
 20
17.0
 30
0.0
  9
$EXTMIN
 10
0.0
 20
0.0
 30
0.0
  9
$LIMMIN
 10
0.0
 20
0.0
  9
$LIMMAX
 10
22.0
 20
17.0
  9
$VIEWCTR
 10
11.0
 20
8.5
  9
$VIEWSIZE
 40
17.0
  9
$CLAYER
  8
0
  9
$LTSCALE
 40
1.21
  9
$CELTYPE
  6
BYLAYER
  9
$DIMSCALE
 40
1.0
  9
$DIMASZ
 40
0.1875
  9
$DIMEXO
 40
0.0625
  9
$DIMDLI
 40
0.836
  9
$DIMEXE
 40
0.125
  9
$DIMCEN
 40
0.198
  9
$DIMLFAC
 40
1.0
  9
$DIMBLK
  1
_CLOSED
  9
$DIMALT
 70
0
  9
$DIMALTF
 40
25.4
  9
$DIMTXT
 40
0.15625
  9
$DIMTOL
 70
0
  9
$DIMLIM
 70
0
  9
$DIMTFAC
 40
1.0
  9
$DIMGAP
 40
0.09
  9
$DIMDSEP
 70
46
  9
$AUNITS
 70
0
  9
$PDMODE
 70
3
  9
$PDSIZE
 40
0.3125
  9
$HANDSEED
  5
364
  9
$TILEMODE
 70
1
  9
$MEASUREMENT
 70
0
  9
$INSUNITS
 70
1
  0
ENDSEC
  0
SECTION
  2
CLASSES
  0
CLASS
  1
ACDBDICTIONARYWDFLT
  2
AcDbDictionaryWithDefault
  3
AutoCAD 2000
 90
0
 91
1
280
0
281
0
  0
CLASS
  1
ACDBPLACEHOLDER
  2
AcDbPlaceHolder
  3
AutoCAD 2000
 90
0
 91
1
280
0
281
0
  0
CLASS
  1
LAYOUT
  2
AcDbLayout
  3
AutoCAD 2000
 90
0
 91
0
280
0
281
0
  0
ENDSEC
  0
SECTION
  2
TABLES
  0
TABLE
  2
VPORT
  5
8
100
AcDbSymbolTable
 70
2
  0
VPORT
  5
1F4
100
AcDbSymbolTableRecord
100
AcDbViewportTableRecord
  2
*ACTIVE
 70
0
 10
0.0
 20
0.0
 11
1.0
 21
1.0
 12
11.0
 22
8.5
 13
0.0
 23
0.0
 14
1.0
 24
1.0
 15
0.0
 25
0.0
 16
0.0
 26
0.0
 36
1.0
 17
0.0
 27
0.0
 37
0.0
 40
17.0
 41
1.2941176471
 42
50.0
 43
0.0
 44
0.0
 50
0.0
 51
0.0
 71
0
 72
100
 73
1
 74
1
 75
0
 76
0
 77
0
 78
0
  0
ENDTAB
  0
TABLE
  2
LTYPE
  5
5
100
AcDbSymbolTable
 70
6
  0
LTYPE
  5
14
100
AcDbSymbolTableRecord
100
AcDbLinetypeTableRecord
  2
BYBLOCK
 70
0
  3

 72
65
 73
0
 40
0.0
  0
LTYPE
  5
15
100
AcDbSymbolTableRecord
100
AcDbLinetypeTableRecord
  2
BYLAYER
 70
0
  3

 72
65
 73
0
 40
0.0
  0
LTYPE
  5
16
100
AcDbSymbolTableRecord
100
AcDbLinetypeTableRecord
  2
CONTINUOUS
 70
64
  3
Solid line
 72
65
 73
0
 40
0.0
  0
LTYPE
  5
1F5
100
AcDbSymbolTableRecord
100
AcDbLinetypeTableRecord
  2
CENTER
 70
64
  3
____ _ ____ _ ____ _ ____ _ ____ _ ____ _ ____
 72
65
 73
4
 40
0.6
 49
0.375
 74
0
 49
-0.075
 74
0
 49
0.075
 74
0
 49
-0.075
 74
0
  0
LTYPE
  5
1F6
100
AcDbSymbolTableRecord
100
AcDbLinetypeTableRecord
  2
HIDDEN
 70
64
  3
- - - - - - - - - - - - - - - - - - - -
 72
65
 73
2
 40
0.2
 49
0.1
 74
0
 49
-0.1
 74
0
  0
LTYPE
  5
1F7
100
AcDbSymbolTableRecord
100
AcDbLinetypeTableRecord
  2
PHANTOM
 70
64
  3
_____ _ _ _____ _ _ _____ _ _ _____
 72
65
 73
6
 40
0.8
 49
0.45
 74
0
 49
-0.05
 74
0
 49
0.1
 74
0
 49
-0.05
 74
0
 49
0.1
 74
0
 49
-0.05
 74
0
  0
LTYPE
  5
1F8
100
AcDbSymbolTableRecord
100
AcDbLinetypeTableRecord
  2
DOT
 70
64
  3
. . . . . . . . . . . . . . . . . . . .
 72
65
 73
2
 40
0.2
 49
0.1
 74
0
 49
-0.1
 74
0
  0
LTYPE
  5
1F9
100
AcDbSymbolTableRecord
100
AcDbLinetypeTableRecord
  2
DASHED
 70
64
  3
- - - - - - - - - - - - - - - - - - - -
 72
65
 73
2
 40
0.2
 49
0.1
 74
0
 49
-0.1
 74
0
  0
ENDTAB
  0
TABLE
  2
LAYER
  5
2
100
AcDbSymbolTable
 70
36
  0
LAYER
  5
10
100
AcDbSymbolTableRecord
100
AcDbLayerTableRecord
  2
0
 70
0
 62
7
  6
CONTINUOUS
370
-3
390
F
  0
LAYER
  5
1FA
100
AcDbSymbolTableRecord
100
AcDbLayerTableRecord
  2
DEFAULT_1
 70
0
 62
7
  6
CENTER
370
-3
390
F
  0
LAYER
  5
1FB
100
AcDbSymbolTableRecord
100
AcDbLayerTableRecord
  2
DEFAULT_2
 70
0
 62
8
  6
HIDDEN
370
-3
390
F
  0
LAYER
  5
1FC
100
AcDbSymbolTableRecord
100
AcDbLayerTableRecord
  2
DEFAULT_3
 70
0
 62
7
  6
PHANTOM
370
-3
390
F
  0
LAYER
  5
1FD
100
AcDbSymbolTableRecord
100
AcDbLayerTableRecord
  2
01_ALL_DTM_PLN
 70
0
 62
7
  6
CONTINUOUS
370
-3
390
F
  0
LAYER
  5
1FE
100
AcDbSymbolTableRecord
100
AcDbLayerTableRecord
  2
01__ASM_ALL_DTM_PLN
 70
0
 62
7
  6
CONTINUOUS
370
-3
390
F
  0
LAYER
  5
1FF
100
AcDbSymbolTableRecord
100
AcDbLayerTableRecord
  2
01__ASM_DEF_DTM_PLN
 70
0
 62
7
  6
CONTINUOUS
370
-3
390
F
  0
LAYER
  5
200
100
AcDbSymbolTableRecord
100
AcDbLayerTableRecord
  2
01___PRT_ALL_DTM_PLN
 70
0
 62
7
  6
CONTINUOUS
370
-3
390
F
  0
LAYER
  5
201
100
AcDbSymbolTableRecord
100
AcDbLayerTableRecord
  2
01___PRT_DEF_DTM_PLN
 70
0
 62
7
  6
CONTINUOUS
370
-3
390
F
  0
LAYER
  5
202
100
AcDbSymbolTableRecord
100
AcDbLayerTableRecord
  2
02_ALL_AXES
 70
0
 62
7
  6
CONTINUOUS
370
-3
390
F
  0
LAYER
  5
203
100
AcDbSymbolTableRecord
100
AcDbLayerTableRecord
  2
02__ASM_ALL_AXES
 70
0
 62
7
  6
CONTINUOUS
370
-3
390
F
  0
LAYER
  5
204
100
AcDbSymbolTableRecord
100
AcDbLayerTableRecord
  2
02___PRT_ALL_AXES
 70
0
 62
7
  6
CONTINUOUS
370
-3
390
F
  0
LAYER
  5
205
100
AcDbSymbolTableRecord
100
AcDbLayerTableRecord
  2
03_ALL_CURVES
 70
0
 62
7
  6
CONTINUOUS
370
-3
390
F
  0
LAYER
  5
206
100
AcDbSymbolTableRecord
100
AcDbLayerTableRecord
  2
03__ASM_ALL_CURVES
 70
0
 62
7
  6
CONTINUOUS
370
-3
390
F
  0
LAYER
  5
207
100
AcDbSymbolTableRecord
100
AcDbLayerTableRecord
  2
03___PRT_ALL_CURVES
 70
0
 62
7
  6
CONTINUOUS
370
-3
390
F
  0
LAYER
  5
208
100
AcDbSymbolTableRecord
100
AcDbLayerTableRecord
  2
04_ALL_DTM_PNT
 70
0
 62
7
  6
CONTINUOUS
370
-3
390
F
  0
LAYER
  5
209
100
AcDbSymbolTableRecord
100
AcDbLayerTableRecord
  2
04__ASM_ALL_DTM_PNT
 70
0
 62
7
  6
CONTINUOUS
370
-3
390
F
  0
LAYER
  5
20A
100
AcDbSymbolTableRecord
100
AcDbLayerTableRecord
  2
04___PRT_ALL_DTM_PNT
 70
0
 62
7
  6
CONTINUOUS
370
-3
390
F
  0
LAYER
  5
20B
100
AcDbSymbolTableRecord
100
AcDbLayerTableRecord
  2
05_ALL_DTM_CSYS
 70
0
 62
7
  6
CONTINUOUS
370
-3
390
F
  0
LAYER
  5
20C
100
AcDbSymbolTableRecord
100
AcDbLayerTableRecord
  2
05__ASM_ALL_DTM_CSYS
 70
0
 62
7
  6
CONTINUOUS
370
-3
390
F
  0
LAYER
  5
20D
100
AcDbSymbolTableRecord
100
AcDbLayerTableRecord
  2
05__ASM_DEF_DTM_CSYS
 70
0
 62
7
  6
CONTINUOUS
370
-3
390
F
  0
LAYER
  5
20E
100
AcDbSymbolTableRecord
100
AcDbLayerTableRecord
  2
05___PRT_ALL_DTM_CSYS
 70
0
 62
7
  6
CONTINUOUS
370
-3
390
F
  0
LAYER
  5
20F
100
AcDbSymbolTableRecord
100
AcDbLayerTableRecord
  2
05___PRT_DEF_DTM_CSYS
 70
0
 62
7
  6
CONTINUOUS
370
-3
390
F
  0
LAYER
  5
210
100
AcDbSymbolTableRecord
100
AcDbLayerTableRecord
  2
06_ALL_SURFS
 70
0
 62
7
  6
CONTINUOUS
370
-3
390
F
  0
LAYER
  5
211
100
AcDbSymbolTableRecord
100
AcDbLayerTableRecord
  2
06__ASM_ALL_SURFS
 70
0
 62
7
  6
CONTINUOUS
370
-3
390
F
  0
LAYER
  5
212
100
AcDbSymbolTableRecord
100
AcDbLayerTableRecord
  2
06___PRT_ALL_SURFS
 70
0
 62
7
  6
CONTINUOUS
370
-3
390
F
  0
LAYER
  5
213
100
AcDbSymbolTableRecord
100
AcDbLayerTableRecord
  2
07__ASM_ALL_SKELETONS
 70
0
 62
7
  6
CONTINUOUS
370
-3
390
F
  0
LAYER
  5
214
100
AcDbSymbolTableRecord
100
AcDbLayerTableRecord
  2
ANNOTATIONS
 70
0
 62
7
  6
CONTINUOUS
370
-3
390
F
  0
LAYER
  5
215
100
AcDbSymbolTableRecord
100
AcDbLayerTableRecord
  2
ASM_DATUMS
 70
0
 62
7
  6
CONTINUOUS
370
-3
390
F
  0
LAYER
  5
216
100
AcDbSymbolTableRecord
100
AcDbLayerTableRecord
  2
ASM_DEF_DATUMS
 70
0
 62
7
  6
CONTINUOUS
370
-3
390
F
  0
LAYER
  5
217
100
AcDbSymbolTableRecord
100
AcDbLayerTableRecord
  2
AXIS
 70
0
 62
7
  6
CONTINUOUS
370
-3
390
F
  0
LAYER
  5
218
100
AcDbSymbolTableRecord
100
AcDbLayerTableRecord
  2
CSYS
 70
0
 62
7
  6
CONTINUOUS
370
-3
390
F
  0
LAYER
  5
219
100
AcDbSymbolTableRecord
100
AcDbLayerTableRecord
  2
CURVES
 70
0
 62
7
  6
CONTINUOUS
370
-3
390
F
  0
LAYER
  5
21A
100
AcDbSymbolTableRecord
100
AcDbLayerTableRecord
  2
DATUMS
 70
0
 62
7
  6
CONTINUOUS
370
-3
390
F
  0
LAYER
  5
21B
100
AcDbSymbolTableRecord
100
AcDbLayerTableRecord
  2
DEF_CSYS
 70
0
 62
7
  6
CONTINUOUS
370
-3
390
F
  0
LAYER
  5
21C
100
AcDbSymbolTableRecord
100
AcDbLayerTableRecord
  2
DEF_DATUMS
 70
0
 62
7
  6
CONTINUOUS
370
-3
390
F
  0
LAYER
  5
21D
100
AcDbSymbolTableRecord
100
AcDbLayerTableRecord
  2
GTOL
 70
0
 62
7
  6
CONTINUOUS
370
-3
390
F
  0
LAYER
  5
21E
100
AcDbSymbolTableRecord
100
AcDbLayerTableRecord
  2
POINTS
 70
0
 62
7
  6
CONTINUOUS
370
-3
390
F
  0
LAYER
  5
21F
100
AcDbSymbolTableRecord
100
AcDbLayerTableRecord
  2
SKELETONS
 70
0
 62
7
  6
CONTINUOUS
370
-3
390
F
  0
LAYER
  5
220
100
AcDbSymbolTableRecord
100
AcDbLayerTableRecord
  2
SURFACES
 70
0
 62
7
  6
CONTINUOUS
370
-3
390
F
  0
LAYER
  5
221
100
AcDbSymbolTableRecord
100
AcDbLayerTableRecord
  2
XSEC_DATUMS
 70
0
 62
7
  6
CONTINUOUS
370
-3
390
F
  0
ENDTAB
  0
TABLE
  2
STYLE
  5
3
100
AcDbSymbolTable
 70
1
  0
STYLE
  5
11
100
AcDbSymbolTableRecord
100
AcDbTextStyleTableRecord
  2
STANDARD
 70
0
 40
0.0
 41
0.8
 50
0.0
 71
0
 42
0.2
  3
txt
  4

  0
STYLE
  5
222
100
AcDbSymbolTableRecord
100
AcDbTextStyleTableRecord
  2
TEXTSTYLE_1
 70
0
 40
0.0
 41
0.8
 50
0.0
 71
0
 42
0.2
  3
gdt
  4

  0
ENDTAB
  0
TABLE
  2
VIEW
  5
6
100
AcDbSymbolTable
 70
0
  0
ENDTAB
  0
TABLE
  2
UCS
  5
7
100
AcDbSymbolTable
 70
0
  0
ENDTAB
  0
TABLE
  2
APPID
  5
9
100
AcDbSymbolTable
 70
1
  0
APPID
  5
223
100
AcDbSymbolTableRecord
100
AcDbRegAppTableRecord
  2
ACAD
 70
0
  0
ENDTAB
  0
TABLE
  2
BLOCK_RECORD
  5
1
100
AcDbSymbolTable
 70
0
  0
BLOCK_RECORD
  5
224
100
AcDbSymbolTableRecord
100
AcDbBlockTableRecord
  2
*Model_Space
  0
BLOCK_RECORD
  5
225
100
AcDbSymbolTableRecord
100
AcDbBlockTableRecord
  2
*Paper_Space
  0
ENDTAB
  0
TABLE
  2
DIMSTYLE
  5
A
100
AcDbSymbolTable
 70
1
100
AcDbDimStyleTable
 71
0
  0
DIMSTYLE
105
226
100
AcDbSymbolTableRecord
100
AcDbDimStyleTableRecord
  2
STANDARD
 70
0
  3

  4

 40
1.0
 41
0.1875
 42
0.0625
 43
0.38
 44
0.125
 45
0.0
 46
0.0
 47
0.0001
 48
0.0001
140
0.15625
141
0.09
142
0.0
143
25.4
144
1.0
145
0.0
146
1.0
147
0.09
 71
0.0
 72
0.0
 73
1
 74
1
 75
0
 76
0
 77
0
 78
4
 79
1
170
0
171
3
172
0
173
0
174
0
175
0
176
0
177
0
178
0
270
2
179
4
271
4
272
4
273
2
274
2
275
0
280
0
281
0
282
0
283
1
284
4
285
0
286
0
287
3
288
0
340
11
278
46
  0
ENDTAB
  0
ENDSEC
  0
SECTION
  2
BLOCKS
  0
BLOCK
  5
20
100
AcDbEntity
  8
0
100
AcDbBlockBegin
  2
*Model_Space
 70
0
 10
0.0
 20
0.0
 30
0.0
  3
*Model_Space
  1

  0
ENDBLK
  5
21
100
AcDbEntity
  8
0
100
AcDbBlockEnd
  0
BLOCK
  5
1C
100
AcDbEntity
  8
0
100
AcDbBlockBegin
  2
*Paper_Space
 70
0
 10
0.0
 20
0.0
 30
0.0
  3
*Paper_Space
  1

  0
ENDBLK
  5
1D
100
AcDbEntity
  8
0
100
AcDbBlockEnd
  0
ENDSEC
  0
SECTION
  2
ENTITIES
  0
MTEXT
  5
227
100
AcDbEntity
  8
0
100
AcDbMText
 62
7
  6
CONTINUOUS
  7
STANDARD
 71
1
 72
1
 10
15.9560215477
 20
0.9479130325
 30
0.0
 11
1.0
 21
0.0
 31
0.0
 44
0.9
  1
SCALE: 1:1.000
 40
0.3
 41
3.36
  0
LINE
  5
228
100
AcDbEntity
  8
0
100
AcDbLine
 62
7
  6
CONTINUOUS
 10
0.0
 20
0.0
 11
0.0
 21
17.0
  0
LINE
  5
229
100
AcDbEntity
  8
0
100
AcDbLine
 62
7
  6
CONTINUOUS
 10
0.0
 20
0.0
 11
22.0
 21
0.0
  0
LINE
  5
22A
100
AcDbEntity
  8
0
100
AcDbLine
 62
7
  6
CONTINUOUS
 10
0.0
 20
17.0
 11
22.0
 21
17.0
  0
LINE
  5
22B
100
AcDbEntity
  8
0
100
AcDbLine
 62
7
  6
CONTINUOUS
 10
22.0
 20
0.0
 11
22.0
 21
17.0
  0
LINE
  5
22C
100
AcDbEntity
  8
02___PRT_ALL_AXES
100
AcDbLine
 62
7
  6
CONTINUOUS
 10
4.4351832431
 20
7.5981198968
 11
4.349115815
 21
7.5718064433
  0
LINE
  5
22D
100
AcDbEntity
  8
02___PRT_ALL_AXES
100
AcDbLine
 62
7
  6
CONTINUOUS
 10
4.4351832431
 20
3.4421198968
 11
4.349115815
 21
3.4684333502
  0
LINE
  5
22E
100
AcDbEntity
  8
0
100
AcDbLine
 62
7
  6
CONTINUOUS
 10
4.474115815
 20
3.6504462703
 11
7.139115815
 21
3.6504462703
  0
LINE
  5
22F
100
AcDbEntity
  8
0
100
AcDbLine
 62
7
  6
CONTINUOUS
 10
4.474115815
 20
3.6974571529
 11
7.139115815
 21
3.6974571529
  0
LINE
  5
230
100
AcDbEntity
  8
02___PRT_ALL_AXES
100
AcDbLine
 62
7
  6
CONTINUOUS
 10
4.349115815
 20
7.5718064433
 11
4.349115815
 21
3.4684333502
  0
LINE
  5
231
100
AcDbEntity
  8
02___PRT_ALL_AXES
100
AcDbLine
 62
7
  6
CONTINUOUS
 10
4.4351832431
 20
7.5981198968
 11
4.4351832431
 21
3.4421198968
  0
LINE
  5
232
100
AcDbEntity
  8
02___PRT_ALL_AXES
100
AcDbLine
 62
7
  6
CONTINUOUS
 10
4.474115815
 20
7.4707771918
 11
4.474115815
 21
3.5694626017
  0
LINE
  5
233
100
AcDbEntity
  8
0
100
AcDbLine
 62
7
  6
CONTINUOUS
 10
4.474115815
 20
3.7933292634
 11
7.139115815
 21
3.7933292634
  0
LINE
  5
234
100
AcDbEntity
  8
0
100
AcDbLine
 62
7
  6
CONTINUOUS
 10
7.881615815
 20
3.8601198968
 11
7.264115815
 21
3.8601198968
  0
LINE
  5
235
100
AcDbEntity
  8
0
100
AcDbLine
 62
7
  6
CONTINUOUS
 10
4.474115815
 20
3.9354494894
 11
7.139115815
 21
3.9354494894
  0
LINE
  5
236
100
AcDbEntity
  8
0
100
AcDbLine
 62
7
  6
CONTINUOUS
 10
4.474115815
 20
4.1199441694
 11
7.139115815
 21
4.1199441694
  0
LINE
  5
237
100
AcDbEntity
  8
0
100
AcDbLine
 62
7
  6
CONTINUOUS
 10
4.474115815
 20
4.3417846741
 11
7.139115815
 21
4.3417846741
  0
LINE
  5
238
100
AcDbEntity
  8
02___PRT_ALL_AXES
100
AcDbLine
 62
7
  6
CONTINUOUS
 10
4.474115815
 20
3.5694626017
 11
4.4351832431
 21
3.4421198968
  0
LINE
  5
239
100
AcDbEntity
  8
0
100
AcDbLine
 62
7
  6
CONTINUOUS
 10
4.474115815
 20
4.5949244675
 11
7.139115815
 21
4.5949244675
  0
LINE
  5
23A
100
AcDbEntity
  8
02___PRT_ALL_AXES
100
AcDbLine
 62
7
  6
CONTINUOUS
 10
4.474115815
 20
7.4707771918
 11
4.4351832431
 21
7.5981198968
  0
LINE
  5
23B
100
AcDbEntity
  8
0
100
AcDbLine
 62
7
  6
CONTINUOUS
 10
4.474115815
 20
4.8720612681
 11
7.139115815
 21
4.8720612681
  0
LINE
  5
23C
100
AcDbEntity
  8
02___PRT_ALL_AXES
100
AcDbLine
 62
7
  6
CONTINUOUS
 10
7.139115815
 20
7.4707771918
 11
7.178048387
 21
7.5981198968
  0
LINE
  5
23D
100
AcDbEntity
  8
02___PRT_ALL_AXES
100
AcDbLine
 62
7
  6
CONTINUOUS
 10
7.139115815
 20
3.5694626017
 11
7.178048387
 21
3.4421198968
  0
LINE
  5
23E
100
AcDbEntity
  8
0
100
AcDbLine
 62
7
  6
CONTINUOUS
 10
4.474115815
 20
6.1618795149
 11
7.139115815
 21
6.1618795149
  0
LINE
  5
23F
100
AcDbEntity
  8
0
100
AcDbLine
 62
7
  6
CONTINUOUS
 10
7.139115815
 20
6.4393984675
 11
4.474115815
 21
6.4393984675
  0
LINE
  5
240
100
AcDbEntity
  8
02___PRT_ALL_AXES
100
AcDbLine
 62
7
  6
CONTINUOUS
 10
7.139115815
 20
3.5694626017
 11
7.139115815
 21
7.4707771918
  0
LINE
  5
241
100
AcDbEntity
  8
02___PRT_ALL_AXES
100
AcDbLine
 62
7
  6
CONTINUOUS
 10
7.178048387
 20
3.4421198968
 11
7.178048387
 21
7.5981198968
  0
LINE
  5
242
100
AcDbEntity
  8
02___PRT_ALL_AXES
100
AcDbLine
 62
7
  6
CONTINUOUS
 10
7.264115815
 20
3.4684333502
 11
7.264115815
 21
7.5718064433
  0
LINE
  5
243
100
AcDbEntity
  8
0
100
AcDbLine
 62
7
  6
CONTINUOUS
 10
7.139115815
 20
6.6931569502
 11
4.474115815
 21
6.6931569502
  0
LINE
  5
244
100
AcDbEntity
  8
0
100
AcDbLine
 62
7
  6
CONTINUOUS
 10
7.139115815
 20
6.9157605522
 11
4.474115815
 21
6.9157605522
  0
LINE
  5
245
100
AcDbEntity
  8
0
100
AcDbLine
 62
7
  6
CONTINUOUS
 10
7.139115815
 20
7.1011419385
 11
4.474115815
 21
7.1011419385
  0
LINE
  5
246
100
AcDbEntity
  8
0
100
AcDbLine
 62
7
  6
CONTINUOUS
 10
7.881615815
 20
7.1801198968
 11
7.264115815
 21
7.1801198968
  0
LINE
  5
247
100
AcDbEntity
  8
0
100
AcDbLine
 62
7
  6
CONTINUOUS
 10
7.881615815
 20
3.8601198968
 11
7.881615815
 21
7.1801198968
  0
LINE
  5
248
100
AcDbEntity
  8
0
100
AcDbLine
 62
7
  6
CONTINUOUS
 10
7.911615815
 20
3.8901198968
 11
7.911615815
 21
7.1501198968
  0
LINE
  5
249
100
AcDbEntity
  8
0
100
AcDbLine
 62
7
  6
CONTINUOUS
 10
7.139115815
 20
7.2442483115
 11
4.474115815
 21
7.2442483115
  0
LINE
  5
24A
100
AcDbEntity
  8
0
100
AcDbLine
 62
7
  6
CONTINUOUS
 10
7.139115815
 20
7.3411791311
 11
4.474115815
 21
7.3411791311
  0
LINE
  5
24B
100
AcDbEntity
  8
0
100
AcDbLine
 62
7
  6
CONTINUOUS
 10
7.139115815
 20
7.3896292372
 11
4.474115815
 21
7.3896292372
  0
LINE
  5
24C
100
AcDbEntity
  8
02___PRT_ALL_AXES
100
AcDbLine
 62
7
  6
CONTINUOUS
 10
7.178048387
 20
3.4421198968
 11
7.264115815
 21
3.4684333502
  0
LINE
  5
24D
100
AcDbEntity
  8
02___PRT_ALL_AXES
100
AcDbLine
 62
7
  6
CONTINUOUS
 10
7.178048387
 20
7.5981198968
 11
7.264115815
 21
7.5718064433
  0
LINE
  5
24E
100
AcDbEntity
  8
0
100
AcDbLine
 62
7
  6
CONTINUOUS
 10
7.8816159317
 20
3.8601197801
 11
7.9116159296
 21
3.8901197822
  0
LINE
  5
24F
100
AcDbEntity
  8
0
100
AcDbLine
 62
7
  6
CONTINUOUS
 10
7.8816159317
 20
7.1801200134
 11
7.9116159296
 21
7.1501200113
  0
LINE
  5
250
100
AcDbEntity
  8
02___PRT_ALL_AXES
100
AcDbLine
 62
7
  6
CONTINUOUS
 10
4.2896206227
 20
14.6517343279
 11
4.3756880508
 21
14.6780477814
  0
LINE
  5
251
100
AcDbEntity
  8
02___PRT_ALL_AXES
100
AcDbLine
 62
7
  6
CONTINUOUS
 10
4.2896206227
 20
10.5483612348
 11
4.3756880508
 21
10.5220477814
  0
LINE
  5
252
100
AcDbEntity
  8
0
100
AcDbLine
 62
7
  6
CONTINUOUS
 10
7.0796206227
 20
10.7255967734
 11
4.4146206227
 21
10.7255967734
  0
LINE
  5
253
100
AcDbEntity
  8
0
100
AcDbLine
 62
7
  6
CONTINUOUS
 10
4.4146206227
 20
10.7474864511
 11
7.0796206227
 21
10.7474864511
  0
LINE
  5
254
100
AcDbEntity
  8
02___PRT_ALL_AXES
100
AcDbLine
 62
7
  6
CONTINUOUS
 10
4.2896206227
 20
10.5483612348
 11
4.2896206227
 21
14.6517343279
  0
LINE
  5
255
100
AcDbEntity
  8
02___PRT_ALL_AXES
100
AcDbLine
 62
7
  6
CONTINUOUS
 10
4.3756880508
 20
10.5220477814
 11
4.3756880508
 21
14.6780477814
  0
LINE
  5
256
100
AcDbEntity
  8
02___PRT_ALL_AXES
100
AcDbLine
 62
7
  6
CONTINUOUS
 10
4.4146206227
 20
10.6493904863
 11
4.4146206227
 21
14.5507050764
  0
LINE
  5
257
100
AcDbEntity
  8
0
100
AcDbLine
 62
7
  6
CONTINUOUS
 10
4.4146206227
 20
10.8189917975
 11
7.0796206227
 21
10.8189917975
  0
LINE
  5
258
100
AcDbEntity
  8
0
100
AcDbLine
 62
7
  6
CONTINUOUS
 10
4.4146206227
 20
10.9382243284
 11
7.0796206227
 21
10.9382243284
  0
LINE
  5
259
100
AcDbEntity
  8
AXIS
100
AcDbLine
 62
7
  6
CONTINUOUS
 10
7.822120856
 20
10.9400477814
 11
7.2046206227
 21
10.9400477814
  0
LINE
  5
25A
100
AcDbEntity
  8
0
100
AcDbLine
 62
7
  6
CONTINUOUS
 10
4.4146206227
 20
11.1019342144
 11
7.0796206227
 21
11.1019342144
  0
LINE
  5
25B
100
AcDbEntity
  8
0
100
AcDbLine
 62
7
  6
CONTINUOUS
 10
4.4146206227
 20
11.3056593412
 11
7.0796206227
 21
11.3056593412
  0
LINE
  5
25C
100
AcDbEntity
  8
02___PRT_ALL_AXES
100
AcDbLine
 62
7
  6
CONTINUOUS
 10
4.3756880508
 20
10.5220477814
 11
4.4146206227
 21
10.6493904863
  0
LINE
  5
25D
100
AcDbEntity
  8
0
100
AcDbLine
 62
7
  6
CONTINUOUS
 10
4.4146206227
 20
11.5438469301
 11
7.0796206227
 21
11.5438469301
  0
LINE
  5
25E
100
AcDbEntity
  8
02___PRT_ALL_AXES
100
AcDbLine
 62
7
  6
CONTINUOUS
 10
4.3756880508
 20
14.6780477814
 11
4.4146206227
 21
14.5507050764
  0
LINE
  5
25F
100
AcDbEntity
  8
0
100
AcDbLine
 62
7
  6
CONTINUOUS
 10
4.4146206227
 20
11.8100048852
 11
7.0796206227
 21
11.8100048852
  0
LINE
  5
260
100
AcDbEntity
  8
0
100
AcDbLine
 62
7
  6
CONTINUOUS
 10
4.4146206227
 20
12.0932527756
 11
7.0796206227
 21
12.0932527756
  0
LINE
  5
261
100
AcDbEntity
  8
02___PRT_ALL_AXES
100
AcDbLine
 62
7
  6
CONTINUOUS
 10
7.1185531947
 20
14.6780477814
 11
7.0796206227
 21
14.5507050764
  0
LINE
  5
262
100
AcDbEntity
  8
0
100
AcDbLine
 62
7
  6
CONTINUOUS
 10
7.0796206227
 20
13.1026290102
 11
4.4146206227
 21
13.1026290102
  0
LINE
  5
263
100
AcDbEntity
  8
02___PRT_ALL_AXES
100
AcDbLine
 62
7
  6
CONTINUOUS
 10
7.1185531947
 20
10.5220477814
 11
7.0796206227
 21
10.6493904863
  0
LINE
  5
264
100
AcDbEntity
  8
0
100
AcDbLine
 62
7
  6
CONTINUOUS
 10
7.0796206227
 20
13.3859818605
 11
4.4146206227
 21
13.3859818605
  0
LINE
  5
265
100
AcDbEntity
  8
02___PRT_ALL_AXES
100
AcDbLine
 62
7
  6
CONTINUOUS
 10
7.0796206227
 20
10.6493904863
 11
7.0796206227
 21
14.5507050764
  0
LINE
  5
266
100
AcDbEntity
  8
02___PRT_ALL_AXES
100
AcDbLine
 62
7
  6
CONTINUOUS
 10
7.1185531947
 20
10.5220477814
 11
7.1185531947
 21
14.6780477814
  0
LINE
  5
267
100
AcDbEntity
  8
0
100
AcDbLine
 62
7
  6
CONTINUOUS
 10
7.0796206227
 20
13.6525005419
 11
4.4146206227
 21
13.6525005419
  0
LINE
  5
268
100
AcDbEntity
  8
02___PRT_ALL_AXES
100
AcDbLine
 62
7
  6
CONTINUOUS
 10
7.2046206227
 20
10.5483612348
 11
7.2046206227
 21
14.6517343279
  0
LINE
  5
269
100
AcDbEntity
  8
0
100
AcDbLine
 62
7
  6
CONTINUOUS
 10
7.0796206227
 20
13.8911510158
 11
4.4146206227
 21
13.8911510158
  0
LINE
  5
26A
100
AcDbEntity
  8
0
100
AcDbLine
 62
7
  6
CONTINUOUS
 10
7.0796206227
 20
14.0954285701
 11
4.4146206227
 21
14.0954285701
  0
LINE
  5
26B
100
AcDbEntity
  8
0
100
AcDbLine
 62
7
  6
CONTINUOUS
 10
7.0796206227
 20
14.2597653687
 11
4.4146206227
 21
14.2597653687
  0
LINE
  5
26C
100
AcDbEntity
  8
AXIS
100
AcDbLine
 62
7
  6
CONTINUOUS
 10
7.822120856
 20
14.2600477814
 11
7.2046206227
 21
14.2600477814
  0
LINE
  5
26D
100
AcDbEntity
  8
0
100
AcDbLine
 62
7
  6
CONTINUOUS
 10
7.8221206226
 20
10.9400477814
 11
7.8221206226
 21
14.2600477814
  0
LINE
  5
26E
100
AcDbEntity
  8
0
100
AcDbLine
 62
7
  6
CONTINUOUS
 10
7.8521206227
 20
10.9700477815
 11
7.8521206227
 21
14.2300477813
  0
LINE
  5
26F
100
AcDbEntity
  8
0
100
AcDbLine
 62
7
  6
CONTINUOUS
 10
7.0796206227
 20
14.3796822102
 11
4.4146206227
 21
14.3796822102
  0
LINE
  5
270
100
AcDbEntity
  8
0
100
AcDbLine
 62
7
  6
CONTINUOUS
 10
7.0796206227
 20
14.4519106134
 11
4.4146206227
 21
14.4519106134
  0
LINE
  5
271
100
AcDbEntity
  8
0
100
AcDbLine
 62
7
  6
CONTINUOUS
 10
4.4146206227
 20
14.4744600788
 11
7.0796206227
 21
14.4744600788
  0
LINE
  5
272
100
AcDbEntity
  8
02___PRT_ALL_AXES
100
AcDbLine
 62
7
  6
CONTINUOUS
 10
7.2046206227
 20
10.5483612348
 11
7.1185531947
 21
10.5220477814
  0
LINE
  5
273
100
AcDbEntity
  8
02___PRT_ALL_AXES
100
AcDbLine
 62
7
  6
CONTINUOUS
 10
7.2046206227
 20
14.6517343279
 11
7.1185531947
 21
14.6780477814
  0
LINE
  5
274
100
AcDbEntity
  8
0
100
AcDbLine
 62
7
  6
CONTINUOUS
 10
7.8521206227
 20
10.9700475523
 11
7.822120856
 21
10.9400477814
  0
LINE
  5
275
100
AcDbEntity
  8
0
100
AcDbLine
 62
7
  6
CONTINUOUS
 10
7.8521206227
 20
14.2300480104
 11
7.822120856
 21
14.2600477814
  0
LINE
  5
276
100
AcDbEntity
  8
0
100
AcDbLine
 62
7
  6
CONTINUOUS
 10
13.8032261446
 20
14.2945490393
 11
13.8068172379
 21
14.2959975004
  0
LINE
  5
277
100
AcDbEntity
  8
02___PRT_ALL_AXES
100
AcDbLine
 62
7
  6
CONTINUOUS
 10
13.8092018815
 20
14.5452791704
 11
13.8871507039
 21
14.5713718703
  0
LINE
  5
278
100
AcDbEntity
  8
02___PRT_ALL_AXES
100
AcDbLine
 62
7
  6
CONTINUOUS
 10
13.8092018815
 20
10.4763308154
 11
13.8871507039
 21
10.4502381155
  0
LINE
  5
279
100
AcDbEntity
  8
0
100
AcDbLine
 62
7
  6
CONTINUOUS
 10
13.7953063935
 20
10.7354359041
 11
13.7915280835
 21
10.7370455732
  0
LINE
  5
27A
100
AcDbEntity
  8
0
100
AcDbLine
 62
7
  6
CONTINUOUS
 10
13.9103007649
 20
10.6610908846
 11
13.9083927703
 21
10.6614730837
  0
LINE
  5
27B
100
AcDbEntity
  8
0
100
AcDbLine
 62
7
  6
CONTINUOUS
 10
13.910300744
 20
10.6610702868
 11
16.1507397924
 21
10.6610702868
  0
LINE
  5
27C
100
AcDbEntity
  8
0
100
AcDbLine
 62
7
  6
CONTINUOUS
 10
13.7953063909
 20
10.7354332939
 11
16.0990356395
 21
10.7354332939
  0
LINE
  5
27D
100
AcDbEntity
  8
AXIS
100
AcDbLine
 62
7
  6
CONTINUOUS
 10
17.1661248789
 20
10.8508049929
 11
16.5950668477
 21
10.8508049929
  0
LINE
  5
27E
100
AcDbEntity
  8
0
100
AcDbLine
 62
7
  6
CONTINUOUS
 10
13.6866437401
 20
10.8573685533
 11
16.0288816851
 21
10.8573685533
  0
LINE
  5
27F
100
AcDbEntity
  8
0
100
AcDbLine
 62
7
  6
CONTINUOUS
 10
13.5872745257
 20
11.0235525695
 11
15.953560832
 21
11.0235525695
  0
LINE
  5
280
100
AcDbEntity
  8
0
100
AcDbLine
 62
7
  6
CONTINUOUS
 10
13.4999071779
 20
11.2294557927
 11
15.8818741111
 21
11.2294557927
  0
LINE
  5
281
100
AcDbEntity
  8
0
100
AcDbLine
 62
7
  6
CONTINUOUS
 10
13.4269230011
 20
11.4694660774
 11
15.8185630545
 21
11.4694660774
  0
LINE
  5
282
100
AcDbEntity
  8
02___PRT_ALL_AXES
100
AcDbLine
 62
7
  6
CONTINUOUS
 10
16.2679386154
 20
14.2913484166
 11
16.2667818089
 21
14.2900722432
  0
LINE
  5
283
100
AcDbEntity
  8
02___PRT_ALL_AXES
100
AcDbLine
 62
7
  6
CONTINUOUS
 10
16.2682300861
 20
14.2896021399
 11
16.267067469
 21
14.2883686355
  0
LINE
  5
284
100
AcDbEntity
  8
0
100
AcDbLine
 62
7
  6
CONTINUOUS
 10
13.370311269
 20
11.7370416481
 11
15.7672637301
 21
11.7370416481
  0
LINE
  5
285
100
AcDbEntity
  8
0
100
AcDbLine
 62
7
  6
CONTINUOUS
 10
15.7324872317
 20
12.0206777997
 11
13.3553921868
 21
12.0206777997
  0
LINE
  5
286
100
AcDbEntity
  8
02___PRT_ALL_AXES
100
AcDbLine
 62
7
  6
CONTINUOUS
 10
16.2583005946
 20
10.741074548
 11
16.2567723396
 21
10.7428270488
  0
LINE
  5
287
100
AcDbEntity
  8
02___PRT_ALL_AXES
100
AcDbLine
 62
7
  6
CONTINUOUS
 10
16.258560855
 20
10.7425756419
 11
16.2570474378
 21
10.7444042969
  0
LINE
  5
288
100
AcDbEntity
  8
02___PRT_ALL_AXES
100
AcDbLine
 62
7
  6
CONTINUOUS
 10
16.0551889955
 20
14.0154535247
 11
16.0545343925
 21
14.0138386001
  0
LINE
  5
289
100
AcDbEntity
  8
02___PRT_ALL_AXES
100
AcDbLine
 62
7
  6
CONTINUOUS
 10
16.0547377016
 20
14.0167059436
 11
16.0540713349
 21
14.0151207383
  0
LINE
  5
28A
100
AcDbEntity
  8
02___PRT_ALL_AXES
100
AcDbLine
 62
7
  6
CONTINUOUS
 10
16.0726853319
 20
13.9783303051
 11
16.0704310295
 21
13.9733220911
  0
LINE
  5
28B
100
AcDbEntity
  8
02___PRT_ALL_AXES
100
AcDbLine
 62
7
  6
CONTINUOUS
 10
16.0727714224
 20
13.9780737464
 11
16.0704310295
 21
13.9733220911
  0
LINE
  5
28C
100
AcDbEntity
  8
02___PRT_ALL_AXES
100
AcDbLine
 62
7
  6
CONTINUOUS
 10
16.0653217404
 20
11.0624638415
 11
16.064151975
 21
11.0650825249
  0
LINE
  5
28D
100
AcDbEntity
  8
02___PRT_ALL_AXES
100
AcDbLine
 62
7
  6
CONTINUOUS
 10
16.0648044728
 20
11.0609649055
 11
16.0636429493
 21
11.0636135751
  0
LINE
  5
28E
100
AcDbEntity
  8
02___PRT_ALL_AXES
100
AcDbLine
 62
7
  6
CONTINUOUS
 10
16.0472576497
 20
11.0257579935
 11
16.0466728332
 21
11.0271869428
  0
LINE
  5
28F
100
AcDbEntity
  8
02___PRT_ALL_AXES
100
AcDbLine
 62
7
  6
CONTINUOUS
 10
16.0467032638
 20
11.0242614085
 11
16.0461180636
 21
11.0256923509
  0
LINE
  5
290
100
AcDbEntity
  8
02___PRT_ALL_AXES
100
AcDbLine
 62
7
  6
CONTINUOUS
 10
15.9115717599
 20
13.5593932325
 11
15.9117620654
 21
13.5602156448
  0
LINE
  5
291
100
AcDbEntity
  8
02___PRT_ALL_AXES
100
AcDbLine
 62
7
  6
CONTINUOUS
 10
15.9108807807
 20
13.5604497407
 11
15.9110716375
 21
13.561272431
  0
LINE
  5
292
100
AcDbEntity
  8
02___PRT_ALL_AXES
100
AcDbLine
 62
7
  6
CONTINUOUS
 10
15.9964636467
 20
13.7837080318
 11
15.9958278913
 21
13.7818326847
  0
LINE
  5
293
100
AcDbEntity
  8
02___PRT_ALL_AXES
100
AcDbLine
 62
7
  6
CONTINUOUS
 10
15.997070184
 20
13.782350358
 11
15.9964345996
 21
13.7804781407
  0
LINE
  5
294
100
AcDbEntity
  8
02___PRT_ALL_AXES
100
AcDbLine
 62
7
  6
CONTINUOUS
 10
15.9890477819
 20
11.2600836029
 11
15.9884514611
 21
11.2618971034
  0
LINE
  5
295
100
AcDbEntity
  8
02___PRT_ALL_AXES
100
AcDbLine
 62
7
  6
CONTINUOUS
 10
15.9893518265
 20
11.260743698
 11
15.9887785894
 21
11.2626055508
  0
LINE
  5
296
100
AcDbEntity
  8
02___PRT_ALL_AXES
100
AcDbLine
 62
7
  6
CONTINUOUS
 10
15.9059186959
 20
11.4863526634
 11
15.9057656691
 21
11.4870067978
  0
LINE
  5
297
100
AcDbEntity
  8
02___PRT_ALL_AXES
100
AcDbLine
 62
7
  6
CONTINUOUS
 10
15.9053296862
 20
11.4854799776
 11
15.9051811243
 21
11.4861414715
  0
LINE
  5
298
100
AcDbEntity
  8
0
100
AcDbLine
 62
7
  6
CONTINUOUS
 10
13.3562972591
 20
13.0258379223
 11
15.7346105209
 21
13.0258140431
  0
LINE
  5
299
100
AcDbEntity
  8
0
100
AcDbLine
 62
7
  6
CONTINUOUS
 10
15.7714077617
 20
13.3088703774
 11
13.3745632641
 21
13.3088703774
  0
LINE
  5
29A
100
AcDbEntity
  8
0
100
AcDbLine
 62
7
  6
CONTINUOUS
 10
15.8246624414
 20
13.5780481851
 11
13.433659309
 21
13.5780481851
  0
LINE
  5
29B
100
AcDbEntity
  8
0
100
AcDbLine
 62
7
  6
CONTINUOUS
 10
15.8883896786
 20
13.8148593201
 11
13.5082114073
 21
13.8148593201
  0
LINE
  5
29C
100
AcDbEntity
  8
AXIS
100
AcDbLine
 62
7
  6
CONTINUOUS
 10
16.5894420904
 20
14.1847426772
 11
16.5650902822
 21
14.1842030884
  0
LINE
  5
29D
100
AcDbEntity
  8
0
100
AcDbLine
 62
7
  6
CONTINUOUS
 10
15.9616443139
 20
14.0169445375
 11
13.5969203346
 21
14.0169445375
  0
LINE
  5
29E
100
AcDbEntity
  8
AXIS
100
AcDbLine
 62
7
  6
CONTINUOUS
 10
17.1661248789
 20
14.1708049929
 11
16.5950668477
 21
14.1708049929
  0
LINE
  5
29F
100
AcDbEntity
  8
0
100
AcDbLine
 62
7
  6
CONTINUOUS
 10
16.0355304177
 20
14.1787957561
 11
13.6973682201
 21
14.1787957561
  0
LINE
  5
2A0
100
AcDbEntity
  8
0
100
AcDbLine
 62
7
  6
CONTINUOUS
 10
16.1047627233
 20
14.2960015219
 11
13.8068172332
 21
14.2960015219
  0
LINE
  5
2A1
100
AcDbEntity
  8
0
100
AcDbLine
 62
7
  6
CONTINUOUS
 10
16.1533616635
 20
14.3653672477
 11
13.9222842063
 21
14.3653672477
  0
LINE
  5
2A2
100
AcDbEntity
  8
0
100
AcDbLine
 62
7
  6
CONTINUOUS
 10
14.0276036229
 20
14.3853049928
 11
16.1700541745
 21
14.3853049928
  0
LINE
  5
2A3
100
AcDbEntity
  8
0
100
AcDbLine
 62
7
  6
CONTINUOUS
 10
13.9205711384
 20
14.3650429688
 11
13.9222842214
 21
14.3653455278
  0
LINE
  5
2A4
100
AcDbEntity
  8
02___PRT_ALL_AXES
100
AcDbLine
 62
7
  6
CONTINUOUS
 10
16.7006443214
 20
10.4763308154
 11
16.622695499
 21
10.4502381155
  0
LINE
  5
2A5
100
AcDbEntity
  8
02___PRT_ALL_AXES
100
AcDbLine
 62
7
  6
CONTINUOUS
 10
16.7006443214
 20
14.5452791704
 11
16.622695499
 21
14.5713718703
  0
CIRCLE
  5
2A6
100
AcDbEntity
  8
02___PRT_ALL_AXES
100
AcDbCircle
 62
7
  6
CONTINUOUS
 10
15.5603552569
 20
5.4606247044
 40
2.078
  0
CIRCLE
  5
2A7
100
AcDbEntity
  8
02___PRT_ALL_AXES
100
AcDbCircle
 62
7
  6
CONTINUOUS
 10
15.5603552569
 20
5.4606247044
 40
2.0516865466
  0
CIRCLE
  5
2A8
100
AcDbEntity
  8
02___PRT_ALL_AXES
100
AcDbCircle
 62
7
  6
CONTINUOUS
 10
15.5603552569
 20
5.4606247044
 40
1.9372067049
  0
ARC
  5
2A9
100
AcDbEntity
  8
AXIS
100
AcDbCircle
 62
7
  6
CONTINUOUS
 10
15.5603552569
 20
5.4606247044
 40
1.674
100
AcDbArc
 50
270.0
 51
269.9670734893
  0
CIRCLE
  5
2AA
100
AcDbEntity
  8
0
100
AcDbCircle
 62
7
  6
CONTINUOUS
 10
15.5603552569
 20
5.4606247044
 40
1.66
  0
CIRCLE
  5
2AB
100
AcDbEntity
  8
0
100
AcDbCircle
 62
7
  6
CONTINUOUS
 10
15.5603552569
 20
5.4606247044
 40
1.6300000227
  0
CIRCLE
  5
2AC
100
AcDbEntity
  8
0
100
AcDbCircle
 62
7
  6
CONTINUOUS
 10
15.5603552569
 20
5.4606247044
 40
0.530247191
  0
CIRCLE
  5
2AD
100
AcDbEntity
  8
0
100
AcDbCircle
 62
7
  6
CONTINUOUS
 10
15.5603552569
 20
5.4606247044
 40
0.50025
  0
ARC
  5
2AE
100
AcDbEntity
  8
0
100
AcDbCircle
 62
7
  6
CONTINUOUS
 10
16.4513653001
 20
12.2576710551
 40
3.1315383557
100
AcDbArc
 50
193.7829864926
 51
194.3220373389
  0
ARC
  5
2AF
100
AcDbEntity
  8
0
100
AcDbCircle
 62
7
  6
CONTINUOUS
 10
15.680818078
 20
12.0264058594
 40
2.3267420258
100
AcDbArc
 50
199.12039774
 51
199.777675887
  0
ARC
  5
2B0
100
AcDbEntity
  8
0
100
AcDbCircle
 62
7
  6
CONTINUOUS
 10
14.9960375198
 20
11.740398554
 40
1.5842099072
100
AcDbArc
 50
205.7991855189
 51
206.6486768777
  0
ARC
  5
2B1
100
AcDbEntity
  8
0
100
AcDbCircle
 62
7
  6
CONTINUOUS
 10
15.0770428143
 20
10.7933224421
 40
1.3058141353
100
AcDbArc
 50
177.9235568583
 51
180.7827706445
  0
ARC
  5
2B2
100
AcDbEntity
  8
0
100
AcDbCircle
 62
7
  6
CONTINUOUS
 10
15.154759741
 20
10.7909346463
 40
1.2726728563
100
AcDbArc
 50
182.4996292731
 51
184.5099465524
  0
ARC
  5
2B3
100
AcDbEntity
  8
0
100
AcDbCircle
 62
7
  6
CONTINUOUS
 10
14.9021346998
 20
10.8446790742
 40
1.2400637664
100
AcDbArc
 50
174.1367642565
 51
177.1006809633
  0
ARC
  5
2B4
100
AcDbEntity
  8
0
100
AcDbCircle
 62
7
  6
CONTINUOUS
 10
15.1015516048
 20
10.8193339083
 40
1.1091040538
100
AcDbArc
 50
188.2054218389
 51
188.4766470277
  0
ARC
  5
2B5
100
AcDbEntity
  8
0
100
AcDbCircle
 62
7
  6
CONTINUOUS
 10
14.6549202195
 20
10.9547747206
 40
1.0965600308
100
AcDbArc
 50
170.0611619443
 51
173.2834749156
  0
ARC
  5
2B6
100
AcDbEntity
  8
0
100
AcDbCircle
 62
7
  6
CONTINUOUS
 10
14.4829449279
 20
11.4398666995
 40
0.988982626
100
AcDbArc
 50
214.6645579015
 51
215.8278385251
  0
ARC
  5
2B7
100
AcDbEntity
  8
0
100
AcDbCircle
 62
7
  6
CONTINUOUS
 10
14.3642570787
 20
11.1279839692
 40
0.8996850347
100
AcDbArc
 50
165.4523746287
 51
169.1354515383
  0
ARC
  5
2B8
100
AcDbEntity
  8
0
100
AcDbCircle
 62
7
  6
CONTINUOUS
 10
14.1750698421
 20
11.1739801087
 40
0.5813914937
100
AcDbArc
 50
227.0654683282
 51
228.7232926667
  0
ARC
  5
2B9
100
AcDbEntity
  8
02___PRT_ALL_AXES
100
AcDbCircle
 62
7
  6
CONTINUOUS
 10
14.044855194
 20
10.8827094003
 40
0.4611044777
100
AcDbArc
 50
238.4743388395
 51
239.8633226034
  0
ARC
  5
2BA
100
AcDbEntity
  8
0
100
AcDbCircle
 62
7
  6
CONTINUOUS
 10
14.0479284709
 20
10.9896502291
 40
0.3566096613
100
AcDbArc
 50
244.6700499493
 51
246.9655747295
  0
ARC
  5
2BB
100
AcDbEntity
  8
0
100
AcDbCircle
 62
7
  6
CONTINUOUS
 10
13.5399253513
 20
10.8286183875
 40
0.2329112872
100
AcDbArc
 50
5.3865387695
 51
7.1428152198
  0
ARC
  5
2BC
100
AcDbEntity
  8
0
100
AcDbCircle
 62
7
  6
CONTINUOUS
 10
13.6957712099
 20
10.8434087352
 40
0.0763652606
100
AcDbArc
 50
357.9190429108
 51
5.3151894791
  0
ARC
  5
2BD
100
AcDbEntity
  8
0
100
AcDbCircle
 62
7
  6
CONTINUOUS
 10
13.5937931441
 20
10.978991426
 40
0.0751538827
100
AcDbArc
 50
354.1695114047
 51
1.6741981542
  0
ARC
  5
2BE
100
AcDbEntity
  8
0
100
AcDbCircle
 62
7
  6
CONTINUOUS
 10
16.3929168825
 20
12.7788074878
 40
3.0712284369
100
AcDbArc
 50
165.1695348382
 51
165.7881965403
  0
ARC
  5
2BF
100
AcDbEntity
  8
0
100
AcDbCircle
 62
7
  6
CONTINUOUS
 10
15.6185861176
 20
13.0175551496
 40
2.26061804
100
AcDbArc
 50
159.598976265
 51
160.2676086774
  0
ARC
  5
2C0
100
AcDbEntity
  8
0
100
AcDbCircle
 62
7
  6
CONTINUOUS
 10
14.9455435769
 20
13.3065198826
 40
1.5277284809
100
AcDbArc
 50
152.5419805127
 51
153.4099915915
  0
ARC
  5
2C1
100
AcDbEntity
  8
0
100
AcDbCircle
 62
7
  6
CONTINUOUS
 10
15.0909579844
 20
14.230565805
 40
1.308426165
100
AcDbArc
 50
178.8427213908
 51
181.6970661743
  0
ARC
  5
2C2
100
AcDbEntity
  8
0
100
AcDbCircle
 62
7
  6
CONTINUOUS
 10
14.9358475048
 20
14.1855955114
 40
1.2628281572
100
AcDbArc
 50
182.5340895785
 51
185.4523748614
  0
ARC
  5
2C3
100
AcDbEntity
  8
0
100
AcDbCircle
 62
7
  6
CONTINUOUS
 10
15.147586628
 20
14.2293467713
 40
1.2541677395
100
AcDbArc
 50
175.0929134442
 51
176.9532266638
  0
ARC
  5
2C4
100
AcDbEntity
  8
0
100
AcDbCircle
 62
7
  6
CONTINUOUS
 10
14.7039161935
 20
14.083895991
 40
1.1355308867
100
AcDbArc
 50
186.3449667246
 51
189.4727126916
  0
ARC
  5
2C5
100
AcDbEntity
  8
0
100
AcDbCircle
 62
7
  6
CONTINUOUS
 10
14.4212942008
 20
13.919927142
 40
0.9483300478
100
AcDbArc
 50
190.4703740867
 51
193.9916775728
  0
ARC
  5
2C6
100
AcDbEntity
  8
0
100
AcDbCircle
 62
7
  6
CONTINUOUS
 10
14.4491876395
 20
13.6060805733
 40
0.9473670819
100
AcDbArc
 50
143.0592978238
 51
144.2526701582
  0
ARC
  5
2C7
100
AcDbEntity
  8
0
100
AcDbCircle
 62
7
  6
CONTINUOUS
 10
14.1581983831
 20
13.866812801
 40
0.5558449241
100
AcDbArc
 50
129.688799353
 51
131.3914753545
  0
ARC
  5
2C8
100
AcDbEntity
  8
0
100
AcDbCircle
 62
7
  6
CONTINUOUS
 10
14.0434241798
 20
14.0425123522
 40
0.3451360144
100
AcDbArc
 50
110.8520123673
 51
113.1925730679
  0
ARC
  5
2C9
100
AcDbEntity
  8
AXIS
100
AcDbCircle
 62
7
  6
CONTINUOUS
 10
16.5951631384
 20
13.9287012145
 40
0.256103847
100
AcDbArc
 50
91.2800232367
 51
96.7294762583
  0
ARC
  5
2CA
100
AcDbEntity
  8
0
100
AcDbCircle
 62
7
  6
CONTINUOUS
 10
13.5524241009
 20
14.2053158661
 40
0.2315176683
100
AcDbArc
 50
353.3948469071
 51
354.2158180402
  0
ARC
  5
2CB
100
AcDbEntity
  8
0
100
AcDbCircle
 62
7
  6
CONTINUOUS
 10
13.6027394311
 20
14.0584230195
 40
0.0763320521
100
AcDbArc
 50
358.0002170418
 51
5.397879585
  0
ARC
  5
2CC
100
AcDbEntity
  8
0
100
AcDbCircle
 62
7
  6
CONTINUOUS
 10
13.7079036204
 20
14.1895148222
 40
0.0752373243
100
AcDbArc
 50
354.2547436187
 51
1.7532191509
  0
ARC
  5
2CD
100
AcDbEntity
  8
0
100
AcDbCircle
 62
7
  6
CONTINUOUS
 10
18.0750211316
 20
12.5100859164
 40
4.7773684994
100
AcDbArc
 50
181.4822231541
 51
181.8887100752
  0
ARC
  5
2CE
100
AcDbEntity
  8
0
100
AcDbCircle
 62
7
  6
CONTINUOUS
 10
17.763880349
 20
12.4888712763
 40
4.4654543544
100
AcDbArc
 50
185.2474907744
 51
185.6727843531
  0
ARC
  5
2CF
100
AcDbEntity
  8
02___PRT_ALL_AXES
100
AcDbCircle
 62
7
  6
CONTINUOUS
 10
19.8412326345
 20
12.3657693395
 40
4.0331435229
100
AcDbArc
 50
188.8728986103
 51
192.5974506323
  0
ARC
  5
2D0
100
AcDbEntity
  8
0
100
AcDbCircle
 62
7
  6
CONTINUOUS
 10
17.1879080753
 20
12.4118344831
 40
3.884235993
100
AcDbArc
 50
189.2696446409
 51
189.7364758843
  0
ARC
  5
2D1
100
AcDbEntity
  8
02___PRT_ALL_AXES
100
AcDbCircle
 62
7
  6
CONTINUOUS
 10
19.1494867243
 20
12.2101092664
 40
3.3241002532
100
AcDbArc
 50
192.5911566047
 51
196.7284794498
  0
ARC
  5
2D2
100
AcDbEntity
  8
02___PRT_ALL_AXES
100
AcDbCircle
 62
7
  6
CONTINUOUS
 10
18.7673987833
 20
12.0994307795
 40
2.9263278447
100
AcDbArc
 50
196.8064909704
 51
197.1833994486
  0
ARC
  5
2D3
100
AcDbEntity
  8
0
100
AcDbCircle
 62
7
  6
CONTINUOUS
 10
16.9542028727
 20
11.4573713126
 40
0.6614518301
100
AcDbArc
 50
316.9973115353
 51
320.1647925597
  0
ARC
  5
2D4
100
AcDbEntity
  8
0
100
AcDbCircle
 62
7
  6
CONTINUOUS
 10
18.0635481253
 20
12.5118942057
 40
4.7658895282
100
AcDbArc
 50
177.7868467546
 51
178.1938997922
  0
ARC
  5
2D5
100
AcDbEntity
  8
0
100
AcDbCircle
 62
7
  6
CONTINUOUS
 10
17.7316079176
 20
12.5359199983
 40
4.4330255155
100
AcDbArc
 50
173.9866797319
 51
174.4137704134
  0
ARC
  5
2D6
100
AcDbEntity
  8
02___PRT_ALL_AXES
100
AcDbCircle
 62
7
  6
CONTINUOUS
 10
19.7784946293
 20
12.6678627782
 40
3.9692755469
100
AcDbArc
 50
167.0045295973
 51
170.8207852098
  0
ARC
  5
2D7
100
AcDbEntity
  8
0
100
AcDbCircle
 62
7
  6
CONTINUOUS
 10
17.1407757523
 20
12.6178229261
 40
3.8364216154
100
AcDbArc
 50
169.8884858388
 51
170.3586742857
  0
ARC
  5
2D8
100
AcDbEntity
  8
02___PRT_ALL_AXES
100
AcDbCircle
 62
7
  6
CONTINUOUS
 10
19.0850698616
 20
12.8286741483
 40
3.2574476159
100
AcDbArc
 50
162.9062807824
 51
167.0030325618
  0
ARC
  5
2D9
100
AcDbEntity
  8
02___PRT_ALL_AXES
100
AcDbCircle
 62
7
  6
CONTINUOUS
 10
18.6946606838
 20
12.9447658536
 40
2.8501635725
100
AcDbArc
 50
162.3407998208
 51
162.7351160372
  0
ARC
  5
2DA
100
AcDbEntity
  8
02___PRT_ALL_AXES
100
AcDbCircle
 62
7
  6
CONTINUOUS
 10
18.4677530514
 20
12.945183209
 40
2.6096736084
100
AcDbArc
 50
161.3010612198
 51
162.8434950637
  0
ARC
  5
2DB
100
AcDbEntity
  8
0
100
AcDbCircle
 62
7
  6
CONTINUOUS
 10
16.9645499381
 20
13.5734061945
 40
0.6476337085
100
AcDbArc
 50
39.7987799349
 51
42.9507554198
  0
ARC
  5
2DC
100
AcDbEntity
  8
0
100
AcDbCircle
 62
7
  6
CONTINUOUS
 10
17.0004636226
 20
13.606652899
 40
0.598693785
100
AcDbArc
 50
42.9637622497
 51
43.9222185544
  0
ARC
  5
2DD
100
AcDbEntity
  8
0
100
AcDbCircle
 62
7
  6
CONTINUOUS
 10
17.213571024
 20
12.858896426
 40
0.1670158617
100
AcDbArc
 50
133.2012662482
 51
134.6189215892
  0
SPLINE
  5
2DE
100
AcDbEntity
  8
02___PRT_ALL_AXES
100
AcDbSpline
 62
7
  6
CONTINUOUS
 70
0
 71
3
 72
41
 73
37
 74
0
 42
0.0000001
 43
0.0000001
 44
0.0000000001
 40
0.0
 40
0.0
 40
0.0
 40
0.0
 40
0.032027984
 40
0.06523626
 40
0.0995132372
 40
0.1347486352
 40
0.1708206164
 40
0.2076023662
 40
0.2449624806
 40
0.2827655305
 40
0.3208732439
 40
0.3591453853
 40
0.3974407022
 40
0.4356177718
 40
0.4735359112
 40
0.5110561355
 40
0.5480420174
 40
0.5843605871
 40
0.6198834288
 40
0.654487665
 40
0.688056953
 40
0.7204826993
 40
0.7516655555
 40
0.7815167724
 40
0.8099598848
 40
0.8369329594
 40
0.8623913221
 40
0.8863106089
 40
0.9086908683
 40
0.9295620004
 40
0.9489902115
 40
0.9581991841
 40
0.9670929312
 40
0.9840167973
 40
0.9921110624
 40
1.0
 40
1.0
 40
1.0
 40
1.0
 10
13.2866264088
 20
13.786153802
 30
0.0
 10
13.2754853175
 20
13.7501012175
 30
0.0
 10
13.2542193151
 20
13.6762201592
 30
0.0
 10
13.2257796679
 20
13.5624551573
 30
0.0
 10
13.2003159396
 20
13.4441192109
 30
0.0
 10
13.1779387459
 20
13.3217316833
 30
0.0
 10
13.1587462942
 20
13.195819646
 30
0.0
 10
13.1428220884
 20
13.0669310206
 30
0.0
 10
13.1302355674
 20
12.9356255072
 30
0.0
 10
13.1210421623
 20
12.8024734472
 30
0.0
 10
13.1152820726
 20
12.6680535785
 30
0.0
 10
13.11298016
 20
12.5329501756
 30
0.0
 10
13.1141465104
 20
12.3977505047
 30
0.0
 10
13.1187763817
 20
12.2630422826
 30
0.0
 10
13.1268493886
 20
12.1294110492
 30
0.0
 10
13.1383299801
 20
11.9974375473
 30
0.0
 10
13.1531680247
 20
11.8676952435
 30
0.0
 10
13.1712990447
 20
11.7407478038
 30
0.0
 10
13.1926435043
 20
11.6171463905
 30
0.0
 10
13.2171079998
 20
11.4974272825
 30
0.0
 10
13.2445858794
 20
11.3821096453
 30
0.0
 10
13.2749576695
 20
11.2716930659
 30
0.0
 10
13.3080907686
 20
11.1666549182
 30
0.0
 10
13.3438412352
 20
11.0674484431
 30
0.0
 10
13.3820547757
 20
10.9745008018
 30
0.0
 10
13.4225673938
 20
10.888210793
 30
0.0
 10
13.4652064512
 20
10.8089464182
 30
0.0
 10
13.5097927875
 20
10.7370446633
 30
0.0
 10
13.5561455032
 20
10.6728083927
 30
0.0
 10
13.6040758325
 20
10.61651431
 30
0.0
 10
13.6459084522
 20
10.5757106839
 30
0.0
 10
13.6799947006
 20
10.5475072495
 30
0.0
 10
13.713261442
 20
10.5230619215
 30
0.0
 10
13.7475938001
 20
10.5023545188
 30
0.0
 10
13.782758019
 20
10.4859622397
 30
0.0
 10
13.8003880054
 20
10.4792815532
 30
0.0
 10
13.8092018989
 20
10.4763311577
 30
0.0
  0
SPLINE
  5
2DF
100
AcDbEntity
  8
02___PRT_ALL_AXES
100
AcDbSpline
 62
7
  6
CONTINUOUS
 70
0
 71
3
 72
22
 73
18
 74
0
 42
0.0000001
 43
0.0000001
 44
0.0000000001
 40
0.0
 40
0.0
 40
0.0
 40
0.0
 40
0.0574977338
 40
0.1139812051
 40
0.1698270216
 40
0.2254279449
 40
0.2811832723
 40
0.3374883092
 40
0.3947240291
 40
0.4532485873
 40
0.5133912056
 40
0.5754463714
 40
0.6396743515
 40
0.7062979238
 40
0.7755059838
 40
0.8474545829
 40
1.0
 40
1.0
 40
1.0
 40
1.0
 10
13.887150709
 20
14.571371769
 30
0.0
 10
13.8966392821
 20
14.574548116
 30
0.0
 10
13.9157230683
 20
14.5800628768
 30
0.0
 10
13.944764052
 20
14.5857471553
 30
0.0
 10
13.9738755237
 20
14.5887461774
 30
0.0
 10
14.0030127368
 20
14.5890510548
 30
0.0
 10
14.032133588
 20
14.5866642182
 30
0.0
 10
14.061195325
 20
14.5815877566
 30
0.0
 10
14.0901567373
 20
14.5738328573
 30
0.0
 10
14.1189782021
 20
14.5634133374
 30
0.0
 10
14.1476209633
 20
14.5503455527
 30
0.0
 10
14.1760494926
 20
14.5346521958
 30
0.0
 10
14.2042271618
 20
14.5163543399
 30
0.0
 10
14.2321202007
 20
14.4954798295
 30
0.0
 10
14.2596953879
 20
14.4720554125
 30
0.0
 10
14.2967103616
 20
14.4367792895
 30
0.0
 10
14.322786395
 20
14.4075743932
 30
0.0
 10
14.3395940953
 20
14.3870259502
 30
0.0
  0
SPLINE
  5
2E0
100
AcDbEntity
  8
02___PRT_ALL_AXES
100
AcDbSpline
 62
7
  6
CONTINUOUS
 70
0
 71
3
 72
23
 73
19
 74
0
 42
0.0000001
 43
0.0000001
 44
0.0000000001
 40
0.0
 40
0.0
 40
0.0
 40
0.0
 40
0.0838346687
 40
0.1650436693
 40
0.2434895293
 40
0.3190804931
 40
0.3917410857
 40
0.4614081462
 40
0.528039855
 40
0.591620661
 40
0.6521628064
 40
0.7097098985
 40
0.7643437711
 40
0.8161881557
 40
0.8654171491
 40
0.9122586948
 40
0.95700246
 40
1.0
 40
1.0
 40
1.0
 40
1.0
 10
13.2866264088
 20
13.786153802
 30
0.0
 10
13.2944763409
 20
13.8115561915
 30
0.0
 10
13.310618005
 20
13.8613565376
 30
0.0
 10
13.3365943995
 20
13.9340897608
 30
0.0
 10
13.3639040461
 20
14.0035329837
 30
0.0
 10
13.3924803703
 20
14.0695217697
 30
0.0
 10
13.4222592677
 20
14.13190719
 30
0.0
 10
13.4531722702
 20
14.1905471195
 30
0.0
 10
13.4851495759
 20
14.2453063395
 30
0.0
 10
13.5181186287
 20
14.29605978
 30
0.0
 10
13.5520053904
 20
14.3426921196
 30
0.0
 10
13.5867360027
 20
14.3850963223
 30
0.0
 10
13.6222335834
 20
14.4231760668
 30
0.0
 10
13.6584240785
 20
14.4568415357
 30
0.0
 10
13.6952287304
 20
14.4860141396
 30
0.0
 10
13.7325745956
 20
14.5106188916
 30
0.0
 10
13.7703734292
 20
14.5305896337
 30
0.0
 10
13.7962707682
 20
14.5409501773
 30
0.0
 10
13.8092018981
 20
14.5452788442
 30
0.0
  0
SPLINE
  5
2E1
100
AcDbEntity
  8
02___PRT_ALL_AXES
100
AcDbSpline
 62
7
  6
CONTINUOUS
 70
0
 71
3
 72
23
 73
19
 74
0
 42
0.0000001
 43
0.0000001
 44
0.0000000001
 40
0.0
 40
0.0
 40
0.0
 40
0.0
 40
0.0574789425
 40
0.1139434111
 40
0.1697703792
 40
0.2253535882
 40
0.281092936
 40
0.3373842996
 40
0.3946091326
 40
0.4531264955
 40
0.5132649422
 40
0.5753204988
 40
0.6395522186
 40
0.7061836369
 40
0.7754037853
 40
0.847367342
 40
0.922200625
 40
1.0
 40
1.0
 40
1.0
 40
1.0
 10
13.8871507104
 20
10.4502382445
 30
0.0
 10
13.8966488283
 20
10.4470589631
 30
0.0
 10
13.9157518047
 20
10.4415395085
 30
0.0
 10
13.944822288
 20
10.4358525893
 30
0.0
 10
13.9739635809
 20
10.4328586579
 30
0.0
 10
14.0031303831
 20
10.4325616395
 30
0.0
 10
14.0322806212
 20
10.4349640916
 30
0.0
 10
14.0613714035
 20
10.440060376
 30
0.0
 10
14.090361615
 20
10.4478402637
 30
0.0
 10
14.1192106644
 20
10.4582915326
 30
0.0
 10
14.1478813224
 20
10.4713940978
 30
0.0
 10
14.1763358198
 20
10.4871295333
 30
0.0
 10
14.2045394274
 20
10.5054728334
 30
0.0
 10
14.2324573708
 20
10.526398476
 30
0.0
 10
14.2600548942
 20
10.5498784224
 30
0.0
 10
14.2872997896
 20
10.5758803956
 30
0.0
 10
14.3141564301
 20
10.6043711344
 30
0.0
 10
14.3314411644
 20
10.6246013589
 30
0.0
 10
14.3400170176
 20
10.6351012958
 30
0.0
  0
SPLINE
  5
2E2
100
AcDbEntity
  8
02___PRT_ALL_AXES
100
AcDbSpline
 62
7
  6
CONTINUOUS
 70
0
 71
3
 72
35
 73
31
 74
0
 42
0.0000001
 43
0.0000001
 44
0.0000000001
 40
0.0
 40
0.0
 40
0.0
 40
0.0
 40
0.0935112952
 40
0.1823836536
 40
0.2663403856
 40
0.3064197052
 40
0.3452047142
 40
0.3826834965
 40
0.4188512572
 40
0.4537090937
 40
0.4872667921
 40
0.5195417636
 40
0.5505612952
 40
0.5803638119
 40
0.6089986557
 40
0.6365292718
 40
0.6630325631
 40
0.6886008079
 40
0.713342412
 40
0.7373809969
 40
0.7608559197
 40
0.7839194702
 40
0.8067345895
 40
0.8294709409
 40
0.8523003475
 40
0.8753920085
 40
0.8989081256
 40
0.9230002138
 40
0.9478058749
 40
1.0
 40
1.0
 40
1.0
 40
1.0
 10
13.4325771845
 20
13.7233530122
 30
0.0
 10
13.4438907112
 20
13.7599635979
 30
0.0
 10
13.4674425754
 20
13.830923221
 30
0.0
 10
13.5066370832
 20
13.9328260102
 30
0.0
 10
13.5421679272
 20
14.0125631778
 30
0.0
 10
13.5720236449
 20
14.0722411207
 30
0.0
 10
13.5946854361
 20
14.114195192
 30
0.0
 10
13.6179333159
 20
14.153982149
 30
0.0
 10
13.6417354073
 20
14.1915494554
 30
0.0
 10
13.6660617628
 20
14.2268458874
 30
0.0
 10
13.6908787047
 20
14.2598250545
 30
0.0
 10
13.7161544492
 20
14.2904422296
 30
0.0
 10
13.7418563236
 20
14.3186558288
 30
0.0
 10
13.7679497715
 20
14.3444288202
 30
0.0
 10
13.7944030123
 20
14.3677243649
 30
0.0
 10
13.8211806608
 20
14.3885116028
 30
0.0
 10
13.8482492701
 20
14.4067602743
 30
0.0
 10
13.8755743357
 20
14.4224427256
 30
0.0
 10
13.9031192649
 20
14.4355364502
 30
0.0
 10
13.9308485505
 20
14.4460171782
 30
0.0
 10
13.9587227557
 20
14.4538685883
 30
0.0
 10
13.9867022276
 20
14.4590748062
 30
0.0
 10
14.0147449288
 20
14.4616244697
 30
0.0
 10
14.0428076213
 20
14.461514635
 30
0.0
 10
14.0708465977
 20
14.4587424281
 30
0.0
 10
14.0988190088
 20
14.4533161884
 30
0.0
 10
14.126682493
 20
14.4452460882
 30
0.0
 10
14.1543988504
 20
14.4345452576
 30
0.0
 10
14.1917257833
 20
14.416500799
 30
0.0
 10
14.2184533054
 20
14.3994588787
 30
0.0
 10
14.2357158937
 20
14.3868315988
 30
0.0
  0
SPLINE
  5
2E3
100
AcDbEntity
  8
02___PRT_ALL_AXES
100
AcDbSpline
 62
7
  6
CONTINUOUS
 70
0
 71
3
 72
22
 73
18
 74
0
 42
0.0000001
 43
0.0000001
 44
0.0000000001
 40
0.0
 40
0.0
 40
0.0
 40
0.0
 40
0.0807397688
 40
0.1592688491
 40
0.2354789472
 40
0.3092954231
 40
0.3806581324
 40
0.4495141434
 40
0.5158201343
 40
0.5795504173
 40
0.6406948335
 40
0.6992627273
 40
0.7552830253
 40
0.8088097749
 40
0.8599231465
 40
0.9087347484
 40
1.0
 40
1.0
 40
1.0
 40
1.0
 10
13.3578730547
 20
13.802510507
 30
0.0
 10
13.3648942421
 20
13.8252310778
 30
0.0
 10
13.3792887235
 20
13.8698844023
 30
0.0
 10
13.4022727391
 20
13.9353305145
 30
0.0
 10
13.4263179871
 20
13.9982170348
 30
0.0
 10
13.4513780297
 20
14.0584268435
 30
0.0
 10
13.4774098825
 20
14.1158539483
 30
0.0
 10
13.5043657283
 20
14.170397523
 30
0.0
 10
13.5321994388
 20
14.2219589939
 30
0.0
 10
13.5608597726
 20
14.2704467448
 30
0.0
 10
13.5902978131
 20
14.3157739135
 30
0.0
 10
13.620460325
 20
14.3578606362
 30
0.0
 10
13.651297005
 20
14.3966316051
 30
0.0
 10
13.6827513654
 20
14.4320169114
 30
0.0
 10
13.7147785512
 20
14.4639576366
 30
0.0
 10
13.7571945706
 20
14.5010267828
 30
0.0
 10
13.7911399151
 20
14.5248692944
 30
0.0
 10
13.814425439
 20
14.5382992144
 30
0.0
  0
SPLINE
  5
2E4
100
AcDbEntity
  8
02___PRT_ALL_AXES
100
AcDbSpline
 62
7
  6
CONTINUOUS
 70
0
 71
3
 72
9
 73
5
 74
0
 42
0.0000001
 43
0.0000001
 44
0.0000000001
 40
0.0
 40
0.0
 40
0.0
 40
0.0
 40
0.5093466637
 40
1.0
 40
1.0
 40
1.0
 40
1.0
 10
13.814425439
 20
14.5382992144
 30
0.0
 10
13.8261902375
 20
14.545084559
 30
0.0
 10
13.8499069052
 20
14.5573692708
 30
0.0
 10
13.8747445322
 20
14.5672187396
 30
0.0
 10
13.887150709
 20
14.571371769
 30
0.0
  0
SPLINE
  5
2E5
100
AcDbEntity
  8
02___PRT_ALL_AXES
100
AcDbSpline
 62
7
  6
CONTINUOUS
 70
0
 71
3
 72
40
 73
36
 74
0
 42
0.0000001
 43
0.0000001
 44
0.0000000001
 40
0.0
 40
0.0
 40
0.0
 40
0.0
 40
0.0312152009
 40
0.0635295819
 40
0.096844771
 40
0.1310647044
 40
0.1660830538
 40
0.2017890427
 40
0.2380680208
 40
0.2748016419
 40
0.3118688892
 40
0.3491468457
 40
0.3865113809
 40
0.4238378361
 40
0.4610017943
 40
0.4978797861
 40
0.5343499504
 40
0.5702928504
 40
0.605592235
 40
0.640135724
 40
0.6738156603
 40
0.7065301271
 40
0.7381837513
 40
0.7686886964
 40
0.7979660566
 40
0.8259472112
 40
0.8525752989
 40
0.8778072866
 40
0.9016166627
 40
0.9239962846
 40
0.9449621808
 40
0.9549298477
 40
0.9645633959
 40
0.982868354
 40
1.0
 40
1.0
 40
1.0
 40
1.0
 10
13.3578730547
 20
13.802510507
 30
0.0
 10
13.3471592558
 20
13.7678406412
 30
0.0
 10
13.3266564157
 20
13.6968721014
 30
0.0
 10
13.2990642665
 20
13.5877048202
 30
0.0
 10
13.2741846152
 20
13.4743089702
 30
0.0
 10
13.2521152699
 20
13.3571345586
 30
0.0
 10
13.2329433553
 20
13.2366372664
 30
0.0
 10
13.216744292
 20
13.1132907714
 30
0.0
 10
13.2035819097
 20
12.9875789809
 30
0.0
 10
13.1935086556
 20
12.8599951016
 30
0.0
 10
13.1865639449
 20
12.7310400985
 30
0.0
 10
13.1827750407
 20
12.6012202968
 30
0.0
 10
13.1821571701
 20
12.4710454406
 30
0.0
 10
13.1847129178
 20
12.3410267192
 30
0.0
 10
13.1904318153
 20
12.2116746788
 30
0.0
 10
13.1992912993
 20
12.0834972186
 30
0.0
 10
13.2112567944
 20
11.9569976088
 30
0.0
 10
13.2262808336
 20
11.8326723647
 30
0.0
 10
13.2443039017
 20
11.7110092903
 30
0.0
 10
13.2652550884
 20
11.5924856685
 30
0.0
 10
13.2890520277
 20
11.4775662336
 30
0.0
 10
13.315600511
 20
11.3667010788
 30
0.0
 10
13.34479595
 20
11.2603240793
 30
0.0
 10
13.3765239731
 20
11.1588512166
 30
0.0
 10
13.4106599702
 20
11.062678406
 30
0.0
 10
13.4470701564
 20
10.9721799174
 30
0.0
 10
13.4856131113
 20
10.8877070324
 30
0.0
 10
13.5261402678
 20
10.8095869938
 30
0.0
 10
13.5684972755
 20
10.7381192224
 30
0.0
 10
13.612522611
 20
10.6735812871
 30
0.0
 10
13.6510973153
 20
10.6249847348
 30
0.0
 10
13.6826957542
 20
10.5899585486
 30
0.0
 10
13.7136447923
 20
10.5585734063
 30
0.0
 10
13.7530128324
 20
10.5238673531
 30
0.0
 10
13.7867762808
 20
10.5000739565
 30
0.0
 10
13.8037527069
 20
10.4896611462
 30
0.0
  0
SPLINE
  5
2E6
100
AcDbEntity
  8
02___PRT_ALL_AXES
100
AcDbSpline
 62
7
  6
CONTINUOUS
 70
0
 71
3
 72
9
 73
5
 74
0
 42
0.0000001
 43
0.0000001
 44
0.0000000001
 40
0.0
 40
0.0
 40
0.0
 40
0.0
 40
0.5095100174
 40
1.0
 40
1.0
 40
1.0
 40
1.0
 10
13.8133510264
 20
10.48393232
 30
0.0
 10
13.8252831279
 20
10.4770069904
 30
0.0
 10
13.8493406307
 20
10.4644779104
 30
0.0
 10
13.8745563441
 20
10.4544539253
 30
0.0
 10
13.8871507104
 20
10.4502382445
 30
0.0
  0
SPLINE
  5
2E7
100
AcDbEntity
  8
02___PRT_ALL_AXES
100
AcDbSpline
 62
7
  6
CONTINUOUS
 70
0
 71
3
 72
53
 73
49
 74
0
 42
0.0000001
 43
0.0000001
 44
0.0000000001
 40
0.0
 40
0.0
 40
0.0
 40
0.0
 40
0.0349611531
 40
0.0714252541
 40
0.1092216155
 40
0.1481709533
 40
0.1880790204
 40
0.2287435458
 40
0.2699547129
 40
0.3114977467
 40
0.3531548333
 40
0.3947071384
 40
0.435936784
 40
0.4766288251
 40
0.5165732668
 40
0.5555671435
 40
0.593416725
 40
0.6299398742
 40
0.6649685997
 40
0.6983519641
 40
0.7143863058
 40
0.7299623008
 40
0.7450675233
 40
0.7596915389
 40
0.7738256717
 40
0.7874639383
 40
0.8006024752
 40
0.8132406126
 40
0.8253806731
 40
0.8370285708
 40
0.8481944388
 40
0.8588926158
 40
0.869142921
 40
0.8789704396
 40
0.8884067106
 40
0.8974897792
 40
0.9062645809
 40
0.9147830654
 40
0.9231034497
 40
0.9312896182
 40
0.939409346
 40
0.9475325484
 40
0.9557289954
 40
0.9640662252
 40
0.9726074896
 40
0.981410603
 40
0.9905266447
 40
1.0
 40
1.0
 40
1.0
 40
1.0
 10
13.4325771845
 20
13.7233530122
 30
0.0
 10
13.4198972115
 20
13.6823206045
 30
0.0
 10
13.3959392925
 20
13.5978803571
 30
0.0
 10
13.3646946423
 20
13.4673651203
 30
0.0
 10
13.3375282807
 20
13.330942035
 30
0.0
 10
13.3146086844
 20
13.1894577292
 30
0.0
 10
13.2960791128
 20
13.0437812252
 30
0.0
 10
13.2820545436
 20
12.8948127806
 30
0.0
 10
13.2726226261
 20
12.7434717994
 30
0.0
 10
13.2678420953
 20
12.5906932745
 30
0.0
 10
13.2677426757
 20
12.4374211413
 30
0.0
 10
13.272324946
 20
12.2846024532
 30
0.0
 10
13.2815603322
 20
12.1331813765
 30
0.0
 10
13.295391303
 20
11.9840932469
 30
0.0
 10
13.3137317228
 20
11.8382587019
 30
0.0
 10
13.3364674596
 20
11.6965777162
 30
0.0
 10
13.3634569986
 20
11.5599241466
 30
0.0
 10
13.3945325207
 20
11.4291387034
 30
0.0
 10
13.4295009342
 20
11.3050281129
 30
0.0
 10
13.4621294426
 20
11.2065113714
 30
0.0
 10
13.4901040692
 20
11.1317248913
 30
0.0
 10
13.5116345351
 20
11.0785227261
 30
0.0
 10
13.5339629978
 20
11.0275359219
 30
0.0
 10
13.5570542381
 20
10.9788423531
 30
0.0
 10
13.5808744505
 20
10.9325176284
 30
0.0
 10
13.6053852022
 20
10.8886321242
 30
0.0
 10
13.6305508568
 20
10.8472539396
 30
0.0
 10
13.6563320084
 20
10.808446005
 30
0.0
 10
13.6826900522
 20
10.7722678693
 30
0.0
 10
13.7095860849
 20
10.7387754916
 30
0.0
 10
13.7369786467
 20
10.7080192481
 30
0.0
 10
13.7648293488
 20
10.6800482673
 30
0.0
 10
13.7930954003
 20
10.6549044274
 30
0.0
 10
13.821737497
 20
10.6326293687
 30
0.0
 10
13.8507131136
 20
10.6132586845
 30
0.0
 10
13.879980203
 20
10.5968256176
 30
0.0
 10
13.9094958145
 20
10.5833614741
 30
0.0
 10
13.9392135796
 20
10.572890407
 30
0.0
 10
13.9690868449
 20
10.5654380711
 30
0.0
 10
13.999064174
 20
10.5610184251
 30
0.0
 10
14.029093276
 20
10.5596450578
 30
0.0
 10
14.0591195767
 20
10.5613200155
 30
0.0
 10
14.089089156
 20
10.5660389248
 30
0.0
 10
14.1189488633
 20
10.5737918388
 30
0.0
 10
14.1486492476
 20
10.5845581141
 30
0.0
 10
14.1781419733
 20
10.59831835
 30
0.0
 10
14.2073814699
 20
10.615041468
 30
0.0
 10
14.2262919519
 20
10.6278857353
 30
0.0
 10
14.2356849469
 20
10.6347557597
 30
0.0
  0
SPLINE
  5
2E8
100
AcDbEntity
  8
02___PRT_ALL_AXES
100
AcDbSpline
 62
7
  6
CONTINUOUS
 70
0
 71
3
 72
28
 73
24
 74
0
 42
0.0000001
 43
0.0000001
 44
0.0000000001
 40
0.0
 40
0.0
 40
0.0
 40
0.0
 40
0.022910253
 40
0.0454449955
 40
0.0677236623
 40
0.0898711362
 40
0.112014933
 40
0.1342827335
 40
0.1567994808
 40
0.1796851489
 40
0.2030525826
 40
0.2270056094
 40
0.2770098096
 40
0.3303593094
 40
0.3875243486
 40
0.4488308955
 40
0.5144813152
 40
0.5845749623
 40
0.6591273658
 40
0.7380837637
 40
0.8213278067
 40
0.9087067175
 40
1.0
 40
1.0
 40
1.0
 40
1.0
 10
16.6226954925
 20
14.5713717413
 30
0.0
 10
16.6141753554
 20
14.5742236656
 30
0.0
 10
16.597054923
 20
14.579250205
 30
0.0
 10
16.5710360605
 20
14.5847140773
 30
0.0
 10
16.5449549483
 20
14.5880199064
 30
0.0
 10
16.5188434344
 20
14.5891637411
 30
0.0
 10
16.4927308673
 20
14.5881441787
 30
0.0
 10
16.4666476638
 20
14.5849609935
 30
0.0
 10
16.4406231703
 20
14.579620955
 30
0.0
 10
16.4146867021
 20
14.5721304968
 30
0.0
 10
16.3888658014
 20
14.5624988742
 30
0.0
 10
16.3541370641
 20
14.5465966708
 30
0.0
 10
16.3110252966
 20
14.5211093157
 30
0.0
 10
16.261014699
 20
14.4826645211
 30
0.0
 10
16.2121480262
 20
14.4361082341
 30
0.0
 10
16.1646050558
 20
14.3816448856
 30
0.0
 10
16.1185551532
 20
14.3194969477
 30
0.0
 10
16.0741722204
 20
14.2499155341
 30
0.0
 10
16.0316288012
 20
14.173180145
 30
0.0
 10
15.9910951081
 20
14.0896013515
 30
0.0
 10
15.9527321971
 20
13.9995159278
 30
0.0
 10
15.9167004374
 20
13.9032953616
 30
0.0
 10
15.8947898142
 20
13.8367171872
 30
0.0
 10
15.8842191505
 20
13.802510507
 30
0.0
  0
SPLINE
  5
2E9
100
AcDbEntity
  8
02___PRT_ALL_AXES
100
AcDbSpline
 62
7
  6
CONTINUOUS
 70
0
 71
3
 72
16
 73
12
 74
0
 42
0.0000001
 43
0.0000001
 44
0.0000000001
 40
0.0
 40
0.0
 40
0.0
 40
0.0
 40
0.1546468043
 40
0.3002191859
 40
0.4367751734
 40
0.5645370396
 40
0.6839290807
 40
0.7956150726
 40
0.9005357481
 40
0.9508660604
 40
1.0
 40
1.0
 40
1.0
 40
1.0
 10
17.0668039327
 20
10.8506105699
 30
0.0
 10
17.0537607533
 20
10.8262904014
 30
0.0
 10
17.0271853765
 20
10.7797318548
 30
0.0
 10
16.9844579715
 20
10.7144804706
 30
0.0
 10
16.940214438
 20
10.6561489733
 30
0.0
 10
16.8946124592
 20
10.6049618854
 30
0.0
 10
16.8478048758
 20
10.5611151335
 30
0.0
 10
16.7999551303
 20
10.5247896988
 30
0.0
 10
16.7587617673
 20
10.5005890258
 30
0.0
 10
16.7255879799
 20
10.4853736785
 30
0.0
 10
16.7089588668
 20
10.4791144227
 30
0.0
 10
16.7006443049
 20
10.4763311416
 30
0.0
  0
SPLINE
  5
2EA
100
AcDbEntity
  8
02___PRT_ALL_AXES
100
AcDbSpline
 62
7
  6
CONTINUOUS
 70
0
 71
3
 72
16
 73
12
 74
0
 42
0.0000001
 43
0.0000001
 44
0.0000000001
 40
0.0
 40
0.0
 40
0.0
 40
0.0
 40
0.1546482458
 40
0.3002221738
 40
0.4367788363
 40
0.5645408414
 40
0.6839326772
 40
0.7956179283
 40
0.9005372896
 40
0.950866921
 40
1.0
 40
1.0
 40
1.0
 40
1.0
 10
17.0668243907
 20
14.1709612597
 30
0.0
 10
17.0537807401
 20
14.1952839983
 30
0.0
 10
17.0272041032
 20
14.2418474284
 30
0.0
 10
16.9844748148
 20
14.3071058928
 30
0.0
 10
16.9402289418
 20
14.3654435826
 30
0.0
 10
16.8946243657
 20
14.4166359263
 30
0.0
 10
16.8478141159
 20
14.4604871964
 30
0.0
 10
16.7999615359
 20
14.4968163073
 30
0.0
 10
16.7587654223
 20
14.5210189563
 30
0.0
 10
16.7255896257
 20
14.5362357807
 30
0.0
 10
16.7089594025
 20
14.5424954012
 30
0.0
 10
16.700644304
 20
14.5452788281
 30
0.0
  0
SPLINE
  5
2EB
100
AcDbEntity
  8
02___PRT_ALL_AXES
100
AcDbSpline
 62
7
  6
CONTINUOUS
 70
0
 71
3
 72
51
 73
47
 74
0
 42
0.0000001
 43
0.0000001
 44
0.0000000001
 40
0.0
 40
0.0
 40
0.0
 40
0.0
 40
0.0081714454
 40
0.0161957385
 40
0.0241301345
 40
0.0320343358
 40
0.0399688934
 40
0.0479935344
 40
0.0561654719
 40
0.0645381762
 40
0.0731603068
 40
0.0820750813
 40
0.0913202393
 40
0.1009276876
 40
0.1109242538
 40
0.1213315067
 40
0.1321665922
 40
0.1434424753
 40
0.1551682523
 40
0.1673499345
 40
0.1799901888
 40
0.193089343
 40
0.2066450501
 40
0.2206529291
 40
0.2351066795
 40
0.2499980496
 40
0.2810512447
 40
0.3137205666
 40
0.3478916827
 40
0.3834338098
 40
0.4202023121
 40
0.4580409341
 40
0.4967837796
 40
0.5362571118
 40
0.5762810488
 40
0.616671197
 40
0.6572402064
 40
0.6977992945
 40
0.7381597508
 40
0.7781344514
 40
0.8175394108
 40
0.8561952607
 40
0.8939293
 40
0.9305756893
 40
0.9659813465
 40
1.0
 40
1.0
 40
1.0
 40
1.0
 10
16.6226954939
 20
10.4502382168
 30
0.0
 10
16.6128987074
 20
10.4469586938
 30
0.0
 10
16.5931890166
 20
10.4412920724
 30
0.0
 10
16.5631832458
 20
10.4355548891
 30
0.0
 10
16.5331045299
 20
10.4326842487
 30
0.0
 10
16.5030027012
 20
10.4326890824
 30
0.0
 10
16.472924454
 20
10.4355663614
 30
0.0
 10
16.4429172855
 20
10.4413130258
 30
0.0
 10
16.4130262952
 20
10.4499147107
 30
0.0
 10
16.3832954189
 20
10.4613564138
 30
0.0
 10
16.353766325
 20
10.4756172259
 30
0.0
 10
16.3244783015
 20
10.4926724845
 30
0.0
 10
16.2954710965
 20
10.5124970131
 30
0.0
 10
16.2667808513
 20
10.5350591509
 30
0.0
 10
16.2384462861
 20
10.5603282672
 30
0.0
 10
16.2105028353
 20
10.5882674296
 30
0.0
 10
16.1829875724
 20
10.6188386949
 30
0.0
 10
16.155936769
 20
10.6520001561
 30
0.0
 10
16.1293852744
 20
10.687706046
 30
0.0
 10
16.1033699633
 20
10.7259086897
 30
0.0
 10
16.0779239418
 20
10.7665551656
 30
0.0
 10
16.0530830737
 20
10.8095910307
 30
0.0
 10
16.0288798359
 20
10.8549571743
 30
0.0
 10
16.0053475446
 20
10.9025919717
 30
0.0
 10
15.9825182282
 20
10.9524307549
 30
0.0
 10
15.952640267
 20
11.0227130638
 30
0.0
 10
15.9173804368
 20
11.1156877123
 30
0.0
 10
15.878914573
 20
11.2333658446
 30
0.0
 10
15.8439332592
 20
11.3580287225
 30
0.0
 10
15.8126285802
 20
11.4889952583
 30
0.0
 10
15.7851725581
 20
11.6255523638
 30
0.0
 10
15.7617164136
 20
11.7669542586
 30
0.0
 10
15.7423894752
 20
11.9124281614
 30
0.0
 10
15.7272983617
 20
12.0611782961
 30
0.0
 10
15.7165262424
 20
12.2123905288
 30
0.0
 10
15.71013252
 20
12.3652369699
 30
0.0
 10
15.708152458
 20
12.5188806305
 30
0.0
 10
15.7105969966
 20
12.672480075
 30
0.0
 10
15.7174526776
 20
12.8251940939
 30
0.0
 10
15.7286817317
 20
12.976186422
 30
0.0
 10
15.7442222481
 20
13.1246302908
 30
0.0
 10
15.7639882602
 20
13.2697137115
 30
0.0
 10
15.7878711088
 20
13.4106419828
 30
0.0
 10
15.8157386824
 20
13.5466478905
 30
0.0
 10
15.8474378415
 20
13.6769831102
 30
0.0
 10
15.8715206569
 20
13.7614181665
 30
0.0
 10
15.8842191505
 20
13.802510507
 30
0.0
  0
SPLINE
  5
2EC
100
AcDbEntity
  8
02___PRT_ALL_AXES
100
AcDbSpline
 62
7
  6
CONTINUOUS
 70
0
 71
3
 72
23
 73
19
 74
0
 42
0.0000001
 43
0.0000001
 44
0.0000000001
 40
0.0
 40
0.0
 40
0.0
 40
0.0
 40
0.052704263
 40
0.1043312028
 40
0.1554735535
 40
0.2067447945
 40
0.2587526565
 40
0.3120739241
 40
0.3672327877
 40
0.424688961
 40
0.484830172
 40
0.5479739491
 40
0.6143700114
 40
0.6842078221
 40
0.7576222852
 40
0.8347009995
 40
0.9154900854
 40
1.0
 40
1.0
 40
1.0
 40
1.0
 10
16.700644304
 20
14.5452788281
 30
0.0
 10
16.6885504182
 20
14.5493271804
 30
0.0
 10
16.6641530634
 20
14.5560577839
 30
0.0
 10
16.6268933727
 20
14.5618337005
 30
0.0
 10
16.5895510787
 20
14.5631375182
 30
0.0
 10
16.5522308393
 20
14.5599586684
 30
0.0
 10
16.5150291897
 20
14.552313771
 30
0.0
 10
16.4780399957
 20
14.5402286295
 30
0.0
 10
16.441347807
 20
14.5237468506
 30
0.0
 10
16.4050322069
 20
14.5029157486
 30
0.0
 10
16.3691658637
 20
14.4777926277
 30
0.0
 10
16.3338204306
 20
14.4484374636
 30
0.0
 10
16.2990645519
 20
14.4149182407
 30
0.0
 10
16.2649675605
 20
14.3773081133
 30
0.0
 10
16.2315976622
 20
14.3356884284
 30
0.0
 10
16.1990227967
 20
14.2901476604
 30
0.0
 10
16.1673108874
 20
14.2407837448
 30
0.0
 10
16.1472375561
 20
14.2061688047
 30
0.0
 10
16.1373414979
 20
14.1882728471
 30
0.0
  0
SPLINE
  5
2ED
100
AcDbEntity
  8
02___PRT_ALL_AXES
100
AcDbSpline
 62
7
  6
CONTINUOUS
 70
0
 71
3
 72
9
 73
5
 74
0
 42
0.0000001
 43
0.0000001
 44
0.0000000001
 40
0.0
 40
0.0
 40
0.0
 40
0.0
 40
0.4858483931
 40
1.0
 40
1.0
 40
1.0
 40
1.0
 10
16.1373414979
 20
14.1882728471
 30
0.0
 10
16.1224131985
 20
14.1612766219
 30
0.0
 10
16.0933896749
 20
14.1047596493
 30
0.0
 10
16.067400898
 20
14.0467958186
 30
0.0
 10
16.0547377016
 20
14.0167059436
 30
0.0
  0
SPLINE
  5
2EE
100
AcDbEntity
  8
02___PRT_ALL_AXES
100
AcDbSpline
 62
7
  6
CONTINUOUS
 70
0
 71
3
 72
9
 73
5
 74
0
 42
0.0000001
 43
0.0000001
 44
0.0000000001
 40
0.0
 40
0.0
 40
0.0
 40
0.0
 40
0.4878972157
 40
1.0
 40
1.0
 40
1.0
 40
1.0
 10
16.0540713349
 20
14.0151207383
 30
0.0
 10
16.0402741481
 20
13.9822614664
 30
0.0
 10
16.0136895252
 20
13.9141930882
 30
0.0
 10
15.990150906
 20
13.845019815
 30
0.0
 10
15.9788032631
 20
13.8093760899
 30
0.0
  0
LINE
  5
2EF
100
AcDbEntity
  8
02___PRT_ALL_AXES
100
AcDbLine
 62
7
  6
CONTINUOUS
 10
15.9729172779
 20
13.7906649155
 11
15.9715192063
 21
13.786153802
  0
SPLINE
  5
2F0
100
AcDbEntity
  8
02___PRT_ALL_AXES
100
AcDbSpline
 62
7
  6
CONTINUOUS
 70
0
 71
3
 72
25
 73
21
 74
0
 42
0.0000001
 43
0.0000001
 44
0.0000000001
 40
0.0
 40
0.0
 40
0.0
 40
0.0
 40
0.0823047125
 40
0.1604152323
 40
0.234425801
 40
0.3044899019
 40
0.3708342223
 40
0.4337648354
 40
0.4936788097
 40
0.5510680766
 40
0.6065190581
 40
0.6607019053
 40
0.687558528
 40
0.7143752036
 40
0.7412470948
 40
0.7682686161
 40
0.8231016609
 40
0.8796005827
 40
0.9383894727
 40
1.0
 40
1.0
 40
1.0
 40
1.0
 10
16.9528805116
 20
14.1725293906
 30
0.0
 10
16.942281416
 20
14.18883827
 30
0.0
 10
16.9208113557
 20
14.2201091271
 30
0.0
 10
16.8868509142
 20
14.2639212112
 30
0.0
 10
16.8520618296
 20
14.3033037738
 30
0.0
 10
16.8165242147
 20
14.3381538317
 30
0.0
 10
16.7803215779
 20
14.3683833463
 30
0.0
 10
16.7435345254
 20
14.3939085496
 30
0.0
 10
16.7062486019
 20
14.4146555929
 30
0.0
 10
16.6685507357
 20
14.4305551794
 30
0.0
 10
16.6305422153
 20
14.4415466508
 30
0.0
 10
16.5985867715
 20
14.4465909454
 30
0.0
 10
16.5731281627
 20
14.4481082474
 30
0.0
 10
16.5540800244
 20
14.4480090422
 30
0.0
 10
16.5350395004
 20
14.4466750013
 30
0.0
 10
16.5095609641
 20
14.4432372082
 30
0.0
 10
16.477634479
 20
14.435769298
 30
0.0
 10
16.439794964
 20
14.4219235774
 30
0.0
 10
16.4023271726
 20
14.4032041779
 30
0.0
 10
16.378271147
 20
14.3879101804
 30
0.0
 10
16.3663513415
 20
14.3795489256
 30
0.0
  0
SPLINE
  5
2F1
100
AcDbEntity
  8
02___PRT_ALL_AXES
100
AcDbSpline
 62
7
  6
CONTINUOUS
 70
0
 71
3
 72
9
 73
5
 74
0
 42
0.0000001
 43
0.0000001
 44
0.0000000001
 40
0.0
 40
0.0
 40
0.0
 40
0.0
 40
0.4813335112
 40
1.0
 40
1.0
 40
1.0
 40
1.0
 10
16.3663513415
 20
14.3795489256
 30
0.0
 10
16.3489663897
 20
14.3673540948
 30
0.0
 10
16.3145029276
 20
14.3396154657
 30
0.0
 10
16.2833261806
 20
14.3082847369
 30
0.0
 10
16.2679386154
 20
14.2913484166
 30
0.0
  0
SPLINE
  5
2F2
100
AcDbEntity
  8
02___PRT_ALL_AXES
100
AcDbSpline
 62
7
  6
CONTINUOUS
 70
0
 71
3
 72
9
 73
5
 74
0
 42
0.0000001
 43
0.0000001
 44
0.0000000001
 40
0.0
 40
0.0
 40
0.0
 40
0.0
 40
0.4815781431
 40
1.0
 40
1.0
 40
1.0
 40
1.0
 10
16.2667818089
 20
14.2900722432
 30
0.0
 10
16.2498783768
 20
14.2713816915
 30
0.0
 10
16.2167033743
 20
14.2308074792
 30
0.0
 10
16.1870026335
 20
14.187657848
 30
0.0
 10
16.1724008143
 20
14.1647943566
 30
0.0
  0
SPLINE
  5
2F3
100
AcDbEntity
  8
02___PRT_ALL_AXES
100
AcDbSpline
 62
7
  6
CONTINUOUS
 70
0
 71
3
 72
11
 73
7
 74
0
 42
0.0000001
 43
0.0000001
 44
0.0000000001
 40
0.0
 40
0.0
 40
0.0
 40
0.0
 40
0.236073584
 40
0.4814882171
 40
0.7361747082
 40
1.0
 40
1.0
 40
1.0
 40
1.0
 10
16.1724008143
 20
14.1647943566
 30
0.0
 10
16.1634374983
 20
14.1507596191
 30
0.0
 10
16.145763179
 20
14.1217433971
 30
0.0
 10
16.1204701446
 20
14.0763762778
 30
0.0
 10
16.0959218516
 20
14.028392917
 30
0.0
 10
16.080349496
 20
13.9952892983
 30
0.0
 10
16.0726853319
 20
13.9783303051
 30
0.0
  0
SPLINE
  5
2F4
100
AcDbEntity
  8
02___PRT_ALL_AXES
100
AcDbSpline
 62
7
  6
CONTINUOUS
 70
0
 71
3
 72
9
 73
5
 74
0
 42
0.0000001
 43
0.0000001
 44
0.0000000001
 40
0.0
 40
0.0
 40
0.0
 40
0.0
 40
0.4871885057
 40
1.0
 40
1.0
 40
1.0
 40
1.0
 10
16.0704310295
 20
13.9733220911
 30
0.0
 10
16.0569056669
 20
13.9431535627
 30
0.0
 10
16.0307972989
 20
13.8804799661
 30
0.0
 10
16.0076496663
 20
13.8166617806
 30
0.0
 10
15.9964636467
 20
13.7837080318
 30
0.0
  0
SPLINE
  5
2F5
100
AcDbEntity
  8
02___PRT_ALL_AXES
100
AcDbSpline
 62
7
  6
CONTINUOUS
 70
0
 71
3
 72
25
 73
21
 74
0
 42
0.0000001
 43
0.0000001
 44
0.0000000001
 40
0.0
 40
0.0
 40
0.0
 40
0.0
 40
0.0822982885
 40
0.160336691
 40
0.2342102533
 40
0.3040812771
 40
0.3701850758
 40
0.4019303161
 40
0.4328621494
 40
0.492492472
 40
0.5496111919
 40
0.6048339615
 40
0.6319645978
 40
0.6588898471
 40
0.7124831459
 40
0.7664258123
 40
0.8214828099
 40
0.8783635154
 40
0.9376931422
 40
1.0
 40
1.0
 40
1.0
 40
1.0
 10
16.9535383975
 20
10.8500937063
 30
0.0
 10
16.9427741573
 20
10.8334922328
 30
0.0
 10
16.920963706
 20
10.8016802272
 30
0.0
 10
16.8864370002
 20
10.7571566545
 30
0.0
 10
16.8510512689
 20
10.7172131497
 30
0.0
 10
16.8148980118
 20
10.6819559091
 30
0.0
 10
16.7837858332
 20
10.6562181921
 30
0.0
 10
16.7586118486
 20
10.6381759091
 30
0.0
 10
16.7339073202
 20
10.622211848
 30
0.0
 10
16.7026631962
 20
10.6051967214
 30
0.0
 10
16.6642988127
 20
10.5895471152
 30
0.0
 10
16.6318614337
 20
10.5806847561
 30
0.0
 10
16.6059540262
 20
10.5762242448
 30
0.0
 10
16.5802025871
 20
10.5734906108
 30
0.0
 10
16.5477748709
 20
10.5732536622
 30
0.0
 10
16.5088811272
 20
10.5781343052
 30
0.0
 10
16.4701701218
 20
10.5881466095
 30
0.0
 10
16.4317622122
 20
10.6032477783
 30
0.0
 10
16.3937632401
 20
10.6233697758
 30
0.0
 10
16.369409991
 20
10.6396560228
 30
0.0
 10
16.3573443715
 20
10.6485333861
 30
0.0
  0
SPLINE
  5
2F6
100
AcDbEntity
  8
02___PRT_ALL_AXES
100
AcDbSpline
 62
7
  6
CONTINUOUS
 70
0
 71
3
 72
9
 73
5
 74
0
 42
0.0000001
 43
0.0000001
 44
0.0000000001
 40
0.0
 40
0.0
 40
0.0
 40
0.0
 40
0.4810543814
 40
1.0
 40
1.0
 40
1.0
 40
1.0
 10
16.3573443715
 20
10.6485333861
 30
0.0
 10
16.3398112056
 20
10.6614335347
 30
0.0
 10
16.3050939076
 20
10.6906428397
 30
0.0
 10
16.2737601312
 20
10.7233993699
 30
0.0
 10
16.2583005946
 20
10.741074548
 30
0.0
  0
SPLINE
  5
2F7
100
AcDbEntity
  8
02___PRT_ALL_AXES
100
AcDbSpline
 62
7
  6
CONTINUOUS
 70
0
 71
3
 72
9
 73
5
 74
0
 42
0.0000001
 43
0.0000001
 44
0.0000000001
 40
0.0
 40
0.0
 40
0.0
 40
0.0
 40
0.48164644
 40
1.0
 40
1.0
 40
1.0
 40
1.0
 10
16.2567723396
 20
10.7428270488
 30
0.0
 10
16.2398627588
 20
10.7622756225
 30
0.0
 10
16.2067079881
 20
10.8043744197
 30
0.0
 10
16.1770646383
 20
10.848984061
 30
0.0
 10
16.1625003203
 20
10.8725882151
 30
0.0
  0
SPLINE
  5
2F8
100
AcDbEntity
  8
02___PRT_ALL_AXES
100
AcDbSpline
 62
7
  6
CONTINUOUS
 70
0
 71
3
 72
11
 73
7
 74
0
 42
0.0000001
 43
0.0000001
 44
0.0000000001
 40
0.0
 40
0.0
 40
0.0
 40
0.0
 40
0.2364341502
 40
0.4819789801
 40
0.7365455386
 40
1.0
 40
1.0
 40
1.0
 40
1.0
 10
16.1625003203
 20
10.8725882151
 30
0.0
 10
16.1537118256
 20
10.8868315861
 30
0.0
 10
16.1363880798
 20
10.9162358802
 30
0.0
 10
16.1116003273
 20
10.9621165223
 30
0.0
 10
16.087556306
 20
11.0105357363
 30
0.0
 10
16.0723072375
 20
11.0438914797
 30
0.0
 10
16.0648044728
 20
11.0609649055
 30
0.0
  0
SPLINE
  5
2F9
100
AcDbEntity
  8
02___PRT_ALL_AXES
100
AcDbSpline
 62
7
  6
CONTINUOUS
 70
0
 71
3
 72
9
 73
5
 74
0
 42
0.0000001
 43
0.0000001
 44
0.0000000001
 40
0.0
 40
0.0
 40
0.0
 40
0.0
 40
0.4871914457
 40
1.0
 40
1.0
 40
1.0
 40
1.0
 10
16.0636429493
 20
11.0636135751
 30
0.0
 10
16.0499565901
 20
11.0948878967
 30
0.0
 10
16.0235839824
 20
11.1598422943
 30
0.0
 10
16.0002847216
 20
11.2259528382
 30
0.0
 10
15.9890477819
 20
11.2600836029
 30
0.0
  0
SPLINE
  5
2FA
100
AcDbEntity
  8
02___PRT_ALL_AXES
100
AcDbSpline
 62
7
  6
CONTINUOUS
 70
0
 71
3
 72
23
 73
19
 74
0
 42
0.0000001
 43
0.0000001
 44
0.0000000001
 40
0.0
 40
0.0
 40
0.0
 40
0.0
 40
0.0551818689
 40
0.1130629934
 40
0.1733329208
 40
0.235650516
 40
0.2996499012
 40
0.3649457865
 40
0.4311384051
 40
0.497818201
 40
0.5645703762
 40
0.6309793464
 40
0.696633251
 40
0.7611283049
 40
0.8240739074
 40
0.8850961341
 40
0.9438461972
 40
1.0
 40
1.0
 40
1.0
 40
1.0
 10
15.9884514611
 20
11.2618971034
 30
0.0
 10
15.9741842111
 20
11.3053399129
 30
0.0
 10
15.9472935279
 20
11.3951323218
 30
0.0
 10
15.9124871549
 20
11.5345256383
 30
0.0
 10
15.8824327743
 20
11.6810602979
 30
0.0
 10
15.8573535896
 20
11.8336629476
 30
0.0
 10
15.8374343008
 20
11.9912206702
 30
0.0
 10
15.8228222279
 20
12.1525811881
 30
0.0
 10
15.813625357
 20
12.3165640703
 30
0.0
 10
15.8099116975
 20
12.4819690173
 30
0.0
 10
15.8117087196
 20
12.6475850768
 30
0.0
 10
15.8190031036
 20
12.8121997399
 30
0.0
 10
15.8317409771
 20
12.9746078971
 30
0.0
 10
15.8498280221
 20
13.1336214247
 30
0.0
 10
15.8731307826
 20
13.2880765916
 30
0.0
 10
15.9014769943
 20
13.4368474309
 30
0.0
 10
15.9346570077
 20
13.578842505
 30
0.0
 10
15.9604650618
 20
13.6705353078
 30
0.0
 10
15.9742032161
 20
13.7149919913
 30
0.0
  0
SPLINE
  5
2FB
100
AcDbEntity
  8
02___PRT_ALL_AXES
100
AcDbSpline
 62
7
  6
CONTINUOUS
 70
0
 71
3
 72
23
 73
19
 74
0
 42
0.0000001
 43
0.0000001
 44
0.0000000001
 40
0.0
 40
0.0
 40
0.0
 40
0.0
 40
0.0522993143
 40
0.1035198923
 40
0.1542741242
 40
0.2051952684
 40
0.256908903
 40
0.310005928
 40
0.3650207079
 40
0.4224179525
 40
0.4825874221
 40
0.5458441552
 40
0.6124345028
 40
0.6825409659
 40
0.756292125
 40
0.8337664545
 40
0.9150024466
 40
1.0
 40
1.0
 40
1.0
 40
1.0
 10
16.7006443049
 20
10.4763311416
 30
0.0
 10
16.688317221
 20
10.4722046778
 30
0.0
 10
16.6634420462
 20
10.4653703787
 30
0.0
 10
16.6254417174
 20
10.4596121142
 30
0.0
 10
16.5873587774
 20
10.4585058522
 30
0.0
 10
16.5493050343
 20
10.462060326
 30
0.0
 10
16.5113834859
 20
10.4702582541
 30
0.0
 10
16.4736929799
 20
10.4830683207
 30
0.0
 10
16.4363233327
 20
10.5004448468
 30
0.0
 10
16.3993568672
 20
10.5223338044
 30
0.0
 10
16.3628713265
 20
10.5486755153
 30
0.0
 10
16.3269402491
 20
10.5794028701
 30
0.0
 10
16.2916379519
 20
10.61444455
 30
0.0
 10
16.2570354562
 20
10.6537195199
 30
0.0
 10
16.2232069103
 20
10.6971414214
 30
0.0
 10
16.1902218301
 20
10.7446130896
 30
0.0
 10
16.1581539883
 20
10.7960298113
 30
0.0
 10
16.1378863773
 20
10.8320534252
 30
0.0
 10
16.1279020622
 20
10.8506721243
 30
0.0
  0
SPLINE
  5
2FC
100
AcDbEntity
  8
02___PRT_ALL_AXES
100
AcDbSpline
 62
7
  6
CONTINUOUS
 70
0
 71
3
 72
9
 73
5
 74
0
 42
0.0000001
 43
0.0000001
 44
0.0000000001
 40
0.0
 40
0.0
 40
0.0
 40
0.0
 40
0.486173682
 40
1.0
 40
1.0
 40
1.0
 40
1.0
 10
16.1279020622
 20
10.8506721243
 30
0.0
 10
16.1132199349
 20
10.8780512794
 30
0.0
 10
16.0846901497
 20
10.9352719616
 30
0.0
 10
16.0591428751
 20
10.993874617
 30
0.0
 10
16.0467032638
 20
11.0242614085
 30
0.0
  0
SPLINE
  5
2FD
100
AcDbEntity
  8
02___PRT_ALL_AXES
100
AcDbSpline
 62
7
  6
CONTINUOUS
 70
0
 71
3
 72
9
 73
5
 74
0
 42
0.0000001
 43
0.0000001
 44
0.0000000001
 40
0.0
 40
0.0
 40
0.0
 40
0.0
 40
0.4881145765
 40
1.0
 40
1.0
 40
1.0
 40
1.0
 10
16.0461180636
 20
11.0256923509
 30
0.0
 10
16.0324505932
 20
11.059146148
 30
0.0
 10
16.0061443892
 20
11.1283831976
 30
0.0
 10
15.9828869524
 20
11.1986958179
 30
0.0
 10
15.9716905119
 20
11.2349020549
 30
0.0
  0
SPLINE
  5
2FE
100
AcDbEntity
  8
02___PRT_ALL_AXES
100
AcDbSpline
 62
7
  6
CONTINUOUS
 70
0
 71
3
 72
15
 73
11
 74
0
 42
0.0000001
 43
0.0000001
 44
0.0000000001
 40
0.0
 40
0.0
 40
0.0
 40
0.0
 40
0.1216881041
 40
0.2463277121
 40
0.3729365329
 40
0.5005045268
 40
0.6280083459
 40
0.7544255092
 40
0.8787486939
 40
1.0
 40
1.0
 40
1.0
 40
1.0
 10
15.8563540039
 20
11.7436849588
 30
0.0
 10
15.8465186414
 20
11.8063360364
 30
0.0
 10
15.8293664174
 20
11.9336046517
 30
0.0
 10
15.8112195683
 20
12.1271614899
 30
0.0
 10
15.8004510311
 20
12.324339165
 30
0.0
 10
15.7971644243
 20
12.5232741851
 30
0.0
 10
15.801390897
 20
12.7220916151
 30
0.0
 10
15.813090302
 20
12.9189177225
 30
0.0
 10
15.8321502463
 20
13.1118922969
 30
0.0
 10
15.8499113601
 20
13.2386815244
 30
0.0
 10
15.8600488301
 20
13.3010538127
 30
0.0
  0
SPLINE
  5
2FF
100
AcDbEntity
  8
0
100
AcDbSpline
 62
7
  6
CONTINUOUS
 70
0
 71
3
 72
9
 73
5
 74
0
 42
0.0000001
 43
0.0000001
 44
0.0000000001
 40
0.0
 40
0.0
 40
0.0
 40
0.0
 40
0.4952452216
 40
1.0
 40
1.0
 40
1.0
 40
1.0
 10
13.3562972591
 20
13.0258379173
 30
0.0
 10
13.352375314
 20
13.0258379022
 30
0.0
 10
13.3444448357
 20
13.0252306243
 30
0.0
 10
13.3366975407
 20
13.0234446323
 30
0.0
 10
13.3328741556
 20
13.0222785448
 30
0.0
  0
SPLINE
  5
300
100
AcDbEntity
  8
0
100
AcDbSpline
 62
7
  6
CONTINUOUS
 70
0
 71
3
 72
15
 73
11
 74
0
 42
0.0000001
 43
0.0000001
 44
0.0000000001
 40
0.0
 40
0.0
 40
0.0
 40
0.0
 40
0.0771001929
 40
0.1625826535
 40
0.2617843523
 40
0.3774773381
 40
0.510378078
 40
0.6600250165
 40
0.8242709873
 40
1.0
 40
1.0
 40
1.0
 40
1.0
 10
13.370311308
 20
11.7370420373
 30
0.0
 10
13.3697418993
 20
11.7370431005
 30
0.0
 10
13.3685342202
 20
11.7372854375
 30
0.0
 10
13.3668475197
 20
11.7382825163
 30
0.0
 10
13.3652674837
 20
11.7398641122
 30
0.0
 10
13.3638098395
 20
11.7419914057
 30
0.0
 10
13.3624858021
 20
11.7446253336
 30
0.0
 10
13.3613247957
 20
11.7477193706
 30
0.0
 10
13.3603446146
 20
11.7512035588
 30
0.0
 10
13.3598400894
 20
11.7536655369
 30
0.0
 10
13.3596205985
 20
11.7549446569
 30
0.0
  0
SPLINE
  5
301
100
AcDbEntity
  8
0
100
AcDbSpline
 62
7
  6
CONTINUOUS
 70
0
 71
3
 72
15
 73
11
 74
0
 42
0.0000001
 43
0.0000001
 44
0.0000000001
 40
0.0
 40
0.0
 40
0.0
 40
0.0
 40
0.0825777944
 40
0.17163961
 40
0.2721678465
 40
0.3871079558
 40
0.5178901353
 40
0.6646404114
 40
0.8259757027
 40
1.0
 40
1.0
 40
1.0
 40
1.0
 10
13.4269229749
 20
11.4694709701
 30
0.0
 10
13.4264353488
 20
11.4694712694
 30
0.0
 10
13.4254159189
 20
11.4696381459
 30
0.0
 10
13.4239609005
 20
11.4703638797
 30
0.0
 10
13.4225783417
 20
11.4715340209
 30
0.0
 10
13.4212733268
 20
11.4731185347
 30
0.0
 10
13.4200581108
 20
11.4750987602
 30
0.0
 10
13.4189491213
 20
11.4774454499
 30
0.0
 10
13.4179583157
 20
11.4801173654
 30
0.0
 10
13.4174073118
 20
11.4820214028
 30
0.0
 10
13.4171530961
 20
11.4830170845
 30
0.0
  0
SPLINE
  5
302
100
AcDbEntity
  8
0
100
AcDbSpline
 62
7
  6
CONTINUOUS
 70
0
 71
3
 72
14
 73
10
 74
0
 42
0.0000001
 43
0.0000001
 44
0.0000000001
 40
0.0
 40
0.0
 40
0.0
 40
0.0
 40
0.0890231965
 40
0.1829949316
 40
0.286089762
 40
0.4012337686
 40
0.5302273696
 40
0.6734449694
 40
1.0
 40
1.0
 40
1.0
 40
1.0
 10
13.4999071773
 20
11.2294569084
 30
0.0
 10
13.4995024689
 20
11.2294556112
 30
0.0
 10
13.4986664748
 20
11.2295683263
 30
0.0
 10
13.4974533486
 20
11.2300682506
 30
0.0
 10
13.4962790493
 20
11.2308812485
 30
0.0
 10
13.4951514433
 20
11.2319948446
 30
0.0
 10
13.4940796239
 20
11.2333978038
 30
0.0
 10
13.4926723744
 20
11.235732285
 30
0.0
 10
13.4918266866
 20
11.2377061551
 30
0.0
 10
13.4913243292
 20
11.2391031357
 30
0.0
  0
SPLINE
  5
303
100
AcDbEntity
  8
0
100
AcDbSpline
 62
7
  6
CONTINUOUS
 70
0
 71
3
 72
13
 73
9
 74
0
 42
0.0000001
 43
0.0000001
 44
0.0000000001
 40
0.0
 40
0.0
 40
0.0
 40
0.0
 40
0.0967881063
 40
0.1971508732
 40
0.4200891441
 40
0.5474908011
 40
0.6865237338
 40
1.0
 40
1.0
 40
1.0
 40
1.0
 10
13.5872745438
 20
11.0235510684
 30
0.0
 10
13.5869520149
 20
11.0235510204
 30
0.0
 10
13.5862930546
 20
11.0236221493
 30
0.0
 10
13.5849537732
 20
11.0240574129
 30
0.0
 10
13.5836907686
 20
11.0249263644
 30
0.0
 10
13.5825458515
 20
11.0260886717
 30
0.0
 10
13.5813445224
 20
11.0276070717
 30
0.0
 10
13.5805812205
 20
11.0289173601
 30
0.0
 10
13.5801126694
 20
11.029850985
 30
0.0
  0
SPLINE
  5
304
100
AcDbEntity
  8
0
100
AcDbSpline
 62
7
  6
CONTINUOUS
 70
0
 71
3
 72
11
 73
7
 74
0
 42
0.0000001
 43
0.0000001
 44
0.0000000001
 40
0.0
 40
0.0
 40
0.0
 40
0.0
 40
0.2133175085
 40
0.4441107164
 40
0.7041668308
 40
1.0
 40
1.0
 40
1.0
 40
1.0
 10
13.6866437233
 20
10.8573671516
 30
0.0
 10
13.6861570249
 20
10.8573673413
 30
0.0
 10
13.6851378862
 20
10.8575381975
 30
0.0
 10
13.6836876913
 20
10.8582710009
 30
0.0
 10
13.6823057181
 20
10.859435029
 30
0.0
 10
13.6814931984
 20
10.8604168293
 30
0.0
 10
13.6810980813
 20
10.8609640572
 30
0.0
  0
SPLINE
  5
305
100
AcDbEntity
  8
0
100
AcDbSpline
 62
7
  6
CONTINUOUS
 70
0
 71
3
 72
15
 73
11
 74
0
 42
0.0000001
 43
0.0000001
 44
0.0000000001
 40
0.0
 40
0.0
 40
0.0
 40
0.0
 40
0.1756692256
 40
0.3397142813
 40
0.4891305793
 40
0.6218327325
 40
0.7374279478
 40
0.8367009708
 40
0.9224521425
 40
1.0
 40
1.0
 40
1.0
 40
1.0
 10
13.3639417505
 20
13.2913626309
 30
0.0
 10
13.3641654317
 20
13.2926167601
 30
0.0
 10
13.3646760878
 20
13.29502912
 30
0.0
 10
13.3656598899
 20
13.2984405436
 30
0.0
 10
13.3668183116
 20
13.3014667861
 30
0.0
 10
13.3681343336
 20
13.3040407953
 30
0.0
 10
13.3695795873
 20
13.3061179717
 30
0.0
 10
13.371142793
 20
13.3076616639
 30
0.0
 10
13.3728100027
 20
13.3086329116
 30
0.0
 10
13.3740009417
 20
13.3088682782
 30
0.0
 10
13.3745633026
 20
13.3088696248
 30
0.0
  0
SPLINE
  5
306
100
AcDbEntity
  8
0
100
AcDbSpline
 62
7
  6
CONTINUOUS
 70
0
 71
3
 72
13
 73
9
 74
0
 42
0.0000001
 43
0.0000001
 44
0.0000000001
 40
0.0
 40
0.0
 40
0.0
 40
0.0
 40
0.1067027045
 40
0.2232925189
 40
0.4767001967
 40
0.7422361369
 40
0.8735480627
 40
1.0
 40
1.0
 40
1.0
 40
1.0
 10
13.3609197933
 20
13.2273160119
 30
0.0
 10
13.3604943902
 20
13.2284269068
 30
0.0
 10
13.359725772
 20
13.2307988912
 30
0.0
 10
13.3584924732
 20
13.2359723107
 30
0.0
 10
13.3575845098
 20
13.2430203736
 30
0.0
 10
13.3574928497
 20
13.2502853412
 30
0.0
 10
13.357922607
 20
13.2561060884
 30
0.0
 10
13.3583055806
 20
13.2589565095
 30
0.0
 10
13.3585416919
 20
13.2603463288
 30
0.0
  0
SPLINE
  5
307
100
AcDbEntity
  8
0
100
AcDbSpline
 62
7
  6
CONTINUOUS
 70
0
 71
3
 72
9
 73
5
 74
0
 42
0.0000001
 43
0.0000001
 44
0.0000000001
 40
0.0
 40
0.0
 40
0.0
 40
0.0
 40
0.5127419606
 40
1.0
 40
1.0
 40
1.0
 40
1.0
 10
13.3609197933
 20
13.2273160119
 30
0.0
 10
13.3638175963
 20
13.2197487072
 30
0.0
 10
13.3697767431
 20
13.2051055448
 30
0.0
 10
13.3764167396
 20
13.1907562868
 30
0.0
 10
13.3798367016
 20
13.183856974
 30
0.0
  0
SPLINE
  5
308
100
AcDbEntity
  8
0
100
AcDbSpline
 62
7
  6
CONTINUOUS
 70
0
 71
3
 72
9
 73
5
 74
0
 42
0.0000001
 43
0.0000001
 44
0.0000000001
 40
0.0
 40
0.0
 40
0.0
 40
0.0
 40
0.5283875739
 40
1.0
 40
1.0
 40
1.0
 40
1.0
 10
13.3824279763
 20
13.1765635187
 30
0.0
 10
13.3820944224
 20
13.1778872826
 30
0.0
 10
13.3813616895
 20
13.1803686382
 30
0.0
 10
13.3803778498
 20
13.1827652804
 30
0.0
 10
13.3798367016
 20
13.183856974
 30
0.0
  0
LINE
  5
309
100
AcDbEntity
  8
0
100
AcDbLine
 62
7
  6
CONTINUOUS
 10
13.3607757586
 20
13.0264762334
 11
13.3620173232
 21
13.027344283
  0
SPLINE
  5
30A
100
AcDbEntity
  8
0
100
AcDbSpline
 62
7
  6
CONTINUOUS
 70
0
 71
3
 72
14
 73
10
 74
0
 42
0.0000001
 43
0.0000001
 44
0.0000000001
 40
0.0
 40
0.0
 40
0.0
 40
0.0
 40
0.1688338091
 40
0.3296132395
 40
0.4788569655
 40
0.613952106
 40
0.7336018409
 40
0.8372409063
 40
1.0
 40
1.0
 40
1.0
 40
1.0
 10
13.322974826
 20
13.0003222858
 30
0.0
 10
13.3231224046
 20
13.0017231188
 30
0.0
 10
13.3234944372
 20
13.0044500466
 30
0.0
 10
13.3242922912
 20
13.0083675653
 30
0.0
 10
13.3253035492
 20
13.0119458662
 30
0.0
 10
13.3265076703
 20
13.0150973275
 30
0.0
 10
13.3278837903
 20
13.0177685303
 30
0.0
 10
13.3297421256
 20
13.0203832352
 30
0.0
 10
13.3315753165
 20
13.0218824142
 30
0.0
 10
13.3328741556
 20
13.0222785448
 30
0.0
  0
SPLINE
  5
30B
100
AcDbEntity
  8
0
100
AcDbSpline
 62
7
  6
CONTINUOUS
 70
0
 71
3
 72
14
 73
10
 74
0
 42
0.0000001
 43
0.0000001
 44
0.0000000001
 40
0.0
 40
0.0
 40
0.0
 40
0.0
 40
0.0979244313
 40
0.207713355
 40
0.3274864987
 40
0.4552211707
 40
0.7259746803
 40
0.8641264568
 40
1.0
 40
1.0
 40
1.0
 40
1.0
 10
13.3240976123
 20
12.9358717097
 30
0.0
 10
13.323600184
 20
12.9368001349
 30
0.0
 10
13.3226811619
 20
12.9388430207
 30
0.0
 10
13.3215557251
 20
12.9421849942
 30
0.0
 10
13.3206300859
 20
12.945919162
 30
0.0
 10
13.3196796121
 20
12.9514154514
 30
0.0
 10
13.3192446464
 20
12.9571881513
 30
0.0
 10
13.3192983094
 20
12.9630493664
 30
0.0
 10
13.3194933494
 20
12.9659925985
 30
0.0
 10
13.3196356195
 20
12.9674471261
 30
0.0
  0
SPLINE
  5
30C
100
AcDbEntity
  8
0
100
AcDbSpline
 62
7
  6
CONTINUOUS
 70
0
 71
3
 72
9
 73
5
 74
0
 42
0.0000001
 43
0.0000001
 44
0.0000000001
 40
0.0
 40
0.0
 40
0.0
 40
0.0
 40
0.5155290627
 40
1.0
 40
1.0
 40
1.0
 40
1.0
 10
13.3240976123
 20
12.9358717097
 30
0.0
 10
13.3274217263
 20
12.929667417
 30
0.0
 10
13.33419688
 20
12.9178038948
 30
0.0
 10
13.3417054578
 20
12.9063863389
 30
0.0
 10
13.3455412026
 20
12.9009974234
 30
0.0
  0
SPLINE
  5
30D
100
AcDbEntity
  8
0
100
AcDbSpline
 62
7
  6
CONTINUOUS
 70
0
 71
3
 72
9
 73
5
 74
0
 42
0.0000001
 43
0.0000001
 44
0.0000000001
 40
0.0
 40
0.0
 40
0.0
 40
0.0
 40
0.5357401439
 40
1.0
 40
1.0
 40
1.0
 40
1.0
 10
13.3485644654
 20
12.8948981904
 30
0.0
 10
13.348156549
 20
12.8960463582
 30
0.0
 10
13.3472912726
 20
12.8981548883
 30
0.0
 10
13.3461535081
 20
12.900137183
 30
0.0
 10
13.3455412026
 20
12.9009974234
 30
0.0
  0
SPLINE
  5
30E
100
AcDbEntity
  8
0
100
AcDbSpline
 62
7
  6
CONTINUOUS
 70
0
 71
3
 72
10
 73
6
 74
0
 42
0.0000001
 43
0.0000001
 44
0.0000000001
 40
0.0
 40
0.0
 40
0.0
 40
0.0
 40
0.2192935636
 40
0.5834975771
 40
1.0
 40
1.0
 40
1.0
 40
1.0
 10
13.3343442653
 20
12.7359747839
 30
0.0
 10
13.3346731149
 20
12.7361072582
 30
0.0
 10
13.3355148487
 20
12.7365454455
 30
0.0
 10
13.3367758525
 20
12.7375773267
 30
0.0
 10
13.3375932429
 20
12.738546832
 30
0.0
 10
13.3379926643
 20
12.7390889303
 30
0.0
  0
SPLINE
  5
30F
100
AcDbEntity
  8
0
100
AcDbSpline
 62
7
  6
CONTINUOUS
 70
0
 71
3
 72
9
 73
5
 74
0
 42
0.0000001
 43
0.0000001
 44
0.0000000001
 40
0.0
 40
0.0
 40
0.0
 40
0.0
 40
0.4850344178
 40
1.0
 40
1.0
 40
1.0
 40
1.0
 10
13.3343442653
 20
12.7359747839
 30
0.0
 10
13.3300533785
 20
12.7342462369
 30
0.0
 10
13.3214644391
 20
12.7300201657
 30
0.0
 10
13.3135038647
 20
12.7247213049
 30
0.0
 10
13.3095712324
 20
12.7217790969
 30
0.0
  0
SPLINE
  5
310
100
AcDbEntity
  8
0
100
AcDbSpline
 62
7
  6
CONTINUOUS
 70
0
 71
3
 72
15
 73
11
 74
0
 42
0.0000001
 43
0.0000001
 44
0.0000000001
 40
0.0
 40
0.0
 40
0.0
 40
0.0
 40
0.1575520349
 40
0.3109172208
 40
0.4566383561
 40
0.5919154411
 40
0.7149391363
 40
0.8242903546
 40
0.9192414217
 40
1.0
 40
1.0
 40
1.0
 40
1.0
 10
13.3012135814
 20
12.6959395449
 30
0.0
 10
13.3012700016
 20
12.6973993253
 30
0.0
 10
13.3014661608
 20
12.7002775516
 30
0.0
 10
13.3020053043
 20
12.7044797356
 30
0.0
 10
13.3027765137
 20
12.7084361043
 30
0.0
 10
13.3037672918
 20
12.7120530722
 30
0.0
 10
13.3049505693
 20
12.7152554937
 30
0.0
 10
13.3063088556
 20
12.7179786915
 30
0.0
 10
13.3078075778
 20
12.7201666048
 30
0.0
 10
13.3089716466
 20
12.7213305154
 30
0.0
 10
13.3095712324
 20
12.7217790969
 30
0.0
  0
SPLINE
  5
311
100
AcDbEntity
  8
0
100
AcDbSpline
 62
7
  6
CONTINUOUS
 70
0
 71
3
 72
13
 73
9
 74
0
 42
0.0000001
 43
0.0000001
 44
0.0000000001
 40
0.0
 40
0.0
 40
0.0
 40
0.0
 40
0.0893070777
 40
0.1920896671
 40
0.3071704452
 40
0.4329705177
 40
0.7088697018
 40
1.0
 40
1.0
 40
1.0
 40
1.0
 10
13.3064505084
 20
12.6328416914
 30
0.0
 10
13.3058936668
 20
12.6335559
 30
0.0
 10
13.3048443553
 20
12.6352082307
 30
0.0
 10
13.30352272
 20
12.6380348604
 30
0.0
 10
13.3023734968
 20
12.6413305742
 30
0.0
 10
13.3010730901
 20
12.6464121626
 30
0.0
 10
13.3000831569
 20
12.6533891456
 30
0.0
 10
13.2999331914
 20
12.6591508011
 30
0.0
 10
13.3000262413
 20
12.6621015804
 30
0.0
  0
SPLINE
  5
312
100
AcDbEntity
  8
0
100
AcDbSpline
 62
7
  6
CONTINUOUS
 70
0
 71
3
 72
9
 73
5
 74
0
 42
0.0000001
 43
0.0000001
 44
0.0000000001
 40
0.0
 40
0.0
 40
0.0
 40
0.0
 40
0.5173290466
 40
1.0
 40
1.0
 40
1.0
 40
1.0
 10
13.3064505084
 20
12.6328416914
 30
0.0
 10
13.3101101632
 20
12.6281477945
 30
0.0
 10
13.317526338
 20
12.6193335498
 30
0.0
 10
13.3256981854
 20
12.6112059437
 30
0.0
 10
13.3298363091
 20
12.6075026982
 30
0.0
  0
SPLINE
  5
313
100
AcDbEntity
  8
0
100
AcDbSpline
 62
7
  6
CONTINUOUS
 70
0
 71
3
 72
9
 73
5
 74
0
 42
0.0000001
 43
0.0000001
 44
0.0000000001
 40
0.0
 40
0.0
 40
0.0
 40
0.0
 40
0.5422615425
 40
1.0
 40
1.0
 40
1.0
 40
1.0
 10
13.3332091573
 20
12.6027639297
 30
0.0
 10
13.3327402194
 20
12.603710013
 30
0.0
 10
13.3317683355
 20
12.6054053344
 30
0.0
 10
13.3305005126
 20
12.6069082963
 30
0.0
 10
13.3298363091
 20
12.6075026982
 30
0.0
  0
SPLINE
  5
314
100
AcDbEntity
  8
0
100
AcDbSpline
 62
7
  6
CONTINUOUS
 70
0
 71
3
 72
9
 73
5
 74
0
 42
0.0000001
 43
0.0000001
 44
0.0000000001
 40
0.0
 40
0.0
 40
0.0
 40
0.0
 40
0.457302241
 40
1.0
 40
1.0
 40
1.0
 40
1.0
 10
13.3293652054
 20
12.4399982452
 30
0.0
 10
13.3300326536
 20
12.4405679243
 30
0.0
 10
13.3313106022
 20
12.4420259808
 30
0.0
 10
13.3322907348
 20
12.4436839809
 30
0.0
 10
13.3327643558
 20
12.4446114181
 30
0.0
  0
SPLINE
  5
315
100
AcDbEntity
  8
0
100
AcDbSpline
 62
7
  6
CONTINUOUS
 70
0
 71
3
 72
9
 73
5
 74
0
 42
0.0000001
 43
0.0000001
 44
0.0000000001
 40
0.0
 40
0.0
 40
0.0
 40
0.0
 40
0.4826308197
 40
1.0
 40
1.0
 40
1.0
 40
1.0
 10
13.3293652054
 20
12.4399982452
 30
0.0
 10
13.3252072349
 20
12.4364493422
 30
0.0
 10
13.3169888274
 20
12.4286241566
 30
0.0
 10
13.3095241131
 20
12.4200858676
 30
0.0
 10
13.3058393206
 20
12.4155292903
 30
0.0
  0
SPLINE
  5
316
100
AcDbEntity
  8
0
100
AcDbSpline
 62
7
  6
CONTINUOUS
 70
0
 71
3
 72
13
 73
9
 74
0
 42
0.0000001
 43
0.0000001
 44
0.0000000001
 40
0.0
 40
0.0
 40
0.0
 40
0.0
 40
0.2926803714
 40
0.5690125586
 40
0.694621403
 40
0.8092692051
 40
0.9114275355
 40
1.0
 40
1.0
 40
1.0
 40
1.0
 10
13.2992511463
 20
12.386510734
 30
0.0
 10
13.2991748427
 20
12.3894592683
 30
0.0
 10
13.2993557165
 20
12.3952042208
 30
0.0
 10
13.3003839445
 20
12.4021501713
 30
0.0
 10
13.3017137789
 20
12.4071885977
 30
0.0
 10
13.302881176
 20
12.4104417393
 30
0.0
 10
13.3042184229
 20
12.4132197529
 30
0.0
 10
13.3052780543
 20
12.414835234
 30
0.0
 10
13.3058393206
 20
12.4155292903
 30
0.0
  0
SPLINE
  5
317
100
AcDbEntity
  8
0
100
AcDbSpline
 62
7
  6
CONTINUOUS
 70
0
 71
3
 72
15
 73
11
 74
0
 42
0.0000001
 43
0.0000001
 44
0.0000000001
 40
0.0
 40
0.0
 40
0.0
 40
0.0
 40
0.0813706726
 40
0.1769445495
 40
0.2867799988
 40
0.4100584076
 40
0.545310694
 40
0.6906972083
 40
0.8434102725
 40
1.0
 40
1.0
 40
1.0
 40
1.0
 10
13.308459475
 20
12.3264854127
 30
0.0
 10
13.3078621587
 20
12.3269564358
 30
0.0
 10
13.3067061335
 20
12.3281620145
 30
0.0
 10
13.3052203379
 20
12.3304037162
 30
0.0
 10
13.303877483
 20
12.3331761386
 30
0.0
 10
13.3027120398
 20
12.3364218025
 30
0.0
 10
13.3017414258
 20
12.3400749702
 30
0.0
 10
13.3009922551
 20
12.3440595534
 30
0.0
 10
13.3004765556
 20
12.348281326
 30
0.0
 10
13.3002962832
 20
12.3511691832
 30
0.0
 10
13.3002480349
 20
12.3526322602
 30
0.0
  0
SPLINE
  5
318
100
AcDbEntity
  8
0
100
AcDbSpline
 62
7
  6
CONTINUOUS
 70
0
 71
3
 72
9
 73
5
 74
0
 42
0.0000001
 43
0.0000001
 44
0.0000000001
 40
0.0
 40
0.0
 40
0.0
 40
0.0
 40
0.5154509537
 40
1.0
 40
1.0
 40
1.0
 40
1.0
 10
13.308459475
 20
12.3264854127
 30
0.0
 10
13.3123729032
 20
12.3233994179
 30
0.0
 10
13.3202933261
 20
12.3178116403
 30
0.0
 10
13.3288632899
 20
12.3132625536
 30
0.0
 10
13.3331500775
 20
12.3113723581
 30
0.0
  0
SPLINE
  5
319
100
AcDbEntity
  8
0
100
AcDbSpline
 62
7
  6
CONTINUOUS
 70
0
 71
3
 72
9
 73
5
 74
0
 42
0.0000001
 43
0.0000001
 44
0.0000000001
 40
0.0
 40
0.0
 40
0.0
 40
0.0
 40
0.544061592
 40
1.0
 40
1.0
 40
1.0
 40
1.0
 10
13.3367805799
 20
12.308123215
 30
0.0
 10
13.33626372
 20
12.3088494188
 30
0.0
 10
13.3352021767
 20
12.3101131007
 30
0.0
 10
13.3338335644
 20
12.3110709847
 30
0.0
 10
13.3331500775
 20
12.3113723581
 30
0.0
  0
SPLINE
  5
31A
100
AcDbEntity
  8
0
100
AcDbSpline
 62
7
  6
CONTINUOUS
 70
0
 71
3
 72
9
 73
5
 74
0
 42
0.0000001
 43
0.0000001
 44
0.0000000001
 40
0.0
 40
0.0
 40
0.0
 40
0.0
 40
0.4636272432
 40
1.0
 40
1.0
 40
1.0
 40
1.0
 10
13.3434176478
 20
12.1459516314
 30
0.0
 10
13.3440353889
 20
12.146789968
 30
0.0
 10
13.3451855113
 20
12.1487329019
 30
0.0
 10
13.3460611059
 20
12.1508066415
 30
0.0
 10
13.3464749015
 20
12.1519380932
 30
0.0
  0
SPLINE
  5
31B
100
AcDbEntity
  8
0
100
AcDbSpline
 62
7
  6
CONTINUOUS
 70
0
 71
3
 72
9
 73
5
 74
0
 42
0.0000001
 43
0.0000001
 44
0.0000000001
 40
0.0
 40
0.0
 40
0.0
 40
0.0
 40
0.4842512412
 40
1.0
 40
1.0
 40
1.0
 40
1.0
 10
13.3434176478
 20
12.1459516314
 30
0.0
 10
13.3395505126
 20
12.1407035403
 30
0.0
 10
13.3319751674
 20
12.1295601119
 30
0.0
 10
13.3251372022
 20
12.1179537953
 30
0.0
 10
13.321780138
 20
12.1118763402
 30
0.0
  0
SPLINE
  5
31C
100
AcDbEntity
  8
0
100
AcDbSpline
 62
7
  6
CONTINUOUS
 70
0
 71
3
 72
14
 73
10
 74
0
 42
0.0000001
 43
0.0000001
 44
0.0000000001
 40
0.0
 40
0.0
 40
0.0
 40
0.0
 40
0.1367240837
 40
0.2754883711
 40
0.5466962717
 40
0.674275198
 40
0.7936531988
 40
0.9028386451
 40
1.0
 40
1.0
 40
1.0
 40
1.0
 10
13.3171410091
 20
12.080469716
 30
0.0
 10
13.317007061
 20
12.0819279984
 30
0.0
 10
13.3168285922
 20
12.0848755302
 30
0.0
 10
13.3168076445
 20
12.0907327706
 30
0.0
 10
13.3172737149
 20
12.0964885694
 30
0.0
 10
13.318255588
 20
12.1019545027
 30
0.0
 10
13.3192018547
 20
12.1056541212
 30
0.0
 10
13.3203456922
 20
12.1089542905
 30
0.0
 10
13.3212769542
 20
12.1109654024
 30
0.0
 10
13.321780138
 20
12.1118763402
 30
0.0
  0
SPLINE
  5
31D
100
AcDbEntity
  8
0
100
AcDbSpline
 62
7
  6
CONTINUOUS
 70
0
 71
3
 72
15
 73
11
 74
0
 42
0.0000001
 43
0.0000001
 44
0.0000000001
 40
0.0
 40
0.0
 40
0.0
 40
0.0
 40
0.0759799166
 40
0.1647891421
 40
0.2688052484
 40
0.3886407993
 40
0.5236299831
 40
0.6724173248
 40
0.832367524
 40
1.0
 40
1.0
 40
1.0
 40
1.0
 10
13.3300697553
 20
12.0251529909
 30
0.0
 10
13.3294632746
 20
12.0253608141
 30
0.0
 10
13.3282322931
 20
12.0260628016
 30
0.0
 10
13.3266079114
 20
12.0276680434
 30
0.0
 10
13.3251023753
 20
12.0298490472
 30
0.0
 10
13.323747262
 20
12.0325648057
 30
0.0
 10
13.3225588475
 20
12.0357618942
 30
0.0
 10
13.3215680941
 20
12.0393766999
 30
0.0
 10
13.3207919016
 20
12.0433235546
 30
0.0
 10
13.3204347736
 20
12.0460666177
 30
0.0
 10
13.3202949551
 20
12.0474741323
 30
0.0
  0
SPLINE
  5
31E
100
AcDbEntity
  8
0
100
AcDbSpline
 62
7
  6
CONTINUOUS
 70
0
 71
3
 72
9
 73
5
 74
0
 42
0.0000001
 43
0.0000001
 44
0.0000000001
 40
0.0
 40
0.0
 40
0.0
 40
0.0
 40
0.5059324902
 40
1.0
 40
1.0
 40
1.0
 40
1.0
 10
13.3300697553
 20
12.0251529909
 30
0.0
 10
13.3341853493
 20
12.0237426975
 30
0.0
 10
13.3425402909
 20
12.0215503988
 30
0.0
 10
13.3511440102
 20
12.0207298065
 30
0.0
 10
13.3553921868
 20
12.0206777997
 30
0.0
  0
SPLINE
  5
31F
100
AcDbEntity
  8
0
100
AcDbSpline
 62
7
  6
CONTINUOUS
 70
0
 71
3
 72
10
 73
6
 74
0
 42
0.0000001
 43
0.0000001
 44
0.0000000001
 40
0.0
 40
0.0
 40
0.0
 40
0.0
 40
0.5309410987
 40
0.7699597913
 40
1.0
 40
1.0
 40
1.0
 40
1.0
 10
13.3591813896
 20
12.0190068415
 30
0.0
 10
13.3586247709
 20
12.0195050177
 30
0.0
 10
13.357716829
 20
12.0201406178
 30
0.0
 10
13.3563768784
 20
12.0205939936
 30
0.0
 10
13.3557158128
 20
12.0206738379
 30
0.0
 10
13.3553921868
 20
12.0206777997
 30
0.0
  0
SPLINE
  5
320
100
AcDbEntity
  8
0
100
AcDbSpline
 62
7
  6
CONTINUOUS
 70
0
 71
3
 72
9
 73
5
 74
0
 42
0.0000001
 43
0.0000001
 44
0.0000000001
 40
0.0
 40
0.0
 40
0.0
 40
0.0
 40
0.4709752465
 40
1.0
 40
1.0
 40
1.0
 40
1.0
 10
13.3761185759
 20
11.8618495447
 30
0.0
 10
13.3766665199
 20
11.8629224466
 30
0.0
 10
13.3776646893
 20
11.8652856094
 30
0.0
 10
13.3784100535
 20
11.867736468
 30
0.0
 10
13.3787506036
 20
11.869046127
 30
0.0
  0
SPLINE
  5
321
100
AcDbEntity
  8
0
100
AcDbSpline
 62
7
  6
CONTINUOUS
 70
0
 71
3
 72
9
 73
5
 74
0
 42
0.0000001
 43
0.0000001
 44
0.0000000001
 40
0.0
 40
0.0
 40
0.0
 40
0.0
 40
0.4870060197
 40
1.0
 40
1.0
 40
1.0
 40
1.0
 10
13.3761185759
 20
11.8618495447
 30
0.0
 10
13.3726584331
 20
11.8550744105
 30
0.0
 10
13.3659353185
 20
11.840965504
 30
0.0
 10
13.3598977848
 20
11.8265519665
 30
0.0
 10
13.356959198
 20
11.8190966811
 30
0.0
  0
SPLINE
  5
322
100
AcDbEntity
  8
0
100
AcDbSpline
 62
7
  6
CONTINUOUS
 70
0
 71
3
 72
13
 73
9
 74
0
 42
0.0000001
 43
0.0000001
 44
0.0000000001
 40
0.0
 40
0.0
 40
0.0
 40
0.0
 40
0.1272582326
 40
0.2591601831
 40
0.5251591626
 40
0.7780602074
 40
0.8940646249
 40
1.0
 40
1.0
 40
1.0
 40
1.0
 10
13.3543955598
 20
11.7861580153
 30
0.0
 10
13.3541675154
 20
11.7875550686
 30
0.0
 10
13.3538007775
 20
11.7904167613
 30
0.0
 10
13.3534038594
 20
11.7962474468
 30
0.0
 10
13.353534771
 20
11.8035015697
 30
0.0
 10
13.3544814016
 20
11.8105218267
 30
0.0
 10
13.3557445986
 20
11.8156545664
 30
0.0
 10
13.3565270891
 20
11.8180004076
 30
0.0
 10
13.356959198
 20
11.8190966811
 30
0.0
  0
SPLINE
  5
323
100
AcDbEntity
  8
0
100
AcDbSpline
 62
7
  6
CONTINUOUS
 70
0
 71
3
 72
9
 73
5
 74
0
 42
0.0000001
 43
0.0000001
 44
0.0000000001
 40
0.0
 40
0.0
 40
0.0
 40
0.0
 40
0.4780636004
 40
1.0
 40
1.0
 40
1.0
 40
1.0
 10
13.4265766857
 20
11.5954355368
 30
0.0
 10
13.4270414964
 20
11.5967063967
 30
0.0
 10
13.4278666856
 20
11.599419326
 30
0.0
 10
13.428456339
 20
11.602190954
 30
0.0
 10
13.4287117483
 20
11.603646088
 30
0.0
  0
SPLINE
  5
324
100
AcDbEntity
  8
0
100
AcDbSpline
 62
7
  6
CONTINUOUS
 70
0
 71
3
 72
9
 73
5
 74
0
 42
0.0000001
 43
0.0000001
 44
0.0000000001
 40
0.0
 40
0.0
 40
0.0
 40
0.0
 40
0.2423291291
 40
1.0
 40
1.0
 40
1.0
 40
1.0
 10
13.4265766857
 20
11.5954355368
 30
0.0
 10
13.4251115311
 20
11.5914295925
 30
0.0
 10
13.4192383503
 20
11.5748355527
 30
0.0
 10
13.4140332341
 20
11.5580074434
 30
0.0
 10
13.410417652
 20
11.5451703828
 30
0.0
  0
SPLINE
  5
325
100
AcDbEntity
  8
0
100
AcDbSpline
 62
7
  6
CONTINUOUS
 70
0
 71
3
 72
13
 73
9
 74
0
 42
0.0000001
 43
0.0000001
 44
0.0000000001
 40
0.0
 40
0.0
 40
0.0
 40
0.0
 40
0.1181877932
 40
0.2434072005
 40
0.5040580472
 40
0.7625982202
 40
0.8852540525
 40
1.0
 40
1.0
 40
1.0
 40
1.0
 10
13.4099993796
 20
11.5115974591
 30
0.0
 10
13.4096812505
 20
11.5128941285
 30
0.0
 10
13.4091323549
 20
11.5155913591
 30
0.0
 10
13.4083627383
 20
11.5212363022
 30
0.0
 10
13.4080407779
 20
11.5285263697
 30
0.0
 10
13.4085386259
 20
11.5357783248
 30
0.0
 10
13.4094495302
 20
11.5413095207
 30
0.0
 10
13.4100662353
 20
11.5439226838
 30
0.0
 10
13.410417652
 20
11.5451703828
 30
0.0
  0
SPLINE
  5
326
100
AcDbEntity
  8
0
100
AcDbSpline
 62
7
  6
CONTINUOUS
 70
0
 71
3
 72
9
 73
5
 74
0
 42
0.0000001
 43
0.0000001
 44
0.0000000001
 40
0.0
 40
0.0
 40
0.0
 40
0.0
 40
0.4846562488
 40
1.0
 40
1.0
 40
1.0
 40
1.0
 10
13.4934166793
 20
11.3539710493
 30
0.0
 10
13.4937884989
 20
11.3554008597
 30
0.0
 10
13.4944236768
 20
11.3583861129
 30
0.0
 10
13.4948358866
 20
11.3614091125
 30
0.0
 10
13.4949965831
 20
11.3629717807
 30
0.0
  0
SPLINE
  5
327
100
AcDbEntity
  8
0
100
AcDbSpline
 62
7
  6
CONTINUOUS
 70
0
 71
3
 72
13
 73
9
 74
0
 42
0.0000001
 43
0.0000001
 44
0.0000000001
 40
0.0
 40
0.0
 40
0.0
 40
0.0
 40
0.1093360506
 40
0.2279251177
 40
0.4830472179
 40
0.7469903433
 40
0.8762900414
 40
1.0
 40
1.0
 40
1.0
 40
1.0
 10
13.4824369182
 20
11.2642715332
 30
0.0
 10
13.4820350359
 20
11.2654305668
 30
0.0
 10
13.4813149206
 20
11.2678882061
 30
0.0
 10
13.4801855172
 20
11.2731926882
 30
0.0
 10
13.4794110723
 20
11.2803251816
 30
0.0
 10
13.4794546121
 20
11.2876161661
 30
0.0
 10
13.47999668
 20
11.2933936536
 30
0.0
 10
13.4804349119
 20
11.2962008836
 30
0.0
 10
13.4806984243
 20
11.2975636434
 30
0.0
  0
SPLINE
  5
328
100
AcDbEntity
  8
0
100
AcDbSpline
 62
7
  6
CONTINUOUS
 70
0
 71
3
 72
9
 73
5
 74
0
 42
0.0000001
 43
0.0000001
 44
0.0000000001
 40
0.0
 40
0.0
 40
0.0
 40
0.0
 40
0.2424787025
 40
1.0
 40
1.0
 40
1.0
 40
1.0
 10
13.5748167505
 20
11.1440374937
 30
0.0
 10
13.574950908
 20
11.144801757
 30
0.0
 10
13.5754439923
 20
11.1479640357
 30
0.0
 10
13.5757105442
 20
11.151160552
 30
0.0
 10
13.5757984333
 20
11.1535830792
 30
0.0
  0
SPLINE
  5
329
100
AcDbEntity
  8
0
100
AcDbSpline
 62
7
  6
CONTINUOUS
 70
0
 71
3
 72
13
 73
9
 74
0
 42
0.0000001
 43
0.0000001
 44
0.0000000001
 40
0.0
 40
0.0
 40
0.0
 40
0.0
 40
0.1005605788
 40
0.2124212611
 40
0.4616686544
 40
0.73089835
 40
0.8669883249
 40
1.0
 40
1.0
 40
1.0
 40
1.0
 10
13.5697338012
 20
11.0509214099
 30
0.0
 10
13.5692568068
 20
11.0519079386
 30
0.0
 10
13.5683807847
 20
11.0540561545
 30
0.0
 10
13.5669136171
 20
11.0588732348
 30
0.0
 10
13.5657001717
 20
11.0656588343
 30
0.0
 10
13.565297239
 20
11.0727959673
 30
0.0
 10
13.5654635212
 20
11.07866224
 30
0.0
 10
13.5657152398
 20
11.0815859667
 30
0.0
 10
13.5658859259
 20
11.0830252891
 30
0.0
  0
SPLINE
  5
32A
100
AcDbEntity
  8
0
100
AcDbSpline
 62
7
  6
CONTINUOUS
 70
0
 71
3
 72
13
 73
9
 74
0
 42
0.0000001
 43
0.0000001
 44
0.0000000001
 40
0.0
 40
0.0
 40
0.0
 40
0.0
 40
0.09185826
 40
0.1967690748
 40
0.3133056084
 40
0.4397325362
 40
0.7141249922
 40
1.0
 40
1.0
 40
1.0
 40
1.0
 10
13.6695106448
 20
10.877362209
 30
0.0
 10
13.6689700021
 20
10.8781437943
 30
0.0
 10
13.6679574139
 20
10.8799192107
 30
0.0
 10
13.6666911938
 20
10.8829083887
 30
0.0
 10
13.6656060073
 20
10.8863450522
 30
0.0
 10
13.6644079833
 20
10.8915663545
 30
0.0
 10
13.6635504401
 20
10.8986389458
 30
0.0
 10
13.6635075101
 20
10.9044490488
 30
0.0
 10
13.6636582666
 20
10.9074028267
 30
0.0
  0
SPLINE
  5
32B
100
AcDbEntity
  8
0
100
AcDbSpline
 62
7
  6
CONTINUOUS
 70
0
 71
3
 72
13
 73
9
 74
0
 42
0.0000001
 43
0.0000001
 44
0.0000000001
 40
0.0
 40
0.0
 40
0.0
 40
0.0
 40
0.0836194602
 40
0.181373474
 40
0.2928674161
 40
0.4170058218
 40
0.6962466904
 40
1.0
 40
1.0
 40
1.0
 40
1.0
 10
13.7790479085
 20
10.7483245002
 30
0.0
 10
13.7784601158
 20
10.7488711394
 30
0.0
 10
13.7773333319
 20
10.7502163319
 30
0.0
 10
13.7758935034
 20
10.7526394438
 30
0.0
 10
13.7746052587
 20
10.7555765844
 30
0.0
 10
13.7730750955
 20
10.7602825328
 30
0.0
 10
13.771783197
 20
10.7669717161
 30
0.0
 10
13.7713902522
 20
10.7725674997
 30
0.0
 10
13.771350541
 20
10.7754830623
 30
0.0
  0
SPLINE
  5
32C
100
AcDbEntity
  8
0
100
AcDbSpline
 62
7
  6
CONTINUOUS
 70
0
 71
3
 72
15
 73
11
 74
0
 42
0.0000001
 43
0.0000001
 44
0.0000000001
 40
0.0
 40
0.0
 40
0.0
 40
0.0
 40
0.0771406633
 40
0.1678578567
 40
0.2736783123
 40
0.3946815648
 40
0.5298990561
 40
0.677793664
 40
0.8356558713
 40
1.0
 40
1.0
 40
1.0
 40
1.0
 10
13.8953600193
 20
10.6673253649
 30
0.0
 10
13.894752131
 20
10.6676129365
 30
0.0
 10
13.8935390326
 20
10.6684720957
 30
0.0
 10
13.8919545125
 20
10.670272715
 30
0.0
 10
13.8904946219
 20
10.6726369983
 30
0.0
 10
13.8891930068
 20
10.6755192062
 30
0.0
 10
13.8880667672
 20
10.6788622534
 30
0.0
 10
13.8871458208
 20
10.6825983945
 30
0.0
 10
13.8864457328
 20
10.6866391177
 30
0.0
 10
13.8861403481
 20
10.6894334082
 30
0.0
 10
13.8860274639
 20
10.6908616313
 30
0.0
  0
SPLINE
  5
32D
100
AcDbEntity
  8
0
100
AcDbSpline
 62
7
  6
CONTINUOUS
 70
0
 71
3
 72
15
 73
11
 74
0
 42
0.0000001
 43
0.0000001
 44
0.0000000001
 40
0.0
 40
0.0
 40
0.0
 40
0.0
 40
0.0757621431
 40
0.1610181164
 40
0.2607144207
 40
0.3772166891
 40
0.5108865381
 40
0.6609791355
 40
0.825148187
 40
1.0
 40
1.0
 40
1.0
 40
1.0
 10
14.0152767476
 20
10.6365725341
 30
0.0
 10
14.0146876387
 20
10.636598096
 30
0.0
 10
14.0134403199
 20
10.6369139233
 30
0.0
 10
14.0117235762
 20
10.6380431909
 30
0.0
 10
14.01011968
 20
10.6397787247
 30
0.0
 10
14.0086501751
 20
10.6420832957
 30
0.0
 10
14.0073274292
 20
10.6449112786
 30
0.0
 10
14.0061831988
 20
10.6482097509
 30
0.0
 10
14.0052369376
 20
10.6519006592
 30
0.0
 10
14.0047639862
 20
10.6544989761
 30
0.0
 10
14.0045633745
 20
10.655844995
 30
0.0
  0
SPLINE
  5
32E
100
AcDbEntity
  8
0
100
AcDbSpline
 62
7
  6
CONTINUOUS
 70
0
 71
3
 72
9
 73
5
 74
0
 42
0.0000001
 43
0.0000001
 44
0.0000000001
 40
0.0
 40
0.0
 40
0.0
 40
0.0
 40
0.4869859556
 40
1.0
 40
1.0
 40
1.0
 40
1.0
 10
13.6743735968
 20
14.0165481256
 30
0.0
 10
13.6757149858
 20
14.0228221133
 30
0.0
 10
13.677808507
 20
14.0358509369
 30
0.0
 10
13.6787895447
 20
14.0490047734
 30
0.0
 10
13.6790249939
 20
14.0557593583
 30
0.0
  0
SPLINE
  5
32F
100
AcDbEntity
  8
0
100
AcDbSpline
 62
7
  6
CONTINUOUS
 70
0
 71
3
 72
12
 73
8
 74
0
 42
0.0000001
 43
0.0000001
 44
0.0000000001
 40
0.0
 40
0.0
 40
0.0
 40
0.0
 40
0.11003085
 40
0.2261555339
 40
0.4732461861
 40
0.7340906569
 40
1.0
 40
1.0
 40
1.0
 40
1.0
 10
13.5755562108
 20
13.814845347
 30
0.0
 10
13.576407776
 20
13.8174030465
 30
0.0
 10
13.5779975145
 20
13.8227145396
 30
0.0
 10
13.580737554
 20
13.8339846223
 30
0.0
 10
13.5832706472
 20
13.8490856315
 30
0.0
 10
13.5848715229
 20
13.8679942838
 30
0.0
 10
13.5849811865
 20
13.8809140802
 30
0.0
 10
13.5847880692
 20
13.8874259471
 30
0.0
  0
SPLINE
  5
330
100
AcDbEntity
  8
0
100
AcDbSpline
 62
7
  6
CONTINUOUS
 70
0
 71
3
 72
15
 73
11
 74
0
 42
0.0000001
 43
0.0000001
 44
0.0000000001
 40
0.0
 40
0.0
 40
0.0
 40
0.0
 40
0.0986748171
 40
0.2086319642
 40
0.3283877201
 40
0.4560676012
 40
0.5894548127
 40
0.7262423954
 40
0.8640326763
 40
1.0
 40
1.0
 40
1.0
 40
1.0
 10
13.4880109595
 20
13.577368761
 30
0.0
 10
13.4896380966
 20
13.5804689744
 30
0.0
 10
13.4926488352
 20
13.5872521603
 30
0.0
 10
13.4963190668
 20
13.5983251259
 30
0.0
 10
13.4993319045
 20
13.6106559257
 30
0.0
 10
13.5016180852
 20
13.6239835739
 30
0.0
 10
13.5031308572
 20
13.6380279177
 30
0.0
 10
13.5038358773
 20
13.652494693
 30
0.0
 10
13.5037135983
 20
13.6670688801
 30
0.0
 10
13.5030810088
 20
13.6767685221
 30
0.0
 10
13.5026207825
 20
13.6815710387
 30
0.0
  0
SPLINE
  5
331
100
AcDbEntity
  8
0
100
AcDbSpline
 62
7
  6
CONTINUOUS
 70
0
 71
3
 72
27
 73
23
 74
0
 42
0.0000001
 43
0.0000001
 44
0.0000000001
 40
0.0
 40
0.0
 40
0.0
 40
0.0
 40
0.0202810653
 40
0.0417797023
 40
0.0645090622
 40
0.0884643321
 40
0.1136243828
 40
0.1399598444
 40
0.1674318391
 40
0.1959886435
 40
0.2561166064
 40
0.3198218985
 40
0.3864903159
 40
0.4554436183
 40
0.5259611602
 40
0.5972882053
 40
0.6686588768
 40
0.7393039405
 40
0.8084598934
 40
0.8754018232
 40
0.9394762322
 40
1.0
 40
1.0
 40
1.0
 40
1.0
 10
17.1064552565
 20
12.0302784183
 30
0.0
 10
17.1028302104
 20
12.0346219476
 30
0.0
 10
17.0956933087
 20
12.043849452
 30
0.0
 10
17.0856103724
 20
12.0587666103
 30
0.0
 10
17.0758728745
 20
12.0751160651
 30
0.0
 10
17.0665112939
 20
12.0928454678
 30
0.0
 10
17.0575517798
 20
12.1118981464
 30
0.0
 10
17.0490241852
 20
12.1322153681
 30
0.0
 10
17.0409569438
 20
12.1537341402
 30
0.0
 10
17.030667515
 20
12.1844654527
 30
0.0
 10
17.0192074653
 20
12.2254330469
 30
0.0
 10
17.0078679796
 20
12.2773762905
 30
0.0
 10
16.9988632386
 20
12.3322694205
 30
0.0
 10
16.9923033876
 20
12.3894185737
 30
0.0
 10
16.9882776908
 20
12.4481034649
 30
0.0
 10
16.9868364012
 20
12.5075824097
 30
0.0
 10
16.9879971851
 20
12.5671030656
 30
0.0
 10
16.9917467004
 20
12.6259105794
 30
0.0
 10
16.9980324949
 20
12.6832597448
 30
0.0
 10
17.0067832254
 20
12.7384326967
 30
0.0
 10
17.0178776925
 20
12.790723653
 30
0.0
 10
17.0270232739
 20
12.8242829575
 30
0.0
 10
17.0320080441
 20
12.8404136786
 30
0.0
  0
SPLINE
  5
332
100
AcDbEntity
  8
0
100
AcDbSpline
 62
7
  6
CONTINUOUS
 70
0
 71
3
 72
9
 73
5
 74
0
 42
0.0000001
 43
0.0000001
 44
0.0000000001
 40
0.0
 40
0.0
 40
0.0
 40
0.0
 40
0.255383059
 40
1.0
 40
1.0
 40
1.0
 40
1.0
 10
17.0992381086
 20
12.9806432227
 30
0.0
 10
17.1000336926
 20
12.9813901032
 30
0.0
 10
17.1031784158
 20
12.9842830143
 30
0.0
 10
17.1064429849
 20
12.987046376
 30
0.0
 10
17.1089415082
 20
12.9890162773
 30
0.0
  0
SPLINE
  5
333
100
AcDbEntity
  8
0
100
AcDbSpline
 62
7
  6
CONTINUOUS
 70
0
 71
3
 72
11
 73
7
 74
0
 42
0.0000001
 43
0.0000001
 44
0.0000000001
 40
0.0
 40
0.0
 40
0.0
 40
0.0
 40
0.2723053224
 40
0.5261277156
 40
0.7665827483
 40
1.0
 40
1.0
 40
1.0
 40
1.0
 10
17.1089415082
 20
12.9890162773
 30
0.0
 10
17.1133885554
 20
12.992522446
 30
0.0
 10
17.1224153512
 20
12.9987774642
 30
0.0
 10
17.1367903651
 20
13.0058259726
 30
0.0
 10
17.1513914019
 20
13.0100932637
 30
0.0
 10
17.1612702507
 20
13.0110541301
 30
0.0
 10
17.1661245054
 20
13.0110546918
 30
0.0
  0
SPLINE
  5
334
100
AcDbEntity
  8
0
100
AcDbSpline
 62
7
  6
CONTINUOUS
 70
0
 71
3
 72
18
 73
14
 74
0
 42
0.0000001
 43
0.0000001
 44
0.0000000001
 40
0.0
 40
0.0
 40
0.0
 40
0.0
 40
0.1491038274
 40
0.2896182171
 40
0.4221048966
 40
0.4855969514
 40
0.5473968046
 40
0.6664178568
 40
0.7804747346
 40
0.836133293
 40
0.8911291505
 40
0.9456772053
 40
1.0
 40
1.0
 40
1.0
 40
1.0
 10
17.439432409
 20
11.0064703818
 30
0.0
 10
17.4290870655
 20
10.9940767434
 30
0.0
 10
17.408166195
 20
10.9706723834
 30
0.0
 10
17.3750932457
 20
10.9390591438
 30
0.0
 10
17.3465829889
 20
10.9162790514
 30
0.0
 10
17.3235141154
 20
10.9005477675
 30
0.0
 10
17.3008974472
 20
10.8868085571
 30
0.0
 10
17.2722738021
 20
10.8724964435
 30
0.0
 10
17.2427262169
 20
10.8620061027
 30
0.0
 10
17.2190876272
 20
10.8561799957
 30
0.0
 10
17.2014565675
 20
10.8530793511
 30
0.0
 10
17.1837983435
 20
10.8512191321
 30
0.0
 10
17.1720063198
 20
10.8508060947
 30
0.0
 10
17.1661246019
 20
10.8508063882
 30
0.0
  0
SPLINE
  5
335
100
AcDbEntity
  8
0
100
AcDbSpline
 62
7
  6
CONTINUOUS
 70
0
 71
3
 72
33
 73
29
 74
0
 42
0.0000001
 43
0.0000001
 44
0.0000000001
 40
0.0
 40
0.0
 40
0.0
 40
0.0
 40
0.0202795909
 40
0.041778064
 40
0.0645069606
 40
0.088459994
 40
0.1136197506
 40
0.139954737
 40
0.1674244738
 40
0.1959803189
 40
0.2255641454
 40
0.2561133444
 40
0.2875578154
 40
0.3198227337
 40
0.3528295952
 40
0.3864944832
 40
0.4207314976
 40
0.4554511932
 40
0.5259653479
 40
0.5972891592
 40
0.6686547531
 40
0.7392931824
 40
0.8084501533
 40
0.8753934325
 40
0.9078250251
 40
0.9394585093
 40
0.9702123884
 40
1.0
 40
1.0
 40
1.0
 40
1.0
 10
17.4621250732
 20
13.9879522177
 30
0.0
 10
17.4732686881
 20
13.9746010678
 30
0.0
 10
17.4952094093
 20
13.9462369292
 30
0.0
 10
17.5262015538
 20
13.9003788736
 30
0.0
 10
17.5561330131
 20
13.8501198115
 30
0.0
 10
17.5849157212
 20
13.7956222419
 30
0.0
 10
17.6124533489
 20
13.7370521392
 30
0.0
 10
17.6386657009
 20
13.6745960715
 30
0.0
 10
17.6634685101
 20
13.6084494258
 30
0.0
 10
17.6867803926
 20
13.5388201251
 30
0.0
 10
17.7085335911
 20
13.4659294516
 30
0.0
 10
17.72865237
 20
13.3900064747
 30
0.0
 10
17.747077047
 20
13.3112925494
 30
0.0
 10
17.7637487166
 20
13.2300369214
 30
0.0
 10
17.778610453
 20
13.1464968119
 30
0.0
 10
17.7916207724
 20
13.0609380868
 30
0.0
 10
17.8027328187
 20
12.9736312857
 30
0.0
 10
17.8150366274
 20
12.8546545267
 30
0.0
 10
17.8254015943
 20
12.7035476484
 30
0.0
 10
17.8298345998
 20
12.5207132718
 30
0.0
 10
17.8262669674
 20
12.3377514345
 30
0.0
 10
17.8147436084
 20
12.1569778214
 30
0.0
 10
17.7954133956
 20
11.9806853293
 30
0.0
 10
17.7727764186
 20
11.8378784545
 30
0.0
 10
17.7508337128
 20
11.7276852315
 30
0.0
 10
17.7327802545
 20
11.6483920191
 30
0.0
 10
17.7130208548
 20
11.5718465683
 30
0.0
 10
17.6985165776
 20
11.5219861513
 30
0.0
 10
17.6909747365
 20
11.4975807446
 30
0.0
  0
SPLINE
  5
336
100
AcDbEntity
  8
0
100
AcDbSpline
 62
7
  6
CONTINUOUS
 70
0
 71
3
 72
12
 73
8
 74
0
 42
0.0000001
 43
0.0000001
 44
0.0000000001
 40
0.0
 40
0.0
 40
0.0
 40
0.0
 40
0.1164735443
 40
0.2338329915
 40
0.47435404
 40
0.7280451655
 40
1.0
 40
1.0
 40
1.0
 40
1.0
 10
17.1661245053
 20
12.010555294
 30
0.0
 10
17.1637235249
 20
12.0105550162
 30
0.0
 10
17.1588998971
 20
12.0107847362
 30
0.0
 10
17.149208496
 20
12.0121710882
 30
0.0
 10
17.1370281228
 20
12.01570051
 30
0.0
 10
17.1227664742
 20
12.0226318063
 30
0.0
 10
17.1138025807
 20
12.0287919067
 30
0.0
 10
17.1093861241
 20
12.0322448584
 30
0.0
  0
SPLINE
  5
337
100
AcDbEntity
  8
0
100
AcDbSpline
 62
7
  6
CONTINUOUS
 70
0
 71
3
 72
9
 73
5
 74
0
 42
0.0000001
 43
0.0000001
 44
0.0000000001
 40
0.0
 40
0.0
 40
0.0
 40
0.0
 40
0.2427828258
 40
1.0
 40
1.0
 40
1.0
 40
1.0
 10
17.1093861241
 20
12.0322448584
 30
0.0
 10
17.1082489458
 20
12.0331339471
 30
0.0
 10
17.103623439
 20
12.0368704844
 30
0.0
 10
17.0992302519
 20
12.0408918106
 30
0.0
 10
17.096031093
 20
12.0440595059
 30
0.0
  0
SPLINE
  5
338
100
AcDbEntity
  8
AXIS
100
AcDbSpline
 62
7
  6
CONTINUOUS
 70
0
 71
3
 72
11
 73
7
 74
0
 42
0.0000001
 43
0.0000001
 44
0.0000000001
 40
0.0
 40
0.0
 40
0.0
 40
0.0
 40
0.2472839509
 40
0.4955177002
 40
0.746002436
 40
1.0
 40
1.0
 40
1.0
 40
1.0
 10
16.5894420941
 20
10.8368685697
 30
0.0
 10
16.5961595655
 20
10.836719979
 30
0.0
 10
16.6096382004
 20
10.836957109
 30
0.0
 10
16.6298333891
 20
10.8389200341
 30
0.0
 10
16.6499924131
 20
10.8424885949
 30
0.0
 10
16.663282347
 20
10.8459082186
 30
0.0
 10
16.6698986299
 20
10.8478718836
 30
0.0
  0
SPLINE
  5
339
100
AcDbEntity
  8
AXIS
100
AcDbSpline
 62
7
  6
CONTINUOUS
 70
0
 71
3
 72
11
 73
7
 74
0
 42
0.0000001
 43
0.0000001
 44
0.0000000001
 40
0.0
 40
0.0
 40
0.0
 40
0.0
 40
0.2474779034
 40
0.4958309384
 40
0.7462785433
 40
1.0
 40
1.0
 40
1.0
 40
1.0
 10
16.5894420957
 20
14.1847411531
 30
0.0
 10
16.5959315966
 20
14.1848849944
 30
0.0
 10
16.6089500719
 20
14.1846742376
 30
0.0
 10
16.6284581308
 20
14.1828578045
 30
0.0
 10
16.6479336097
 20
14.1795411021
 30
0.0
 10
16.6607828509
 20
14.1763581116
 30
0.0
 10
16.6671814136
 20
14.1745290362
 30
0.0
  0
SPLINE
  5
33A
100
AcDbEntity
  8
0
100
AcDbSpline
 62
7
  6
CONTINUOUS
 70
0
 71
3
 72
15
 73
11
 74
0
 42
0.0000001
 43
0.0000001
 44
0.0000000001
 40
0.0
 40
0.0
 40
0.0
 40
0.0
 40
0.1088238085
 40
0.2194327485
 40
0.3335115517
 40
0.452551125
 40
0.5778192915
 40
0.7103327152
 40
0.8508670976
 40
1.0
 40
1.0
 40
1.0
 40
1.0
 10
17.1661246019
 20
14.1708035976
 30
0.0
 10
17.1779053174
 20
14.1708030097
 30
0.0
 10
17.2016924859
 20
14.1691233368
 30
0.0
 10
17.2371127366
 20
14.1616022723
 30
0.0
 10
17.2722718957
 20
14.1491106663
 30
0.0
 10
17.3070532213
 20
14.1317246268
 30
0.0
 10
17.3413560429
 20
14.1095093615
 30
0.0
 10
17.3750896543
 20
14.0825495757
 30
0.0
 10
17.4081685021
 20
14.0509388604
 30
0.0
 10
17.4290874879
 20
14.0275333727
 30
0.0
 10
17.4394325348
 20
14.0151389858
 30
0.0
  0
SPLINE
  5
33B
100
AcDbEntity
  8
0
100
AcDbSpline
 62
7
  6
CONTINUOUS
 70
0
 71
3
 72
17
 73
13
 74
0
 42
0.0000001
 43
0.0000001
 44
0.0000000001
 40
0.0
 40
0.0
 40
0.0
 40
0.0
 40
0.0408340715
 40
0.0859126851
 40
0.1352470776
 40
0.1887044394
 40
0.3067898843
 40
0.4372668919
 40
0.5762959479
 40
0.7194655506
 40
0.8622917916
 40
1.0
 40
1.0
 40
1.0
 40
1.0
 10
13.4139053904
 20
13.3088653713
 30
0.0
 10
13.4151275395
 20
13.3102534322
 30
0.0
 10
13.4174992716
 20
13.3133519328
 30
0.0
 10
13.420695367
 20
13.3185871544
 30
0.0
 10
13.4236774257
 20
13.3245921947
 30
0.0
 10
13.4274561159
 20
13.3338625821
 30
0.0
 10
13.4313789951
 20
13.3470009008
 30
0.0
 10
13.43472992
 20
13.3642546976
 30
0.0
 10
13.4367371784
 20
13.3828576912
 30
0.0
 10
13.437326549
 20
13.4021170603
 30
0.0
 10
13.4364683688
 20
13.4213051289
 30
0.0
 10
13.4349148033
 20
13.433932817
 30
0.0
 10
13.4338766984
 20
13.4400827795
 30
0.0
  0
SPLINE
  5
33C
100
AcDbEntity
  8
0
100
AcDbSpline
 62
7
  6
CONTINUOUS
 70
0
 71
3
 72
21
 73
17
 74
0
 42
0.0000001
 43
0.0000001
 44
0.0000000001
 40
0.0
 40
0.0
 40
0.0
 40
0.0
 40
0.03780693
 40
0.0805783923
 40
0.1284288908
 40
0.1812413942
 40
0.2387388157
 40
0.3004885404
 40
0.3659151286
 40
0.4343804807
 40
0.5774816141
 40
0.7236522079
 40
0.7959052385
 40
0.8665780241
 40
0.9348895075
 40
1.0
 40
1.0
 40
1.0
 40
1.0
 10
13.3620173232
 20
13.027344283
 30
0.0
 10
13.36350918
 20
13.0286177503
 30
0.0
 10
13.3664201148
 20
13.0316505152
 30
0.0
 10
13.3703073211
 20
13.0370814491
 30
0.0
 10
13.3739246414
 20
13.043600346
 30
0.0
 10
13.3772290432
 20
13.0511213796
 30
0.0
 10
13.3801814619
 20
13.0595537024
 30
0.0
 10
13.3827445405
 20
13.0687918312
 30
0.0
 10
13.384887596
 20
13.0787185302
 30
0.0
 10
13.3871741356
 20
13.0929117363
 30
0.0
 10
13.3887767823
 20
13.1114306957
 30
0.0
 10
13.3887485625
 20
13.1302124914
 30
0.0
 10
13.3877230127
 20
13.1451804367
 30
0.0
 10
13.3864678149
 20
13.156071972
 30
0.0
 10
13.384740198
 20
13.1665229598
 30
0.0
 10
13.3832533476
 20
13.1732878962
 30
0.0
 10
13.3824279763
 20
13.1765635187
 30
0.0
  0
SPLINE
  5
33D
100
AcDbEntity
  8
0
100
AcDbSpline
 62
7
  6
CONTINUOUS
 70
0
 71
3
 72
15
 73
11
 74
0
 42
0.0000001
 43
0.0000001
 44
0.0000000001
 40
0.0
 40
0.0
 40
0.0
 40
0.0
 40
0.1758052306
 40
0.340469986
 40
0.4906248817
 40
0.6239835145
 40
0.7399185967
 40
0.8389904032
 40
0.9238918306
 40
1.0
 40
1.0
 40
1.0
 40
1.0
 10
14.0167650401
 20
14.3664998606
 30
0.0
 10
14.0169742291
 20
14.3678354203
 30
0.0
 10
14.0174634035
 20
14.3704098041
 30
0.0
 10
14.0184334602
 20
14.374059267
 30
0.0
 10
14.0195988698
 20
14.37730798
 30
0.0
 10
14.0209398994
 20
14.3800791202
 30
0.0
 10
14.0224249273
 20
14.3823213815
 30
0.0
 10
14.0240424841
 20
14.3839900926
 30
0.0
 10
14.0257726686
 20
14.3850468533
 30
0.0
 10
14.027018394
 20
14.3853049811
 30
0.0
 10
14.0276036229
 20
14.3853049928
 30
0.0
  0
SPLINE
  5
33E
100
AcDbEntity
  8
0
100
AcDbSpline
 62
7
  6
CONTINUOUS
 70
0
 71
3
 72
15
 73
11
 74
0
 42
0.0000001
 43
0.0000001
 44
0.0000000001
 40
0.0
 40
0.0
 40
0.0
 40
0.0
 40
0.1654717287
 40
0.3240580363
 40
0.4722733021
 40
0.6074306951
 40
0.7280508002
 40
0.8332610498
 40
0.9233107269
 40
1.0
 40
1.0
 40
1.0
 40
1.0
 10
13.8980157596
 20
14.3366284731
 30
0.0
 10
13.8981378842
 20
14.3380500187
 30
0.0
 10
13.8984610481
 20
14.3408275787
 30
0.0
 10
13.8991872958
 20
14.3448373721
 30
0.0
 10
13.9001323122
 20
14.3485331159
 30
0.0
 10
13.9012800635
 20
14.3518272412
 30
0.0
 10
13.9026002418
 20
14.3546533746
 30
0.0
 10
13.904075979
 20
14.3569556908
 30
0.0
 10
13.905674183
 20
14.3586901361
 30
0.0
 10
13.9068939264
 20
14.3594963076
 30
0.0
 10
13.9075017607
 20
14.3597566814
 30
0.0
  0
SPLINE
  5
33F
100
AcDbEntity
  8
0
100
AcDbSpline
 62
7
  6
CONTINUOUS
 70
0
 71
3
 72
20
 73
16
 74
0
 42
0.0000001
 43
0.0000001
 44
0.0000000001
 40
0.0
 40
0.0
 40
0.0
 40
0.0
 40
0.043625652
 40
0.092236756
 40
0.1455664952
 40
0.2032349325
 40
0.2647800619
 40
0.3296341794
 40
0.4665042656
 40
0.6080568155
 40
0.7480800203
 40
0.8156235432
 40
0.8805827461
 40
0.9422743264
 40
1.0
 40
1.0
 40
1.0
 40
1.0
 10
13.3379926643
 20
12.7390889303
 30
0.0
 10
13.3393771809
 20
12.7409680087
 30
0.0
 10
13.3420299185
 20
12.7451453923
 30
0.0
 10
13.3455130388
 20
12.7521222129
 30
0.0
 10
13.3486656667
 20
12.7600681106
 30
0.0
 10
13.3514479647
 20
12.7688771893
 30
0.0
 10
13.3538252202
 20
12.7784399187
 30
0.0
 10
13.3564605647
 20
12.7922824815
 30
0.0
 10
13.358508861
 20
12.8105650622
 30
0.0
 10
13.3590080429
 20
12.8329732442
 30
0.0
 10
13.3577934765
 20
12.851640903
 30
0.0
 10
13.3558124893
 20
12.8660913301
 30
0.0
 10
13.3538811484
 20
12.8763052552
 30
0.0
 10
13.3515121845
 20
12.8858862742
 30
0.0
 10
13.3495983985
 20
12.8919879644
 30
0.0
 10
13.3485644654
 20
12.8948981904
 30
0.0
  0
SPLINE
  5
340
100
AcDbEntity
  8
0
100
AcDbSpline
 62
7
  6
CONTINUOUS
 70
0
 71
3
 72
13
 73
9
 74
0
 42
0.0000001
 43
0.0000001
 44
0.0000000001
 40
0.0
 40
0.0
 40
0.0
 40
0.0
 40
0.3056279104
 40
0.5853231298
 40
0.7091907757
 40
0.8201378449
 40
0.917157495
 40
1.0
 40
1.0
 40
1.0
 40
1.0
 10
13.7827987111
 20
14.2569920211
 30
0.0
 10
13.7828574631
 20
14.2598991862
 30
0.0
 10
13.7832848465
 20
14.2654647605
 30
0.0
 10
13.7846197389
 20
14.2721046244
 30
0.0
 10
13.7861821852
 20
14.2767502238
 30
0.0
 10
13.7874894247
 20
14.2796318991
 30
0.0
 10
13.7889452109
 20
14.2819936857
 30
0.0
 10
13.7900822495
 20
14.2832918239
 30
0.0
 10
13.790673578
 20
14.2838129177
 30
0.0
  0
SPLINE
  5
341
100
AcDbEntity
  8
0
100
AcDbSpline
 62
7
  6
CONTINUOUS
 70
0
 71
3
 72
11
 73
7
 74
0
 42
0.0000001
 43
0.0000001
 44
0.0000000001
 40
0.0
 40
0.0
 40
0.0
 40
0.0
 40
0.293777595
 40
0.5532064706
 40
0.7848476407
 40
1.0
 40
1.0
 40
1.0
 40
1.0
 10
13.6919969904
 20
14.1754369721
 30
0.0
 10
13.6923826565
 20
14.1759497134
 30
0.0
 10
13.6931749603
 20
14.1768694913
 30
0.0
 10
13.6945153638
 20
14.1779558484
 30
0.0
 10
13.6959172775
 20
14.1786377192
 30
0.0
 10
13.6968983263
 20
14.1787967907
 30
0.0
 10
13.6973682066
 20
14.1787970636
 30
0.0
  0
SPLINE
  5
342
100
AcDbEntity
  8
0
100
AcDbSpline
 62
7
  6
CONTINUOUS
 70
0
 71
3
 72
13
 73
9
 74
0
 42
0.0000001
 43
0.0000001
 44
0.0000000001
 40
0.0
 40
0.0
 40
0.0
 40
0.0
 40
0.2876569101
 40
0.5625666112
 40
0.6887845005
 40
0.8048294056
 40
0.9090166594
 40
1.0
 40
1.0
 40
1.0
 40
1.0
 10
13.674254277
 20
14.1297610941
 30
0.0
 10
13.6741232468
 20
14.1327146686
 30
0.0
 10
13.6742028554
 20
14.1385097906
 30
0.0
 10
13.6751057278
 20
14.1455516619
 30
0.0
 10
13.6763389197
 20
14.1507267651
 30
0.0
 10
13.6774462421
 20
14.1541162453
 30
0.0
 10
13.6787316894
 20
14.1570507245
 30
0.0
 10
13.6797570321
 20
14.1587847339
 30
0.0
 10
13.6803033705
 20
14.1595436424
 30
0.0
  0
SPLINE
  5
343
100
AcDbEntity
  8
0
100
AcDbSpline
 62
7
  6
CONTINUOUS
 70
0
 71
3
 72
13
 73
9
 74
0
 42
0.0000001
 43
0.0000001
 44
0.0000000001
 40
0.0
 40
0.0
 40
0.0
 40
0.0
 40
0.3118409669
 40
0.4503982489
 40
0.5776337094
 40
0.8012625829
 40
0.9023516425
 40
1.0
 40
1.0
 40
1.0
 40
1.0
 10
13.5899153632
 20
14.0109533129
 30
0.0
 10
13.5903781054
 20
14.0118436258
 30
0.0
 10
13.5911299875
 20
14.0130921489
 30
0.0
 10
13.5923067617
 20
14.0145353301
 30
0.0
 10
13.5934285619
 20
14.0156417003
 30
0.0
 10
13.5946617097
 20
14.0164664754
 30
0.0
 10
13.5959648445
 20
14.0168786959
 30
0.0
 10
13.5966061543
 20
14.0169460862
 30
0.0
 10
13.5969203502
 20
14.0169460602
 30
0.0
  0
SPLINE
  5
344
100
AcDbEntity
  8
0
100
AcDbSpline
 62
7
  6
CONTINUOUS
 70
0
 71
3
 72
13
 73
9
 74
0
 42
0.0000001
 43
0.0000001
 44
0.0000000001
 40
0.0
 40
0.0
 40
0.0
 40
0.0
 40
0.1339893615
 40
0.2707870693
 40
0.5405523138
 40
0.7891712008
 40
0.900333744
 40
1.0
 40
1.0
 40
1.0
 40
1.0
 10
13.5753409695
 20
13.9584035274
 30
0.0
 10
13.5751799519
 20
13.9598484402
 30
0.0
 10
13.5749475484
 20
13.9627795884
 30
0.0
 10
13.574819658
 20
13.968645983
 30
0.0
 10
13.5752672373
 20
13.9757567255
 30
0.0
 10
13.576524288
 20
13.9824965895
 30
0.0
 10
13.5780243994
 20
13.9872560139
 30
0.0
 10
13.5789153323
 20
13.98936893
 30
0.0
 10
13.5793994141
 20
13.9903359674
 30
0.0
  0
SPLINE
  5
345
100
AcDbEntity
  8
0
100
AcDbSpline
 62
7
  6
CONTINUOUS
 70
0
 71
3
 72
9
 73
5
 74
0
 42
0.0000001
 43
0.0000001
 44
0.0000000001
 40
0.0
 40
0.0
 40
0.0
 40
0.0
 40
0.2557607557
 40
1.0
 40
1.0
 40
1.0
 40
1.0
 10
13.5847880692
 20
13.8874259471
 30
0.0
 10
13.5847637203
 20
13.8882469877
 30
0.0
 10
13.584616617
 20
13.8914552596
 30
0.0
 10
13.5842645801
 20
13.8946554536
 30
0.0
 10
13.583869299
 20
13.8970127416
 30
0.0
  0
SPLINE
  5
346
100
AcDbEntity
  8
0
100
AcDbSpline
 62
7
  6
CONTINUOUS
 70
0
 71
3
 72
14
 73
10
 74
0
 42
0.0000001
 43
0.0000001
 44
0.0000000001
 40
0.0
 40
0.0
 40
0.0
 40
0.0
 40
0.3254168236
 40
0.4682289207
 40
0.5970470942
 40
0.7122704323
 40
0.8157029018
 40
0.910253477
 40
1.0
 40
1.0
 40
1.0
 40
1.0
 10
13.4997636233
 20
13.8055812663
 30
0.0
 10
13.5002645557
 20
13.8069279283
 30
0.0
 10
13.5011044667
 20
13.8088295438
 30
0.0
 10
13.5024935419
 20
13.8110743208
 30
0.0
 10
13.5035489295
 20
13.8124229464
 30
0.0
 10
13.5046570478
 20
13.8134926989
 30
0.0
 10
13.5058092673
 20
13.8142727907
 30
0.0
 10
13.5069976372
 20
13.8147517216
 30
0.0
 10
13.5078151509
 20
13.8148599704
 30
0.0
 10
13.5082114071
 20
13.8148588122
 30
0.0
  0
SPLINE
  5
347
100
AcDbEntity
  8
0
100
AcDbSpline
 62
7
  6
CONTINUOUS
 70
0
 71
3
 72
13
 73
9
 74
0
 42
0.0000001
 43
0.0000001
 44
0.0000000001
 40
0.0
 40
0.0
 40
0.0
 40
0.0
 40
0.1246413883
 40
0.2546256227
 40
0.5191129412
 40
0.7736540758
 40
0.8915625403
 40
1.0
 40
1.0
 40
1.0
 40
1.0
 10
13.4887547922
 20
13.7475898822
 30
0.0
 10
13.4885005778
 20
13.7489622615
 30
0.0
 10
13.4880811159
 20
13.7517850094
 30
0.0
 10
13.4875772924
 20
13.7575788461
 30
0.0
 10
13.4875799572
 20
13.7648629041
 30
0.0
 10
13.48840009
 20
13.7719685084
 30
0.0
 10
13.4895651596
 20
13.7772297657
 30
0.0
 10
13.4903019763
 20
13.779658891
 30
0.0
 10
13.49071197
 20
13.7808018561
 30
0.0
  0
SPLINE
  5
348
100
AcDbEntity
  8
0
100
AcDbSpline
 62
7
  6
CONTINUOUS
 70
0
 71
3
 72
9
 73
5
 74
0
 42
0.0000001
 43
0.0000001
 44
0.0000000001
 40
0.0
 40
0.0
 40
0.0
 40
0.0
 40
0.514696179
 40
1.0
 40
1.0
 40
1.0
 40
1.0
 10
13.5026207825
 20
13.6815710387
 30
0.0
 10
13.5024701987
 20
13.6831423986
 30
0.0
 10
13.5020771493
 20
13.6861867757
 30
0.0
 10
13.5014621622
 20
13.6891952447
 30
0.0
 10
13.5011002936
 20
13.6906389984
 30
0.0
  0
SPLINE
  5
349
100
AcDbEntity
  8
0
100
AcDbSpline
 62
7
  6
CONTINUOUS
 70
0
 71
3
 72
21
 73
17
 74
0
 42
0.0000001
 43
0.0000001
 44
0.0000000001
 40
0.0
 40
0.0
 40
0.0
 40
0.0
 40
0.05013892
 40
0.1048934481
 40
0.1637545819
 40
0.2261724963
 40
0.2915621607
 40
0.3592636929
 40
0.4985981945
 40
0.6381280103
 40
0.7060698764
 40
0.7717892953
 40
0.8346196513
 40
0.8939669716
 40
0.9492691968
 40
1.0
 40
1.0
 40
1.0
 40
1.0
 10
13.3327643558
 20
12.4446114181
 30
0.0
 10
13.333997874
 20
12.4470268744
 30
0.0
 10
13.3363262139
 20
12.4522106175
 30
0.0
 10
13.3393187497
 20
12.4605551846
 30
0.0
 10
13.3419243698
 20
12.469720816
 30
0.0
 10
13.3441095967
 20
12.4795843391
 30
0.0
 10
13.3458466493
 20
12.4900212818
 30
0.0
 10
13.3475509573
 20
12.5046637517
 30
0.0
 10
13.3484206539
 20
12.5234172311
 30
0.0
 10
13.3476547162
 20
12.5421880532
 30
0.0
 10
13.3460335985
 20
12.5568815552
 30
0.0
 10
13.3443550254
 20
12.5673818222
 30
0.0
 10
13.3422250661
 20
12.5773252939
 30
0.0
 10
13.3396708153
 20
12.586586391
 30
0.0
 10
13.3367251067
 20
12.5950405906
 30
0.0
 10
13.3344278662
 20
12.6003051814
 30
0.0
 10
13.3332091573
 20
12.6027639297
 30
0.0
  0
SPLINE
  5
34A
100
AcDbEntity
  8
0
100
AcDbSpline
 62
7
  6
CONTINUOUS
 70
0
 71
3
 72
14
 73
10
 74
0
 42
0.0000001
 43
0.0000001
 44
0.0000000001
 40
0.0
 40
0.0
 40
0.0
 40
0.0
 40
0.3345177978
 40
0.480970423
 40
0.6115853673
 40
0.7265239612
 40
0.8272758014
 40
0.9167944821
 40
1.0
 40
1.0
 40
1.0
 40
1.0
 10
13.4239989672
 20
13.5649185
 30
0.0
 10
13.4244921449
 20
13.5667807585
 30
0.0
 10
13.4253610963
 20
13.5694258978
 30
0.0
 10
13.4268970061
 20
13.5726006497
 30
0.0
 10
13.4280992602
 20
13.574518262
 30
0.0
 10
13.4293872314
 20
13.5760512786
 30
0.0
 10
13.4307491282
 20
13.5771821463
 30
0.0
 10
13.4321795768
 20
13.5778831416
 30
0.0
 10
13.4331801125
 20
13.5780432404
 30
0.0
 10
13.433659285
 20
13.5780432341
 30
0.0
  0
SPLINE
  5
34B
100
AcDbEntity
  8
0
100
AcDbSpline
 62
7
  6
CONTINUOUS
 70
0
 71
3
 72
13
 73
9
 74
0
 42
0.0000001
 43
0.0000001
 44
0.0000000001
 40
0.0
 40
0.0
 40
0.0
 40
0.0
 40
0.115520909
 40
0.2387554331
 40
0.4977749416
 40
0.7579517293
 40
0.8825918751
 40
1.0
 40
1.0
 40
1.0
 40
1.0
 10
13.4159134174
 20
13.4992309251
 30
0.0
 10
13.4155694279
 20
13.5004901639
 30
0.0
 10
13.4149678782
 20
13.5031232821
 30
0.0
 10
13.4140886812
 20
13.5086821752
 30
0.0
 10
13.4136305066
 20
13.515945272
 30
0.0
 10
13.4139922188
 20
13.5232292701
 30
0.0
 10
13.4147939304
 20
13.5288505439
 30
0.0
 10
13.4153582917
 20
13.5315297661
 30
0.0
 10
13.4156840255
 20
13.5328158605
 30
0.0
  0
SPLINE
  5
34C
100
AcDbEntity
  8
0
100
AcDbSpline
 62
7
  6
CONTINUOUS
 70
0
 71
3
 72
9
 73
5
 74
0
 42
0.0000001
 43
0.0000001
 44
0.0000000001
 40
0.0
 40
0.0
 40
0.0
 40
0.0
 40
0.2573630951
 40
1.0
 40
1.0
 40
1.0
 40
1.0
 10
13.4159134174
 20
13.4992309251
 30
0.0
 10
13.4171180283
 20
13.4948212184
 30
0.0
 10
13.4219454231
 20
13.4777277809
 30
0.0
 10
13.4273718519
 20
13.4608011475
 30
0.0
 10
13.4317880402
 20
13.4483716651
 30
0.0
  0
SPLINE
  5
34D
100
AcDbEntity
  8
0
100
AcDbSpline
 62
7
  6
CONTINUOUS
 70
0
 71
3
 72
9
 73
5
 74
0
 42
0.0000001
 43
0.0000001
 44
0.0000000001
 40
0.0
 40
0.0
 40
0.0
 40
0.0
 40
0.5213404817
 40
1.0
 40
1.0
 40
1.0
 40
1.0
 10
13.4338766984
 20
13.4400827795
 30
0.0
 10
13.4336292215
 20
13.4415488877
 30
0.0
 10
13.4330542758
 20
13.4443454095
 30
0.0
 10
13.4322450773
 20
13.4470853219
 30
0.0
 10
13.4317880402
 20
13.4483716651
 30
0.0
  0
SPLINE
  5
34E
100
AcDbEntity
  8
0
100
AcDbSpline
 62
7
  6
CONTINUOUS
 70
0
 71
3
 72
15
 73
11
 74
0
 42
0.0000001
 43
0.0000001
 44
0.0000000001
 40
0.0
 40
0.0
 40
0.0
 40
0.0
 40
0.1460030947
 40
0.2864843717
 40
0.4210833889
 40
0.5495513305
 40
0.67173948
 40
0.7875502957
 40
0.8969557884
 40
1.0
 40
1.0
 40
1.0
 40
1.0
 10
17.6909747365
 20
11.4975807446
 30
0.0
 10
17.6834966712
 20
11.4733817166
 30
0.0
 10
17.6680387232
 20
11.426136155
 30
0.0
 10
17.642834081
 20
11.3575565919
 30
0.0
 10
17.6161248699
 20
11.2928245298
 30
0.0
 10
17.588004306
 20
11.232171073
 30
0.0
 10
17.5585683279
 20
11.1757938721
 30
0.0
 10
17.5279041287
 20
11.1238753658
 30
0.0
 10
17.4961214543
 20
11.0765841238
 30
0.0
 10
17.473580242
 20
11.0473805049
 30
0.0
 10
17.4621251451
 20
11.0336573894
 30
0.0
  0
SPLINE
  5
34F
100
AcDbEntity
  8
0
100
AcDbSpline
 62
7
  6
CONTINUOUS
 70
0
 71
3
 72
14
 73
10
 74
0
 42
0.0000001
 43
0.0000001
 44
0.0000000001
 40
0.0
 40
0.0
 40
0.0
 40
0.0
 40
0.2863739775
 40
0.4210163022
 40
0.5495234814
 40
0.6717311005
 40
0.7875505927
 40
0.8969511612
 40
1.0
 40
1.0
 40
1.0
 40
1.0
 10
17.0320080441
 20
12.8404136786
 30
0.0
 10
17.0367793066
 20
12.8558534908
 30
0.0
 10
17.0445283386
 20
12.8783420113
 30
0.0
 10
17.0563565112
 20
12.9070148152
 30
0.0
 10
17.0655062485
 20
12.9267505297
 30
0.0
 10
17.0750828753
 20
12.945092973
 30
0.0
 10
17.0850555592
 20
12.9619844444
 30
0.0
 10
17.0953957968
 20
12.9773674571
 30
0.0
 10
17.1027290351
 20
12.9868664725
 30
0.0
 10
17.106455418
 20
12.9913307088
 30
0.0
  0
SPLINE
  5
350
100
AcDbEntity
  8
0
100
AcDbSpline
 62
7
  6
CONTINUOUS
 70
0
 71
3
 72
20
 73
16
 74
0
 42
0.0000001
 43
0.0000001
 44
0.0000000001
 40
0.0
 40
0.0
 40
0.0
 40
0.0
 40
0.0570987637
 40
0.1182230234
 40
0.182688004
 40
0.2498198781
 40
0.3892930842
 40
0.5306857408
 40
0.6677904907
 40
0.7329020764
 40
0.794789897
 40
0.852876855
 40
0.9066883162
 40
0.9558267318
 40
1.0
 40
1.0
 40
1.0
 40
1.0
 10
13.3464749015
 20
12.1519380932
 30
0.0
 10
13.3475260175
 20
12.1548121867
 30
0.0
 10
13.3494752028
 20
12.1608474144
 30
0.0
 10
13.3518973738
 20
12.1703397718
 30
0.0
 10
13.3538855384
 20
12.1804810578
 30
0.0
 10
13.3559485779
 20
12.1948671838
 30
0.0
 10
13.3572665098
 20
12.2135007558
 30
0.0
 10
13.3568907408
 20
12.2359252427
 30
0.0
 10
13.3549443021
 20
12.2542689899
 30
0.0
 10
13.3523884733
 20
12.2681970322
 30
0.0
 10
13.3500648102
 20
12.2778468028
 30
0.0
 10
13.3473318929
 20
12.2867578575
 30
0.0
 10
13.3442239117
 20
12.2948192014
 30
0.0
 10
13.3407802391
 20
12.3019233003
 30
0.0
 10
13.3381534016
 20
12.3061943587
 30
0.0
 10
13.3367805799
 20
12.308123215
 30
0.0
  0
SPLINE
  5
351
100
AcDbEntity
  8
0
100
AcDbSpline
 62
7
  6
CONTINUOUS
 70
0
 71
3
 72
19
 73
15
 74
0
 42
0.0000001
 43
0.0000001
 44
0.0000000001
 40
0.0
 40
0.0
 40
0.0
 40
0.0
 40
0.0644548915
 40
0.1321839572
 40
0.2741678235
 40
0.4198255756
 40
0.5628266867
 40
0.6969753991
 40
0.7590147839
 40
0.816881146
 40
0.8701275149
 40
0.9184568753
 40
0.9617234754
 40
1.0
 40
1.0
 40
1.0
 40
1.0
 10
13.3787506036
 20
11.869046127
 30
0.0
 10
13.3795950008
 20
11.8722934388
 30
0.0
 10
13.3811207833
 20
11.8790078192
 30
0.0
 10
13.3835392527
 20
11.8930788
 30
0.0
 10
13.3853052323
 20
11.9115237804
 30
0.0
 10
13.3854646313
 20
11.9339686615
 30
0.0
 10
13.3836878129
 20
11.9559352091
 30
0.0
 10
13.3805980071
 20
11.973356396
 30
0.0
 10
13.3771602986
 20
11.9861347108
 30
0.0
 10
13.3742549927
 20
11.9946752747
 30
0.0
 10
13.370992966
 20
12.0023172268
 30
0.0
 10
13.3674128056
 20
12.0089680283
 30
0.0
 10
13.3635575321
 20
12.0145400218
 30
0.0
 10
13.3606661186
 20
12.0176780024
 30
0.0
 10
13.3591813896
 20
12.0190068415
 30
0.0
  0
SPLINE
  5
352
100
AcDbEntity
  8
0
100
AcDbSpline
 62
7
  6
CONTINUOUS
 70
0
 71
3
 72
19
 73
15
 74
0
 42
0.0000001
 43
0.0000001
 44
0.0000000001
 40
0.0
 40
0.0
 40
0.0
 40
0.0
 40
0.1383280291
 40
0.2821558181
 40
0.4264078032
 40
0.5662643973
 40
0.6330666917
 40
0.6970574952
 40
0.7577411658
 40
0.8146996347
 40
0.8675846096
 40
0.916133923
 40
0.9602552357
 40
1.0
 40
1.0
 40
1.0
 40
1.0
 10
13.4287117483
 20
11.603646088
 30
0.0
 10
13.4298200439
 20
11.6099603399
 30
0.0
 10
13.4314790337
 20
11.6229502669
 30
0.0
 10
13.432402561
 20
11.6427094881
 30
0.0
 10
13.4317894282
 20
11.6625521634
 30
0.0
 10
13.4300008834
 20
11.678737548
 30
0.0
 10
13.4277890755
 20
11.6910881504
 30
0.0
 10
13.4258098192
 20
11.6997424267
 30
0.0
 10
13.4235024586
 20
11.7078422411
 30
0.0
 10
13.420891546
 20
11.7153070223
 30
0.0
 10
13.4180057996
 20
11.7220636157
 30
0.0
 10
13.4148684269
 20
11.7280451616
 30
0.0
 10
13.4115131124
 20
11.7331951876
 30
0.0
 10
13.4090196413
 20
11.7361941707
 30
0.0
 10
13.4077376228
 20
11.7375167634
 30
0.0
  0
SPLINE
  5
353
100
AcDbEntity
  8
0
100
AcDbSpline
 62
7
  6
CONTINUOUS
 70
0
 71
3
 72
15
 73
11
 74
0
 42
0.0000001
 43
0.0000001
 44
0.0000000001
 40
0.0
 40
0.0
 40
0.0
 40
0.0
 40
0.1361861927
 40
0.2744569412
 40
0.4118171339
 40
0.5457029281
 40
0.6736309258
 40
0.7932325431
 40
0.9025330863
 40
1.0
 40
1.0
 40
1.0
 40
1.0
 10
13.4949965831
 20
11.3629717807
 30
0.0
 10
13.4955052833
 20
11.3679185581
 30
0.0
 10
13.496214917
 20
11.377922525
 30
0.0
 10
13.4963967941
 20
11.3929670975
 30
0.0
 10
13.495697039
 20
11.407913274
 30
0.0
 10
13.4941352842
 20
11.4224147171
 30
0.0
 10
13.4917510445
 20
11.4361473466
 30
0.0
 10
13.4885941992
 20
11.4488029324
 30
0.0
 10
13.4847439173
 20
11.4600969274
 30
0.0
 10
13.481574608
 20
11.4669732638
 30
0.0
 10
13.4798609475
 20
11.4700925604
 30
0.0
  0
SPLINE
  5
354
100
AcDbEntity
  8
0
100
AcDbSpline
 62
7
  6
CONTINUOUS
 70
0
 71
3
 72
12
 73
8
 74
0
 42
0.0000001
 43
0.0000001
 44
0.0000000001
 40
0.0
 40
0.0
 40
0.0
 40
0.0
 40
0.2668645405
 40
0.5286067714
 40
0.7756512997
 40
0.89114142
 40
1.0
 40
1.0
 40
1.0
 40
1.0
 10
13.5757984333
 20
11.1535830792
 30
0.0
 10
13.5760474779
 20
11.1604476147
 30
0.0
 10
13.5759925519
 20
11.1740712097
 30
0.0
 10
13.5743167471
 20
11.1939860288
 30
0.0
 10
13.5715907738
 20
11.209849115
 30
0.0
 10
13.5686191917
 20
11.2216181155
 30
0.0
 10
13.5668898215
 20
11.227132335
 30
0.0
 10
13.5659624212
 20
11.2297764131
 30
0.0
  0
SPLINE
  5
355
100
AcDbEntity
  8
0
100
AcDbSpline
 62
7
  6
CONTINUOUS
 70
0
 71
3
 72
9
 73
5
 74
0
 42
0.0000001
 43
0.0000001
 44
0.0000000001
 40
0.0
 40
0.0
 40
0.0
 40
0.0
 40
0.5143814711
 40
1.0
 40
1.0
 40
1.0
 40
1.0
 10
13.668914945
 20
10.9811871302
 30
0.0
 10
13.6687065801
 20
10.9885660232
 30
0.0
 10
13.6676840264
 20
11.002900835
 30
0.0
 10
13.6653407572
 20
11.0170878743
 30
0.0
 10
13.6638147721
 20
11.0238878134
 30
0.0
  0
SPLINE
  5
356
100
AcDbEntity
  8
0
100
AcDbSpline
 62
7
  6
CONTINUOUS
 70
0
 71
3
 72
26
 73
22
 74
0
 42
0.0000001
 43
0.0000001
 44
0.0000000001
 40
0.0
 40
0.0
 40
0.0
 40
0.0
 40
0.0879398646
 40
0.1726588099
 40
0.2539501678
 40
0.3316667771
 40
0.4057218544
 40
0.4760553638
 40
0.5426450612
 40
0.6055067313
 40
0.6647158092
 40
0.7204179104
 40
0.7728293416
 40
0.7979035035
 40
0.8222803829
 40
0.8691437566
 40
0.9139514495
 40
0.9357867305
 40
0.9573465926
 40
0.9787201798
 40
1.0
 40
1.0
 40
1.0
 40
1.0
 10
16.6597551654
 20
13.5426775402
 30
0.0
 10
16.6671534147
 20
13.5666182834
 30
0.0
 10
16.6824326106
 20
13.613394813
 30
0.0
 10
16.7072899835
 20
13.6813687275
 30
0.0
 10
16.7335983763
 20
13.7456605759
 30
0.0
 10
16.7612723282
 20
13.8060518315
 30
0.0
 10
16.7902187497
 20
13.8623579566
 30
0.0
 10
16.8203554797
 20
13.9144071099
 30
0.0
 10
16.8515846712
 20
13.9620427298
 30
0.0
 10
16.8838169509
 20
14.005113543
 30
0.0
 10
16.9169598087
 20
14.0434834087
 30
0.0
 10
16.9509081777
 20
14.0770354769
 30
0.0
 10
16.980223969
 20
14.1012362786
 30
0.0
 10
17.0039672094
 20
14.1179524393
 30
0.0
 10
17.0272279814
 20
14.132536938
 30
0.0
 10
17.0566843015
 20
14.1477385302
 30
0.0
 10
17.0871479908
 20
14.158896837
 30
0.0
 10
17.1115230149
 20
14.165091661
 30
0.0
 10
17.1296979087
 20
14.1683873599
 30
0.0
 10
17.1479027143
 20
14.1703648188
 30
0.0
 10
17.1600610783
 20
14.1708039002
 30
0.0
 10
17.1661246019
 20
14.1708035976
 30
0.0
  0
SPLINE
  5
357
100
AcDbEntity
  8
AXIS
100
AcDbSpline
 62
7
  6
CONTINUOUS
 70
0
 71
3
 72
23
 73
19
 74
0
 42
0.0000001
 43
0.0000001
 44
0.0000000001
 40
0.0
 40
0.0
 40
0.0
 40
0.0
 40
0.0879514481
 40
0.1726791429
 40
0.2539755207
 40
0.3316965903
 40
0.4057562616
 40
0.4760953079
 40
0.5426897751
 40
0.6055541407
 40
0.664766933
 40
0.7204713394
 40
0.7728862014
 40
0.8223232897
 40
0.8691889605
 40
0.9140001345
 40
0.9573714651
 40
1.0
 40
1.0
 40
1.0
 40
1.0
 10
16.0886973491
 20
13.5426775402
 30
0.0
 10
16.0960960451
 20
13.5666197293
 30
0.0
 10
16.1113765143
 20
13.6133982584
 30
0.0
 10
16.1362359604
 20
13.681373614
 30
0.0
 10
16.1625451159
 20
13.7456653809
 30
0.0
 10
16.1902174157
 20
13.8060565826
 30
0.0
 10
16.2191632104
 20
13.8623626505
 30
0.0
 10
16.2492999042
 20
13.9144117756
 30
0.0
 10
16.2805287894
 20
13.9620471748
 30
0.0
 10
16.312762792
 20
14.0051160695
 30
0.0
 10
16.3459028698
 20
14.0434859281
 30
0.0
 10
16.3798536535
 20
14.0770379767
 30
0.0
 10
16.4145244927
 20
14.1056593955
 30
0.0
 10
16.4498139005
 20
14.1292593396
 30
0.0
 10
16.4856295793
 20
14.1477366737
 30
0.0
 10
16.5218621203
 20
14.1610149265
 30
0.0
 10
16.5583819973
 20
14.1690174501
 30
0.0
 10
16.5829210361
 20
14.1708032797
 30
0.0
 10
16.5950668481
 20
14.1708035685
 30
0.0
  0
SPLINE
  5
358
100
AcDbEntity
  8
AXIS
100
AcDbSpline
 62
7
  6
CONTINUOUS
 70
0
 71
3
 72
45
 73
41
 74
0
 42
0.0000001
 43
0.0000001
 44
0.0000000001
 40
0.0
 40
0.0
 40
0.0
 40
0.0
 40
0.0330436115
 40
0.0673831631
 40
0.1028740391
 40
0.1393843802
 40
0.1767785458
 40
0.2149062224
 40
0.2536121553
 40
0.2927375707
 40
0.3321214131
 40
0.3715998144
 40
0.4110085798
 40
0.4501839248
 40
0.488963813
 40
0.5271890705
 40
0.5647045389
 40
0.601360537
 40
0.6370139672
 40
0.6715299124
 40
0.7047831295
 40
0.7366596928
 40
0.7670593385
 40
0.7958972532
 40
0.8231079182
 40
0.848647516
 40
0.860786409
 40
0.8725043768
 40
0.8946864047
 40
0.9051702869
 40
0.9152624267
 40
0.9343264571
 40
0.9433488373
 40
0.9520639453
 40
0.9605034759
 40
0.9687041442
 40
0.9767073281
 40
0.9845582078
 40
0.9923053414
 40
1.0
 40
1.0
 40
1.0
 40
1.0
 10
16.0886973491
 20
13.5426775402
 30
0.0
 10
16.0791207045
 20
13.511687507
 30
0.0
 10
16.0608982157
 20
13.4480823375
 30
0.0
 10
16.0367129212
 20
13.3500179828
 30
0.0
 10
16.0152555424
 20
13.2478412189
 30
0.0
 10
15.9966273559
 20
13.1420672274
 30
0.0
 10
15.9809227125
 20
13.0332051678
 30
0.0
 10
15.968212323
 20
12.9217845426
 30
0.0
 10
15.9585666472
 20
12.8083519147
 30
0.0
 10
15.9520267764
 20
12.6934633345
 30
0.0
 10
15.9486303364
 20
12.5776805878
 30
0.0
 10
15.948388843
 20
12.4615702543
 30
0.0
 10
15.9513085325
 20
12.3457010315
 30
0.0
 10
15.9573704318
 20
12.2306400188
 30
0.0
 10
15.9665487473
 20
12.1169506122
 30
0.0
 10
15.9787945974
 20
12.005188908
 30
0.0
 10
15.9940508633
 20
11.8959019717
 30
0.0
 10
16.0122396639
 20
11.7896238627
 30
0.0
 10
16.0332736835
 20
11.6868742211
 30
0.0
 10
16.0570477729
 20
11.5881543076
 30
0.0
 10
16.0834462678
 20
11.4939456922
 30
0.0
 10
16.112339287
 20
11.404706529
 30
0.0
 10
16.1435854871
 20
11.32087029
 30
0.0
 10
16.1770341404
 20
11.2428416879
 30
0.0
 10
16.2125218343
 20
11.1709991405
 30
0.0
 10
16.2441714055
 20
11.1156653706
 30
0.0
 10
16.2704455303
 20
11.0749000939
 30
0.0
 10
16.2963320518
 20
11.0378482215
 30
0.0
 10
16.3233822296
 20
11.0036129696
 30
0.0
 10
16.3516800693
 20
10.9725932511
 30
0.0
 10
16.37931981
 20
10.9451901777
 30
0.0
 10
16.4080265342
 20
10.9209386453
 30
0.0
 10
16.4377471592
 20
10.9003646393
 30
0.0
 10
16.4598325648
 20
10.8871884149
 30
0.0
 10
16.4820938586
 20
10.8760060038
 30
0.0
 10
16.5045049461
 20
10.8668334406
 30
0.0
 10
16.5270366847
 20
10.8596820079
 30
0.0
 10
16.5496613269
 20
10.8545632179
 30
0.0
 10
16.5723470541
 20
10.8514895147
 30
0.0
 10
16.5875136788
 20
10.8508062377
 30
0.0
 10
16.5950668474
 20
10.8508064173
 30
0.0
  0
SPLINE
  5
359
100
AcDbEntity
  8
0
100
AcDbSpline
 62
7
  6
CONTINUOUS
 70
0
 71
3
 72
40
 73
36
 74
0
 42
0.0000001
 43
0.0000001
 44
0.0000000001
 40
0.0
 40
0.0
 40
0.0
 40
0.0
 40
0.0223642097
 40
0.0427865064
 40
0.0615345301
 40
0.0704074326
 40
0.0790205176
 40
0.0874437812
 40
0.095752706
 40
0.1040266156
 40
0.1123464921
 40
0.1207915186
 40
0.1294362519
 40
0.1475734885
 40
0.1672333259
 40
0.1887325064
 40
0.2122736883
 40
0.2379553931
 40
0.2658068383
 40
0.2957911608
 40
0.3278295996
 40
0.3618024634
 40
0.3975603127
 40
0.4349296131
 40
0.4737136182
 40
0.5137022253
 40
0.5963645833
 40
0.6810134138
 40
0.7656498839
 40
0.8073410448
 40
0.848278278
 40
0.8882277693
 40
0.9269772494
 40
0.9643120271
 40
1.0
 40
1.0
 40
1.0
 40
1.0
 10
17.106455418
 20
12.9913307088
 30
0.0
 10
17.1114439729
 20
12.9973070371
 30
0.0
 10
17.1215828172
 20
13.008271421
 30
0.0
 10
17.1380658615
 20
13.0220503176
 30
0.0
 10
17.152461192
 20
13.0307337085
 30
0.0
 10
17.1640713139
 20
13.0357047244
 30
0.0
 10
17.1726807269
 20
13.0384413416
 30
0.0
 10
17.1813321223
 20
13.0402488553
 30
0.0
 10
17.1900091348
 20
13.0411229172
 30
0.0
 10
17.1986941613
 20
13.0410596469
 30
0.0
 10
17.2073686227
 20
13.0400567236
 30
0.0
 10
17.2160151645
 20
13.0381196173
 30
0.0
 10
17.2276666415
 20
13.0342408004
 30
0.0
 10
17.2421837138
 20
13.026910302
 30
0.0
 10
17.2588780553
 20
13.0146452133
 30
0.0
 10
17.2750607266
 20
12.9988951966
 30
0.0
 10
17.2906327085
 20
12.9797705142
 30
0.0
 10
17.3055176579
 20
12.9574079666
 30
0.0
 10
17.3196127208
 20
12.9319506825
 30
0.0
 10
17.332834984
 20
12.9035738943
 30
0.0
 10
17.3450882409
 20
12.872467147
 30
0.0
 10
17.3562926216
 20
12.8388450849
 30
0.0
 10
17.3663687491
 20
12.8029386767
 30
0.0
 10
17.3752450868
 20
12.7649967638
 30
0.0
 10
17.3828629754
 20
12.7252824777
 30
0.0
 10
17.3913562934
 20
12.6697232649
 30
0.0
 10
17.3984082065
 20
12.5978465591
 30
0.0
 10
17.4011959679
 20
12.5101330412
 30
0.0
 10
17.3987890447
 20
12.436675882
 30
0.0
 10
17.3939766011
 20
12.3786428068
 30
0.0
 10
17.3889921611
 20
12.3362577143
 30
0.0
 10
17.3826464413
 20
12.2950906491
 30
0.0
 10
17.3749892055
 20
12.2554223405
 30
0.0
 10
17.3660737301
 20
12.2175400087
 30
0.0
 10
17.3591726834
 20
12.1930651167
 30
0.0
 10
17.3555049436
 20
12.1811963072
 30
0.0
  0
SPLINE
  5
35A
100
AcDbEntity
  8
0
100
AcDbSpline
 62
7
  6
CONTINUOUS
 70
0
 71
3
 72
52
 73
48
 74
0
 42
0.0000001
 43
0.0000001
 44
0.0000000001
 40
0.0
 40
0.0
 40
0.0
 40
0.0
 40
0.0212936474
 40
0.0312581858
 40
0.0408093698
 40
0.0499899336
 40
0.0588505572
 40
0.0674506108
 40
0.0758564182
 40
0.0841401213
 40
0.0923782252
 40
0.1006486723
 40
0.109028251
 40
0.117590375
 40
0.1264023013
 40
0.1355241528
 40
0.14500872
 40
0.1549003429
 40
0.1652350509
 40
0.1760422454
 40
0.1873449958
 40
0.1991592894
 40
0.2114961978
 40
0.224362912
 40
0.2377617275
 40
0.2516908051
 40
0.2661458989
 40
0.2811200791
 40
0.2966026865
 40
0.3290387832
 40
0.3633355206
 40
0.3993418389
 40
0.4368841618
 40
0.475770675
 40
0.5157930677
 40
0.5567319035
 40
0.598356962
 40
0.6404319669
 40
0.6827156192
 40
0.7249648063
 40
0.7669363413
 40
0.8083909011
 40
0.8490930105
 40
0.8888129643
 40
0.9273371537
 40
0.9644695739
 40
1.0
 40
1.0
 40
1.0
 40
1.0
 10
17.4379369493
 20
11.0062395507
 30
0.0
 10
17.4225561809
 20
10.989778514
 30
0.0
 10
17.3986015552
 20
10.966804413
 30
0.0
 10
17.3644340974
 20
10.9403584772
 30
0.0
 10
17.3390670896
 20
10.9236179864
 30
0.0
 10
17.3134375249
 20
10.9095689913
 30
0.0
 10
17.2875832961
 20
10.8982442228
 30
0.0
 10
17.2615510558
 20
10.8896648452
 30
0.0
 10
17.2353870145
 20
10.8838498081
 30
0.0
 10
17.209139516
 20
10.8808198296
 30
0.0
 10
17.1828612891
 20
10.8805833783
 30
0.0
 10
17.1566050467
 20
10.8831359997
 30
0.0
 10
17.1304222552
 20
10.8884725887
 30
0.0
 10
17.1043645239
 20
10.8965837198
 30
0.0
 10
17.078477707
 20
10.9074432879
 30
0.0
 10
17.0528050876
 20
10.9210261052
 30
0.0
 10
17.0273908747
 20
10.9373084538
 30
0.0
 10
17.002275397
 20
10.9562575624
 30
0.0
 10
16.9774960333
 20
10.9778357174
 30
0.0
 10
16.9530928821
 20
11.0020070424
 30
0.0
 10
16.9291073249
 20
11.0287324763
 30
0.0
 10
16.9055747041
 20
11.0579633822
 30
0.0
 10
16.8825328936
 20
11.0896505591
 30
0.0
 10
16.8600224711
 20
11.1237433227
 30
0.0
 10
16.8380796473
 20
11.1601836079
 30
0.0
 10
16.8167387838
 20
11.1989086728
 30
0.0
 10
16.7960369332
 20
11.2398545817
 30
0.0
 10
16.7760106654
 20
11.2829538457
 30
0.0
 10
16.7498448619
 20
11.3441430458
 30
0.0
 10
16.71917742
 20
11.4255922779
 30
0.0
 10
16.6861206415
 20
11.5291836672
 30
0.0
 10
16.6564798297
 20
11.639404694
 30
0.0
 10
16.6304540929
 20
11.7555115181
 30
0.0
 10
16.6082256783
 20
11.8767241003
 30
0.0
 10
16.5899390926
 20
12.002223737
 30
0.0
 10
16.5757263619
 20
12.1311633476
 30
0.0
 10
16.5656785564
 20
12.2626710069
 30
0.0
 10
16.5598675685
 20
12.3958573526
 30
0.0
 10
16.5583329342
 20
12.5298215529
 30
0.0
 10
16.5610820696
 20
12.6636569336
 30
0.0
 10
16.5681019983
 20
12.7964584041
 30
0.0
 10
16.5793380532
 20
12.9273278856
 30
0.0
 10
16.5947195473
 20
13.0553775926
 30
0.0
 10
16.6141355584
 20
13.1797426493
 30
0.0
 10
16.6374596318
 20
13.2995925913
 30
0.0
 10
16.6645318023
 20
13.4141022746
 30
0.0
 10
16.6854396341
 20
13.488114103
 30
0.0
 10
16.6965382512
 20
13.5240292412
 30
0.0
  0
SPLINE
  5
35B
100
AcDbEntity
  8
AXIS
100
AcDbSpline
 62
7
  6
CONTINUOUS
 70
0
 71
3
 72
23
 73
19
 74
0
 42
0.0000001
 43
0.0000001
 44
0.0000000001
 40
0.0
 40
0.0
 40
0.0
 40
0.0
 40
0.0865479601
 40
0.1700984725
 40
0.2504654244
 40
0.3275114893
 40
0.401156002
 40
0.4713400715
 40
0.5380337608
 40
0.6012369022
 40
0.6609947208
 40
0.7174106099
 40
0.7706420317
 40
0.8209213745
 40
0.8685576526
 40
0.9139453698
 40
0.9575712366
 40
1.0
 40
1.0
 40
1.0
 40
1.0
 10
16.084426763
 20
13.5513800798
 30
0.0
 10
16.0915137957
 20
13.574313726
 30
0.0
 10
16.106129443
 20
13.6191785588
 30
0.0
 10
16.1298172037
 20
13.6844943649
 30
0.0
 10
16.1548286223
 20
13.746484444
 30
0.0
 10
16.1810911641
 20
13.804957509
 30
0.0
 10
16.2085254406
 20
13.8597517496
 30
0.0
 10
16.2370620579
 20
13.9107167035
 30
0.0
 10
16.2666176438
 20
13.9577138357
 30
0.0
 10
16.2971127341
 20
14.0006102103
 30
0.0
 10
16.3284683738
 20
14.0392819928
 30
0.0
 10
16.3605953104
 20
14.0736254738
 30
0.0
 10
16.3934174369
 20
14.1035376147
 30
0.0
 10
16.4268480164
 20
14.1289328854
 30
0.0
 10
16.46080239
 20
14.1497314333
 30
0.0
 10
16.4951987818
 20
14.1658514019
 30
0.0
 10
16.5299277383
 20
14.177233857
 30
0.0
 10
16.553465985
 20
14.1816626495
 30
0.0
 10
16.565152463
 20
14.183040633
 30
0.0
  0
SPLINE
  5
35C
100
AcDbEntity
  8
0
100
AcDbSpline
 62
7
  6
CONTINUOUS
 70
0
 71
3
 72
44
 73
40
 74
0
 42
0.0000001
 43
0.0000001
 44
0.0000000001
 40
0.0
 40
0.0
 40
0.0
 40
0.0
 40
0.0076947638
 40
0.0154419647
 40
0.0232928162
 40
0.0312961785
 40
0.0394971294
 40
0.0479366644
 40
0.0656641149
 40
0.0750215964
 40
0.0847367026
 40
0.1053063242
 40
0.1161942075
 40
0.1274940117
 40
0.1513468234
 40
0.1768869878
 40
0.2040978098
 40
0.2329363427
 40
0.2633361866
 40
0.2952133848
 40
0.328466844
 40
0.3629834381
 40
0.3986371808
 40
0.4352938504
 40
0.4728096908
 40
0.5110355699
 40
0.5498157966
 40
0.5889916287
 40
0.6284007081
 40
0.6678795351
 40
0.7072636962
 40
0.7463895634
 40
0.785096034
 40
0.8232240346
 40
0.8606180038
 40
0.8971279989
 40
0.9326189501
 40
0.9669580134
 40
1.0
 40
1.0
 40
1.0
 40
1.0
 10
17.1661246019
 20
10.8508063882
 30
0.0
 10
17.1585713872
 20
10.8508067651
 30
0.0
 10
17.1434047992
 20
10.8514914251
 30
0.0
 10
17.1207190686
 20
10.8545639772
 30
0.0
 10
17.0980937011
 20
10.8596802476
 30
0.0
 10
17.0755623582
 20
10.8668334395
 30
0.0
 10
17.0531512438
 20
10.8760084902
 30
0.0
 10
17.0229800131
 20
10.891161656
 30
0.0
 10
16.9936241023
 20
10.9102182637
 30
0.0
 10
16.965266233
 20
10.932616329
 30
0.0
 10
16.936173115
 20
10.9584889141
 30
0.0
 10
16.9082367879
 20
10.9878060951
 30
0.0
 10
16.8814172356
 20
11.0201008111
 30
0.0
 10
16.854061787
 20
11.0560917307
 30
0.0
 10
16.8209389662
 20
11.1056853026
 30
0.0
 10
16.783579441
 20
11.171000114
 30
0.0
 10
16.74808978
 20
11.2428453896
 30
0.0
 10
16.7146424945
 20
11.3208740939
 30
0.0
 10
16.6833950619
 20
11.4047109015
 30
0.0
 10
16.6545031914
 20
11.4939507432
 30
0.0
 10
16.6281036785
 20
11.5881598734
 30
0.0
 10
16.6043306861
 20
11.6868804785
 30
0.0
 10
16.5832957917
 20
11.7896307653
 30
0.0
 10
16.5651080226
 20
11.8959095786
 30
0.0
 10
16.549850997
 20
12.0051972149
 30
0.0
 10
16.5376061457
 20
12.1169594924
 30
0.0
 10
16.5284271893
 20
12.2306494058
 30
0.0
 10
16.5223662308
 20
12.3457107195
 30
0.0
 10
16.5194462176
 20
12.4615802642
 30
0.0
 10
16.519688979
 20
12.5776907583
 30
0.0
 10
16.523085081
 20
12.6934738088
 30
0.0
 10
16.5296253727
 20
12.8083627799
 30
0.0
 10
16.5392707482
 20
12.9217958738
 30
0.0
 10
16.5519828264
 20
13.0332161149
 30
0.0
 10
16.5676871699
 20
13.1420771421
 30
0.0
 10
16.5863140637
 20
13.2478500619
 30
0.0
 10
16.6077699622
 20
13.3500255926
 30
0.0
 10
16.6319564663
 20
13.4480868274
 30
0.0
 10
16.6501790641
 20
13.5116892649
 30
0.0
 10
16.6597551654
 20
13.5426775402
 30
0.0
  0
SPLINE
  5
35D
100
AcDbEntity
  8
0
100
AcDbSpline
 62
7
  6
CONTINUOUS
 70
0
 71
3
 72
35
 73
31
 74
0
 42
0.0000001
 43
0.0000001
 44
0.0000000001
 40
0.0
 40
0.0
 40
0.0
 40
0.0
 40
0.0154281806
 40
0.0312696123
 40
0.0478985861
 40
0.0656280657
 40
0.0846937559
 40
0.1052648813
 40
0.1274502117
 40
0.151304411
 40
0.1768473778
 40
0.2040611496
 40
0.2329014415
 40
0.2633052678
 40
0.2951849825
 40
0.328441441
 40
0.362961463
 40
0.3986177541
 40
0.4352774081
 40
0.4727965027
 40
0.5498012438
 40
0.5889808596
 40
0.62839395
 40
0.6678772563
 40
0.7072664828
 40
0.785101264
 40
0.8606152197
 40
0.9326231537
 40
0.9669665025
 40
1.0
 40
1.0
 40
1.0
 40
1.0
 10
17.1661245054
 20
13.0110546918
 30
0.0
 10
17.1706879387
 20
13.0110552198
 30
0.0
 10
17.1799575229
 20
13.0102089082
 30
0.0
 10
17.1936825049
 20
13.0064408145
 30
0.0
 10
17.2072287423
 20
13.0002155125
 30
0.0
 10
17.2205208802
 20
12.9915820204
 30
0.0
 10
17.233512061
 20
12.9806074167
 30
0.0
 10
17.2461480159
 20
12.9673474285
 30
0.0
 10
17.2583760624
 20
12.951868068
 30
0.0
 10
17.2701486301
 20
12.9342463244
 30
0.0
 10
17.281406397
 20
12.9145619072
 30
0.0
 10
17.2921009781
 20
12.8929109599
 30
0.0
 10
17.3021821479
 20
12.8693968649
 30
0.0
 10
17.3115969301
 20
12.8441314752
 30
0.0
 10
17.3203051131
 20
12.8172387483
 30
0.0
 10
17.32826059
 20
12.7888482125
 30
0.0
 10
17.3354240938
 20
12.7590981373
 30
0.0
 10
17.3417640006
 20
12.7281341991
 30
0.0
 10
17.3472444711
 20
12.6961064201
 30
0.0
 10
17.3534270633
 20
12.6518125344
 30
0.0
 10
17.3577009858
 20
12.6065205075
 30
0.0
 10
17.3601238272
 20
12.5605568278
 30
0.0
 10
17.3610038917
 20
12.5256380666
 30
0.0
 10
17.3609321645
 20
12.4906464918
 30
0.0
 10
17.3595742568
 20
12.4443100304
 30
0.0
 10
17.3555585412
 20
12.3874098622
 30
0.0
 10
17.3470897417
 20
12.3212567461
 30
0.0
 10
17.3369774447
 20
12.2683782008
 30
0.0
 10
17.3270982447
 20
12.228343766
 30
0.0
 10
17.3216066701
 20
12.2091798633
 30
0.0
 10
17.3187218578
 20
12.1998446063
 30
0.0
  0
SPLINE
  5
35E
100
AcDbEntity
  8
0
100
AcDbSpline
 62
7
  6
CONTINUOUS
 70
0
 71
3
 72
36
 73
32
 74
0
 42
0.0000001
 43
0.0000001
 44
0.0000000001
 40
0.0
 40
0.0
 40
0.0
 40
0.0
 40
0.0939237259
 40
0.1827625162
 40
0.2251550521
 40
0.2661546475
 40
0.3057402739
 40
0.3438963743
 40
0.380615605
 40
0.415897589
 40
0.4497496469
 40
0.4821920247
 40
0.5132597982
 40
0.5430000452
 40
0.598731286
 40
0.6249381221
 40
0.6501801673
 40
0.6745977846
 40
0.6983528229
 40
0.7216240625
 40
0.7446046142
 40
0.7674976484
 40
0.7905086605
 40
0.8138393911
 40
0.8376821188
 40
0.8622127424
 40
0.8875887967
 40
0.9139489607
 40
0.9414101082
 40
0.9700676792
 40
1.0
 40
1.0
 40
1.0
 40
1.0
 10
16.6965382512
 20
13.5240292412
 30
0.0
 10
16.706823606
 20
13.5573126616
 30
0.0
 10
16.7283067585
 20
13.6216364927
 30
0.0
 10
16.7588014943
 20
13.6994281841
 30
0.0
 10
16.7847247364
 20
13.7578219813
 30
0.0
 10
16.8045190637
 20
13.7989244948
 30
0.0
 10
16.8249382593
 20
13.8379559158
 30
0.0
 10
16.8459534564
 20
13.8748544335
 30
0.0
 10
16.8675290878
 20
13.9095633741
 30
0.0
 10
16.8896299341
 20
13.9420278314
 30
0.0
 10
16.9122234103
 20
13.9721938605
 30
0.0
 10
16.9352740449
 20
14.0000112618
 30
0.0
 10
16.9587470302
 20
14.0254412786
 30
0.0
 10
16.9898760081
 20
14.0554507519
 30
0.0
 10
17.0223748551
 20
14.0813918511
 30
0.0
 10
17.056120185
 20
14.1024731984
 30
0.0
 10
17.0811538391
 20
14.1153988348
 30
0.0
 10
17.1063867512
 20
14.1257319425
 30
0.0
 10
17.1317770989
 20
14.1334558156
 30
0.0
 10
17.1572817089
 20
14.1385527414
 30
0.0
 10
17.182855505
 20
14.1410041916
 30
0.0
 10
17.208449605
 20
14.140806238
 30
0.0
 10
17.2340159951
 20
14.1379630238
 30
0.0
 10
17.2595073777
 20
14.1324792939
 30
0.0
 10
17.2848766027
 20
14.1243648882
 30
0.0
 10
17.3100818007
 20
14.113644224
 30
0.0
 10
17.3350829662
 20
14.1003400977
 30
0.0
 10
17.359839117
 20
14.0844742912
 30
0.0
 10
17.3843131216
 20
14.0660767319
 30
0.0
 10
17.408469275
 20
14.0451831501
 30
0.0
 10
17.4239906628
 20
14.0299518287
 30
0.0
 10
17.4316920784
 20
14.0219555201
 30
0.0
  0
SPLINE
  5
35F
100
AcDbEntity
  8
0
100
AcDbSpline
 62
7
  6
CONTINUOUS
 70
0
 71
3
 72
27
 73
23
 74
0
 42
0.0000001
 43
0.0000001
 44
0.0000000001
 40
0.0
 40
0.0
 40
0.0
 40
0.0
 40
0.0937850643
 40
0.1823066158
 40
0.2651359912
 40
0.3420507743
 40
0.4129741639
 40
0.4779928182
 40
0.537386665
 40
0.5917072322
 40
0.641842301
 40
0.6657442219
 40
0.6890993909
 40
0.7121143694
 40
0.7350068604
 40
0.7579999689
 40
0.7813130782
 40
0.8051534897
 40
0.8297121412
 40
0.8816024789
 40
0.9381212217
 40
1.0
 40
1.0
 40
1.0
 40
1.0
 10
17.3555049436
 20
12.1811963072
 30
0.0
 10
17.3520279408
 20
12.1699447213
 30
0.0
 10
17.3447514251
 20
12.1482276448
 30
0.0
 10
17.3324946756
 20
12.1172542082
 30
0.0
 10
17.3192734602
 20
12.0889976381
 30
0.0
 10
17.3051856021
 20
12.0636584381
 30
0.0
 10
17.2903145645
 20
12.0414069892
 30
0.0
 10
17.2747560239
 20
12.0223868593
 30
0.0
 10
17.2585960161
 20
12.0067252122
 30
0.0
 10
17.2419224083
 20
11.994543613
 30
0.0
 10
17.2274317756
 20
11.9872681492
 30
0.0
 10
17.2158009939
 20
11.9834303682
 30
0.0
 10
17.2071696659
 20
11.9815208111
 30
0.0
 10
17.1985112953
 20
11.9805411046
 30
0.0
 10
17.1898427982
 20
11.9804945429
 30
0.0
 10
17.181182551
 20
11.9813843618
 30
0.0
 10
17.1725484704
 20
11.9832052199
 30
0.0
 10
17.1639567245
 20
11.9859510727
 30
0.0
 10
17.1523693242
 20
11.9909255548
 30
0.0
 10
17.1380036709
 20
11.9996059838
 30
0.0
 10
17.1215552997
 20
12.0133685486
 30
0.0
 10
17.1114339654
 20
12.0243129308
 30
0.0
 10
17.1064552565
 20
12.0302784183
 30
0.0
  0
SPLINE
  5
360
100
AcDbEntity
  8
AXIS
100
AcDbSpline
 62
7
  6
CONTINUOUS
 70
0
 71
3
 72
43
 73
39
 74
0
 42
0.0000001
 43
0.0000001
 44
0.0000000001
 40
0.0
 40
0.0
 40
0.0
 40
0.0
 40
0.03297671
 40
0.0672424229
 40
0.1026538353
 40
0.1390803069
 40
0.1763876994
 40
0.2144272976
 40
0.2530454166
 40
0.2920848698
 40
0.3313862379
 40
0.3707872778
 40
0.4101253606
 40
0.4492382548
 40
0.4879653451
 40
0.5261488809
 40
0.5636348744
 40
0.6002748546
 40
0.6359265364
 40
0.670455901
 40
0.7037380252
 40
0.735659425
 40
0.7661194794
 40
0.7950331258
 40
0.8223335144
 40
0.8479754716
 40
0.8719403379
 40
0.8942411205
 40
0.904785118
 40
0.9149370335
 40
0.9341162662
 40
0.9519451901
 40
0.9604272233
 40
0.9686630284
 40
0.9766926404
 40
0.984559962
 40
0.9923123358
 40
1.0
 40
1.0
 40
1.0
 40
1.0
 10
16.084426763
 20
13.5513800798
 30
0.0
 10
16.0748072748
 20
13.5202514045
 30
0.0
 10
16.0564993324
 20
13.456367395
 30
0.0
 10
16.0321877678
 20
13.3578810576
 30
0.0
 10
16.0106052147
 20
13.2552755299
 30
0.0
 10
15.9918527242
 20
13.1490643855
 30
0.0
 10
15.9760246925
 20
13.0397549334
 30
0.0
 10
15.9631915518
 20
12.9278747002
 30
0.0
 10
15.9534241836
 20
12.8139682614
 30
0.0
 10
15.9467635817
 20
12.6985897762
 30
0.0
 10
15.9432481285
 20
12.5822990761
 30
0.0
 10
15.9428892699
 20
12.465660869
 30
0.0
 10
15.9456944214
 20
12.3492420411
 30
0.0
 10
15.9516445741
 20
12.2336080299
 30
0.0
 10
15.9607155274
 20
12.1193207031
 30
0.0
 10
15.972858337
 20
12.0069347865
 30
0.0
 10
15.9880179153
 20
11.8969962361
 30
0.0
 10
16.0061162345
 20
11.7900381339
 30
0.0
 10
16.0270684496
 20
11.6865795709
 30
0.0
 10
16.0507691031
 20
11.5871212934
 30
0.0
 10
16.0771054387
 20
11.4921450229
 30
0.0
 10
16.1059469982
 20
11.4021089533
 30
0.0
 10
16.1371557848
 20
11.3174473887
 30
0.0
 10
16.1705799711
 20
11.2385663009
 30
0.0
 10
16.2060602374
 20
11.1658434723
 30
0.0
 10
16.2434295731
 20
11.0996230894
 30
0.0
 10
16.2825121851
 20
11.0402224333
 30
0.0
 10
16.3169853128
 20
10.9958334398
 30
0.0
 10
16.345320982
 20
10.9641625693
 30
0.0
 10
16.3730111434
 20
10.9361201252
 30
0.0
 10
16.4083100648
 20
10.905549877
 30
0.0
 10
16.4457660934
 20
10.8804456374
 30
0.0
 10
16.4760307873
 20
10.8646036391
 30
0.0
 10
16.4985121494
 20
10.8549261098
 30
0.0
 10
16.5211201369
 20
10.8472686183
 30
0.0
 10
16.5438279334
 20
10.8416423564
 30
0.0
 10
16.5666039227
 20
10.8380596129
 30
0.0
 10
16.5818485104
 20
10.8370365399
 30
0.0
 10
16.5894420941
 20
10.8368685697
 30
0.0
  0
SPLINE
  5
361
100
AcDbEntity
  8
0
100
AcDbSpline
 62
7
  6
CONTINUOUS
 70
0
 71
3
 72
21
 73
17
 74
0
 42
0.0000001
 43
0.0000001
 44
0.0000000001
 40
0.0
 40
0.0
 40
0.0
 40
0.0
 40
0.1726042364
 40
0.3316372664
 40
0.4057080415
 40
0.4760513649
 40
0.5426433606
 40
0.6055097263
 40
0.664731333
 40
0.7204440986
 40
0.7728640701
 40
0.8223073782
 40
0.869181097
 40
0.9139950682
 40
0.9573690297
 40
1.0
 40
1.0
 40
1.0
 40
1.0
 10
17.3187218578
 20
12.1998446063
 30
0.0
 10
17.3143464708
 20
12.1856858504
 30
0.0
 10
17.3050892613
 20
12.1587330875
 30
0.0
 10
17.2913268764
 20
12.1266864357
 30
0.0
 10
17.2794088007
 20
12.1035086527
 30
0.0
 10
17.2703263736
 20
12.0878235492
 30
0.0
 10
17.2609140676
 20
12.0734700876
 30
0.0
 10
17.2511999117
 20
12.060491639
 30
0.0
 10
17.2412141511
 20
12.0489267497
 30
0.0
 10
17.2309833422
 20
12.0388136484
 30
0.0
 10
17.2205337992
 20
12.0301884839
 30
0.0
 10
17.2098978283
 20
12.0230771097
 30
0.0
 10
17.1991051067
 20
12.01750617
 30
0.0
 10
17.1881849866
 20
12.0135063382
 30
0.0
 10
17.177179507
 20
12.0110957232
 30
0.0
 10
17.1697846997
 20
12.0105557176
 30
0.0
 10
17.1661245053
 20
12.010555294
 30
0.0
  0
ENDSEC
  0
SECTION
  2
OBJECTS
  0
DICTIONARY
  5
C
100
AcDbDictionary
280
0
281
1
  3
ACAD_GROUP
350
D
  3
ACAD_MLINESTYLE
350
17
  3
ACAD_LAYOUT
350
1A
  3
ACAD_PLOTSETTINGS
350
19
  3
ACAD_PLOTSTYLENAME
350
E
  0
DICTIONARY
  5
D
102
{ACAD_REACTORS
330
C
102
}
100
AcDbDictionary
280
0
281
1
  0
ACDBDICTIONARYWDFLT
  5
E
102
{ACAD_REACTORS
330
C
102
}
100
AcDbDictionary
281
1
  3
Normal
350
F
100
AcDbDictionaryWithDefault
340
F
  0
DICTIONARY
  5
17
102
{ACAD_REACTORS
330
C
102
}
100
AcDbDictionary
280
0
281
1
  3
Standard
350
18
  0
DICTIONARY
  5
19
102
{ACAD_REACTORS
330
C
102
}
100
AcDbDictionary
281
1
  0
DICTIONARY
  5
1A
102
{ACAD_REACTORS
330
C
102
}
100
AcDbDictionary
281
1
  3
Model
350
362
  3
Layout1
350
363
  0
ACDBPLACEHOLDER
  5
F
102
{ACAD_REACTORS
330
E
102
}
  0
MLINESTYLE
  5
18
102
{ACAD_REACTORS
330
17
102
}
100
AcDbMlineStyle
  2
STANDARD
 70
0
  3

 62
256
 51
90.0
 52
90.0
 71
2
 49
0.5
 62
256
  6
BYLAYER
 49
-0.5
 62
256
  6
BYLAYER
  0
LAYOUT
  5
362
102
{ACAD_REACTORS
330
1A
102
}
100
AcDbPlotSettings
  1

  2
none_device
  4
ANSI_C_(22.00_x_17.00_Inches)
  6

 40
0.0
 41
0.0
 42
0.0
 43
0.0
 44
558.8
 45
431.8
 46
0.0
 47
0.0
 48
0.0
 49
0.0
140
0.0
141
0.0
142
1.0
143
1.0
 70
1024
 72
0
 73
0
 74
0
  7

 75
0
147
1.0
148
0.0
149
0.0
100
AcDbLayout
  1
Model
 70
0
 71
0
 10
0.0
 20
0.0
 11
22.0
 21
17.0
 12
0.0
 22
0.0
 32
0.0
 14
0.0
 24
0.0
 34
0.0
 15
0.0
 25
0.0
 35
0.0
146
0.0
 13
0.0
 23
0.0
 33
0.0
 16
1.0
 26
0.0
 36
0.0
 17
0.0
 27
1.0
 37
0.0
 76
0
330
224
345
0
346
0
  0
LAYOUT
  5
363
102
{ACAD_REACTORS
330
1A
102
}
100
AcDbPlotSettings
  1

  2
none_device
  4
ANSI_C_(22.00_x_17.00_Inches)
  6

 40
0.0
 41
0.0
 42
0.0
 43
0.0
 44
558.8
 45
431.8
 46
0.0
 47
0.0
 48
0.0
 49
0.0
140
0.0
141
0.0
142
1.0
143
1.0
 70
0
 72
0
 73
0
 74
0
  7

 75
0
147
1.0
148
0.0
149
0.0
100
AcDbLayout
  1
Layout1
 70
0
 71
1
 10
0.0
 20
0.0
 11
22.0
 21
17.0
 12
0.0
 22
0.0
 32
0.0
 14
0.0
 24
0.0
 34
0.0
 15
0.0
 25
0.0
 35
0.0
146
0.0
 13
0.0
 23
0.0
 33
0.0
 16
1.0
 26
0.0
 36
0.0
 17
0.0
 27
1.0
 37
0.0
 76
0
330
225
345
0
346
0
  0
ENDSEC
  0
EOF