999
DXF file: _cgs_temp_output.dxf
999
Pro/ENGINEER 2016360 by Parametric Technology Corporation
  0
SECTION
  2
HEADER
  9
$ACADVER
  1
AC1021
  9
$DWGCODEPAGE
  3
ANSI_1252
  9
$EXTMAX
 10
22.0
 20
17.0
 30
0.0
  9
$EXTMIN
 10
0.0
 20
0.0
 30
0.0
  9
$LIMMIN
 10
0.0
 20
0.0
  9
$LIMMAX
 10
22.0
 20
17.0
  9
$VIEWCTR
 10
11.0
 20
8.5
  9
$VIEWSIZE
 40
17.0
  9
$CLAYER
  8
0
  9
$LTSCALE
 40
1.21
  9
$CELTYPE
  6
BYLAYER
  9
$DIMSCALE
 40
1.0
  9
$DIMASZ
 40
0.1875
  9
$DIMEXO
 40
0.0625
  9
$DIMDLI
 40
0.836
  9
$DIMEXE
 40
0.125
  9
$DIMCEN
 40
0.198
  9
$DIMLFAC
 40
1.0
  9
$DIMBLK
  1
_CLOSED
  9
$DIMALT
 70
0
  9
$DIMALTF
 40
25.4
  9
$DIMTXT
 40
0.15625
  9
$DIMTOL
 70
0
  9
$DIMLIM
 70
0
  9
$DIMTFAC
 40
1.0
  9
$DIMGAP
 40
0.09
  9
$DIMDSEP
 70
46
  9
$AUNITS
 70
0
  9
$PDMODE
 70
3
  9
$PDSIZE
 40
0.3125
  9
$HANDSEED
  5
2F9
  9
$TILEMODE
 70
1
  9
$MEASUREMENT
 70
0
  9
$INSUNITS
 70
1
  0
ENDSEC
  0
SECTION
  2
CLASSES
  0
CLASS
  1
ACDBDICTIONARYWDFLT
  2
AcDbDictionaryWithDefault
  3
AutoCAD 2000
 90
0
 91
1
280
0
281
0
  0
CLASS
  1
ACDBPLACEHOLDER
  2
AcDbPlaceHolder
  3
AutoCAD 2000
 90
0
 91
1
280
0
281
0
  0
CLASS
  1
LAYOUT
  2
AcDbLayout
  3
AutoCAD 2000
 90
0
 91
0
280
0
281
0
  0
ENDSEC
  0
SECTION
  2
TABLES
  0
TABLE
  2
VPORT
  5
8
100
AcDbSymbolTable
 70
2
  0
VPORT
  5
1F4
100
AcDbSymbolTableRecord
100
AcDbViewportTableRecord
  2
*ACTIVE
 70
0
 10
0.0
 20
0.0
 11
1.0
 21
1.0
 12
11.0
 22
8.5
 13
0.0
 23
0.0
 14
1.0
 24
1.0
 15
0.0
 25
0.0
 16
0.0
 26
0.0
 36
1.0
 17
0.0
 27
0.0
 37
0.0
 40
17.0
 41
1.2941176471
 42
50.0
 43
0.0
 44
0.0
 50
0.0
 51
0.0
 71
0
 72
100
 73
1
 74
1
 75
0
 76
0
 77
0
 78
0
  0
ENDTAB
  0
TABLE
  2
LTYPE
  5
5
100
AcDbSymbolTable
 70
6
  0
LTYPE
  5
14
100
AcDbSymbolTableRecord
100
AcDbLinetypeTableRecord
  2
BYBLOCK
 70
0
  3

 72
65
 73
0
 40
0.0
  0
LTYPE
  5
15
100
AcDbSymbolTableRecord
100
AcDbLinetypeTableRecord
  2
BYLAYER
 70
0
  3

 72
65
 73
0
 40
0.0
  0
LTYPE
  5
16
100
AcDbSymbolTableRecord
100
AcDbLinetypeTableRecord
  2
CONTINUOUS
 70
64
  3
Solid line
 72
65
 73
0
 40
0.0
  0
LTYPE
  5
1F5
100
AcDbSymbolTableRecord
100
AcDbLinetypeTableRecord
  2
CENTER
 70
64
  3
____ _ ____ _ ____ _ ____ _ ____ _ ____ _ ____
 72
65
 73
4
 40
0.6
 49
0.375
 74
0
 49
-0.075
 74
0
 49
0.075
 74
0
 49
-0.075
 74
0
  0
LTYPE
  5
1F6
100
AcDbSymbolTableRecord
100
AcDbLinetypeTableRecord
  2
HIDDEN
 70
64
  3
- - - - - - - - - - - - - - - - - - - -
 72
65
 73
2
 40
0.2
 49
0.1
 74
0
 49
-0.1
 74
0
  0
LTYPE
  5
1F7
100
AcDbSymbolTableRecord
100
AcDbLinetypeTableRecord
  2
PHANTOM
 70
64
  3
_____ _ _ _____ _ _ _____ _ _ _____
 72
65
 73
6
 40
0.8
 49
0.45
 74
0
 49
-0.05
 74
0
 49
0.1
 74
0
 49
-0.05
 74
0
 49
0.1
 74
0
 49
-0.05
 74
0
  0
LTYPE
  5
1F8
100
AcDbSymbolTableRecord
100
AcDbLinetypeTableRecord
  2
DOT
 70
64
  3
. . . . . . . . . . . . . . . . . . . .
 72
65
 73
2
 40
0.2
 49
0.1
 74
0
 49
-0.1
 74
0
  0
LTYPE
  5
1F9
100
AcDbSymbolTableRecord
100
AcDbLinetypeTableRecord
  2
DASHED
 70
64
  3
- - - - - - - - - - - - - - - - - - - -
 72
65
 73
2
 40
0.2
 49
0.1
 74
0
 49
-0.1
 74
0
  0
ENDTAB
  0
TABLE
  2
LAYER
  5
2
100
AcDbSymbolTable
 70
36
  0
LAYER
  5
10
100
AcDbSymbolTableRecord
100
AcDbLayerTableRecord
  2
0
 70
0
 62
7
  6
CONTINUOUS
370
-3
390
F
  0
LAYER
  5
1FA
100
AcDbSymbolTableRecord
100
AcDbLayerTableRecord
  2
DEFAULT_1
 70
0
 62
7
  6
CENTER
370
-3
390
F
  0
LAYER
  5
1FB
100
AcDbSymbolTableRecord
100
AcDbLayerTableRecord
  2
DEFAULT_2
 70
0
 62
8
  6
HIDDEN
370
-3
390
F
  0
LAYER
  5
1FC
100
AcDbSymbolTableRecord
100
AcDbLayerTableRecord
  2
DEFAULT_3
 70
0
 62
7
  6
PHANTOM
370
-3
390
F
  0
LAYER
  5
1FD
100
AcDbSymbolTableRecord
100
AcDbLayerTableRecord
  2
01_ALL_DTM_PLN
 70
0
 62
7
  6
CONTINUOUS
370
-3
390
F
  0
LAYER
  5
1FE
100
AcDbSymbolTableRecord
100
AcDbLayerTableRecord
  2
01__ASM_ALL_DTM_PLN
 70
0
 62
7
  6
CONTINUOUS
370
-3
390
F
  0
LAYER
  5
1FF
100
AcDbSymbolTableRecord
100
AcDbLayerTableRecord
  2
01__ASM_DEF_DTM_PLN
 70
0
 62
7
  6
CONTINUOUS
370
-3
390
F
  0
LAYER
  5
200
100
AcDbSymbolTableRecord
100
AcDbLayerTableRecord
  2
01___PRT_ALL_DTM_PLN
 70
0
 62
7
  6
CONTINUOUS
370
-3
390
F
  0
LAYER
  5
201
100
AcDbSymbolTableRecord
100
AcDbLayerTableRecord
  2
01___PRT_DEF_DTM_PLN
 70
0
 62
7
  6
CONTINUOUS
370
-3
390
F
  0
LAYER
  5
202
100
AcDbSymbolTableRecord
100
AcDbLayerTableRecord
  2
02_ALL_AXES
 70
0
 62
7
  6
CONTINUOUS
370
-3
390
F
  0
LAYER
  5
203
100
AcDbSymbolTableRecord
100
AcDbLayerTableRecord
  2
02__ASM_ALL_AXES
 70
0
 62
7
  6
CONTINUOUS
370
-3
390
F
  0
LAYER
  5
204
100
AcDbSymbolTableRecord
100
AcDbLayerTableRecord
  2
02___PRT_ALL_AXES
 70
0
 62
7
  6
CONTINUOUS
370
-3
390
F
  0
LAYER
  5
205
100
AcDbSymbolTableRecord
100
AcDbLayerTableRecord
  2
03_ALL_CURVES
 70
0
 62
7
  6
CONTINUOUS
370
-3
390
F
  0
LAYER
  5
206
100
AcDbSymbolTableRecord
100
AcDbLayerTableRecord
  2
03__ASM_ALL_CURVES
 70
0
 62
7
  6
CONTINUOUS
370
-3
390
F
  0
LAYER
  5
207
100
AcDbSymbolTableRecord
100
AcDbLayerTableRecord
  2
03___PRT_ALL_CURVES
 70
0
 62
7
  6
CONTINUOUS
370
-3
390
F
  0
LAYER
  5
208
100
AcDbSymbolTableRecord
100
AcDbLayerTableRecord
  2
04_ALL_DTM_PNT
 70
0
 62
7
  6
CONTINUOUS
370
-3
390
F
  0
LAYER
  5
209
100
AcDbSymbolTableRecord
100
AcDbLayerTableRecord
  2
04__ASM_ALL_DTM_PNT
 70
0
 62
7
  6
CONTINUOUS
370
-3
390
F
  0
LAYER
  5
20A
100
AcDbSymbolTableRecord
100
AcDbLayerTableRecord
  2
04___PRT_ALL_DTM_PNT
 70
0
 62
7
  6
CONTINUOUS
370
-3
390
F
  0
LAYER
  5
20B
100
AcDbSymbolTableRecord
100
AcDbLayerTableRecord
  2
05_ALL_DTM_CSYS
 70
0
 62
7
  6
CONTINUOUS
370
-3
390
F
  0
LAYER
  5
20C
100
AcDbSymbolTableRecord
100
AcDbLayerTableRecord
  2
05__ASM_ALL_DTM_CSYS
 70
0
 62
7
  6
CONTINUOUS
370
-3
390
F
  0
LAYER
  5
20D
100
AcDbSymbolTableRecord
100
AcDbLayerTableRecord
  2
05__ASM_DEF_DTM_CSYS
 70
0
 62
7
  6
CONTINUOUS
370
-3
390
F
  0
LAYER
  5
20E
100
AcDbSymbolTableRecord
100
AcDbLayerTableRecord
  2
05___PRT_ALL_DTM_CSYS
 70
0
 62
7
  6
CONTINUOUS
370
-3
390
F
  0
LAYER
  5
20F
100
AcDbSymbolTableRecord
100
AcDbLayerTableRecord
  2
05___PRT_DEF_DTM_CSYS
 70
0
 62
7
  6
CONTINUOUS
370
-3
390
F
  0
LAYER
  5
210
100
AcDbSymbolTableRecord
100
AcDbLayerTableRecord
  2
06_ALL_SURFS
 70
0
 62
7
  6
CONTINUOUS
370
-3
390
F
  0
LAYER
  5
211
100
AcDbSymbolTableRecord
100
AcDbLayerTableRecord
  2
06__ASM_ALL_SURFS
 70
0
 62
7
  6
CONTINUOUS
370
-3
390
F
  0
LAYER
  5
212
100
AcDbSymbolTableRecord
100
AcDbLayerTableRecord
  2
06___PRT_ALL_SURFS
 70
0
 62
7
  6
CONTINUOUS
370
-3
390
F
  0
LAYER
  5
213
100
AcDbSymbolTableRecord
100
AcDbLayerTableRecord
  2
07__ASM_ALL_SKELETONS
 70
0
 62
7
  6
CONTINUOUS
370
-3
390
F
  0
LAYER
  5
214
100
AcDbSymbolTableRecord
100
AcDbLayerTableRecord
  2
ANNOTATIONS
 70
0
 62
7
  6
CONTINUOUS
370
-3
390
F
  0
LAYER
  5
215
100
AcDbSymbolTableRecord
100
AcDbLayerTableRecord
  2
ASM_DATUMS
 70
0
 62
7
  6
CONTINUOUS
370
-3
390
F
  0
LAYER
  5
216
100
AcDbSymbolTableRecord
100
AcDbLayerTableRecord
  2
ASM_DEF_DATUMS
 70
0
 62
7
  6
CONTINUOUS
370
-3
390
F
  0
LAYER
  5
217
100
AcDbSymbolTableRecord
100
AcDbLayerTableRecord
  2
AXIS
 70
0
 62
7
  6
CONTINUOUS
370
-3
390
F
  0
LAYER
  5
218
100
AcDbSymbolTableRecord
100
AcDbLayerTableRecord
  2
CSYS
 70
0
 62
7
  6
CONTINUOUS
370
-3
390
F
  0
LAYER
  5
219
100
AcDbSymbolTableRecord
100
AcDbLayerTableRecord
  2
CURVES
 70
0
 62
7
  6
CONTINUOUS
370
-3
390
F
  0
LAYER
  5
21A
100
AcDbSymbolTableRecord
100
AcDbLayerTableRecord
  2
DATUMS
 70
0
 62
7
  6
CONTINUOUS
370
-3
390
F
  0
LAYER
  5
21B
100
AcDbSymbolTableRecord
100
AcDbLayerTableRecord
  2
DEF_CSYS
 70
0
 62
7
  6
CONTINUOUS
370
-3
390
F
  0
LAYER
  5
21C
100
AcDbSymbolTableRecord
100
AcDbLayerTableRecord
  2
DEF_DATUMS
 70
0
 62
7
  6
CONTINUOUS
370
-3
390
F
  0
LAYER
  5
21D
100
AcDbSymbolTableRecord
100
AcDbLayerTableRecord
  2
GTOL
 70
0
 62
7
  6
CONTINUOUS
370
-3
390
F
  0
LAYER
  5
21E
100
AcDbSymbolTableRecord
100
AcDbLayerTableRecord
  2
POINTS
 70
0
 62
7
  6
CONTINUOUS
370
-3
390
F
  0
LAYER
  5
21F
100
AcDbSymbolTableRecord
100
AcDbLayerTableRecord
  2
SKELETONS
 70
0
 62
7
  6
CONTINUOUS
370
-3
390
F
  0
LAYER
  5
220
100
AcDbSymbolTableRecord
100
AcDbLayerTableRecord
  2
SURFACES
 70
0
 62
7
  6
CONTINUOUS
370
-3
390
F
  0
LAYER
  5
221
100
AcDbSymbolTableRecord
100
AcDbLayerTableRecord
  2
XSEC_DATUMS
 70
0
 62
7
  6
CONTINUOUS
370
-3
390
F
  0
ENDTAB
  0
TABLE
  2
STYLE
  5
3
100
AcDbSymbolTable
 70
1
  0
STYLE
  5
11
100
AcDbSymbolTableRecord
100
AcDbTextStyleTableRecord
  2
STANDARD
 70
0
 40
0.0
 41
0.8
 50
0.0
 71
0
 42
0.2
  3
txt
  4

  0
STYLE
  5
222
100
AcDbSymbolTableRecord
100
AcDbTextStyleTableRecord
  2
TEXTSTYLE_1
 70
0
 40
0.0
 41
0.8
 50
0.0
 71
0
 42
0.2
  3
gdt
  4

  0
ENDTAB
  0
TABLE
  2
VIEW
  5
6
100
AcDbSymbolTable
 70
0
  0
ENDTAB
  0
TABLE
  2
UCS
  5
7
100
AcDbSymbolTable
 70
0
  0
ENDTAB
  0
TABLE
  2
APPID
  5
9
100
AcDbSymbolTable
 70
1
  0
APPID
  5
223
100
AcDbSymbolTableRecord
100
AcDbRegAppTableRecord
  2
ACAD
 70
0
  0
ENDTAB
  0
TABLE
  2
BLOCK_RECORD
  5
1
100
AcDbSymbolTable
 70
0
  0
BLOCK_RECORD
  5
224
100
AcDbSymbolTableRecord
100
AcDbBlockTableRecord
  2
*Model_Space
  0
BLOCK_RECORD
  5
225
100
AcDbSymbolTableRecord
100
AcDbBlockTableRecord
  2
*Paper_Space
  0
ENDTAB
  0
TABLE
  2
DIMSTYLE
  5
A
100
AcDbSymbolTable
 70
1
100
AcDbDimStyleTable
 71
0
  0
DIMSTYLE
105
226
100
AcDbSymbolTableRecord
100
AcDbDimStyleTableRecord
  2
STANDARD
 70
0
  3

  4

 40
1.0
 41
0.1875
 42
0.0625
 43
0.38
 44
0.125
 45
0.0
 46
0.0
 47
0.0001
 48
0.0001
140
0.15625
141
0.09
142
0.0
143
25.4
144
1.0
145
0.0
146
1.0
147
0.09
 71
0.0
 72
0.0
 73
1
 74
1
 75
0
 76
0
 77
0
 78
4
 79
1
170
0
171
3
172
0
173
0
174
0
175
0
176
0
177
0
178
0
270
2
179
4
271
4
272
4
273
2
274
2
275
0
280
0
281
0
282
0
283
1
284
4
285
0
286
0
287
3
288
0
340
11
278
46
  0
ENDTAB
  0
ENDSEC
  0
SECTION
  2
BLOCKS
  0
BLOCK
  5
20
100
AcDbEntity
  8
0
100
AcDbBlockBegin
  2
*Model_Space
 70
0
 10
0.0
 20
0.0
 30
0.0
  3
*Model_Space
  1

  0
ENDBLK
  5
21
100
AcDbEntity
  8
0
100
AcDbBlockEnd
  0
BLOCK
  5
1C
100
AcDbEntity
  8
0
100
AcDbBlockBegin
  2
*Paper_Space
 70
0
 10
0.0
 20
0.0
 30
0.0
  3
*Paper_Space
  1

  0
ENDBLK
  5
1D
100
AcDbEntity
  8
0
100
AcDbBlockEnd
  0
ENDSEC
  0
SECTION
  2
ENTITIES
  0
MTEXT
  5
227
100
AcDbEntity
  8
0
100
AcDbMText
 62
7
  6
CONTINUOUS
  7
STANDARD
 71
1
 72
1
 10
15.9560215477
 20
0.9479130325
 30
0.0
 11
1.0
 21
0.0
 31
0.0
 44
0.9
  1
SCALE: 1:1.000
 40
0.3
 41
3.36
  0
LINE
  5
228
100
AcDbEntity
  8
0
100
AcDbLine
 62
7
  6
CONTINUOUS
 10
0.0
 20
0.0
 11
0.0
 21
17.0
  0
LINE
  5
229
100
AcDbEntity
  8
0
100
AcDbLine
 62
7
  6
CONTINUOUS
 10
0.0
 20
0.0
 11
22.0
 21
0.0
  0
LINE
  5
22A
100
AcDbEntity
  8
0
100
AcDbLine
 62
7
  6
CONTINUOUS
 10
0.0
 20
17.0
 11
22.0
 21
17.0
  0
LINE
  5
22B
100
AcDbEntity
  8
0
100
AcDbLine
 62
7
  6
CONTINUOUS
 10
22.0
 20
0.0
 11
22.0
 21
17.0
  0
LINE
  5
22C
100
AcDbEntity
  8
02___PRT_ALL_AXES
100
AcDbLine
 62
7
  6
CONTINUOUS
 10
5.5614347398
 20
6.7996198968
 11
5.4753673118
 21
6.7733064433
  0
LINE
  5
22D
100
AcDbEntity
  8
02___PRT_ALL_AXES
100
AcDbLine
 62
7
  6
CONTINUOUS
 10
5.5614347398
 20
4.2406198968
 11
5.4753673118
 21
4.2669333502
  0
LINE
  5
22E
100
AcDbEntity
  8
0
100
AcDbLine
 62
7
  6
CONTINUOUS
 10
5.6003673118
 20
4.4561525091
 11
6.2003673118
 21
4.4561525091
  0
LINE
  5
22F
100
AcDbEntity
  8
0
100
AcDbLine
 62
7
  6
CONTINUOUS
 10
5.6003673118
 20
4.5355096675
 11
6.2003673118
 21
4.5355096675
  0
LINE
  5
230
100
AcDbEntity
  8
0
100
AcDbLine
 62
7
  6
CONTINUOUS
 10
6.7553673118
 20
4.6361198968
 11
6.3253673118
 21
4.6361198968
  0
LINE
  5
231
100
AcDbEntity
  8
0
100
AcDbLine
 62
7
  6
CONTINUOUS
 10
5.6003673118
 20
4.6921695351
 11
6.2003673118
 21
4.6921695351
  0
LINE
  5
232
100
AcDbEntity
  8
02___PRT_ALL_AXES
100
AcDbLine
 62
7
  6
CONTINUOUS
 10
5.4753673118
 20
6.7733064433
 11
5.4753673118
 21
4.2669333502
  0
LINE
  5
233
100
AcDbEntity
  8
02___PRT_ALL_AXES
100
AcDbLine
 62
7
  6
CONTINUOUS
 10
5.5614347398
 20
6.7996198968
 11
5.5614347398
 21
4.2406198968
  0
LINE
  5
234
100
AcDbEntity
  8
0
100
AcDbLine
 62
7
  6
CONTINUOUS
 10
5.6003673118
 20
4.9134460629
 11
6.2003673118
 21
4.9134460629
  0
LINE
  5
235
100
AcDbEntity
  8
02___PRT_ALL_AXES
100
AcDbLine
 62
7
  6
CONTINUOUS
 10
5.6003673118
 20
6.6722771918
 11
5.6003673118
 21
4.3679626017
  0
LINE
  5
236
100
AcDbEntity
  8
0
100
AcDbLine
 62
7
  6
CONTINUOUS
 10
5.6003673118
 20
5.1813408713
 11
6.2003673118
 21
5.1813408713
  0
LINE
  5
237
100
AcDbEntity
  8
02___PRT_ALL_AXES
100
AcDbLine
 62
7
  6
CONTINUOUS
 10
6.2003673118
 20
6.6722771918
 11
6.2392998837
 21
6.7996198968
  0
LINE
  5
238
100
AcDbEntity
  8
02___PRT_ALL_AXES
100
AcDbLine
 62
7
  6
CONTINUOUS
 10
6.2003673118
 20
4.3679626017
 11
6.2392998837
 21
4.2406198968
  0
LINE
  5
239
100
AcDbEntity
  8
02___PRT_ALL_AXES
100
AcDbLine
 62
7
  6
CONTINUOUS
 10
5.6003673118
 20
4.3679626017
 11
5.5614347398
 21
4.2406198968
  0
LINE
  5
23A
100
AcDbEntity
  8
02___PRT_ALL_AXES
100
AcDbLine
 62
7
  6
CONTINUOUS
 10
5.6003673118
 20
6.6722771918
 11
5.5614347398
 21
6.7996198968
  0
LINE
  5
23B
100
AcDbEntity
  8
02___PRT_ALL_AXES
100
AcDbLine
 62
7
  6
CONTINUOUS
 10
6.2003673118
 20
4.3679626017
 11
6.2003673118
 21
6.6722771918
  0
LINE
  5
23C
100
AcDbEntity
  8
02___PRT_ALL_AXES
100
AcDbLine
 62
7
  6
CONTINUOUS
 10
6.2392998837
 20
4.2406198968
 11
6.2392998837
 21
6.7996198968
  0
LINE
  5
23D
100
AcDbEntity
  8
02___PRT_ALL_AXES
100
AcDbLine
 62
7
  6
CONTINUOUS
 10
6.3253673118
 20
4.2669333502
 11
6.3253673118
 21
6.7733064433
  0
LINE
  5
23E
100
AcDbEntity
  8
0
100
AcDbLine
 62
7
  6
CONTINUOUS
 10
5.6003673118
 20
5.8568321415
 11
6.2003673118
 21
5.8568321415
  0
LINE
  5
23F
100
AcDbEntity
  8
0
100
AcDbLine
 62
7
  6
CONTINUOUS
 10
6.7553673118
 20
4.6361198968
 11
6.7553673118
 21
6.4041198968
  0
LINE
  5
240
100
AcDbEntity
  8
0
100
AcDbLine
 62
7
  6
CONTINUOUS
 10
6.7853673118
 20
4.6661198968
 11
6.7853673118
 21
6.3741198968
  0
LINE
  5
241
100
AcDbEntity
  8
0
100
AcDbLine
 62
7
  6
CONTINUOUS
 10
6.2003673118
 20
6.1249735316
 11
5.6003673118
 21
6.1249735316
  0
LINE
  5
242
100
AcDbEntity
  8
0
100
AcDbLine
 62
7
  6
CONTINUOUS
 10
6.2003673118
 20
6.3466634192
 11
5.6003673118
 21
6.3466634192
  0
LINE
  5
243
100
AcDbEntity
  8
0
100
AcDbLine
 62
7
  6
CONTINUOUS
 10
6.7553673118
 20
6.4041198968
 11
6.3253673118
 21
6.4041198968
  0
LINE
  5
244
100
AcDbEntity
  8
0
100
AcDbLine
 62
7
  6
CONTINUOUS
 10
6.2003673118
 20
6.50385057
 11
5.6003673118
 21
6.50385057
  0
LINE
  5
245
100
AcDbEntity
  8
0
100
AcDbLine
 62
7
  6
CONTINUOUS
 10
6.2003673118
 20
6.5839941057
 11
5.6003673118
 21
6.5839941057
  0
LINE
  5
246
100
AcDbEntity
  8
0
100
AcDbLine
 62
7
  6
CONTINUOUS
 10
6.7553673657
 20
4.6361198429
 11
6.7853673638
 21
4.6661198447
  0
LINE
  5
247
100
AcDbEntity
  8
0
100
AcDbLine
 62
7
  6
CONTINUOUS
 10
6.7553673657
 20
6.4041199506
 11
6.7853673638
 21
6.3741199488
  0
LINE
  5
248
100
AcDbEntity
  8
02___PRT_ALL_AXES
100
AcDbLine
 62
7
  6
CONTINUOUS
 10
6.2392998837
 20
4.2406198968
 11
6.3253673118
 21
4.2669333502
  0
LINE
  5
249
100
AcDbEntity
  8
02___PRT_ALL_AXES
100
AcDbLine
 62
7
  6
CONTINUOUS
 10
6.2392998837
 20
6.7996198968
 11
6.3253673118
 21
6.7733064433
  0
LINE
  5
24A
100
AcDbEntity
  8
02___PRT_ALL_AXES
100
AcDbLine
 62
7
  6
CONTINUOUS
 10
5.4158721195
 20
13.8532343279
 11
5.5019395475
 21
13.8795477814
  0
LINE
  5
24B
100
AcDbEntity
  8
02___PRT_ALL_AXES
100
AcDbLine
 62
7
  6
CONTINUOUS
 10
5.4158721195
 20
11.3468612348
 11
5.5019395475
 21
11.3205477814
  0
LINE
  5
24C
100
AcDbEntity
  8
AXIS
100
AcDbLine
 62
7
  6
CONTINUOUS
 10
6.1408721195
 20
11.5275477814
 11
5.5408721195
 21
11.5275477814
  0
LINE
  5
24D
100
AcDbEntity
  8
0
100
AcDbLine
 62
7
  6
CONTINUOUS
 10
5.5408721195
 20
11.5654417757
 11
6.1408721195
 21
11.5654417757
  0
LINE
  5
24E
100
AcDbEntity
  8
0
100
AcDbLine
 62
7
  6
CONTINUOUS
 10
5.5408721195
 20
11.6845684219
 11
6.1408721195
 21
11.6845684219
  0
LINE
  5
24F
100
AcDbEntity
  8
AXIS
100
AcDbLine
 62
7
  6
CONTINUOUS
 10
6.6958722273
 20
11.7160477814
 11
6.2658721195
 21
11.7160477814
  0
LINE
  5
250
100
AcDbEntity
  8
0
100
AcDbLine
 62
7
  6
CONTINUOUS
 10
5.5408721195
 20
11.8753996774
 11
6.1408721195
 21
11.8753996774
  0
LINE
  5
251
100
AcDbEntity
  8
02___PRT_ALL_AXES
100
AcDbLine
 62
7
  6
CONTINUOUS
 10
5.4158721195
 20
11.3468612348
 11
5.4158721195
 21
13.8532343279
  0
LINE
  5
252
100
AcDbEntity
  8
02___PRT_ALL_AXES
100
AcDbLine
 62
7
  6
CONTINUOUS
 10
5.5019395475
 20
11.3205477814
 11
5.5019395475
 21
13.8795477814
  0
LINE
  5
253
100
AcDbEntity
  8
02___PRT_ALL_AXES
100
AcDbLine
 62
7
  6
CONTINUOUS
 10
5.5408721195
 20
11.4478904863
 11
5.5408721195
 21
13.7522050764
  0
LINE
  5
254
100
AcDbEntity
  8
0
100
AcDbLine
 62
7
  6
CONTINUOUS
 10
5.5408721195
 20
12.1224823523
 11
6.1408721195
 21
12.1224823523
  0
LINE
  5
255
100
AcDbEntity
  8
02___PRT_ALL_AXES
100
AcDbLine
 62
7
  6
CONTINUOUS
 10
6.1798046914
 20
13.8795477814
 11
6.1408721195
 21
13.7522050764
  0
LINE
  5
256
100
AcDbEntity
  8
02___PRT_ALL_AXES
100
AcDbLine
 62
7
  6
CONTINUOUS
 10
6.1798046914
 20
11.3205477814
 11
6.1408721195
 21
11.4478904863
  0
LINE
  5
257
100
AcDbEntity
  8
02___PRT_ALL_AXES
100
AcDbLine
 62
7
  6
CONTINUOUS
 10
5.5019395475
 20
11.3205477814
 11
5.5408721195
 21
11.4478904863
  0
LINE
  5
258
100
AcDbEntity
  8
02___PRT_ALL_AXES
100
AcDbLine
 62
7
  6
CONTINUOUS
 10
5.5019395475
 20
13.8795477814
 11
5.5408721195
 21
13.7522050764
  0
LINE
  5
259
100
AcDbEntity
  8
02___PRT_ALL_AXES
100
AcDbLine
 62
7
  6
CONTINUOUS
 10
6.1408721195
 20
11.4478904863
 11
6.1408721195
 21
13.7522050764
  0
LINE
  5
25A
100
AcDbEntity
  8
02___PRT_ALL_AXES
100
AcDbLine
 62
7
  6
CONTINUOUS
 10
6.1798046914
 20
11.3205477814
 11
6.1798046914
 21
13.8795477814
  0
LINE
  5
25B
100
AcDbEntity
  8
02___PRT_ALL_AXES
100
AcDbLine
 62
7
  6
CONTINUOUS
 10
6.2658721195
 20
11.3468612348
 11
6.2658721195
 21
13.8532343279
  0
LINE
  5
25C
100
AcDbEntity
  8
0
100
AcDbLine
 62
7
  6
CONTINUOUS
 10
6.1408721195
 20
13.0762981413
 11
5.5408721195
 21
13.0762981413
  0
LINE
  5
25D
100
AcDbEntity
  8
0
100
AcDbLine
 62
7
  6
CONTINUOUS
 10
6.6958721194
 20
11.7160477814
 11
6.6958721194
 21
13.4840477814
  0
LINE
  5
25E
100
AcDbEntity
  8
0
100
AcDbLine
 62
7
  6
CONTINUOUS
 10
6.7258721195
 20
11.7460477814
 11
6.7258721195
 21
13.4540477813
  0
LINE
  5
25F
100
AcDbEntity
  8
0
100
AcDbLine
 62
7
  6
CONTINUOUS
 10
6.1408721195
 20
13.3236098257
 11
5.5408721195
 21
13.3236098257
  0
LINE
  5
260
100
AcDbEntity
  8
AXIS
100
AcDbLine
 62
7
  6
CONTINUOUS
 10
6.6958722273
 20
13.4840477814
 11
6.2658721195
 21
13.4840477814
  0
LINE
  5
261
100
AcDbEntity
  8
0
100
AcDbLine
 62
7
  6
CONTINUOUS
 10
6.1408721195
 20
13.5147580379
 11
5.5408721195
 21
13.5147580379
  0
LINE
  5
262
100
AcDbEntity
  8
0
100
AcDbLine
 62
7
  6
CONTINUOUS
 10
6.1408721195
 20
13.6342639216
 11
5.5408721195
 21
13.6342639216
  0
LINE
  5
263
100
AcDbEntity
  8
0
100
AcDbLine
 62
7
  6
CONTINUOUS
 10
6.7258721195
 20
11.7460476773
 11
6.6958722273
 21
11.7160477814
  0
LINE
  5
264
100
AcDbEntity
  8
AXIS
100
AcDbLine
 62
7
  6
CONTINUOUS
 10
6.1408721195
 20
13.6725477814
 11
5.5408721195
 21
13.6725477814
  0
LINE
  5
265
100
AcDbEntity
  8
0
100
AcDbLine
 62
7
  6
CONTINUOUS
 10
6.7258721195
 20
13.4540478855
 11
6.6958722273
 21
13.4840477814
  0
LINE
  5
266
100
AcDbEntity
  8
02___PRT_ALL_AXES
100
AcDbLine
 62
7
  6
CONTINUOUS
 10
6.2658721195
 20
11.3468612348
 11
6.1798046914
 21
11.3205477814
  0
LINE
  5
267
100
AcDbEntity
  8
02___PRT_ALL_AXES
100
AcDbLine
 62
7
  6
CONTINUOUS
 10
6.2658721195
 20
13.8532343279
 11
6.1798046914
 21
13.8795477814
  0
LINE
  5
268
100
AcDbEntity
  8
02___PRT_ALL_AXES
100
AcDbLine
 62
7
  6
CONTINUOUS
 10
14.882379993
 20
13.7534780868
 11
14.9603288154
 21
13.7795707868
  0
LINE
  5
269
100
AcDbEntity
  8
02___PRT_ALL_AXES
100
AcDbLine
 62
7
  6
CONTINUOUS
 10
14.882379993
 20
11.268131899
 11
14.9603288154
 21
11.242039199
  0
LINE
  5
26A
100
AcDbEntity
  8
0
100
AcDbLine
 62
7
  6
CONTINUOUS
 10
15.0262741578
 20
11.4420456204
 11
15.0252865465
 21
11.4421442166
  0
LINE
  5
26B
100
AcDbEntity
  8
0
100
AcDbLine
 62
7
  6
CONTINUOUS
 10
15.0262741593
 20
11.4420368257
 11
15.375208485
 21
11.4420368257
  0
LINE
  5
26C
100
AcDbEntity
  8
0
100
AcDbLine
 62
7
  6
CONTINUOUS
 10
14.9137232102
 20
11.5089194636
 11
15.3391945227
 21
11.5089194636
  0
LINE
  5
26D
100
AcDbEntity
  8
AXIS
100
AcDbLine
 62
7
  6
CONTINUOUS
 10
16.1244192511
 20
11.6268049929
 11
15.7283629244
 21
11.6268049929
  0
LINE
  5
26E
100
AcDbEntity
  8
0
100
AcDbLine
 62
7
  6
CONTINUOUS
 10
14.8130655834
 20
11.654503735
 11
15.2790748414
 21
11.654503735
  0
LINE
  5
26F
100
AcDbEntity
  8
AXIS
100
AcDbLine
 62
7
  6
CONTINUOUS
 10
15.7254520285
 20
11.6268365972
 11
15.7283629244
 21
11.6268049929
  0
LINE
  5
270
100
AcDbEntity
  8
0
100
AcDbLine
 62
7
  6
CONTINUOUS
 10
14.7324523618
 20
11.8670004738
 11
15.218927535
 21
11.8670004738
  0
LINE
  5
271
100
AcDbEntity
  8
0
100
AcDbLine
 62
7
  6
CONTINUOUS
 10
14.6784114668
 20
12.1292020563
 11
15.1737706637
 21
12.1292020563
  0
LINE
  5
272
100
AcDbEntity
  8
02___PRT_ALL_AXES
100
AcDbLine
 62
7
  6
CONTINUOUS
 10
15.3714748439
 20
11.65607158
 11
15.370548015
 21
11.6586306801
  0
LINE
  5
273
100
AcDbEntity
  8
02___PRT_ALL_AXES
100
AcDbLine
 62
7
  6
CONTINUOUS
 10
15.371672843
 20
11.656545775
 11
15.3707751367
 21
11.6591715881
  0
LINE
  5
274
100
AcDbEntity
  8
02___PRT_ALL_AXES
100
AcDbLine
 62
7
  6
CONTINUOUS
 10
15.2902317422
 20
13.0599658386
 11
15.2904184974
 21
13.0609678357
  0
LINE
  5
275
100
AcDbEntity
  8
02___PRT_ALL_AXES
100
AcDbLine
 62
7
  6
CONTINUOUS
 10
15.2898031943
 20
13.0605029842
 11
15.2899932939
 21
13.0615019889
  0
LINE
  5
276
100
AcDbEntity
  8
0
100
AcDbLine
 62
7
  6
CONTINUOUS
 10
14.6796691088
 20
12.8048813518
 11
15.1642225462
 21
12.8048813518
  0
LINE
  5
277
100
AcDbEntity
  8
0
100
AcDbLine
 62
7
  6
CONTINUOUS
 10
15.2030966671
 20
13.0786391559
 11
14.7128231385
 21
13.0786391559
  0
LINE
  5
278
100
AcDbEntity
  8
AXIS
100
AcDbLine
 62
7
  6
CONTINUOUS
 10
15.7254520285
 20
13.3947733886
 11
15.7283629244
 21
13.3948049929
  0
LINE
  5
279
100
AcDbEntity
  8
0
100
AcDbLine
 62
7
  6
CONTINUOUS
 10
15.2595500832
 20
13.3084099578
 11
14.7858980857
 21
13.3084099578
  0
LINE
  5
27A
100
AcDbEntity
  8
AXIS
100
AcDbLine
 62
7
  6
CONTINUOUS
 10
16.1244192511
 20
13.3948049929
 11
15.7283629244
 21
13.3948049929
  0
LINE
  5
27B
100
AcDbEntity
  8
0
100
AcDbLine
 62
7
  6
CONTINUOUS
 10
15.3222948741
 20
13.476021418
 11
14.8812174159
 21
13.476021418
  0
LINE
  5
27C
100
AcDbEntity
  8
0
100
AcDbLine
 62
7
  6
CONTINUOUS
 10
15.369205116
 20
13.5679006463
 11
14.9910623321
 21
13.5679006463
  0
LINE
  5
27D
100
AcDbEntity
  8
0
100
AcDbLine
 62
7
  6
CONTINUOUS
 10
15.0951956448
 20
13.5795113804
 11
15.3758917375
 21
13.5795113804
  0
LINE
  5
27E
100
AcDbEntity
  8
0
100
AcDbLine
 62
7
  6
CONTINUOUS
 10
16.2926565089
 20
11.7368877591
 11
16.2699640648
 21
11.7097010687
  0
LINE
  5
27F
100
AcDbEntity
  8
0
100
AcDbLine
 62
7
  6
CONTINUOUS
 10
14.9890614293
 20
13.5674573557
 11
14.9910623367
 21
13.5678948169
  0
LINE
  5
280
100
AcDbEntity
  8
0
100
AcDbLine
 62
7
  6
CONTINUOUS
 10
16.2926565089
 20
13.2847222267
 11
16.2699640648
 21
13.3119089171
  0
LINE
  5
281
100
AcDbEntity
  8
02___PRT_ALL_AXES
100
AcDbLine
 62
7
  6
CONTINUOUS
 10
15.7914440109
 20
11.268131899
 11
15.7134951885
 21
11.242039199
  0
LINE
  5
282
100
AcDbEntity
  8
02___PRT_ALL_AXES
100
AcDbLine
 62
7
  6
CONTINUOUS
 10
15.7914440109
 20
13.7534780868
 11
15.7134951885
 21
13.7795707868
  0
CIRCLE
  5
283
100
AcDbEntity
  8
02___PRT_ALL_AXES
100
AcDbCircle
 62
7
  6
CONTINUOUS
 10
15.5603552569
 20
5.4606247044
 40
1.2795
  0
CIRCLE
  5
284
100
AcDbEntity
  8
02___PRT_ALL_AXES
100
AcDbCircle
 62
7
  6
CONTINUOUS
 10
15.5603552569
 20
5.4606247044
 40
1.2531865466
  0
CIRCLE
  5
285
100
AcDbEntity
  8
02___PRT_ALL_AXES
100
AcDbCircle
 62
7
  6
CONTINUOUS
 10
15.5603552569
 20
5.4606247044
 40
1.1387067049
  0
CIRCLE
  5
286
100
AcDbEntity
  8
0
100
AcDbCircle
 62
7
  6
CONTINUOUS
 10
15.5603552569
 20
5.4606247044
 40
0.884
  0
CIRCLE
  5
287
100
AcDbEntity
  8
0
100
AcDbCircle
 62
7
  6
CONTINUOUS
 10
15.5603552569
 20
5.4606247044
 40
0.8540000065
  0
CIRCLE
  5
288
100
AcDbEntity
  8
0
100
AcDbCircle
 62
7
  6
CONTINUOUS
 10
15.5603552569
 20
5.4606247044
 40
0.2802485503
  0
CIRCLE
  5
289
100
AcDbEntity
  8
0
100
AcDbCircle
 62
7
  6
CONTINUOUS
 10
15.5603552569
 20
5.4606247044
 40
0.25025
  0
ARC
  5
28A
100
AcDbEntity
  8
0
100
AcDbCircle
 62
7
  6
CONTINUOUS
 10
17.389271589
 20
12.5107142214
 40
2.74632849
100
AcDbArc
 50
180.6782388069
 51
181.3059445298
  0
ARC
  5
28B
100
AcDbEntity
  8
0
100
AcDbCircle
 62
7
  6
CONTINUOUS
 10
17.2036852809
 20
12.5228276632
 40
2.5603213611
100
AcDbArc
 50
174.2019285971
 51
174.8593040667
  0
ARC
  5
28C
100
AcDbEntity
  8
0
100
AcDbCircle
 62
7
  6
CONTINUOUS
 10
17.0340493378
 20
12.4792309395
 40
2.389552802
100
AcDbArc
 50
187.2524136937
 51
187.9415407844
  0
ARC
  5
28D
100
AcDbEntity
  8
0
100
AcDbCircle
 62
7
  6
CONTINUOUS
 10
16.5746987138
 20
12.6252645403
 40
1.9226383622
100
AcDbArc
 50
166.80564078
 51
167.6403441828
  0
ARC
  5
28E
100
AcDbEntity
  8
02___PRT_ALL_AXES
100
AcDbCircle
 62
7
  6
CONTINUOUS
 10
17.0148115079
 20
12.774167051
 40
1.7465714412
100
AcDbArc
 50
162.3776296611
 51
162.8289825997
  0
ARC
  5
28F
100
AcDbEntity
  8
0
100
AcDbCircle
 62
7
  6
CONTINUOUS
 10
16.3259030583
 20
12.3339653467
 40
1.6661196945
100
AcDbArc
 50
194.9579424483
 51
195.8349139937
  0
ARC
  5
290
100
AcDbEntity
  8
02___PRT_ALL_AXES
100
AcDbCircle
 62
7
  6
CONTINUOUS
 10
16.7936708613
 20
12.7728695205
 40
1.5120976189
100
AcDbArc
 50
160.8507871043
 51
162.8544339747
  0
ARC
  5
291
100
AcDbEntity
  8
02___PRT_ALL_AXES
100
AcDbCircle
 62
7
  6
CONTINUOUS
 10
16.7230066141
 20
12.7971584285
 40
1.4373759434
100
AcDbArc
 50
160.7200509677
 51
160.8414192877
  0
ARC
  5
292
100
AcDbEntity
  8
0
100
AcDbCircle
 62
7
  6
CONTINUOUS
 10
16.2674485801
 20
13.4757818743
 40
1.3005845049
100
AcDbArc
 50
177.3446914542
 51
179.9894467096
  0
ARC
  5
293
100
AcDbEntity
  8
0
100
AcDbCircle
 62
7
  6
CONTINUOUS
 10
16.1629120756
 20
11.513179087
 40
1.2720027855
100
AcDbArc
 50
175.5181751706
 51
178.2389103573
  0
ARC
  5
294
100
AcDbEntity
  8
0
100
AcDbCircle
 62
7
  6
CONTINUOUS
 10
16.2666387149
 20
11.5714617641
 40
1.2673093563
100
AcDbArc
 50
182.8287328733
 51
184.6473956136
  0
ARC
  5
295
100
AcDbEntity
  8
0
100
AcDbCircle
 62
7
  6
CONTINUOUS
 10
16.0892767693
 20
13.5082487043
 40
1.232365973
100
AcDbArc
 50
183.745817674
 51
186.5159711766
  0
ARC
  5
296
100
AcDbEntity
  8
0
100
AcDbCircle
 62
7
  6
CONTINUOUS
 10
15.8234313968
 20
12.8576839671
 40
1.1353530293
100
AcDbArc
 50
157.0439846434
 51
158.1729815801
  0
ARC
  5
297
100
AcDbEntity
  8
0
100
AcDbCircle
 62
7
  6
CONTINUOUS
 10
15.8068446198
 20
11.5634952392
 40
1.0246502476
100
AcDbArc
 50
168.4378197234
 51
171.5885963717
  0
ARC
  5
298
100
AcDbEntity
  8
0
100
AcDbCircle
 62
7
  6
CONTINUOUS
 10
15.6930179701
 20
13.4200830616
 40
0.9422836172
100
AcDbArc
 50
190.6964596091
 51
194.0010163888
  0
ARC
  5
299
100
AcDbEntity
  8
0
100
AcDbCircle
 62
7
  6
CONTINUOUS
 10
15.6145453834
 20
12.0699917913
 40
0.9062768586
100
AcDbArc
 50
205.5287714675
 51
206.8458093803
  0
ARC
  5
29A
100
AcDbEntity
  8
0
100
AcDbCircle
 62
7
  6
CONTINUOUS
 10
15.2827796586
 20
13.1516067136
 40
0.5183394999
100
AcDbArc
 50
141.6899348831
 51
143.592875571
  0
ARC
  5
29B
100
AcDbEntity
  8
0
100
AcDbCircle
 62
7
  6
CONTINUOUS
 10
15.1814665888
 20
11.7837855762
 40
0.3852350232
100
AcDbArc
 50
222.7599524844
 51
225.0908831143
  0
ARC
  5
29C
100
AcDbEntity
  8
0
100
AcDbCircle
 62
7
  6
CONTINUOUS
 10
15.0759441134
 20
13.3731165854
 40
0.2128777485
100
AcDbArc
 50
114.0876803165
 51
117.5335206591
  0
ARC
  5
29D
100
AcDbEntity
  8
0
100
AcDbCircle
 62
7
  6
CONTINUOUS
 10
15.0626608919
 20
11.6135928156
 40
0.1754749663
100
AcDbArc
 50
253.7701686441
 51
257.7023909237
  0
ARC
  5
29E
100
AcDbEntity
  8
0
100
AcDbCircle
 62
7
  6
CONTINUOUS
 10
14.6796962294
 20
12.7267714071
 40
0.0781099527
100
AcDbArc
 50
90.0198937372
 51
99.3376492668
  0
ARC
  5
29F
100
AcDbEntity
  8
0
100
AcDbCircle
 62
7
  6
CONTINUOUS
 10
14.8185488512
 20
11.6185087185
 40
0.0764803786
100
AcDbArc
 50
355.5517571792
 51
2.9496681629
  0
SPLINE
  5
2A0
100
AcDbEntity
  8
02___PRT_ALL_AXES
100
AcDbSpline
 62
7
  6
CONTINUOUS
 70
0
 71
3
 72
41
 73
37
 74
0
 42
0.0000001
 43
0.0000001
 44
0.0000000001
 40
0.0
 40
0.0
 40
0.0
 40
0.0
 40
0.032027984
 40
0.06523626
 40
0.0995132372
 40
0.1347486352
 40
0.1708206164
 40
0.2076023662
 40
0.2449624806
 40
0.2827655305
 40
0.3208732439
 40
0.3591453853
 40
0.3974407022
 40
0.4356177718
 40
0.4735359112
 40
0.5110561355
 40
0.5480420174
 40
0.5843605871
 40
0.6198834288
 40
0.654487665
 40
0.688056953
 40
0.7204826993
 40
0.7516655555
 40
0.7815167724
 40
0.8099598848
 40
0.8369329594
 40
0.8623913221
 40
0.8863106089
 40
0.9086908683
 40
0.9295620004
 40
0.9489902115
 40
0.9581991841
 40
0.9670929312
 40
0.9840167973
 40
0.9921110624
 40
1.0
 40
1.0
 40
1.0
 40
1.0
 10
14.5631867161
 20
13.2897982424
 30
0.0
 10
14.5563816485
 20
13.2677770355
 30
0.0
 10
14.5433922041
 20
13.2226498944
 30
0.0
 10
14.5260210403
 20
13.1531613216
 30
0.0
 10
14.5104675914
 20
13.0808807794
 30
0.0
 10
14.4967994226
 20
13.0061254991
 30
0.0
 10
14.4850765197
 20
12.9292174199
 30
0.0
 10
14.4753498874
 20
12.850491217
 30
0.0
 10
14.4676619398
 20
12.7702887596
 30
0.0
 10
14.4620465344
 20
12.6889584168
 30
0.0
 10
14.4585282256
 20
12.6068536862
 30
0.0
 10
14.457122199
 20
12.5243314475
 30
0.0
 10
14.4578346151
 20
12.4417504076
 30
0.0
 10
14.4606625775
 20
12.3594695485
 30
0.0
 10
14.4655936347
 20
12.2778465227
 30
0.0
 10
14.4726060718
 20
12.1972360526
 30
0.0
 10
14.481669268
 20
12.1179884161
 30
0.0
 10
14.49274384
 20
12.0404479049
 30
0.0
 10
14.5057812066
 20
11.9649511734
 30
0.0
 10
14.5207243161
 20
11.8918257851
 30
0.0
 10
14.5375080246
 20
11.8213888503
 30
0.0
 10
14.5560593568
 20
11.7539455208
 30
0.0
 10
14.5762973187
 20
11.6897873803
 30
0.0
 10
14.5981339895
 20
11.6291912722
 30
0.0
 10
14.6214751256
 20
11.5724181097
 30
0.0
 10
14.6462205566
 20
11.5197114824
 30
0.0
 10
14.6722648338
 20
11.4712961685
 30
0.0
 10
14.6994985245
 20
11.4273780018
 30
0.0
 10
14.7278111338
 20
11.3881419741
 30
0.0
 10
14.7570873622
 20
11.3537570983
 30
0.0
 10
14.7826390608
 20
11.3288339172
 30
0.0
 10
14.8034592139
 20
11.311607034
 30
0.0
 10
14.8237788054
 20
11.2966756322
 30
0.0
 10
14.8447492843
 20
11.2840273851
 30
0.0
 10
14.8662278704
 20
11.2740148499
 30
0.0
 10
14.876996407
 20
11.2699342332
 30
0.0
 10
14.8823800036
 20
11.2681321081
 30
0.0
  0
SPLINE
  5
2A1
100
AcDbEntity
  8
02___PRT_ALL_AXES
100
AcDbSpline
 62
7
  6
CONTINUOUS
 70
0
 71
3
 72
23
 73
19
 74
0
 42
0.0000001
 43
0.0000001
 44
0.0000000001
 40
0.0
 40
0.0
 40
0.0
 40
0.0
 40
0.0535885569
 40
0.1061051413
 40
0.1580999713
 40
0.21014419
 40
0.2628069168
 40
0.3166327075
 40
0.3721234933
 40
0.429724545
 40
0.4898194478
 40
0.5527266332
 40
0.6187044191
 40
0.6879526918
 40
0.760621942
 40
0.8368154306
 40
0.9165986148
 40
1.0
 40
1.0
 40
1.0
 40
1.0
 10
14.9603288185
 20
13.7795707244
 30
0.0
 10
14.9675557924
 20
13.7819899898
 30
0.0
 10
14.9821262385
 20
13.7860443211
 30
0.0
 10
15.0043636967
 20
13.7896606401
 30
0.0
 10
15.0266524342
 20
13.7907204501
 30
0.0
 10
15.0489359265
 20
13.7892203932
 30
0.0
 10
15.0711616321
 20
13.7851646698
 30
0.0
 10
15.0932787041
 20
13.778568471
 30
0.0
 10
15.1152392821
 20
13.7694507701
 30
0.0
 10
15.1370000616
 20
13.7578383345
 30
0.0
 10
15.1585190026
 20
13.7437586719
 30
0.0
 10
15.1797575816
 20
13.7272451614
 30
0.0
 10
15.2006761772
 20
13.7083317408
 30
0.0
 10
15.2212378613
 20
13.6870581479
 30
0.0
 10
15.241403537
 20
13.6634657484
 30
0.0
 10
15.2611369635
 20
13.6376016749
 30
0.0
 10
15.2803991972
 20
13.6095163353
 30
0.0
 10
15.2926326919
 20
13.5897846628
 30
0.0
 10
15.2986723595
 20
13.5795765207
 30
0.0
  0
SPLINE
  5
2A2
100
AcDbEntity
  8
02___PRT_ALL_AXES
100
AcDbSpline
 62
7
  6
CONTINUOUS
 70
0
 71
3
 72
23
 73
19
 74
0
 42
0.0000001
 43
0.0000001
 44
0.0000000001
 40
0.0
 40
0.0
 40
0.0
 40
0.0
 40
0.0838346687
 40
0.1650436693
 40
0.2434895293
 40
0.3190804931
 40
0.3917410857
 40
0.4614081462
 40
0.528039855
 40
0.591620661
 40
0.6521628064
 40
0.7097098985
 40
0.7643437711
 40
0.8161881557
 40
0.8654171491
 40
0.9122586948
 40
0.95700246
 40
1.0
 40
1.0
 40
1.0
 40
1.0
 10
14.5631867161
 20
13.2897982424
 30
0.0
 10
14.5679815174
 20
13.305314225
 30
0.0
 10
14.5778409749
 20
13.3357326745
 30
0.0
 10
14.5937075643
 20
13.3801587088
 30
0.0
 10
14.6103885148
 20
13.4225751845
 30
0.0
 10
14.6278431621
 20
13.4628816627
 30
0.0
 10
14.6460323507
 20
13.5009871761
 30
0.0
 10
14.6649142598
 20
13.536804914
 30
0.0
 10
14.6844462538
 20
13.5702522834
 30
0.0
 10
14.7045840149
 20
13.6012528906
 30
0.0
 10
14.7252823198
 20
13.6297362964
 30
0.0
 10
14.7464960555
 20
13.6556371225
 30
0.0
 10
14.7681782616
 20
13.6788965349
 30
0.0
 10
14.7902837054
 20
13.6994596725
 30
0.0
 10
14.812764281
 20
13.7172785322
 30
0.0
 10
14.8355754341
 20
13.7323073114
 30
0.0
 10
14.8586632639
 20
13.7445056004
 30
0.0
 10
14.8744815656
 20
13.7508339032
 30
0.0
 10
14.8823800031
 20
13.7534778876
 30
0.0
  0
SPLINE
  5
2A3
100
AcDbEntity
  8
02___PRT_ALL_AXES
100
AcDbSpline
 62
7
  6
CONTINUOUS
 70
0
 71
3
 72
24
 73
20
 74
0
 42
0.0000001
 43
0.0000001
 44
0.0000000001
 40
0.0
 40
0.0
 40
0.0
 40
0.0
 40
0.0536246135
 40
0.1061774616
 40
0.1582071706
 40
0.2102830403
 40
0.2629725817
 40
0.3168191108
 40
0.372323315
 40
0.4299302448
 40
0.4596514832
 40
0.4900363043
 40
0.5529333606
 40
0.6188927443
 40
0.688115812
 40
0.760752446
 40
0.8369079184
 40
0.9166468877
 40
1.0
 40
1.0
 40
1.0
 40
1.0
 10
14.9603288194
 20
11.2420392785
 30
0.0
 10
14.9675428246
 20
11.2396245525
 30
0.0
 10
14.9820865241
 20
11.2355758192
 30
0.0
 10
15.004282795
 20
11.2319595576
 30
0.0
 10
15.0265302331
 20
11.2308897929
 30
0.0
 10
15.0487727484
 20
11.2323710249
 30
0.0
 10
15.0709581507
 20
11.2363979082
 30
0.0
 10
15.093035818
 20
11.2429568844
 30
0.0
 10
15.1149577335
 20
11.2520272354
 30
0.0
 10
15.1328739463
 20
11.2615589977
 30
0.0
 10
15.147069559
 20
11.2703617211
 30
0.0
 10
15.1614980924
 20
11.2801840307
 30
0.0
 10
15.1793707337
 20
11.2940421122
 30
0.0
 10
15.2002572818
 20
11.3128742649
 30
0.0
 10
15.2207891008
 20
11.3340601996
 30
0.0
 10
15.2409278082
 20
11.3575566295
 30
0.0
 10
15.2606359235
 20
11.3833182953
 30
0.0
 10
15.2798763959
 20
11.4112939044
 30
0.0
 10
15.2920971922
 20
11.4309504319
 30
0.0
 10
15.2981310265
 20
11.4411199634
 30
0.0
  0
SPLINE
  5
2A4
100
AcDbEntity
  8
02___PRT_ALL_AXES
100
AcDbSpline
 62
7
  6
CONTINUOUS
 70
0
 71
3
 72
37
 73
33
 74
0
 42
0.0000001
 43
0.0000001
 44
0.0000000001
 40
0.0
 40
0.0
 40
0.0
 40
0.0
 40
0.0939467956
 40
0.1390293502
 40
0.182786549
 40
0.2251864559
 40
0.2662008367
 40
0.3058055978
 40
0.3439827439
 40
0.380724046
 40
0.4160288708
 40
0.4499071703
 40
0.4823791273
 40
0.5134775725
 40
0.5432496122
 40
0.5717572886
 40
0.5990809
 40
0.6505470659
 40
0.6749905722
 40
0.6987661798
 40
0.7220516312
 40
0.7450391452
 40
0.7679305229
 40
0.7909306557
 40
0.8142408082
 40
0.8380526072
 40
0.8625426806
 40
0.8878693046
 40
0.9141708534
 40
0.9415644743
 40
0.9701481414
 40
1.0
 40
1.0
 40
1.0
 40
1.0
 10
14.7091374918
 20
13.2269974525
 30
0.0
 10
14.7163957162
 20
13.2504850754
 30
0.0
 10
14.7279225706
 20
13.2850116629
 30
0.0
 10
14.7448306342
 20
13.3297587156
 30
0.0
 10
14.7578433685
 20
13.3615451899
 30
0.0
 10
14.7713402962
 20
13.3919681822
 30
0.0
 10
14.785300832
 20
13.4209805774
 30
0.0
 10
14.7997020394
 20
13.4485364294
 30
0.0
 10
14.8145221952
 20
13.4745910585
 30
0.0
 10
14.8297366012
 20
13.4991035478
 30
0.0
 10
14.8453225013
 20
13.5220345653
 30
0.0
 10
14.8612547992
 20
13.5433482169
 30
0.0
 10
14.8775091446
 20
13.5630104202
 30
0.0
 10
14.8940610213
 20
13.5809898037
 30
0.0
 10
14.9108836496
 20
13.5972575819
 30
0.0
 10
14.9279561403
 20
13.6117881768
 30
0.0
 10
14.9505527798
 20
13.6284757964
 30
0.0
 10
14.974046736
 20
13.642097091
 30
0.0
 10
14.9981822784
 20
13.6520731235
 30
0.0
 10
15.0160915503
 20
13.6575918134
 30
0.0
 10
15.0340816105
 20
13.661259562
 30
0.0
 10
15.0521215816
 20
13.6630664948
 30
0.0
 10
15.070177428
 20
13.6630096334
 30
0.0
 10
15.0882151672
 20
13.6610869656
 30
0.0
 10
15.1062014263
 20
13.657305582
 30
0.0
 10
15.1241038213
 20
13.6516734302
 30
0.0
 10
15.1418920395
 20
13.6442042912
 30
0.0
 10
15.1595375144
 20
13.6349140194
 30
0.0
 10
15.1770122929
 20
13.6238200694
 30
0.0
 10
15.1942909867
 20
13.6109436152
 30
0.0
 10
15.2113459026
 20
13.5963061922
 30
0.0
 10
15.2223065566
 20
13.585628422
 30
0.0
 10
15.2277455123
 20
13.5800215421
 30
0.0
  0
SPLINE
  5
2A5
100
AcDbEntity
  8
02___PRT_ALL_AXES
100
AcDbSpline
 62
7
  6
CONTINUOUS
 70
0
 71
3
 72
23
 73
19
 74
0
 42
0.0000001
 43
0.0000001
 44
0.0000000001
 40
0.0
 40
0.0
 40
0.0
 40
0.0
 40
0.0838355116
 40
0.1650438588
 40
0.2434892108
 40
0.3190803759
 40
0.3917412439
 40
0.461408081
 40
0.5280398503
 40
0.5916205888
 40
0.6521628369
 40
0.7097098466
 40
0.7643437255
 40
0.8161881423
 40
0.8654170381
 40
0.912258705
 40
0.9570023237
 40
1.0
 40
1.0
 40
1.0
 40
1.0
 10
14.634433362
 20
13.3061549473
 30
0.0
 10
14.6393288904
 20
13.3219968831
 30
0.0
 10
14.6493953389
 20
13.3530540886
 30
0.0
 10
14.6655951328
 20
13.3984128655
 30
0.0
 10
14.6826262329
 20
13.4417198116
 30
0.0
 10
14.7004474556
 20
13.482872576
 30
0.0
 10
14.7190184345
 20
13.521778325
 30
0.0
 10
14.7382969978
 20
13.558348065
 30
0.0
 10
14.7582389238
 20
13.5924977971
 30
0.0
 10
14.7787996911
 20
13.6241492469
 30
0.0
 10
14.7999324492
 20
13.6532308281
 30
0.0
 10
14.821591726
 20
13.6796754241
 30
0.0
 10
14.8437291666
 20
13.7034232305
 30
0.0
 10
14.866298704
 20
13.7244182045
 30
0.0
 10
14.8892514638
 20
13.7426110147
 30
0.0
 10
14.912541363
 20
13.7579556823
 30
0.0
 10
14.9361142331
 20
13.7704096518
 30
0.0
 10
14.952264527
 20
13.7768711627
 30
0.0
 10
14.9603288185
 20
13.7795707244
 30
0.0
  0
SPLINE
  5
2A6
100
AcDbEntity
  8
02___PRT_ALL_AXES
100
AcDbSpline
 62
7
  6
CONTINUOUS
 70
0
 71
3
 72
42
 73
38
 74
0
 42
0.0000001
 43
0.0000001
 44
0.0000000001
 40
0.0
 40
0.0
 40
0.0
 40
0.0
 40
0.032027988
 40
0.0652357846
 40
0.0995126316
 40
0.134747838
 40
0.170819558
 40
0.2076011088
 40
0.2449610003
 40
0.2827638081
 40
0.3208712931
 40
0.3591432079
 40
0.3974382857
 40
0.4356151255
 40
0.473533048
 40
0.5110530333
 40
0.5480386696
 40
0.5843570468
 40
0.6198796949
 40
0.6544836836
 40
0.6880527387
 40
0.7204783451
 40
0.7516610362
 40
0.7815120076
 40
0.8099549229
 40
0.8369279088
 40
0.8623861361
 40
0.8863051984
 40
0.9086853121
 40
0.9295563885
 40
0.9394478891
 40
0.9489905497
 40
0.9581994309
 40
0.9670930949
 40
0.9840168605
 40
0.9921110945
 40
1.0
 40
1.0
 40
1.0
 40
1.0
 10
14.634433362
 20
13.3061549473
 30
0.0
 10
14.6274853636
 20
13.2836712165
 30
0.0
 10
14.6142231481
 20
13.2375965985
 30
0.0
 10
14.5964873044
 20
13.1666489411
 30
0.0
 10
14.5806073079
 20
13.0928508346
 30
0.0
 10
14.5666521064
 20
13.0165258633
 30
0.0
 10
14.5546830338
 20
12.9380029265
 30
0.0
 10
14.5447521902
 20
12.8576236975
 30
0.0
 10
14.5369028823
 20
12.7757371923
 30
0.0
 10
14.5311695018
 20
12.6926991464
 30
0.0
 10
14.5275772665
 20
12.6088704472
 30
0.0
 10
14.5261417835
 20
12.5246154656
 30
0.0
 10
14.5268692389
 20
12.4403004527
 30
0.0
 10
14.5297564672
 20
12.3562919132
 30
0.0
 10
14.5347910123
 20
12.2729550217
 30
0.0
 10
14.5419507878
 20
12.1906519754
 30
0.0
 10
14.5512043762
 20
12.1097403724
 30
0.0
 10
14.5625113303
 20
12.0305716822
 30
0.0
 10
14.5758223974
 20
11.9534897076
 30
0.0
 10
14.591079401
 20
11.8788289464
 30
0.0
 10
14.608215605
 20
11.8069130606
 30
0.0
 10
14.6271562834
 20
11.7380535189
 30
0.0
 10
14.6478191393
 20
11.6725482044
 30
0.0
 10
14.6701144924
 20
11.6106798494
 30
0.0
 10
14.6939457728
 20
11.5527146653
 30
0.0
 10
14.7192106445
 20
11.4989011378
 30
0.0
 10
14.745801575
 20
11.4494694035
 30
0.0
 10
14.7736078512
 20
11.4046285405
 30
0.0
 10
14.8025131174
 20
11.3645711467
 30
0.0
 10
14.8278612795
 20
11.3347986043
 30
0.0
 10
14.848612553
 20
11.313655599
 30
0.0
 10
14.8640917809
 20
11.2993831635
 30
0.0
 10
14.8797511296
 20
11.2864270963
 30
0.0
 10
14.9004971284
 20
11.2711824846
 30
0.0
 10
14.9219080007
 20
11.2582685232
 30
0.0
 10
14.9438375669
 20
11.2480457453
 30
0.0
 10
14.9548321443
 20
11.2438791668
 30
0.0
 10
14.9603288194
 20
11.2420392785
 30
0.0
  0
SPLINE
  5
2A7
100
AcDbEntity
  8
02___PRT_ALL_AXES
100
AcDbSpline
 62
7
  6
CONTINUOUS
 70
0
 71
3
 72
9
 73
5
 74
0
 42
0.0000001
 43
0.0000001
 44
0.0000000001
 40
0.0
 40
0.0
 40
0.0
 40
0.0
 40
0.4887075608
 40
1.0
 40
1.0
 40
1.0
 40
1.0
 10
14.7091374918
 20
13.2269974525
 30
0.0
 10
14.7009712409
 20
13.200571455
 30
0.0
 10
14.6856299383
 20
13.1460689988
 30
0.0
 10
14.6727458786
 20
13.0909393381
 30
0.0
 10
14.666731884
 20
13.0626339449
 30
0.0
  0
SPLINE
  5
2A8
100
AcDbEntity
  8
02___PRT_ALL_AXES
100
AcDbSpline
 62
7
  6
CONTINUOUS
 70
0
 71
3
 72
53
 73
49
 74
0
 42
0.0000001
 43
0.0000001
 44
0.0000000001
 40
0.0
 40
0.0
 40
0.0
 40
0.0
 40
0.0389639735
 40
0.0790497685
 40
0.1200677764
 40
0.1618208266
 40
0.204104822
 40
0.2467111269
 40
0.2894282995
 40
0.3320439671
 40
0.374346637
 40
0.4161275042
 40
0.4571822944
 40
0.4973131802
 40
0.5363308184
 40
0.5740564562
 40
0.6103242333
 40
0.6449837763
 40
0.6779032138
 40
0.6936765597
 40
0.7089759354
 40
0.7237917585
 40
0.7381165477
 40
0.7519452011
 40
0.7652747672
 40
0.7781055104
 40
0.7904403935
 40
0.802286123
 40
0.813653261
 40
0.8245565709
 40
0.8350160268
 40
0.8450566087
 40
0.8547095141
 40
0.8640120397
 40
0.8730080339
 40
0.8817479593
 40
0.8902881884
 40
0.8986905034
 40
0.907020453
 40
0.9153457836
 40
0.9237343419
 40
0.9322521651
 40
0.9409614986
 40
0.9499196703
 40
0.9591778601
 40
0.9687808342
 40
0.9787669065
 40
1.0
 40
1.0
 40
1.0
 40
1.0
 10
14.666731884
 20
13.0626339449
 30
0.0
 10
14.6611578987
 20
13.0363994945
 30
0.0
 10
14.6508478274
 20
12.9829587668
 30
0.0
 10
14.638013288
 20
12.9013002609
 30
0.0
 10
14.6276417797
 20
12.8173575976
 30
0.0
 10
14.6197944295
 20
12.7316230295
 30
0.0
 10
14.6145175819
 20
12.6445970545
 30
0.0
 10
14.6118423821
 20
12.5567886774
 30
0.0
 10
14.6117845417
 20
12.4687113716
 30
0.0
 10
14.6143443621
 20
12.3808802526
 30
0.0
 10
14.6195067399
 20
12.2938089372
 30
0.0
 10
14.6272412586
 20
12.2080065184
 30
0.0
 10
14.637502379
 20
12.1239745285
 30
0.0
 10
14.6502296917
 20
12.0422039185
 30
0.0
 10
14.6653481712
 20
11.9631719737
 30
0.0
 10
14.6827688205
 20
11.8873396494
 30
0.0
 10
14.702389335
 20
11.8151479109
 30
0.0
 10
14.7240945954
 20
11.7470179278
 30
0.0
 10
14.7440892447
 20
11.6932121753
 30
0.0
 10
14.7610840093
 20
11.6525697616
 30
0.0
 10
14.7740868769
 20
11.6237788485
 30
0.0
 10
14.787509034
 20
11.5962860891
 30
0.0
 10
14.8013313893
 20
11.5701315036
 30
0.0
 10
14.8155331525
 20
11.5453528274
 30
0.0
 10
14.8300949036
 20
11.5219865618
 30
0.0
 10
14.8449945966
 20
11.5000660618
 30
0.0
 10
14.8602117914
 20
11.479623572
 30
0.0
 10
14.8757245518
 20
11.460688631
 30
0.0
 10
14.8915107549
 20
11.4432885343
 30
0.0
 10
14.9075491625
 20
11.4274494833
 30
0.0
 10
14.9238164328
 20
11.4131939009
 30
0.0
 10
14.9402912448
 20
11.4005443801
 30
0.0
 10
14.9569501467
 20
11.3895197714
 30
0.0
 10
14.9737703395
 20
11.3801381599
 30
0.0
 10
14.9907283081
 20
11.3724162716
 30
0.0
 10
15.007798828
 20
11.3663670351
 30
0.0
 10
15.0249566447
 20
11.3620043289
 30
0.0
 10
15.0421739575
 20
11.3593357529
 30
0.0
 10
15.0594226092
 20
11.3583685971
 30
0.0
 10
15.076673186
 20
11.3591048574
 30
0.0
 10
15.093896589
 20
11.3615420589
 30
0.0
 10
15.1110638693
 20
11.365676168
 30
0.0
 10
15.1281480646
 20
11.3714963103
 30
0.0
 10
15.1451226062
 20
11.378992484
 30
0.0
 10
15.1619627875
 20
11.3881494532
 30
0.0
 10
15.1786457991
 20
11.3989522611
 30
0.0
 10
15.2011029761
 20
11.415870251
 30
0.0
 10
15.2169421828
 20
11.430496896
 30
0.0
 10
15.2271404246
 20
11.4409661316
 30
0.0
  0
SPLINE
  5
2A9
100
AcDbEntity
  8
02___PRT_ALL_AXES
100
AcDbSpline
 62
7
  6
CONTINUOUS
 70
0
 71
3
 72
28
 73
24
 74
0
 42
0.0000001
 43
0.0000001
 44
0.0000000001
 40
0.0
 40
0.0
 40
0.0
 40
0.0
 40
0.022910253
 40
0.0454449955
 40
0.0677236623
 40
0.0898711362
 40
0.112014933
 40
0.1342827335
 40
0.1567994808
 40
0.1796851489
 40
0.2030525826
 40
0.2270056094
 40
0.2770098096
 40
0.3303593094
 40
0.3875243486
 40
0.4488308955
 40
0.5144813152
 40
0.5845749623
 40
0.6591273658
 40
0.7380837637
 40
0.8213278067
 40
0.9087067175
 40
1.0
 40
1.0
 40
1.0
 40
1.0
 10
15.7134951845
 20
13.7795707074
 30
0.0
 10
15.7082490269
 20
13.7813267406
 30
0.0
 10
15.6977073555
 20
13.7844217633
 30
0.0
 10
15.6816865978
 20
13.7877860677
 30
0.0
 10
15.6656275106
 20
13.7898215867
 30
0.0
 10
15.6495497041
 20
13.7905258872
 30
0.0
 10
15.633471249
 20
13.7898981057
 30
0.0
 10
15.6174108742
 20
13.787938103
 30
0.0
 10
15.6013866493
 20
13.7846500475
 30
0.0
 10
15.5854166247
 20
13.7800379006
 30
0.0
 10
15.5695177592
 20
13.7741073611
 30
0.0
 10
15.5481340155
 20
13.7643157975
 30
0.0
 10
15.5215885359
 20
13.7486223081
 30
0.0
 10
15.4907951964
 20
13.7249504531
 30
0.0
 10
15.4607062128
 20
13.6962840579
 30
0.0
 10
15.4314322809
 20
13.6627489981
 30
0.0
 10
15.4030776849
 20
13.6244822577
 30
0.0
 10
15.3757495028
 20
13.5816384566
 30
0.0
 10
15.3495539759
 20
13.5343896932
 30
0.0
 10
15.3245959103
 20
13.4829271973
 30
0.0
 10
15.300974474
 20
13.4274583332
 30
0.0
 10
15.2787884121
 20
13.3682118393
 30
0.0
 10
15.2652972464
 20
13.3272172415
 30
0.0
 10
15.2587885052
 20
13.3061549473
 30
0.0
  0
SPLINE
  5
2AA
100
AcDbEntity
  8
02___PRT_ALL_AXES
100
AcDbSpline
 62
7
  6
CONTINUOUS
 70
0
 71
3
 72
23
 73
19
 74
0
 42
0.0000001
 43
0.0000001
 44
0.0000000001
 40
0.0
 40
0.0
 40
0.0
 40
0.0
 40
0.0820868017
 40
0.1615845373
 40
0.2384361911
 40
0.3125927799
 40
0.384018198
 40
0.4526950745
 40
0.518621537
 40
0.5818169928
 40
0.6423208666
 40
0.7001996165
 40
0.7555465301
 40
0.8084876916
 40
0.8591838185
 40
0.9078341943
 40
0.9546791481
 40
1.0
 40
1.0
 40
1.0
 40
1.0
 10
16.0740059448
 20
11.6261218191
 30
0.0
 10
16.0693595949
 20
11.6141511739
 30
0.0
 10
16.0598916807
 20
11.590710532
 30
0.0
 10
16.0449082612
 20
11.5565480724
 30
0.0
 10
16.0293911164
 20
11.5239927898
 30
0.0
 10
16.0133668439
 20
11.4930992458
 30
0.0
 10
15.9968611787
 20
11.4639198707
 30
0.0
 10
15.9799028001
 20
11.4365029533
 30
0.0
 10
15.9625183662
 20
11.410894784
 30
0.0
 10
15.9447376915
 20
11.3871373129
 30
0.0
 10
15.9265883975
 20
11.3652710239
 30
0.0
 10
15.908100799
 20
11.3453318385
 30
0.0
 10
15.8893035406
 20
11.3273540526
 30
0.0
 10
15.8702267533
 20
11.3113680872
 30
0.0
 10
15.8509003974
 20
11.2974022976
 30
0.0
 10
15.8313539778
 20
11.2854824234
 30
0.0
 10
15.8116217225
 20
11.2756318565
 30
0.0
 10
15.7981668265
 20
11.2703825492
 30
0.0
 10
15.7914440008
 20
11.2681320982
 30
0.0
  0
SPLINE
  5
2AB
100
AcDbEntity
  8
02___PRT_ALL_AXES
100
AcDbSpline
 62
7
  6
CONTINUOUS
 70
0
 71
3
 72
23
 73
19
 74
0
 42
0.0000001
 43
0.0000001
 44
0.0000000001
 40
0.0
 40
0.0
 40
0.0
 40
0.0
 40
0.0820897086
 40
0.1615916405
 40
0.238444883
 40
0.3126022889
 40
0.3840287653
 40
0.4527067089
 40
0.5186337924
 40
0.5818293432
 40
0.6423330567
 40
0.7002111411
 40
0.7555571267
 40
0.8084967935
 40
0.859191179
 40
0.9078393376
 40
0.9546818688
 40
1.0
 40
1.0
 40
1.0
 40
1.0
 10
16.0740467078
 20
13.3953829333
 30
0.0
 10
16.0694000007
 20
13.4073572392
 30
0.0
 10
16.0599312247
 20
13.430805284
 30
0.0
 10
16.0449465964
 20
13.464978493
 30
0.0
 10
16.0294277457
 20
13.4975437144
 30
0.0
 10
16.0134017654
 20
13.5284464079
 30
0.0
 10
15.9968941336
 20
13.55763446
 30
0.0
 10
15.9799335734
 20
13.5850596454
 30
0.0
 10
15.9625467673
 20
13.6106755391
 30
0.0
 10
15.9447634352
 20
13.6344400399
 30
0.0
 10
15.9266114728
 20
13.6563128485
 30
0.0
 10
15.9081208568
 20
13.6762577764
 30
0.0
 10
15.8893206472
 20
13.6942408316
 30
0.0
 10
15.8702405579
 20
13.710231162
 30
0.0
 10
15.8509109967
 20
13.7242008555
 30
0.0
 10
15.8313610885
 20
13.7361236769
 30
0.0
 10
15.811625405
 20
13.745976677
 30
0.0
 10
15.7981680468
 20
13.7512270454
 30
0.0
 10
15.7914440003
 20
13.7534778777
 30
0.0
  0
SPLINE
  5
2AC
100
AcDbEntity
  8
02___PRT_ALL_AXES
100
AcDbSpline
 62
7
  6
CONTINUOUS
 70
0
 71
3
 72
51
 73
47
 74
0
 42
0.0000001
 43
0.0000001
 44
0.0000000001
 40
0.0
 40
0.0
 40
0.0
 40
0.0
 40
0.0081714454
 40
0.0161957385
 40
0.0241301345
 40
0.0320343358
 40
0.0399688934
 40
0.0479935344
 40
0.0561654719
 40
0.0645381762
 40
0.0731603068
 40
0.0820750813
 40
0.0913202393
 40
0.1009276876
 40
0.1109242538
 40
0.1213315067
 40
0.1321665922
 40
0.1434424753
 40
0.1551682523
 40
0.1673499345
 40
0.1799901888
 40
0.193089343
 40
0.2066450501
 40
0.2206529291
 40
0.2351066795
 40
0.2499980496
 40
0.2810512447
 40
0.3137205666
 40
0.3478916827
 40
0.3834338098
 40
0.4202023121
 40
0.4580409341
 40
0.4967837796
 40
0.5362571118
 40
0.5762810488
 40
0.616671197
 40
0.6572402064
 40
0.6977992945
 40
0.7381597508
 40
0.7781344514
 40
0.8175394108
 40
0.8561952607
 40
0.8939293
 40
0.9305756893
 40
0.9659813465
 40
1.0
 40
1.0
 40
1.0
 40
1.0
 10
15.7134951854
 20
11.2420392614
 30
0.0
 10
15.7074629484
 20
11.2400199401
 30
0.0
 10
15.6953269767
 20
11.2365307957
 30
0.0
 10
15.6768513348
 20
11.2329982038
 30
0.0
 10
15.658330778
 20
11.2312306463
 30
0.0
 10
15.6397959898
 20
11.2312336226
 30
0.0
 10
15.6212757216
 20
11.2330052677
 30
0.0
 10
15.6027992192
 20
11.2365436975
 30
0.0
 10
15.5843942519
 20
11.241840067
 30
0.0
 10
15.5660878726
 20
11.2488851387
 30
0.0
 10
15.547905738
 20
11.2576660382
 30
0.0
 10
15.5298720392
 20
11.2681675798
 30
0.0
 10
15.5120112506
 20
11.2803742613
 30
0.0
 10
15.4943456256
 20
11.2942665883
 30
0.0
 10
15.4768990057
 20
11.3098257
 30
0.0
 10
15.4596932091
 20
11.3270288561
 30
0.0
 10
15.4427510633
 20
11.3458526934
 30
0.0
 10
15.4260949021
 20
11.3662714083
 30
0.0
 10
15.4097461835
 20
11.3882568204
 30
0.0
 10
15.3937276125
 20
11.4117795743
 30
0.0
 10
15.3780595737
 20
11.4368070843
 30
0.0
 10
15.3627641499
 20
11.463305828
 30
0.0
 10
15.3478613382
 20
11.4912394087
 30
0.0
 10
15.3333716526
 20
11.5205698819
 30
0.0
 10
15.3193148141
 20
11.5512574291
 30
0.0
 10
15.3009178693
 20
11.5945327969
 30
0.0
 10
15.2792071124
 20
11.6517806616
 30
0.0
 10
15.2555222844
 20
11.7242393575
 30
0.0
 10
15.2339830202
 20
11.8009988148
 30
0.0
 10
15.2147075934
 20
11.8816396631
 30
0.0
 10
15.1978019244
 20
11.9657228279
 30
0.0
 10
15.1833591251
 20
12.0527891052
 30
0.0
 10
15.1714588278
 20
12.1423626657
 30
0.0
 10
15.1621666817
 20
12.233953521
 30
0.0
 10
15.155533897
 20
12.3270603794
 30
0.0
 10
15.1515970501
 20
12.4211734792
 30
0.0
 10
15.1503778541
 20
12.515777456
 30
0.0
 10
15.1518830452
 20
12.6103542073
 30
0.0
 10
15.1561043367
 20
12.70438577
 30
0.0
 10
15.1630184728
 20
12.7973572251
 30
0.0
 10
15.1725873326
 20
12.8887595014
 30
0.0
 10
15.1847579835
 20
12.9780926278
 30
0.0
 10
15.1994635199
 20
13.0648672781
 30
0.0
 10
15.2166225962
 20
13.1486110504
 30
0.0
 10
15.2361409186
 20
13.2288631744
 30
0.0
 10
15.2509695819
 20
13.2808529023
 30
0.0
 10
15.2587885052
 20
13.3061549473
 30
0.0
  0
SPLINE
  5
2AD
100
AcDbEntity
  8
02___PRT_ALL_AXES
100
AcDbSpline
 62
7
  6
CONTINUOUS
 70
0
 71
3
 72
31
 73
27
 74
0
 42
0.0000001
 43
0.0000001
 44
0.0000000001
 40
0.0
 40
0.0
 40
0.0
 40
0.0
 40
0.023059711
 40
0.0457447738
 40
0.0681723838
 40
0.0904647511
 40
0.1127468248
 40
0.1351438111
 40
0.1577784785
 40
0.1807690581
 40
0.2042266934
 40
0.2282543948
 40
0.2783590946
 40
0.3046194201
 40
0.3317650887
 40
0.3598501503
 40
0.3889205307
 40
0.4190135551
 40
0.4501586083
 40
0.5156792444
 40
0.5856053416
 40
0.6599625998
 40
0.7387070699
 40
0.8217328203
 40
0.9088969202
 40
1.0
 40
1.0
 40
1.0
 40
1.0
 10
15.7914440003
 20
13.7534778777
 30
0.0
 10
15.7863722275
 20
13.7551756218
 30
0.0
 10
15.7761820393
 20
13.7581732045
 30
0.0
 10
15.7606975421
 20
13.7614494366
 30
0.0
 10
15.7451763014
 20
13.7634588104
 30
0.0
 10
15.7296365095
 20
13.7641988106
 30
0.0
 10
15.7140952035
 20
13.763667158
 30
0.0
 10
15.6985699269
 20
13.7618655507
 30
0.0
 10
15.6830776396
 20
13.758796668
 30
0.0
 10
15.6676356458
 20
13.7544637031
 30
0.0
 10
15.6522592486
 20
13.7488730896
 30
0.0
 10
15.6315828952
 20
13.7396248975
 30
0.0
 10
15.611360705
 20
13.7279263759
 30
0.0
 10
15.5917297506
 20
13.7140915323
 30
0.0
 10
15.5769139271
 20
13.7023386212
 30
0.0
 10
15.5622549876
 20
13.6893872854
 30
0.0
 10
15.547766058
 20
13.6752492447
 30
0.0
 10
15.5334613181
 20
13.659939188
 30
0.0
 10
15.5143290011
 20
13.6376062303
 30
0.0
 10
15.4910105021
 20
13.6067459094
 30
0.0
 10
15.4644507854
 20
13.5659325192
 30
0.0
 10
15.4389559283
 20
13.5208892719
 30
0.0
 10
15.4146266445
 20
13.4717962019
 30
0.0
 10
15.3915564665
 20
13.4188456206
 30
0.0
 10
15.3698385688
 20
13.3622487038
 30
0.0
 10
15.3565993636
 20
13.3230661092
 30
0.0
 10
15.3502022299
 20
13.3029276307
 30
0.0
  0
SPLINE
  5
2AE
100
AcDbEntity
  8
02___PRT_ALL_AXES
100
AcDbSpline
 62
7
  6
CONTINUOUS
 70
0
 71
3
 72
30
 73
26
 74
0
 42
0.0000001
 43
0.0000001
 44
0.0000000001
 40
0.0
 40
0.0
 40
0.0
 40
0.0
 40
0.0877006703
 40
0.1702786707
 40
0.2477021653
 40
0.3200297354
 40
0.3874310649
 40
0.4502093908
 40
0.5088271637
 40
0.5367863519
 40
0.5639644747
 40
0.5904731558
 40
0.6164350896
 40
0.6419837482
 40
0.6672607839
 40
0.6924135197
 40
0.7175921349
 40
0.7429461213
 40
0.7686213687
 40
0.7947567332
 40
0.8214821983
 40
0.8771356403
 40
0.9062983477
 40
0.9364552365
 40
1.0
 40
1.0
 40
1.0
 40
1.0
 10
15.9754545286
 20
13.3951903227
 30
0.0
 10
15.9681542019
 20
13.4103953836
 30
0.0
 10
15.9532301655
 20
13.439567159
 30
0.0
 10
15.9290835845
 20
13.4806667445
 30
0.0
 10
15.9039356785
 20
13.517645045
 30
0.0
 10
15.8778868216
 20
13.5503464138
 30
0.0
 10
15.8510350744
 20
13.5786352915
 30
0.0
 10
15.8234835677
 20
13.6023872019
 30
0.0
 10
15.7996450056
 20
13.6185590167
 30
0.0
 10
15.7803871385
 20
13.6289719349
 30
0.0
 10
15.7660734015
 20
13.6354616113
 30
0.0
 10
15.7516798693
 20
13.6407455303
 30
0.0
 10
15.7372213747
 20
13.6448156898
 30
0.0
 10
15.7227145864
 20
13.6476668431
 30
0.0
 10
15.7081762443
 20
13.6492953305
 30
0.0
 10
15.6936234333
 20
13.6496973386
 30
0.0
 10
15.679073683
 20
13.6488733439
 30
0.0
 10
15.6645441458
 20
13.6468245886
 30
0.0
 10
15.6500523377
 20
13.6435532226
 30
0.0
 10
15.635613856
 20
13.6390648232
 30
0.0
 10
15.6161990781
 20
13.631364487
 30
0.0
 10
15.5971801517
 20
13.6212684644
 30
0.0
 10
15.5787173898
 20
13.6090833615
 30
0.0
 10
15.5598074537
 20
13.5948938749
 30
0.0
 10
15.5463417853
 20
13.5828512583
 30
0.0
 10
15.5376256515
 20
13.5742848338
 30
0.0
  0
SPLINE
  5
2AF
100
AcDbEntity
  8
02___PRT_ALL_AXES
100
AcDbSpline
 62
7
  6
CONTINUOUS
 70
0
 71
3
 72
15
 73
11
 74
0
 42
0.0000001
 43
0.0000001
 44
0.0000000001
 40
0.0
 40
0.0
 40
0.0
 40
0.0
 40
0.1012295125
 40
0.2091160998
 40
0.3238600749
 40
0.4455423416
 40
0.5741414353
 40
0.7095448883
 40
0.8515727104
 40
1.0
 40
1.0
 40
1.0
 40
1.0
 10
15.5376256515
 20
13.5742848338
 30
0.0
 10
15.5291906801
 20
13.5659947423
 30
0.0
 10
15.5125409525
 20
13.5480690119
 30
0.0
 10
15.4890002862
 20
13.5184071387
 30
0.0
 10
15.4661897475
 20
13.4852384805
 30
0.0
 10
15.444187978
 20
13.4486785916
 30
0.0
 10
15.4230678268
 20
13.4088520799
 30
0.0
 10
15.4029006812
 20
13.3658962599
 30
0.0
 10
15.3837560792
 20
13.319957823
 30
0.0
 10
15.3719694219
 20
13.2881255958
 30
0.0
 10
15.3662436595
 20
13.2717570881
 30
0.0
  0
SPLINE
  5
2B0
100
AcDbEntity
  8
02___PRT_ALL_AXES
100
AcDbSpline
 62
7
  6
CONTINUOUS
 70
0
 71
3
 72
37
 73
33
 74
0
 42
0.0000001
 43
0.0000001
 44
0.0000000001
 40
0.0
 40
0.0
 40
0.0
 40
0.0
 40
0.0857459747
 40
0.1264677325
 40
0.1657417973
 40
0.2035695507
 40
0.2399622596
 40
0.2749399023
 40
0.3085339494
 40
0.3717329542
 40
0.4014949072
 40
0.4301354173
 40
0.4577607917
 40
0.4844954283
 40
0.5104812728
 40
0.5358778263
 40
0.560858722
 40
0.5856090245
 40
0.6103201491
 40
0.6351847199
 40
0.6603908298
 40
0.6861174854
 40
0.7125300802
 40
0.739777841
 40
0.7679927044
 40
0.7972876758
 40
0.827758939
 40
0.8594850693
 40
0.8925293283
 40
0.9269411746
 40
0.9627562653
 40
1.0
 40
1.0
 40
1.0
 40
1.0
 10
15.9752153268
 20
11.6259221394
 30
0.0
 10
15.966901089
 20
11.6086302076
 30
0.0
 10
15.9539000344
 20
11.5834653968
 30
0.0
 10
15.9351888152
 20
11.5514374043
 30
0.0
 10
15.9210625166
 20
11.5291686973
 30
0.0
 10
15.9066207148
 20
11.508270036
 30
0.0
 10
15.8918840977
 20
11.4887699065
 30
0.0
 10
15.8768707187
 20
11.4706941022
 30
0.0
 10
15.8569206671
 20
11.4489727986
 30
0.0
 10
15.8361185434
 20
11.4296425967
 30
0.0
 10
15.8144728165
 20
11.4131261439
 30
0.0
 10
15.7983886311
 20
11.4025191206
 30
0.0
 10
15.7821535038
 20
11.3934618492
 30
0.0
 10
15.7657889608
 20
11.3859680348
 30
0.0
 10
15.7493172548
 20
11.3800522434
 30
0.0
 10
15.732762754
 20
11.3757238562
 30
0.0
 10
15.7161499251
 20
11.372992928
 30
0.0
 10
15.6995050109
 20
11.3718647503
 30
0.0
 10
15.6828545918
 20
11.3723412742
 30
0.0
 10
15.6662256485
 20
11.3744229019
 30
0.0
 10
15.649644266
 20
11.3781032679
 30
0.0
 10
15.6331361368
 20
11.3833763886
 30
0.0
 10
15.6167253329
 20
11.3902312097
 30
0.0
 10
15.6004347684
 20
11.3986553549
 30
0.0
 10
15.5842872458
 20
11.4086356447
 30
0.0
 10
15.5683033785
 20
11.4201550582
 30
0.0
 10
15.5525051686
 20
11.4331974982
 30
0.0
 10
15.536912816
 20
11.4477432293
 30
0.0
 10
15.5215469725
 20
11.4637716793
 30
0.0
 10
15.5064285872
 20
11.4812608671
 30
0.0
 10
15.4915772297
 20
11.5001853027
 30
0.0
 10
15.4820550716
 20
11.5134808168
 30
0.0
 10
15.4773383927
 20
11.520351451
 30
0.0
  0
SPLINE
  5
2B1
100
AcDbEntity
  8
02___PRT_ALL_AXES
100
AcDbSpline
 62
7
  6
CONTINUOUS
 70
0
 71
3
 72
11
 73
7
 74
0
 42
0.0000001
 43
0.0000001
 44
0.0000000001
 40
0.0
 40
0.0
 40
0.0
 40
0.0
 40
0.2285745726
 40
0.4715861592
 40
0.7288510184
 40
1.0
 40
1.0
 40
1.0
 40
1.0
 10
15.4773383927
 20
11.520351451
 30
0.0
 10
15.4688400145
 20
11.5327307646
 30
0.0
 10
15.4522163671
 20
11.5589038357
 30
0.0
 10
15.429048527
 20
11.6008335743
 30
0.0
 10
15.4069711565
 20
11.646473089
 30
0.0
 10
15.3933866258
 20
11.6784330345
 30
0.0
 10
15.3867723526
 20
11.6949719487
 30
0.0
  0
SPLINE
  5
2B2
100
AcDbEntity
  8
02___PRT_ALL_AXES
100
AcDbSpline
 62
7
  6
CONTINUOUS
 70
0
 71
3
 72
27
 73
23
 74
0
 42
0.0000001
 43
0.0000001
 44
0.0000000001
 40
0.0
 40
0.0
 40
0.0
 40
0.0
 40
0.0258099151
 40
0.0524645986
 40
0.0799301051
 40
0.1081683753
 40
0.1371386075
 40
0.1667966135
 40
0.2279841387
 40
0.2913357076
 40
0.3564221312
 40
0.4227914003
 40
0.4899751722
 40
0.5574949508
 40
0.6248680967
 40
0.6916137775
 40
0.7572589323
 40
0.8213444018
 40
0.883431188
 40
0.9431074399
 40
0.9719272374
 40
1.0
 40
1.0
 40
1.0
 40
1.0
 10
15.3867723526
 20
11.6949719487
 30
0.0
 10
15.3818264842
 20
11.7073390358
 30
0.0
 10
15.3721766413
 20
11.7326411268
 30
0.0
 10
15.3586219729
 20
11.7716045642
 30
0.0
 10
15.3457773821
 20
11.8121244245
 30
0.0
 10
15.3336691836
 20
11.8541148895
 30
0.0
 10
15.3223236278
 20
11.8974882267
 30
0.0
 10
15.3080968855
 20
11.9576660304
 30
0.0
 10
15.2924484437
 20
12.0357152108
 30
0.0
 10
15.2772336467
 20
12.1324088968
 30
0.0
 10
15.2655216553
 20
12.2322812143
 30
0.0
 10
15.2574118025
 20
12.3344925842
 30
0.0
 10
15.252973034
 20
12.4381852474
 30
0.0
 10
15.2522430638
 20
12.5424880225
 30
0.0
 10
15.2552280987
 20
12.6465245981
 30
0.0
 10
15.261902767
 20
12.7494209717
 30
0.0
 10
15.2722103571
 20
12.8503128381
 30
0.0
 10
15.2860632662
 20
12.9483539651
 30
0.0
 10
15.3033440785
 20
13.0427204425
 30
0.0
 10
15.3206751504
 20
13.118503665
 30
0.0
 10
15.3362045781
 20
13.1766259594
 30
0.0
 10
15.3444952746
 20
13.204795096
 30
0.0
 10
15.3487725708
 20
13.2186364316
 30
0.0
  0
SPLINE
  5
2B3
100
AcDbEntity
  8
02___PRT_ALL_AXES
100
AcDbSpline
 62
7
  6
CONTINUOUS
 70
0
 71
3
 72
28
 73
24
 74
0
 42
0.0000001
 43
0.0000001
 44
0.0000000001
 40
0.0
 40
0.0
 40
0.0
 40
0.0
 40
0.0238340759
 40
0.047299199
 40
0.0705006391
 40
0.0935481037
 40
0.1165539923
 40
0.1396315454
 40
0.1628925971
 40
0.1864459089
 40
0.2103951218
 40
0.2348373595
 40
0.2855278904
 40
0.3391660643
 40
0.3962383959
 40
0.4571051264
 40
0.5220143248
 40
0.591119537
 40
0.6644938103
 40
0.7421425052
 40
0.8240154721
 40
0.9100144193
 40
1.0
 40
1.0
 40
1.0
 40
1.0
 10
15.7914440008
 20
11.2681320982
 30
0.0
 10
15.7867002757
 20
11.2665441468
 30
0.0
 10
15.7771736311
 20
11.2637169603
 30
0.0
 10
15.7627083494
 20
11.2605409337
 30
0.0
 10
15.7482094858
 20
11.2584706938
 30
0.0
 10
15.7336917038
 20
11.2575084402
 30
0.0
 10
15.7191686793
 20
11.2576563072
 30
0.0
 10
15.7046546098
 20
11.2589136178
 30
0.0
 10
15.690163251
 20
11.2612783482
 30
0.0
 10
15.6757086237
 20
11.2647486627
 30
0.0
 10
15.661303665
 20
11.2693204565
 30
0.0
 10
15.6419498193
 20
11.2769679284
 30
0.0
 10
15.6178650422
 20
11.2894053499
 30
0.0
 10
15.5897672404
 20
11.3084499005
 30
0.0
 10
15.5622008067
 20
11.3317136718
 30
0.0
 10
15.535253476
 20
11.3591058761
 30
0.0
 10
15.5090062324
 20
11.3905283028
 30
0.0
 10
15.4835433211
 20
11.4258720872
 30
0.0
 10
15.4589480229
 20
11.4650156457
 30
0.0
 10
15.4353022604
 20
11.5078239697
 30
0.0
 10
15.4126869591
 20
11.5541498628
 30
0.0
 10
15.3911804879
 20
11.6038319079
 30
0.0
 10
15.3779221686
 20
11.6383193488
 30
0.0
 10
15.3714748439
 20
11.65607158
 30
0.0
  0
SPLINE
  5
2B4
100
AcDbEntity
  8
02___PRT_ALL_AXES
100
AcDbSpline
 62
7
  6
CONTINUOUS
 70
0
 71
3
 72
11
 73
7
 74
0
 42
0.0000001
 43
0.0000001
 44
0.0000000001
 40
0.0
 40
0.0
 40
0.0
 40
0.0
 40
0.2374006564
 40
0.4835681508
 40
0.7379639441
 40
1.0
 40
1.0
 40
1.0
 40
1.0
 10
15.370548015
 20
11.6586306801
 30
0.0
 10
15.3641124724
 20
11.6764498471
 30
0.0
 10
15.35167764
 20
11.7129925842
 30
0.0
 10
15.3345987412
 20
11.7693650802
 30
0.0
 10
15.318796255
 20
11.8281462582
 30
0.0
 10
15.3092800582
 20
11.8682530992
 30
0.0
 10
15.3047341696
 20
11.8886647197
 30
0.0
  0
SPLINE
  5
2B5
100
AcDbEntity
  8
02___PRT_ALL_AXES
100
AcDbSpline
 62
7
  6
CONTINUOUS
 70
0
 71
3
 72
23
 73
19
 74
0
 42
0.0000001
 43
0.0000001
 44
0.0000000001
 40
0.0
 40
0.0
 40
0.0
 40
0.0
 40
0.0582818458
 40
0.1180141953
 40
0.1790221632
 40
0.2411230587
 40
0.3041279685
 40
0.3678430136
 40
0.4320702333
 40
0.4966089236
 40
0.5612567385
 40
0.6258106582
 40
0.6900682446
 40
0.7538286397
 40
0.816893657
 40
0.8790689687
 40
0.9401653871
 40
1.0
 40
1.0
 40
1.0
 40
1.0
 10
15.3047341696
 20
11.8886647197
 30
0.0
 10
15.2997534808
 20
11.9110286488
 30
0.0
 10
15.2903544389
 20
11.9564684869
 30
0.0
 10
15.2780574593
 20
12.025771898
 30
0.0
 10
15.2674212725
 20
12.0968681021
 30
0.0
 10
15.2584852567
 20
12.1694937045
 30
0.0
 10
15.2512823643
 20
12.2433806625
 30
0.0
 10
15.2458397155
 20
12.3182559665
 30
0.0
 10
15.2421774302
 20
12.3938429404
 30
0.0
 10
15.240308846
 20
12.4698622091
 30
0.0
 10
15.2402412194
 20
12.546032809
 30
0.0
 10
15.2419748075
 20
12.6220732014
 30
0.0
 10
15.2455028467
 20
12.6977023382
 30
0.0
 10
15.2508124979
 20
12.7726407175
 30
0.0
 10
15.2578841458
 20
12.8466113182
 30
0.0
 10
15.2666911615
 20
12.9193411174
 30
0.0
 10
15.2772009141
 20
12.9905608129
 30
0.0
 10
15.2854108357
 20
13.0373944496
 30
0.0
 10
15.2898031943
 20
13.0605029842
 30
0.0
  0
SPLINE
  5
2B6
100
AcDbEntity
  8
02___PRT_ALL_AXES
100
AcDbSpline
 62
7
  6
CONTINUOUS
 70
0
 71
3
 72
11
 73
7
 74
0
 42
0.0000001
 43
0.0000001
 44
0.0000000001
 40
0.0
 40
0.0
 40
0.0
 40
0.0
 40
0.2599365127
 40
0.5136107081
 40
0.7604925674
 40
1.0
 40
1.0
 40
1.0
 40
1.0
 10
15.2899932939
 20
13.0615019889
 30
0.0
 10
15.293806976
 20
13.0815210014
 30
0.0
 10
15.3018336534
 20
13.1209852655
 30
0.0
 10
15.315249107
 20
13.1790862591
 30
0.0
 10
15.3298633613
 20
13.235244269
 30
0.0
 10
15.340544585
 20
13.2718579293
 30
0.0
 10
15.346088561
 20
13.2897982424
 30
0.0
  0
SPLINE
  5
2B7
100
AcDbEntity
  8
0
100
AcDbSpline
 62
7
  6
CONTINUOUS
 70
0
 71
3
 72
17
 73
13
 74
0
 42
0.0000001
 43
0.0000001
 44
0.0000000001
 40
0.0
 40
0.0
 40
0.0
 40
0.0
 40
0.0371462057
 40
0.0755557581
 40
0.1597591226
 40
0.2072407874
 40
0.2588242626
 40
0.3749789127
 40
0.5087842497
 40
0.6591616765
 40
0.8240635579
 40
1.0
 40
1.0
 40
1.0
 40
1.0
 10
14.6784114746
 20
12.1292021861
 30
0.0
 10
14.6781122255
 20
12.1292024282
 30
0.0
 10
14.6775020104
 20
12.1292644283
 30
0.0
 10
14.6762635798
 20
12.1296377929
 30
0.0
 10
14.6750817105
 20
12.1303811441
 30
0.0
 10
14.674001941
 20
12.1313896859
 30
0.0
 10
14.6728690972
 20
12.1327068394
 30
0.0
 10
14.6715574017
 20
12.1347651135
 30
0.0
 10
14.6702012189
 20
12.1376984468
 30
0.0
 10
14.6690303704
 20
12.1411274247
 30
0.0
 10
14.6680768724
 20
12.1449720043
 30
0.0
 10
14.6676092576
 20
12.1476802409
 30
0.0
 10
14.6674134168
 20
12.1490839862
 30
0.0
  0
SPLINE
  5
2B8
100
AcDbEntity
  8
0
100
AcDbSpline
 62
7
  6
CONTINUOUS
 70
0
 71
3
 72
15
 73
11
 74
0
 42
0.0000001
 43
0.0000001
 44
0.0000000001
 40
0.0
 40
0.0
 40
0.0
 40
0.0
 40
0.0843025794
 40
0.1746557384
 40
0.2757925667
 40
0.3906787796
 40
0.5206963009
 40
0.666256275
 40
0.8265643143
 40
1.0
 40
1.0
 40
1.0
 40
1.0
 10
14.7324523618
 20
11.8670004934
 30
0.0
 10
14.7319898016
 20
11.8670001406
 30
0.0
 10
14.7310263388
 20
11.8671523067
 30
0.0
 10
14.7296446583
 20
11.8678077051
 30
0.0
 10
14.7283218533
 20
11.8688640043
 30
0.0
 10
14.7270681102
 20
11.8702999615
 30
0.0
 10
14.7258904806
 20
11.8720960516
 30
0.0
 10
14.7248052861
 20
11.8742316943
 30
0.0
 10
14.7238245709
 20
11.8766747931
 30
0.0
 10
14.72326914
 20
11.8784215293
 30
0.0
 10
14.7230094455
 20
11.8793370344
 30
0.0
  0
SPLINE
  5
2B9
100
AcDbEntity
  8
0
100
AcDbSpline
 62
7
  6
CONTINUOUS
 70
0
 71
3
 72
14
 73
10
 74
0
 42
0.0000001
 43
0.0000001
 44
0.0000000001
 40
0.0
 40
0.0
 40
0.0
 40
0.0
 40
0.0969242204
 40
0.1973906025
 40
0.3044893901
 40
0.4206751293
 40
0.547739084
 40
0.6865717128
 40
1.0
 40
1.0
 40
1.0
 40
1.0
 10
14.8130655829
 20
11.6545037925
 30
0.0
 10
14.8127451495
 20
11.6545036996
 30
0.0
 10
14.8120906296
 20
11.6545740112
 30
0.0
 10
14.8111270316
 20
11.6548855933
 30
0.0
 10
14.8101811417
 20
11.655397646
 30
0.0
 10
14.8092588631
 20
11.6561049896
 30
0.0
 10
14.8083657936
 20
11.6570028096
 30
0.0
 10
14.8071712936
 20
11.6585034858
 30
0.0
 10
14.8064104757
 20
11.6598007906
 30
0.0
 10
14.805942472
 20
11.6607252815
 30
0.0
  0
SPLINE
  5
2BA
100
AcDbEntity
  8
0
100
AcDbSpline
 62
7
  6
CONTINUOUS
 70
0
 71
3
 72
11
 73
7
 74
0
 42
0.0000001
 43
0.0000001
 44
0.0000000001
 40
0.0
 40
0.0
 40
0.0
 40
0.0
 40
0.2264059448
 40
0.4633981607
 40
0.7192829592
 40
1.0
 40
1.0
 40
1.0
 40
1.0
 10
14.9137232083
 20
11.5089193836
 30
0.0
 10
14.9133605008
 20
11.5089192799
 30
0.0
 10
14.9126153595
 20
11.5090105351
 30
0.0
 10
14.9115263067
 20
11.5094124422
 30
0.0
 10
14.9104653811
 20
11.510065893
 30
0.0
 10
14.9098152714
 20
11.5106340926
 30
0.0
 10
14.9094967212
 20
11.5109515347
 30
0.0
  0
SPLINE
  5
2BB
100
AcDbEntity
  8
0
100
AcDbSpline
 62
7
  6
CONTINUOUS
 70
0
 71
3
 72
17
 73
13
 74
0
 42
0.0000001
 43
0.0000001
 44
0.0000000001
 40
0.0
 40
0.0
 40
0.0
 40
0.0
 40
0.1718243311
 40
0.334681889
 40
0.4848657952
 40
0.619978881
 40
0.7384254547
 40
0.8398236926
 40
0.8845234188
 40
0.925680722
 40
0.9639014447
 40
1.0
 40
1.0
 40
1.0
 40
1.0
 10
14.6564622427
 20
12.7814785192
 30
0.0
 10
14.6566126622
 20
12.7829594956
 30
0.0
 10
14.6569973468
 20
12.7858358536
 30
0.0
 10
14.6578399416
 20
12.7899549142
 30
0.0
 10
14.6589216788
 20
12.7936886601
 30
0.0
 10
14.660211469
 20
12.7969474821
 30
0.0
 10
14.6616822377
 20
12.7996573108
 30
0.0
 10
14.6630897361
 20
12.8014869646
 30
0.0
 10
14.6642927519
 20
12.802581384
 30
0.0
 10
14.6651813607
 20
12.803193155
 30
0.0
 10
14.6660880637
 20
12.8036263857
 30
0.0
 10
14.66671409
 20
12.8037957813
 30
0.0
 10
14.6670227136
 20
12.8038463492
 30
0.0
  0
SPLINE
  5
2BC
100
AcDbEntity
  8
0
100
AcDbSpline
 62
7
  6
CONTINUOUS
 70
0
 71
3
 72
15
 73
11
 74
0
 42
0.0000001
 43
0.0000001
 44
0.0000000001
 40
0.0
 40
0.0
 40
0.0
 40
0.0
 40
0.0934610133
 40
0.2000460254
 40
0.3181364341
 40
0.4456923549
 40
0.5804038937
 40
0.7196729671
 40
0.8606696796
 40
1.0
 40
1.0
 40
1.0
 40
1.0
 10
14.6589795039
 20
12.7198439531
 30
0.0
 10
14.6584195865
 20
12.7207174276
 30
0.0
 10
14.657379616
 20
12.7226892473
 30
0.0
 10
14.6561033091
 20
12.7259879977
 30
0.0
 10
14.6550417847
 20
12.7297566078
 30
0.0
 10
14.6542171159
 20
12.7339014322
 30
0.0
 10
14.6536517157
 20
12.7383262283
 30
0.0
 10
14.6533572701
 20
12.7429265449
 30
0.0
 10
14.653345224
 20
12.7475872219
 30
0.0
 10
14.6535237634
 20
12.7506964037
 30
0.0
 10
14.6536623658
 20
12.7522369133
 30
0.0
  0
SPLINE
  5
2BD
100
AcDbEntity
  8
0
100
AcDbSpline
 62
7
  6
CONTINUOUS
 70
0
 71
3
 72
9
 73
5
 74
0
 42
0.0000001
 43
0.0000001
 44
0.0000000001
 40
0.0
 40
0.0
 40
0.0
 40
0.0
 40
0.5155232647
 40
1.0
 40
1.0
 40
1.0
 40
1.0
 10
14.6589795039
 20
12.7198439531
 30
0.0
 10
14.662259082
 20
12.7147277915
 30
0.0
 10
14.6689159769
 20
12.704988474
 30
0.0
 10
14.6762286858
 20
12.6957269407
 30
0.0
 10
14.679945428
 20
12.6913907756
 30
0.0
  0
SPLINE
  5
2BE
100
AcDbEntity
  8
0
100
AcDbSpline
 62
7
  6
CONTINUOUS
 70
0
 71
3
 72
9
 73
5
 74
0
 42
0.0000001
 43
0.0000001
 44
0.0000000001
 40
0.0
 40
0.0
 40
0.0
 40
0.0
 40
0.5389069232
 40
1.0
 40
1.0
 40
1.0
 40
1.0
 10
14.6831363965
 20
12.6858836583
 30
0.0
 10
14.6826993945
 20
12.6869439362
 30
0.0
 10
14.6817832507
 20
12.6888707901
 30
0.0
 10
14.6805839971
 20
12.6906457842
 30
0.0
 10
14.679945428
 20
12.6913907756
 30
0.0
  0
SPLINE
  5
2BF
100
AcDbEntity
  8
0
100
AcDbSpline
 62
7
  6
CONTINUOUS
 70
0
 71
3
 72
10
 73
6
 74
0
 42
0.0000001
 43
0.0000001
 44
0.0000000001
 40
0.0
 40
0.0
 40
0.0
 40
0.0
 40
0.4553003468
 40
0.7159097876
 40
1.0
 40
1.0
 40
1.0
 40
1.0
 10
14.6735417025
 20
12.524691078
 30
0.0
 10
14.6742231481
 20
12.5251004049
 30
0.0
 10
14.6751821868
 20
12.5259344891
 30
0.0
 10
14.6762947095
 20
12.5272800858
 30
0.0
 10
14.6768286466
 20
12.5280695284
 30
0.0
 10
14.6770901974
 20
12.5284909718
 30
0.0
  0
SPLINE
  5
2C0
100
AcDbEntity
  8
0
100
AcDbSpline
 62
7
  6
CONTINUOUS
 70
0
 71
3
 72
9
 73
5
 74
0
 42
0.0000001
 43
0.0000001
 44
0.0000000001
 40
0.0
 40
0.0
 40
0.0
 40
0.0
 40
0.2386711125
 40
1.0
 40
1.0
 40
1.0
 40
1.0
 10
14.6735417025
 20
12.524691078
 30
0.0
 10
14.6715881675
 20
12.5235176398
 30
0.0
 10
14.6635517577
 20
12.5183543725
 30
0.0
 10
14.6561242178
 20
12.5122713019
 30
0.0
 10
14.6508149147
 20
12.5073060264
 30
0.0
  0
SPLINE
  5
2C1
100
AcDbEntity
  8
0
100
AcDbSpline
 62
7
  6
CONTINUOUS
 70
0
 71
3
 72
15
 73
11
 74
0
 42
0.0000001
 43
0.0000001
 44
0.0000000001
 40
0.0
 40
0.0
 40
0.0
 40
0.0
 40
0.1522253753
 40
0.3023060457
 40
0.4466335277
 40
0.5824093828
 40
0.7072170734
 40
0.8191521692
 40
0.9168711871
 40
1.0
 40
1.0
 40
1.0
 40
1.0
 10
14.6431355133
 20
12.4782053164
 30
0.0
 10
14.6431170433
 20
12.4797649859
 30
0.0
 10
14.6431753172
 20
12.4828642495
 30
0.0
 10
14.6435380063
 20
12.4874291508
 30
0.0
 10
14.6441729268
 20
12.4917944706
 30
0.0
 10
14.6450598255
 20
12.4958516123
 30
0.0
 10
14.6461794079
 20
12.4995057608
 30
0.0
 10
14.6475031238
 20
12.5026751022
 30
0.0
 10
14.6490040653
 20
12.5052822946
 30
0.0
 10
14.6501927968
 20
12.5067242199
 30
0.0
 10
14.6508149147
 20
12.5073060264
 30
0.0
  0
SPLINE
  5
2C2
100
AcDbEntity
  8
0
100
AcDbSpline
 62
7
  6
CONTINUOUS
 70
0
 71
3
 72
15
 73
11
 74
0
 42
0.0000001
 43
0.0000001
 44
0.0000000001
 40
0.0
 40
0.0
 40
0.0
 40
0.0
 40
0.0790696431
 40
0.172767337
 40
0.2816456376
 40
0.40488551
 40
0.5408861926
 40
0.6873866443
 40
0.8416504954
 40
1.0
 40
1.0
 40
1.0
 40
1.0
 10
14.6523114318
 20
12.4208870511
 30
0.0
 10
14.6516731007
 20
12.421323772
 30
0.0
 10
14.6504292999
 20
12.4224986431
 30
0.0
 10
14.6488417133
 20
12.4247635375
 30
0.0
 10
14.6474144762
 20
12.4276236197
 30
0.0
 10
14.646175068
 20
12.4310104235
 30
0.0
 10
14.6451535115
 20
12.434850246
 30
0.0
 10
14.6443721118
 20
12.4390541811
 30
0.0
 10
14.6438548666
 20
12.4435182136
 30
0.0
 10
14.6436917614
 20
12.4465739775
 30
0.0
 10
14.6436564575
 20
12.4481224885
 30
0.0
  0
SPLINE
  5
2C3
100
AcDbEntity
  8
0
100
AcDbSpline
 62
7
  6
CONTINUOUS
 70
0
 71
3
 72
9
 73
5
 74
0
 42
0.0000001
 43
0.0000001
 44
0.0000000001
 40
0.0
 40
0.0
 40
0.0
 40
0.0
 40
0.51330157
 40
1.0
 40
1.0
 40
1.0
 40
1.0
 10
14.6523114318
 20
12.4208870511
 30
0.0
 10
14.6560208213
 20
12.4183492335
 30
0.0
 10
14.6635234365
 20
12.4137919319
 30
0.0
 10
14.6715452761
 20
12.410209349
 30
0.0
 10
14.6755494389
 20
12.4087508608
 30
0.0
  0
SPLINE
  5
2C4
100
AcDbEntity
  8
0
100
AcDbSpline
 62
7
  6
CONTINUOUS
 70
0
 71
3
 72
9
 73
5
 74
0
 42
0.0000001
 43
0.0000001
 44
0.0000000001
 40
0.0
 40
0.0
 40
0.0
 40
0.0
 40
0.285176739
 40
1.0
 40
1.0
 40
1.0
 40
1.0
 10
14.679215273
 20
12.4057747934
 30
0.0
 10
14.6789409622
 20
12.4061339419
 30
0.0
 10
14.6779261791
 20
12.4073436982
 30
0.0
 10
14.6766138182
 20
12.4083631681
 30
0.0
 10
14.6755494389
 20
12.4087508608
 30
0.0
  0
SPLINE
  5
2C5
100
AcDbEntity
  8
0
100
AcDbSpline
 62
7
  6
CONTINUOUS
 70
0
 71
3
 72
9
 73
5
 74
0
 42
0.0000001
 43
0.0000001
 44
0.0000000001
 40
0.0
 40
0.0
 40
0.0
 40
0.0
 40
0.4649086765
 40
1.0
 40
1.0
 40
1.0
 40
1.0
 10
14.6876899698
 20
12.2441687889
 30
0.0
 10
14.6882965963
 20
12.2450510533
 30
0.0
 10
14.6894215947
 20
12.2470729072
 30
0.0
 10
14.6902761596
 20
12.2492165296
 30
0.0
 10
14.6906779859
 20
12.2503815035
 30
0.0
  0
SPLINE
  5
2C6
100
AcDbEntity
  8
0
100
AcDbSpline
 62
7
  6
CONTINUOUS
 70
0
 71
3
 72
9
 73
5
 74
0
 42
0.0000001
 43
0.0000001
 44
0.0000000001
 40
0.0
 40
0.0
 40
0.0
 40
0.0
 40
0.4856448636
 40
1.0
 40
1.0
 40
1.0
 40
1.0
 10
14.6876899698
 20
12.2441687889
 30
0.0
 10
14.6841446752
 20
12.2390125897
 30
0.0
 10
14.6771976498
 20
12.2281499161
 30
0.0
 10
14.670888167
 20
12.2169078124
 30
0.0
 10
14.6677903037
 20
12.2110490439
 30
0.0
  0
SPLINE
  5
2C7
100
AcDbEntity
  8
0
100
AcDbSpline
 62
7
  6
CONTINUOUS
 70
0
 71
3
 72
15
 73
11
 74
0
 42
0.0000001
 43
0.0000001
 44
0.0000000001
 40
0.0
 40
0.0
 40
0.0
 40
0.0
 40
0.1338173073
 40
0.2708492725
 40
0.4078183048
 40
0.5419123171
 40
0.6704975238
 40
0.7911532193
 40
0.9016453071
 40
1.0
 40
1.0
 40
1.0
 40
1.0
 10
14.6636138366
 20
12.1775719798
 30
0.0
 10
14.6634213627
 20
12.1790840064
 30
0.0
 10
14.6631355396
 20
12.1821582905
 30
0.0
 10
14.662988081
 20
12.1868038312
 30
0.0
 10
14.6631240373
 20
12.1914531175
 30
0.0
 10
14.663536051
 20
12.1959896228
 30
0.0
 10
14.6642161459
 20
12.200306027
 30
0.0
 10
14.6651453821
 20
12.2043012618
 30
0.0
 10
14.666304663
 20
12.207875702
 30
0.0
 10
14.6672666378
 20
12.2100586719
 30
0.0
 10
14.6677903037
 20
12.2110490439
 30
0.0
  0
SPLINE
  5
2C8
100
AcDbEntity
  8
0
100
AcDbSpline
 62
7
  6
CONTINUOUS
 70
0
 71
3
 72
9
 73
5
 74
0
 42
0.0000001
 43
0.0000001
 44
0.0000000001
 40
0.0
 40
0.0
 40
0.0
 40
0.0
 40
0.4774037921
 40
1.0
 40
1.0
 40
1.0
 40
1.0
 10
14.7320353457
 20
11.985238245
 30
0.0
 10
14.7325086177
 20
11.986491736
 30
0.0
 10
14.7333512388
 20
11.9891743122
 30
0.0
 10
14.7339568719
 20
11.9919179536
 30
0.0
 10
14.7342209187
 20
11.9933606854
 30
0.0
  0
SPLINE
  5
2C9
100
AcDbEntity
  8
0
100
AcDbSpline
 62
7
  6
CONTINUOUS
 70
0
 71
3
 72
9
 73
5
 74
0
 42
0.0000001
 43
0.0000001
 44
0.0000000001
 40
0.0
 40
0.0
 40
0.0
 40
0.0
 40
0.4902044035
 40
1.0
 40
1.0
 40
1.0
 40
1.0
 10
14.7320353457
 20
11.985238245
 30
0.0
 10
14.7292244836
 20
11.9777934979
 30
0.0
 10
14.7237955121
 20
11.9624900224
 30
0.0
 10
14.7189255007
 20
11.9470004934
 30
0.0
 10
14.7165742424
 20
11.9390657872
 30
0.0
  0
SPLINE
  5
2CA
100
AcDbEntity
  8
0
100
AcDbSpline
 62
7
  6
CONTINUOUS
 70
0
 71
3
 72
15
 73
11
 74
0
 42
0.0000001
 43
0.0000001
 44
0.0000000001
 40
0.0
 40
0.0
 40
0.0
 40
0.0
 40
0.1170781151
 40
0.2418365398
 40
0.3714537555
 40
0.5032727471
 40
0.6346629432
 40
0.7630094682
 40
0.8856972576
 40
1.0
 40
1.0
 40
1.0
 40
1.0
 10
14.7162389128
 20
11.9039232846
 30
0.0
 10
14.715880979
 20
11.9052625667
 30
0.0
 10
14.715261559
 20
11.9080617581
 30
0.0
 10
14.7146159143
 20
11.9124154771
 30
0.0
 10
14.7142418079
 20
11.916976084
 30
0.0
 10
14.7141448423
 20
11.9216292381
 30
0.0
 10
14.7143295255
 20
11.9262646998
 30
0.0
 10
14.714789178
 20
11.9307727098
 30
0.0
 10
14.7155160619
 20
11.9350402856
 30
0.0
 10
14.7161897149
 20
11.9377681362
 30
0.0
 10
14.7165742424
 20
11.9390657872
 30
0.0
  0
SPLINE
  5
2CB
100
AcDbEntity
  8
0
100
AcDbSpline
 62
7
  6
CONTINUOUS
 70
0
 71
3
 72
9
 73
5
 74
0
 42
0.0000001
 43
0.0000001
 44
0.0000000001
 40
0.0
 40
0.0
 40
0.0
 40
0.0
 40
0.4885932943
 40
1.0
 40
1.0
 40
1.0
 40
1.0
 10
14.8029868175
 20
11.7688672005
 30
0.0
 10
14.8032960324
 20
11.7703761434
 30
0.0
 10
14.8038045792
 20
11.7734907218
 30
0.0
 10
14.8040958064
 20
11.7766323363
 30
0.0
 10
14.8041929633
 20
11.7782416253
 30
0.0
  0
SPLINE
  5
2CC
100
AcDbEntity
  8
0
100
AcDbSpline
 62
7
  6
CONTINUOUS
 70
0
 71
3
 72
15
 73
11
 74
0
 42
0.0000001
 43
0.0000001
 44
0.0000000001
 40
0.0
 40
0.0
 40
0.0
 40
0.0
 40
0.1010715648
 40
0.2136889878
 40
0.3357152468
 40
0.4648288931
 40
0.5985607059
 40
0.7342658264
 40
0.8691485121
 40
1.0
 40
1.0
 40
1.0
 40
1.0
 10
14.7967492531
 20
11.6794188357
 30
0.0
 10
14.7962472099
 20
11.6804694745
 30
0.0
 10
14.7953308359
 20
11.6827608178
 30
0.0
 10
14.7942399627
 20
11.6864759241
 30
0.0
 10
14.793386876
 20
11.6905831328
 30
0.0
 10
14.7927888939
 20
11.6949798848
 30
0.0
 10
14.7924629416
 20
11.6995628916
 30
0.0
 10
14.7924149014
 20
11.7042236461
 30
0.0
 10
14.7926498737
 20
11.708845289
 30
0.0
 10
14.7929944511
 20
11.7118898933
 30
0.0
 10
14.7932162908
 20
11.7133809969
 30
0.0
  0
SPLINE
  5
2CD
100
AcDbEntity
  8
0
100
AcDbSpline
 62
7
  6
CONTINUOUS
 70
0
 71
3
 72
15
 73
11
 74
0
 42
0.0000001
 43
0.0000001
 44
0.0000000001
 40
0.0
 40
0.0
 40
0.0
 40
0.0
 40
0.0855864377
 40
0.1855338814
 40
0.2990751885
 40
0.4246457885
 40
0.5602124514
 40
0.703296174
 40
0.8510792456
 40
1.0
 40
1.0
 40
1.0
 40
1.0
 10
14.8986252673
 20
11.5222386207
 30
0.0
 10
14.8980157599
 20
11.5228971434
 30
0.0
 10
14.8968608227
 20
11.5244789162
 30
0.0
 10
14.8954114088
 20
11.5272676694
 30
0.0
 10
14.8941488208
 20
11.5305979215
 30
0.0
 10
14.8930990819
 20
11.5343878526
 30
0.0
 10
14.8922895064
 20
11.5385515734
 30
0.0
 10
14.8917375916
 20
11.5429914376
 30
0.0
 10
14.8914614482
 20
11.5475967538
 30
0.0
 10
14.891461754
 20
11.5507096817
 30
0.0
 10
14.8915101062
 20
11.5522702425
 30
0.0
  0
SPLINE
  5
2CE
100
AcDbEntity
  8
0
100
AcDbSpline
 62
7
  6
CONTINUOUS
 70
0
 71
3
 72
17
 73
13
 74
0
 42
0.0000001
 43
0.0000001
 44
0.0000000001
 40
0.0
 40
0.0
 40
0.0
 40
0.0
 40
0.0745090616
 40
0.1164542668
 40
0.1621089683
 40
0.2117673515
 40
0.2655544671
 40
0.3854175515
 40
0.5210125115
 40
0.6705203497
 40
0.8314236506
 40
1.0
 40
1.0
 40
1.0
 40
1.0
 10
15.0136172093
 20
11.4451108255
 30
0.0
 10
15.0129771009
 20
11.4452968922
 30
0.0
 10
15.012032817
 20
11.4457934367
 30
0.0
 10
15.0109144583
 20
11.4467182808
 30
0.0
 10
15.0100664873
 20
11.4476110139
 30
0.0
 10
15.0092516517
 20
11.448669423
 30
0.0
 10
15.0081733286
 20
11.4503537425
 30
0.0
 10
15.0069511038
 20
11.4528455886
 30
0.0
 10
15.0057241879
 20
11.4562601751
 30
0.0
 10
15.0047137342
 20
11.4601251991
 30
0.0
 10
15.0039495928
 20
11.4643453042
 30
0.0
 10
15.0036184309
 20
11.4672767883
 30
0.0
 10
15.0034960232
 20
11.4687799983
 30
0.0
  0
SPLINE
  5
2CF
100
AcDbEntity
  8
0
100
AcDbSpline
 62
7
  6
CONTINUOUS
 70
0
 71
3
 72
11
 73
7
 74
0
 42
0.0000001
 43
0.0000001
 44
0.0000000001
 40
0.0
 40
0.0
 40
0.0
 40
0.0
 40
0.2345150854
 40
0.4817890755
 40
0.738388803
 40
1.0
 40
1.0
 40
1.0
 40
1.0
 10
14.85897012
 20
13.3080828549
 30
0.0
 10
14.8599595733
 20
13.3119465391
 30
0.0
 10
14.8617067011
 20
13.3199590519
 30
0.0
 10
14.8636226399
 20
13.3323765725
 30
0.0
 10
14.8648772127
 20
13.3453408569
 30
0.0
 10
14.8652591393
 20
13.3541504852
 30
0.0
 10
14.8653358362
 20
13.3585990113
 30
0.0
  0
SPLINE
  5
2D0
100
AcDbEntity
  8
0
100
AcDbSpline
 62
7
  6
CONTINUOUS
 70
0
 71
3
 72
16
 73
12
 74
0
 42
0.0000001
 43
0.0000001
 44
0.0000000001
 40
0.0
 40
0.0
 40
0.0
 40
0.0
 40
0.047623581
 40
0.0982482474
 40
0.2078890394
 40
0.3275038402
 40
0.4551908139
 40
0.5887280043
 40
0.725713466
 40
0.8637245654
 40
1.0
 40
1.0
 40
1.0
 40
1.0
 10
14.7653665092
 20
13.0783214996
 30
0.0
 10
14.7661676128
 20
13.0798199406
 30
0.0
 10
14.7677178286
 20
13.0829668026
 30
0.0
 10
14.7706145617
 20
13.0897982089
 30
0.0
 10
14.7738018876
 20
13.0992781622
 30
0.0
 10
14.7768637856
 20
13.111651353
 30
0.0
 10
14.7791919312
 20
13.125048638
 30
0.0
 10
14.7807362056
 20
13.1391807453
 30
0.0
 10
14.7814609779
 20
13.1537469914
 30
0.0
 10
14.7813485609
 20
13.1684277068
 30
0.0
 10
14.7807125499
 20
13.1781998948
 30
0.0
 10
14.7802487364
 20
13.1830398441
 30
0.0
  0
SPLINE
  5
2D1
100
AcDbEntity
  8
0
100
AcDbSpline
 62
7
  6
CONTINUOUS
 70
0
 71
3
 72
27
 73
23
 74
0
 42
0.0000001
 43
0.0000001
 44
0.0000000001
 40
0.0
 40
0.0
 40
0.0
 40
0.0
 40
0.0202810674
 40
0.0417797057
 40
0.0645090648
 40
0.0884643318
 40
0.1136243794
 40
0.1399598401
 40
0.1674318366
 40
0.1959886439
 40
0.2561166083
 40
0.3198218921
 40
0.3864903008
 40
0.4554435936
 40
0.5259611203
 40
0.5972881468
 40
0.6686588108
 40
0.7393038868
 40
0.8084598239
 40
0.8754017186
 40
0.9394761768
 40
1.0
 40
1.0
 40
1.0
 40
1.0
 10
16.1059101444
 20
12.2568350478
 30
0.0
 10
16.10399422
 20
12.259130709
 30
0.0
 10
16.1002221953
 20
12.2640076702
 30
0.0
 10
16.09489312
 20
12.2718917513
 30
0.0
 10
16.0897466169
 20
12.2805328346
 30
0.0
 10
16.0847987947
 20
12.2899032527
 30
0.0
 10
16.0800634745
 20
12.2999730543
 30
0.0
 10
16.075556435
 20
12.3107111988
 30
0.0
 10
16.0712927042
 20
12.322084393
 30
0.0
 10
16.0658544943
 20
12.3383266387
 30
0.0
 10
16.0597975823
 20
12.3599790056
 30
0.0
 10
16.0538043876
 20
12.3874322667
 30
0.0
 10
16.0490451659
 20
12.4164446135
 30
0.0
 10
16.0455781244
 20
12.4466493214
 30
0.0
 10
16.0434504359
 20
12.4776657024
 30
0.0
 10
16.0426886867
 20
12.5091017615
 30
0.0
 10
16.043302206
 20
12.5405598688
 30
0.0
 10
16.045283906
 20
12.5716410646
 30
0.0
 10
16.0486060977
 20
12.6019514844
 30
0.0
 10
16.0532311058
 20
12.6311117215
 30
0.0
 10
16.0590947888
 20
12.6587487716
 30
0.0
 10
16.0639284242
 20
12.6764857015
 30
0.0
 10
16.0665629985
 20
12.6850111865
 30
0.0
  0
SPLINE
  5
2D2
100
AcDbEntity
  8
0
100
AcDbSpline
 62
7
  6
CONTINUOUS
 70
0
 71
3
 72
13
 73
9
 74
0
 42
0.0000001
 43
0.0000001
 44
0.0000000001
 40
0.0
 40
0.0
 40
0.0
 40
0.0
 40
0.274205112
 40
0.5283091105
 40
0.6495884753
 40
0.7680201298
 40
0.8845055844
 40
1.0
 40
1.0
 40
1.0
 40
1.0
 10
16.094278515
 20
12.7487843735
 30
0.0
 10
16.0966077079
 20
12.7507294078
 30
0.0
 10
16.1013384655
 20
12.7542017722
 30
0.0
 10
16.1077519339
 20
12.7575287015
 30
0.0
 10
16.1129057301
 20
12.7593671149
 30
0.0
 10
16.1167322567
 20
12.7603393942
 30
0.0
 10
16.1205718713
 20
12.7609240811
 30
0.0
 10
16.1231409409
 20
12.7610546943
 30
0.0
 10
16.1244190712
 20
12.7610548422
 30
0.0
  0
SPLINE
  5
2D3
100
AcDbEntity
  8
0
100
AcDbSpline
 62
7
  6
CONTINUOUS
 70
0
 71
3
 72
18
 73
14
 74
0
 42
0.0000001
 43
0.0000001
 44
0.0000000001
 40
0.0
 40
0.0
 40
0.0
 40
0.0
 40
0.149103918
 40
0.2896184589
 40
0.4221051976
 40
0.4855972426
 40
0.5473970875
 40
0.6664181437
 40
0.7804749224
 40
0.8361334289
 40
0.8911292444
 40
0.9456772575
 40
1.0
 40
1.0
 40
1.0
 40
1.0
 10
16.2699637649
 20
11.7097014931
 30
0.0
 10
16.2644545518
 20
11.7031015075
 30
0.0
 10
16.2533135331
 20
11.6906379882
 30
0.0
 10
16.2357011818
 20
11.6738029777
 30
0.0
 10
16.2205186048
 20
11.6616718864
 30
0.0
 10
16.2082337297
 20
11.6532945113
 30
0.0
 10
16.1961896738
 20
11.6459779733
 30
0.0
 10
16.1809467446
 20
11.6383563122
 30
0.0
 10
16.1652117674
 20
11.6327699127
 30
0.0
 10
16.1526235167
 20
11.6296673503
 30
0.0
 10
16.1432344566
 20
11.6280161629
 30
0.0
 10
16.1338309319
 20
11.6270255197
 30
0.0
 10
16.1275513301
 20
11.6268055669
 30
0.0
 10
16.1244191417
 20
11.6268057247
 30
0.0
  0
SPLINE
  5
2D4
100
AcDbEntity
  8
0
100
AcDbSpline
 62
7
  6
CONTINUOUS
 70
0
 71
3
 72
33
 73
29
 74
0
 42
0.0000001
 43
0.0000001
 44
0.0000000001
 40
0.0
 40
0.0
 40
0.0
 40
0.0
 40
0.0202795792
 40
0.0417780333
 40
0.0645069072
 40
0.0884599147
 40
0.1136196408
 40
0.1399545957
 40
0.1674243053
 40
0.195980123
 40
0.2255639231
 40
0.2561130958
 40
0.2875575301
 40
0.3198224048
 40
0.3528292067
 40
0.3864940296
 40
0.4207309873
 40
0.455450633
 40
0.5259647685
 40
0.5972886428
 40
0.6686543254
 40
0.7392928355
 40
0.8084498643
 40
0.8753932065
 40
0.9078248675
 40
0.9394584322
 40
0.9702123665
 40
1.0
 40
1.0
 40
1.0
 40
1.0
 10
16.2926563584
 20
13.2847214007
 30
0.0
 10
16.2984947886
 20
13.2777263848
 30
0.0
 10
16.3099900999
 20
13.2628656729
 30
0.0
 10
16.3262276943
 20
13.2388394515
 30
0.0
 10
16.3419095615
 20
13.2125074296
 30
0.0
 10
16.3569895668
 20
13.1839547475
 30
0.0
 10
16.3714172463
 20
13.1532683643
 30
0.0
 10
16.3851505822
 20
13.1205460231
 30
0.0
 10
16.3981454182
 20
13.0858900877
 30
0.0
 10
16.4103591288
 20
13.0494094984
 30
0.0
 10
16.4217562024
 20
13.0112201886
 30
0.0
 10
16.4322969541
 20
12.9714421774
 30
0.0
 10
16.4419501329
 20
12.9302019254
 30
0.0
 10
16.4506848494
 20
12.88763002
 30
0.0
 10
16.4584713109
 20
12.8438612304
 30
0.0
 10
16.465287768
 20
12.7990348404
 30
0.0
 10
16.4711096605
 20
12.7532925814
 30
0.0
 10
16.4775559916
 20
12.6909575794
 30
0.0
 10
16.4829864822
 20
12.6117887019
 30
0.0
 10
16.4853090706
 20
12.5159968891
 30
0.0
 10
16.4834399145
 20
12.4201382507
 30
0.0
 10
16.4774025708
 20
12.3254260795
 30
0.0
 10
16.4672749486
 20
12.2330617013
 30
0.0
 10
16.455414845
 20
12.1582413257
 30
0.0
 10
16.4439185061
 20
12.1005080868
 30
0.0
 10
16.4344597984
 20
12.0589641919
 30
0.0
 10
16.4241072969
 20
12.0188599455
 30
0.0
 10
16.4165081082
 20
11.9927367259
 30
0.0
 10
16.4125567357
 20
11.97995008
 30
0.0
  0
SPLINE
  5
2D5
100
AcDbEntity
  8
0
100
AcDbSpline
 62
7
  6
CONTINUOUS
 70
0
 71
3
 72
13
 73
9
 74
0
 42
0.0000001
 43
0.0000001
 44
0.0000000001
 40
0.0
 40
0.0
 40
0.0
 40
0.0
 40
0.1149911638
 40
0.2310322921
 40
0.3491333097
 40
0.470237848
 40
0.7245839062
 40
1.0
 40
1.0
 40
1.0
 40
1.0
 10
16.1244190711
 20
12.2605551436
 30
0.0
 10
16.1231018161
 20
12.2605549912
 30
0.0
 10
16.1204532141
 20
12.260693346
 30
0.0
 10
16.116495743
 20
12.2613151234
 30
0.0
 10
16.1125527567
 20
12.2623488065
 30
0.0
 10
16.1072395278
 20
12.2643034695
 30
0.0
 10
16.1006312354
 20
12.2678399484
 30
0.0
 10
16.0957773988
 20
12.271520877
 30
0.0
 10
16.0933882956
 20
12.2735814587
 30
0.0
  0
SPLINE
  5
2D6
100
AcDbEntity
  8
0
100
AcDbSpline
 62
7
  6
CONTINUOUS
 70
0
 71
3
 72
15
 73
11
 74
0
 42
0.0000001
 43
0.0000001
 44
0.0000000001
 40
0.0
 40
0.0
 40
0.0
 40
0.0
 40
0.1730804437
 40
0.3322689323
 40
0.4767804462
 40
0.6062458188
 40
0.7211309282
 40
0.8228891889
 40
0.9143576996
 40
1.0
 40
1.0
 40
1.0
 40
1.0
 10
15.0860037064
 20
13.568026142
 30
0.0
 10
15.0862659345
 20
13.5688855595
 30
0.0
 10
15.0868212153
 20
13.5705204192
 30
0.0
 10
15.0877924672
 20
13.5727999207
 30
0.0
 10
15.0888558507
 20
13.5747854534
 30
0.0
 10
15.0900014912
 20
13.5764537789
 30
0.0
 10
15.0912173706
 20
13.577786222
 30
0.0
 10
15.0924951758
 20
13.5787665802
 30
0.0
 10
15.0938272209
 20
13.5793701938
 30
0.0
 10
15.0947510399
 20
13.5795098591
 30
0.0
 10
15.0951956447
 20
13.579510418
 30
0.0
  0
SPLINE
  5
2D7
100
AcDbEntity
  8
0
100
AcDbSpline
 62
7
  6
CONTINUOUS
 70
0
 71
3
 72
16
 73
12
 74
0
 42
0.0000001
 43
0.0000001
 44
0.0000000001
 40
0.0
 40
0.0
 40
0.0
 40
0.0
 40
0.1625337371
 40
0.319576937
 40
0.4674206923
 40
0.6033968065
 40
0.7253905983
 40
0.8320759983
 40
0.8795599774
 40
0.9232277261
 40
1.0
 40
1.0
 40
1.0
 40
1.0
 10
14.9682604936
 20
13.536034429
 30
0.0
 10
14.968331711
 20
13.5375684676
 30
0.0
 10
14.9685643853
 20
13.5405812893
 30
0.0
 10
14.9691839602
 20
13.5449572415
 30
0.0
 10
14.9700610791
 20
13.5490333097
 30
0.0
 10
14.9711692101
 20
13.5527094321
 30
0.0
 10
14.9724847132
 20
13.5559004067
 30
0.0
 10
14.9737728066
 20
13.5581814877
 30
0.0
 10
14.9749002132
 20
13.5596767447
 30
0.0
 10
14.9759773998
 20
13.5608420913
 30
0.0
 10
14.9768943701
 20
13.5615487131
 30
0.0
 10
14.9775376539
 20
13.5618839145
 30
0.0
  0
SPLINE
  5
2D8
100
AcDbEntity
  8
0
100
AcDbSpline
 62
7
  6
CONTINUOUS
 70
0
 71
3
 72
11
 73
7
 74
0
 42
0.0000001
 43
0.0000001
 44
0.0000000001
 40
0.0
 40
0.0
 40
0.0
 40
0.0
 40
0.2918553265
 40
0.550669341
 40
0.7829493176
 40
1.0
 40
1.0
 40
1.0
 40
1.0
 10
14.8760555083
 20
13.4729341209
 30
0.0
 10
14.8764303008
 20
13.4734081565
 30
0.0
 10
14.8771982578
 20
13.474258136
 30
0.0
 10
14.8784878153
 20
13.4752578392
 30
0.0
 10
14.8798325993
 20
13.4758795027
 30
0.0
 10
14.8807680012
 20
13.4760212243
 30
0.0
 10
14.8812174151
 20
13.4760211079
 30
0.0
  0
SPLINE
  5
2D9
100
AcDbEntity
  8
0
100
AcDbSpline
 62
7
  6
CONTINUOUS
 70
0
 71
3
 72
15
 73
11
 74
0
 42
0.0000001
 43
0.0000001
 44
0.0000000001
 40
0.0
 40
0.0
 40
0.0
 40
0.0
 40
0.1431711096
 40
0.2869042546
 40
0.4277328703
 40
0.5628248755
 40
0.6896201752
 40
0.8059049442
 40
0.9098049537
 40
1.0
 40
1.0
 40
1.0
 40
1.0
 10
14.8595435063
 20
13.4277378779
 30
0.0
 10
14.8594416481
 20
13.429290682
 30
0.0
 10
14.8593359056
 20
13.4324095636
 30
0.0
 10
14.8594559569
 20
13.4370597886
 30
0.0
 10
14.8598564463
 20
13.4416065113
 30
0.0
 10
14.8605231845
 20
13.4459360594
 30
0.0
 10
14.8614420557
 20
13.4499464465
 30
0.0
 10
14.8625884829
 20
13.4535452944
 30
0.0
 10
14.8639386025
 20
13.4566434866
 30
0.0
 10
14.8650277152
 20
13.458462112
 30
0.0
 10
14.865609661
 20
13.4592510378
 30
0.0
  0
SPLINE
  5
2DA
100
AcDbEntity
  8
0
100
AcDbSpline
 62
7
  6
CONTINUOUS
 70
0
 71
3
 72
9
 73
5
 74
0
 42
0.0000001
 43
0.0000001
 44
0.0000000001
 40
0.0
 40
0.0
 40
0.0
 40
0.0
 40
0.504260522
 40
1.0
 40
1.0
 40
1.0
 40
1.0
 10
14.8653358362
 20
13.3585990113
 30
0.0
 10
14.865364281
 20
13.3602488445
 30
0.0
 10
14.8653158729
 20
13.3635232562
 30
0.0
 10
14.8650563524
 20
13.3667879725
 30
0.0
 10
14.864871558
 20
13.3683996077
 30
0.0
  0
SPLINE
  5
2DB
100
AcDbEntity
  8
0
100
AcDbSpline
 62
7
  6
CONTINUOUS
 70
0
 71
3
 72
15
 73
11
 74
0
 42
0.0000001
 43
0.0000001
 44
0.0000000001
 40
0.0
 40
0.0
 40
0.0
 40
0.0
 40
0.1670007995
 40
0.3212830912
 40
0.4623743682
 40
0.5902039708
 40
0.7056378708
 40
0.8104766912
 40
0.9073799472
 40
1.0
 40
1.0
 40
1.0
 40
1.0
 10
14.7779931759
 20
13.3004993093
 30
0.0
 10
14.7782490236
 20
13.301103067
 30
0.0
 10
14.7787791482
 20
13.302249191
 30
0.0
 10
14.779667124
 20
13.3038350457
 30
0.0
 10
14.7806090653
 20
13.3052073844
 30
0.0
 10
14.7815989883
 20
13.3063516078
 30
0.0
 10
14.7826298617
 20
13.307256876
 30
0.0
 10
14.7836948519
 20
13.3079159628
 30
0.0
 10
14.784787436
 20
13.3083188667
 30
0.0
 10
14.7855344096
 20
13.3084096402
 30
0.0
 10
14.7858980828
 20
13.308409601
 30
0.0
  0
SPLINE
  5
2DC
100
AcDbEntity
  8
0
100
AcDbSpline
 62
7
  6
CONTINUOUS
 70
0
 71
3
 72
15
 73
11
 74
0
 42
0.0000001
 43
0.0000001
 44
0.0000000001
 40
0.0
 40
0.0
 40
0.0
 40
0.0
 40
0.1256660529
 40
0.2567649364
 40
0.3902195064
 40
0.5232737834
 40
0.6532759378
 40
0.7776876968
 40
0.8940579264
 40
1.0
 40
1.0
 40
1.0
 40
1.0
 10
14.7671072212
 20
13.2451896647
 30
0.0
 10
14.7668337896
 20
13.2466343116
 30
0.0
 10
14.7663855235
 20
13.2496076614
 30
0.0
 10
14.7659958525
 20
13.2541593767
 30
0.0
 10
14.7658867787
 20
13.2588130525
 30
0.0
 10
14.7660572132
 20
13.2634519707
 30
0.0
 10
14.7665050772
 20
13.2679662076
 30
0.0
 10
14.76721716
 20
13.2722492701
 30
0.0
 10
14.7681795181
 20
13.2761940124
 30
0.0
 10
14.7690102208
 20
13.2786639773
 30
0.0
 10
14.7694711435
 20
13.279814617
 30
0.0
  0
SPLINE
  5
2DD
100
AcDbEntity
  8
0
100
AcDbSpline
 62
7
  6
CONTINUOUS
 70
0
 71
3
 72
9
 73
5
 74
0
 42
0.0000001
 43
0.0000001
 44
0.0000000001
 40
0.0
 40
0.0
 40
0.0
 40
0.0
 40
0.514696179
 40
1.0
 40
1.0
 40
1.0
 40
1.0
 10
14.7802487364
 20
13.1830398441
 30
0.0
 10
14.7800981526
 20
13.184611204
 30
0.0
 10
14.7797051031
 20
13.1876555812
 30
0.0
 10
14.779090116
 20
13.1906640502
 30
0.0
 10
14.7787282474
 20
13.1921078038
 30
0.0
  0
SPLINE
  5
2DE
100
AcDbEntity
  8
0
100
AcDbSpline
 62
7
  6
CONTINUOUS
 70
0
 71
3
 72
16
 73
12
 74
0
 42
0.0000001
 43
0.0000001
 44
0.0000000001
 40
0.0
 40
0.0
 40
0.0
 40
0.0
 40
0.1749435007
 40
0.3371005642
 40
0.4842845431
 40
0.6153770523
 40
0.7303930191
 40
0.8304622926
 40
0.9185414722
 40
0.959718649
 40
1.0
 40
1.0
 40
1.0
 40
1.0
 10
14.7028153524
 20
13.064116398
 30
0.0
 10
14.7030646062
 20
13.0651792024
 30
0.0
 10
14.7036095364
 20
13.0672128632
 30
0.0
 10
14.7046029199
 20
13.0700700455
 30
0.0
 10
14.7057305756
 20
13.0725810957
 30
0.0
 10
14.7069747832
 20
13.0747031844
 30
0.0
 10
14.7083170775
 20
13.0764071009
 30
0.0
 10
14.7097456816
 20
13.0776664374
 30
0.0
 10
14.7110323508
 20
13.0783379872
 30
0.0
 10
14.7120624333
 20
13.0785964061
 30
0.0
 10
14.7125717827
 20
13.0786381792
 30
0.0
 10
14.7128231368
 20
13.0786379111
 30
0.0
  0
SPLINE
  5
2DF
100
AcDbEntity
  8
0
100
AcDbSpline
 62
7
  6
CONTINUOUS
 70
0
 71
3
 72
15
 73
11
 74
0
 42
0.0000001
 43
0.0000001
 44
0.0000000001
 40
0.0
 40
0.0
 40
0.0
 40
0.0
 40
0.1093059872
 40
0.228234241
 40
0.3542503578
 40
0.4848296282
 40
0.6173972629
 40
0.7493052011
 40
0.8778325461
 40
1.0
 40
1.0
 40
1.0
 40
1.0
 10
14.6981696092
 20
13.0018732365
 30
0.0
 10
14.6977386455
 20
13.0030868474
 30
0.0
 10
14.696969788
 20
13.0056681641
 30
0.0
 10
14.6961001865
 20
13.00975397
 30
0.0
 10
14.6954883862
 20
13.0141394256
 30
0.0
 10
14.6951458856
 20
13.0187147239
 30
0.0
 10
14.6950832795
 20
13.0233717238
 30
0.0
 10
14.6952999972
 20
13.028000054
 30
0.0
 10
14.6957943975
 20
13.0324836348
 30
0.0
 10
14.6963127462
 20
13.0353945659
 30
0.0
 10
14.6966208801
 20
13.0368005926
 30
0.0
  0
SPLINE
  5
2E0
100
AcDbEntity
  8
0
100
AcDbSpline
 62
7
  6
CONTINUOUS
 70
0
 71
3
 72
9
 73
5
 74
0
 42
0.0000001
 43
0.0000001
 44
0.0000000001
 40
0.0
 40
0.0
 40
0.0
 40
0.0
 40
0.5112219308
 40
1.0
 40
1.0
 40
1.0
 40
1.0
 10
14.6981696092
 20
13.0018732365
 30
0.0
 10
14.7007785126
 20
12.994526461
 30
0.0
 10
14.7061478303
 20
12.9802481409
 30
0.0
 10
14.7120997308
 20
12.9662014074
 30
0.0
 10
14.7151656657
 20
12.9594071616
 30
0.0
  0
SPLINE
  5
2E1
100
AcDbEntity
  8
0
100
AcDbSpline
 62
7
  6
CONTINUOUS
 70
0
 71
3
 72
9
 73
5
 74
0
 42
0.0000001
 43
0.0000001
 44
0.0000000001
 40
0.0
 40
0.0
 40
0.0
 40
0.0
 40
0.5263751155
 40
1.0
 40
1.0
 40
1.0
 40
1.0
 10
14.7176233692
 20
12.9518149512
 30
0.0
 10
14.7173127265
 20
12.9531819861
 30
0.0
 10
14.7166215765
 20
12.9557576171
 30
0.0
 10
14.7156844978
 20
12.9582574071
 30
0.0
 10
14.7151656657
 20
12.9594071616
 30
0.0
  0
SPLINE
  5
2E2
100
AcDbEntity
  8
0
100
AcDbSpline
 62
7
  6
CONTINUOUS
 70
0
 71
3
 72
15
 73
11
 74
0
 42
0.0000001
 43
0.0000001
 44
0.0000000001
 40
0.0
 40
0.0
 40
0.0
 40
0.0
 40
0.1088237681
 40
0.2194326108
 40
0.3335113276
 40
0.452550873
 40
0.5778190249
 40
0.710332527
 40
0.8508670061
 40
1.0
 40
1.0
 40
1.0
 40
1.0
 10
16.1244191417
 20
13.3948042611
 30
0.0
 10
16.1306927242
 20
13.3948039449
 30
0.0
 10
16.1433600957
 20
13.3939094456
 30
0.0
 10
16.1622224337
 20
13.3899042776
 30
0.0
 10
16.1809457312
 20
13.3832521225
 30
0.0
 10
16.1994678166
 20
13.3739935229
 30
0.0
 10
16.2177351135
 20
13.3621632453
 30
0.0
 10
16.235699279
 20
13.3478063387
 30
0.0
 10
16.2533147752
 20
13.3309726788
 30
0.0
 10
16.2644547751
 20
13.318508549
 30
0.0
 10
16.2699638264
 20
13.3119081614
 30
0.0
  0
SPLINE
  5
2E3
100
AcDbEntity
  8
0
100
AcDbSpline
 62
7
  6
CONTINUOUS
 70
0
 71
3
 72
15
 73
11
 74
0
 42
0.0000001
 43
0.0000001
 44
0.0000000001
 40
0.0
 40
0.0
 40
0.0
 40
0.0
 40
0.1460030803
 40
0.2864845428
 40
0.4210837347
 40
0.549551602
 40
0.6717396223
 40
0.7875503549
 40
0.8969558134
 40
1.0
 40
1.0
 40
1.0
 40
1.0
 10
16.4125567357
 20
11.97995008
 30
0.0
 10
16.4086387803
 20
11.9672715714
 30
0.0
 10
16.4005399547
 20
11.9425183571
 30
0.0
 10
16.3873345853
 20
11.9065876764
 30
0.0
 10
16.3733409227
 20
11.8726728114
 30
0.0
 10
16.3586077825
 20
11.8408948819
 30
0.0
 10
16.3431854925
 20
11.8113574093
 30
0.0
 10
16.3271197215
 20
11.7841559512
 30
0.0
 10
16.3104679503
 20
11.7593788292
 30
0.0
 10
16.2986580277
 20
11.7440782774
 30
0.0
 10
16.2926563974
 20
11.7368883799
 30
0.0
  0
SPLINE
  5
2E4
100
AcDbEntity
  8
0
100
AcDbSpline
 62
7
  6
CONTINUOUS
 70
0
 71
3
 72
14
 73
10
 74
0
 42
0.0000001
 43
0.0000001
 44
0.0000000001
 40
0.0
 40
0.0
 40
0.0
 40
0.0
 40
0.2863736728
 40
0.4210158815
 40
0.5495231237
 40
0.6717309076
 40
0.7875505537
 40
0.896951179
 40
1.0
 40
1.0
 40
1.0
 40
1.0
 10
16.0665629985
 20
12.6850111865
 30
0.0
 10
16.0690847231
 20
12.6931714906
 30
0.0
 10
16.0731802858
 20
12.7050571985
 30
0.0
 10
16.0794317733
 20
12.7202114489
 30
0.0
 10
16.0842676274
 20
12.7306422541
 30
0.0
 10
16.0893290966
 20
12.7403366947
 30
0.0
 10
16.0945998904
 20
12.7492642633
 30
0.0
 10
16.1000649518
 20
12.7573945656
 30
0.0
 10
16.1039407468
 20
12.7624150243
 30
0.0
 10
16.1059102306
 20
12.7647744796
 30
0.0
  0
SPLINE
  5
2E5
100
AcDbEntity
  8
0
100
AcDbSpline
 62
7
  6
CONTINUOUS
 70
0
 71
3
 72
23
 73
19
 74
0
 42
0.0000001
 43
0.0000001
 44
0.0000000001
 40
0.0
 40
0.0
 40
0.0
 40
0.0
 40
0.0364026154
 40
0.0776337962
 40
0.1239650861
 40
0.1753936
 40
0.2317184627
 40
0.292531838
 40
0.3573152871
 40
0.4254388937
 40
0.4962138644
 40
0.5688863694
 40
0.6426715915
 40
0.7167496052
 40
0.7903022223
 40
0.8625580815
 40
0.9327422664
 40
1.0
 40
1.0
 40
1.0
 40
1.0
 10
14.6945578691
 20
12.8051682598
 30
0.0
 10
14.6960694497
 20
12.8062628073
 30
0.0
 10
14.6990391437
 20
12.8089530353
 30
0.0
 10
14.7030236898
 20
12.8139276763
 30
0.0
 10
14.7067537639
 20
12.8200172914
 30
0.0
 10
14.7101892965
 20
12.8271422309
 30
0.0
 10
14.7132879427
 20
12.8352184514
 30
0.0
 10
14.7160145889
 20
12.8441444295
 30
0.0
 10
14.7183294872
 20
12.8538080188
 30
0.0
 10
14.7202064726
 20
12.8640849167
 30
0.0
 10
14.7216174963
 20
12.8748436497
 30
0.0
 10
14.722547389
 20
12.8859455741
 30
0.0
 10
14.7229803402
 20
12.8972472525
 30
0.0
 10
14.722914536
 20
12.9086021038
 30
0.0
 10
14.7223476159
 20
12.9198645357
 30
0.0
 10
14.7212889477
 20
12.9308912324
 30
0.0
 10
14.7197496545
 20
12.9415351312
 30
0.0
 10
14.7183874328
 20
12.9484525635
 30
0.0
 10
14.7176233692
 20
12.9518149512
 30
0.0
  0
SPLINE
  5
2E6
100
AcDbEntity
  8
0
100
AcDbSpline
 62
7
  6
CONTINUOUS
 70
0
 71
3
 72
23
 73
19
 74
0
 42
0.0000001
 43
0.0000001
 44
0.0000000001
 40
0.0
 40
0.0
 40
0.0
 40
0.0
 40
0.0464965588
 40
0.097825635
 40
0.1536125964
 40
0.2134121234
 40
0.2767054024
 40
0.342854497
 40
0.4111689318
 40
0.4809105343
 40
0.5513208024
 40
0.6216259328
 40
0.6910522225
 40
0.7588398224
 40
0.8242586581
 40
0.8866647078
 40
0.9454486662
 40
1.0
 40
1.0
 40
1.0
 40
1.0
 10
14.6770901974
 20
12.5284909718
 30
0.0
 10
14.6784118663
 20
12.5306206109
 30
0.0
 10
14.6809273412
 20
12.5352677966
 30
0.0
 10
14.6842003469
 20
12.5428831572
 30
0.0
 10
14.6871158496
 20
12.5514035273
 30
0.0
 10
14.6896390891
 20
12.5607162488
 30
0.0
 10
14.691735465
 20
12.5707049248
 30
0.0
 10
14.6933812013
 20
12.5812418195
 30
0.0
 10
14.6945505521
 20
12.5921914236
 30
0.0
 10
14.6952317679
 20
12.6034120785
 30
0.0
 10
14.6954126831
 20
12.6147591594
 30
0.0
 10
14.6950941008
 20
12.6260862284
 30
0.0
 10
14.6942767023
 20
12.6372466353
 30
0.0
 10
14.6929751898
 20
12.6480960446
 30
0.0
 10
14.6912032503
 20
12.6584953193
 30
0.0
 10
14.6889859731
 20
12.6683127948
 30
0.0
 10
14.6863496262
 20
12.6774179795
 30
0.0
 10
14.6842569523
 20
12.6831649045
 30
0.0
 10
14.6831363965
 20
12.6858836583
 30
0.0
  0
SPLINE
  5
2E7
100
AcDbEntity
  8
0
100
AcDbSpline
 62
7
  6
CONTINUOUS
 70
0
 71
3
 72
23
 73
19
 74
0
 42
0.0000001
 43
0.0000001
 44
0.0000000001
 40
0.0
 40
0.0
 40
0.0
 40
0.0
 40
0.0583811643
 40
0.120637698
 40
0.1860750795
 40
0.2540260238
 40
0.323801611
 40
0.3946394355
 40
0.465756145
 40
0.5363693076
 40
0.6057054081
 40
0.6730205022
 40
0.7376011275
 40
0.7987985096
 40
0.8560297425
 40
0.9088508105
 40
0.9569171389
 40
1.0
 40
1.0
 40
1.0
 40
1.0
 10
14.6906779859
 20
12.2503815035
 30
0.0
 10
14.6916946052
 20
12.2533288843
 30
0.0
 10
14.6935727588
 20
12.2594973735
 30
0.0
 10
14.6958867166
 20
12.2691664986
 30
0.0
 10
14.6977585772
 20
12.2794506186
 30
0.0
 10
14.6991665178
 20
12.290212848
 30
0.0
 10
14.7000901911
 20
12.3013165661
 30
0.0
 10
14.7005207871
 20
12.3126193243
 30
0.0
 10
14.7004487387
 20
12.323974747
 30
0.0
 10
14.699878497
 20
12.3352358469
 30
0.0
 10
14.6988143505
 20
12.3462573003
 30
0.0
 10
14.6972735444
 20
12.3568972426
 30
0.0
 10
14.6952725941
 20
12.3670181564
 30
0.0
 10
14.6928419655
 20
12.376490467
 30
0.0
 10
14.6900095284
 20
12.3851933902
 30
0.0
 10
14.6868134206
 20
12.3930193858
 30
0.0
 10
14.6832913345
 20
12.3998653806
 30
0.0
 10
14.6806118228
 20
12.4039463244
 30
0.0
 10
14.679215273
 20
12.4057747934
 30
0.0
  0
SPLINE
  5
2E8
100
AcDbEntity
  8
0
100
AcDbSpline
 62
7
  6
CONTINUOUS
 70
0
 71
3
 72
21
 73
17
 74
0
 42
0.0000001
 43
0.0000001
 44
0.0000000001
 40
0.0
 40
0.0
 40
0.0
 40
0.0
 40
0.0682607137
 40
0.1387028456
 40
0.2105915833
 40
0.2832690775
 40
0.4284326325
 40
0.5690191044
 40
0.6360449676
 40
0.7001140877
 40
0.7607229346
 40
0.8174204757
 40
0.8698610887
 40
0.9177907994
 40
0.9611335735
 40
1.0
 40
1.0
 40
1.0
 40
1.0
 10
14.7342209187
 20
11.9933606854
 30
0.0
 10
14.7348022637
 20
11.9965371108
 30
0.0
 10
14.7358268215
 20
12.0030209621
 30
0.0
 10
14.7369488295
 20
12.0129228064
 30
0.0
 10
14.7376674606
 20
12.0230718024
 30
0.0
 10
14.7380780359
 20
12.0367749005
 30
0.0
 10
14.737569807
 20
12.0537423157
 30
0.0
 10
14.7357129126
 20
12.0703498407
 30
0.0
 10
14.7334072069
 20
12.0829980741
 30
0.0
 10
14.7313395548
 20
12.0918323271
 30
0.0
 10
14.7289318737
 20
12.1000728099
 30
0.0
 10
14.726205798
 20
12.1076322861
 30
0.0
 10
14.7231944009
 20
12.1144328782
 30
0.0
 10
14.7199246934
 20
12.1204048771
 30
0.0
 10
14.7164312527
 20
12.1254880537
 30
0.0
 10
14.7138336866
 20
12.1284036113
 30
0.0
 10
14.7125009781
 20
12.1296702948
 30
0.0
  0
SPLINE
  5
2E9
100
AcDbEntity
  8
0
100
AcDbSpline
 62
7
  6
CONTINUOUS
 70
0
 71
3
 72
15
 73
11
 74
0
 42
0.0000001
 43
0.0000001
 44
0.0000000001
 40
0.0
 40
0.0
 40
0.0
 40
0.0
 40
0.1350292289
 40
0.2706622824
 40
0.4049098186
 40
0.5361129008
 40
0.6626842376
 40
0.783074411
 40
0.8959003818
 40
1.0
 40
1.0
 40
1.0
 40
1.0
 10
14.8041929633
 20
11.7782416253
 30
0.0
 10
14.8044390311
 20
11.7823174471
 30
0.0
 10
14.8047309177
 20
11.7905007277
 30
0.0
 10
14.8045865121
 20
11.8027486265
 30
0.0
 10
14.8038589717
 20
11.8148603143
 30
0.0
 10
14.802562547
 20
11.8266489732
 30
0.0
 10
14.8007163125
 20
11.8379402304
 30
0.0
 10
14.7983490759
 20
11.8485664007
 30
0.0
 10
14.7954962612
 20
11.8583671702
 30
0.0
 10
14.7932004662
 20
11.8645213619
 30
0.0
 10
14.7919651291
 20
11.8674167848
 30
0.0
  0
SPLINE
  5
2EA
100
AcDbEntity
  8
0
100
AcDbSpline
 62
7
  6
CONTINUOUS
 70
0
 71
3
 72
9
 73
5
 74
0
 42
0.0000001
 43
0.0000001
 44
0.0000000001
 40
0.0
 40
0.0
 40
0.0
 40
0.0
 40
0.5109403415
 40
1.0
 40
1.0
 40
1.0
 40
1.0
 10
14.8949279028
 20
11.6224442981
 30
0.0
 10
14.894641698
 20
11.6279913392
 30
0.0
 10
14.8937225433
 20
11.6388326401
 30
0.0
 10
14.892040183
 20
11.6495846269
 30
0.0
 10
14.8910029112
 20
11.6547990136
 30
0.0
  0
SPLINE
  5
2EB
100
AcDbEntity
  8
0
100
AcDbSpline
 62
7
  6
CONTINUOUS
 70
0
 71
3
 72
40
 73
36
 74
0
 42
0.0000001
 43
0.0000001
 44
0.0000000001
 40
0.0
 40
0.0
 40
0.0
 40
0.0
 40
0.0223642081
 40
0.0427865165
 40
0.0615345504
 40
0.0704074542
 40
0.0790205383
 40
0.0874438005
 40
0.0957527245
 40
0.1040266339
 40
0.1123465101
 40
0.1207915358
 40
0.1294362676
 40
0.1475734997
 40
0.1672333326
 40
0.1887325094
 40
0.2122736884
 40
0.2379553891
 40
0.2658068269
 40
0.2957911415
 40
0.3278295775
 40
0.3618024417
 40
0.3975602899
 40
0.434929585
 40
0.4737135839
 40
0.5137021859
 40
0.5963645326
 40
0.6810133452
 40
0.7656498207
 40
0.8073409899
 40
0.8482782114
 40
0.8882276814
 40
0.9269771713
 40
0.9643119978
 40
1.0
 40
1.0
 40
1.0
 40
1.0
 10
16.1059102306
 20
12.7647744796
 30
0.0
 10
16.108546804
 20
12.7679331131
 30
0.0
 10
16.1139054346
 20
12.7737280541
 30
0.0
 10
16.1226171196
 20
12.7810105456
 30
0.0
 10
16.1302253977
 20
12.7855999436
 30
0.0
 10
16.1363616287
 20
12.788227253
 30
0.0
 10
16.1409119126
 20
12.7896736222
 30
0.0
 10
16.1454843852
 20
12.790628935
 30
0.0
 10
16.150070397
 20
12.7910908949
 30
0.0
 10
16.1546606442
 20
12.7910574528
 30
0.0
 10
16.1592453075
 20
12.7905273834
 30
0.0
 10
16.1638152148
 20
12.7895035769
 30
0.0
 10
16.1699733032
 20
12.787453531
 30
0.0
 10
16.1776459288
 20
12.7835791891
 30
0.0
 10
16.1864692942
 20
12.7770967956
 30
0.0
 10
16.1950222291
 20
12.7687725318
 30
0.0
 10
16.2032523995
 20
12.7586646745
 30
0.0
 10
16.2111194568
 20
12.7468455279
 30
0.0
 10
16.2185690417
 20
12.7333907396
 30
0.0
 10
16.2255573309
 20
12.7183929219
 30
0.0
 10
16.2320334741
 20
12.7019522516
 30
0.0
 10
16.2379552601
 20
12.684182175
 30
0.0
 10
16.2432807383
 20
12.6652047669
 30
0.0
 10
16.2479721009
 20
12.6451515468
 30
0.0
 10
16.2519983415
 20
12.6241615848
 30
0.0
 10
16.256487266
 20
12.5947971949
 30
0.0
 10
16.260214386
 20
12.5568086169
 30
0.0
 10
16.2616877828
 20
12.5104498947
 30
0.0
 10
16.2604156487
 20
12.4716260028
 30
0.0
 10
16.2578721695
 20
12.4409541108
 30
0.0
 10
16.255237768
 20
12.4185525642
 30
0.0
 10
16.2518838811
 20
12.3967947771
 30
0.0
 10
16.2478368371
 20
12.3758291072
 30
0.0
 10
16.243124815
 20
12.3558073525
 30
0.0
 10
16.239477456
 20
12.3428717587
 30
0.0
 10
16.2375389648
 20
12.3365987993
 30
0.0
  0
SPLINE
  5
2EC
100
AcDbEntity
  8
0
100
AcDbSpline
 62
7
  6
CONTINUOUS
 70
0
 71
3
 72
9
 73
5
 74
0
 42
0.0000001
 43
0.0000001
 44
0.0000000001
 40
0.0
 40
0.0
 40
0.0
 40
0.0
 40
0.2581857327
 40
1.0
 40
1.0
 40
1.0
 40
1.0
 10
16.2926563974
 20
11.7368883799
 30
0.0
 10
16.2906798036
 20
11.734520439
 30
0.0
 10
16.2829088494
 20
11.7254464109
 30
0.0
 10
16.274663505
 20
11.7167738632
 30
0.0
 10
16.2682633186
 20
11.7106437872
 30
0.0
  0
SPLINE
  5
2ED
100
AcDbEntity
  8
0
100
AcDbSpline
 62
7
  6
CONTINUOUS
 70
0
 71
3
 72
52
 73
48
 74
0
 42
0.0000001
 43
0.0000001
 44
0.0000000001
 40
0.0
 40
0.0
 40
0.0
 40
0.0
 40
0.0203617179
 40
0.0299168166
 40
0.0391026512
 40
0.0479671426
 40
0.0565665782
 40
0.0649641327
 40
0.0732286822
 40
0.0814336108
 40
0.0896542734
 40
0.097965358
 40
0.1064388657
 40
0.1151414965
 40
0.1241332097
 40
0.1334670427
 40
0.1431884091
 40
0.1533343676
 40
0.1639352783
 40
0.1750156094
 40
0.1865930595
 40
0.1986798337
 40
0.2112842733
 40
0.2244106295
 40
0.2380584019
 40
0.2522243861
 40
0.266903205
 40
0.282086031
 40
0.297761424
 40
0.3305343515
 40
0.3650988864
 40
0.4013041697
 40
0.4389772618
 40
0.4779296689
 40
0.5179572192
 40
0.5588457779
 40
0.6003715421
 40
0.6423050434
 40
0.6844125602
 40
0.7264587471
 40
0.7682086367
 40
0.8094311038
 40
0.8498987807
 40
0.8893899317
 40
0.9276992099
 40
0.964637188
 40
1.0
 40
1.0
 40
1.0
 40
1.0
 10
16.2682633186
 20
11.7106437872
 30
0.0
 10
16.2601940394
 20
11.70291506
 30
0.0
 10
16.2476379926
 20
11.6922337326
 30
0.0
 10
16.2298221775
 20
11.6802440236
 30
0.0
 10
16.2166038056
 20
11.6728075138
 30
0.0
 10
16.2032693621
 20
11.6667560773
 30
0.0
 10
16.1898407314
 20
11.6621003133
 30
0.0
 10
16.1763413963
 20
11.6588497292
 30
0.0
 10
16.1627951886
 20
11.6570144058
 30
0.0
 10
16.149228091
 20
11.6566006842
 30
0.0
 10
16.135666641
 20
11.6576066455
 30
0.0
 10
16.1221365429
 20
11.6600297816
 30
0.0
 10
16.1086637652
 20
11.6638667163
 30
0.0
 10
16.095272037
 20
11.6691059515
 30
0.0
 10
16.0819831977
 20
11.6757344807
 30
0.0
 10
16.0688191602
 20
11.6837404079
 30
0.0
 10
16.0558013016
 20
11.6931093988
 30
0.0
 10
16.0429482417
 20
11.7038223511
 30
0.0
 10
16.0302796818
 20
11.7158611853
 30
0.0
 10
16.0178167069
 20
11.7292074486
 30
0.0
 10
16.0055778341
 20
11.7438380088
 30
0.0
 10
15.9935814949
 20
11.7597281095
 30
0.0
 10
15.9818475439
 20
11.7768527561
 30
0.0
 10
15.9703956792
 20
11.7951846507
 30
0.0
 10
15.9592427657
 20
11.8146926832
 30
0.0
 10
15.9484069043
 20
11.8353451118
 30
0.0
 10
15.9379071916
 20
11.8571091154
 30
0.0
 10
15.9277599172
 20
11.8799487679
 30
0.0
 10
15.914524985
 20
11.9122653836
 30
0.0
 10
15.899038314
 20
11.9551298415
 30
0.0
 10
15.8823726415
 20
12.0094703531
 30
0.0
 10
15.8674722428
 20
12.0671014672
 30
0.0
 10
15.8544315098
 20
12.1276446118
 30
0.0
 10
15.8433408734
 20
12.190704513
 30
0.0
 10
15.8342699707
 20
12.255867256
 30
0.0
 10
15.8272816844
 20
12.3227053276
 30
0.0
 10
15.8224210194
 20
12.390779726
 30
0.0
 10
15.8197199354
 20
12.4596430655
 30
0.0
 10
15.8191981169
 20
12.5288428121
 30
0.0
 10
15.8208560437
 20
12.5979239376
 30
0.0
 10
15.8246864969
 20
12.6664325308
 30
0.0
 10
15.830660434
 20
12.7339184613
 30
0.0
 10
15.8387409789
 20
12.7999368534
 30
0.0
 10
15.8488721461
 20
12.8640546775
 30
0.0
 10
15.8609893173
 20
12.9258561529
 30
0.0
 10
15.875012194
 20
12.9849274704
 30
0.0
 10
15.8858158612
 20
13.0231196697
 30
0.0
 10
15.8915452275
 20
13.0416599058
 30
0.0
  0
SPLINE
  5
2EE
100
AcDbEntity
  8
0
100
AcDbSpline
 62
7
  6
CONTINUOUS
 70
0
 71
3
 72
26
 73
22
 74
0
 42
0.0000001
 43
0.0000001
 44
0.0000000001
 40
0.0
 40
0.0
 40
0.0
 40
0.0
 40
0.0879398562
 40
0.1726589077
 40
0.253950401
 40
0.3316670094
 40
0.4057220264
 40
0.4760554883
 40
0.5426451655
 40
0.6055068409
 40
0.6647158671
 40
0.7204179328
 40
0.7728293661
 40
0.79790353
 40
0.82228042
 40
0.8691438417
 40
0.9139515422
 40
0.9357868162
 40
0.9573466648
 40
0.9787202248
 40
1.0
 40
1.0
 40
1.0
 40
1.0
 10
15.8547621417
 20
13.0603082049
 30
0.0
 10
15.8587019321
 20
13.073057371
 30
0.0
 10
15.8668385906
 20
13.0979672906
 30
0.0
 10
15.8800759487
 20
13.1341654651
 30
0.0
 10
15.8940859632
 20
13.1684028501
 30
0.0
 10
15.9088231511
 20
13.200563038
 30
0.0
 10
15.9242379568
 20
13.2305477473
 30
0.0
 10
15.9402866745
 20
13.2582654688
 30
0.0
 10
15.9569171889
 20
13.2836328415
 30
0.0
 10
15.9740818305
 20
13.3065693487
 30
0.0
 10
15.9917313936
 20
13.3270024494
 30
0.0
 10
16.0098099056
 20
13.3448699359
 30
0.0
 10
16.0254214405
 20
13.3577575954
 30
0.0
 10
16.0380654453
 20
13.36665944
 30
0.0
 10
16.0504525251
 20
13.3744261134
 30
0.0
 10
16.0661389028
 20
13.382521443
 30
0.0
 10
16.0823617538
 20
13.3884635543
 30
0.0
 10
16.0953421911
 20
13.3917624666
 30
0.0
 10
16.1050208622
 20
13.3935175238
 30
0.0
 10
16.1147154546
 20
13.3945706016
 30
0.0
 10
16.1211901394
 20
13.3948044238
 30
0.0
 10
16.1244191417
 20
13.3948042611
 30
0.0
  0
SPLINE
  5
2EF
100
AcDbEntity
  8
AXIS
100
AcDbSpline
 62
7
  6
CONTINUOUS
 70
0
 71
3
 72
24
 73
20
 74
0
 42
0.0000001
 43
0.0000001
 44
0.0000000001
 40
0.0
 40
0.0
 40
0.0
 40
0.0
 40
0.0877043842
 40
0.1722190006
 40
0.2533429327
 40
0.3309436034
 40
0.4049339938
 40
0.4752533689
 40
0.541871973
 40
0.6048036555
 40
0.6641225122
 40
0.719960418
 40
0.7725278392
 40
0.8221158671
 40
0.8691154159
 40
0.9140173784
 40
0.9574123476
 40
0.9787659253
 40
1.0
 40
1.0
 40
1.0
 40
1.0
 10
15.4587059143
 20
13.0603082049
 30
0.0
 10
15.4626098942
 20
13.0729414883
 30
0.0
 10
15.4706700918
 20
13.0976292495
 30
0.0
 10
15.4837735653
 20
13.13351484
 30
0.0
 10
15.4976356843
 20
13.1674759959
 30
0.0
 10
15.5122104448
 20
13.1994023591
 30
0.0
 10
15.5274540049
 20
13.2291979273
 30
0.0
 10
15.5433207114
 20
13.2567737782
 30
0.0
 10
15.5597619328
 20
13.282046539
 30
0.0
 10
15.5767314306
 20
13.3049371564
 30
0.0
 10
15.5941767083
 20
13.3253780539
 30
0.0
 10
15.6120519862
 20
13.3433040142
 30
0.0
 10
15.6303048132
 20
13.358661398
 30
0.0
 10
15.6488883856
 20
13.3713958322
 30
0.0
 10
15.6677508805
 20
13.3814618016
 30
0.0
 10
15.6868354215
 20
13.3888146653
 30
0.0
 10
15.7029700913
 20
13.3926690176
 30
0.0
 10
15.7158346363
 20
13.3943340051
 30
0.0
 10
15.7222514281
 20
13.3947039152
 30
0.0
 10
15.7254520287
 20
13.3947733214
 30
0.0
  0
SPLINE
  5
2F0
100
AcDbEntity
  8
0
100
AcDbSpline
 62
7
  6
CONTINUOUS
 70
0
 71
3
 72
44
 73
40
 74
0
 42
0.0000001
 43
0.0000001
 44
0.0000000001
 40
0.0
 40
0.0
 40
0.0
 40
0.0
 40
0.0076947623
 40
0.0154419609
 40
0.023292806
 40
0.0312961592
 40
0.039497101
 40
0.0479366258
 40
0.0656640485
 40
0.0750215188
 40
0.0847366147
 40
0.1053062133
 40
0.1161940877
 40
0.127493883
 40
0.1513466692
 40
0.1768868041
 40
0.204097592
 40
0.2329360885
 40
0.2633359018
 40
0.2952130702
 40
0.3284665029
 40
0.3629830609
 40
0.3986367579
 40
0.4352933635
 40
0.4728091433
 40
0.5110349713
 40
0.5498151783
 40
0.5889910271
 40
0.6284001492
 40
0.6678790343
 40
0.707263252
 40
0.746389172
 40
0.7850956906
 40
0.8232237345
 40
0.860617738
 40
0.8971277842
 40
0.9326188245
 40
0.9669579742
 40
1.0
 40
1.0
 40
1.0
 40
1.0
 10
16.1244191417
 20
11.6268057247
 30
0.0
 10
16.1203968281
 20
11.6268059275
 30
0.0
 10
16.1123201651
 20
11.6271705375
 30
0.0
 10
16.1002393375
 20
11.6288067737
 30
0.0
 10
16.0881906522
 20
11.6315313173
 30
0.0
 10
16.0761920414
 20
11.6353405924
 30
0.0
 10
16.0642574619
 20
11.6402265791
 30
0.0
 10
16.0481903955
 20
11.6482960861
 30
0.0
 10
16.0325574964
 20
11.6584442682
 30
0.0
 10
16.0174560959
 20
11.6703718963
 30
0.0
 10
16.0019631498
 20
11.6841498097
 30
0.0
 10
15.9870862158
 20
11.6997620629
 30
0.0
 10
15.9728040039
 20
11.7169599511
 30
0.0
 10
15.95823641
 20
11.7361261765
 30
0.0
 10
15.9405975093
 20
11.762536207
 30
0.0
 10
15.9207024455
 20
11.7973182635
 30
0.0
 10
15.9018031374
 20
11.8355779816
 30
0.0
 10
15.8839914498
 20
11.87713056
 30
0.0
 10
15.8673512566
 20
11.9217761341
 30
0.0
 10
15.8519654535
 20
11.969298987
 30
0.0
 10
15.8379069165
 20
12.0194681366
 30
0.0
 10
15.8252470589
 20
12.0720397694
 30
0.0
 10
15.8140453455
 20
12.1267573153
 30
0.0
 10
15.8043597909
 20
12.1833538918
 30
0.0
 10
15.7962349809
 20
12.2415527603
 30
0.0
 10
15.7897142077
 20
12.3010694687
 30
0.0
 10
15.7848261361
 20
12.3616127444
 30
0.0
 10
15.7815984398
 20
12.4228863783
 30
0.0
 10
15.7800434096
 20
12.4845904624
 30
0.0
 10
15.780172639
 20
12.546422881
 30
0.0
 10
15.7819811495
 20
12.6080809321
 30
0.0
 10
15.7854640618
 20
12.6692628527
 30
0.0
 10
15.7906005276
 20
12.729669467
 30
0.0
 10
15.7973700577
 20
12.789004172
 30
0.0
 10
15.8057330698
 20
12.8469760207
 30
0.0
 10
15.815652506
 20
12.903303371
 30
0.0
 10
15.8270784802
 20
12.9577150269
 30
0.0
 10
15.8399585094
 20
13.0099357067
 30
0.0
 10
15.8496625732
 20
13.0438059951
 30
0.0
 10
15.8547621417
 20
13.0603082049
 30
0.0
  0
SPLINE
  5
2F1
100
AcDbEntity
  8
0
100
AcDbSpline
 62
7
  6
CONTINUOUS
 70
0
 71
3
 72
35
 73
31
 74
0
 42
0.0000001
 43
0.0000001
 44
0.0000000001
 40
0.0
 40
0.0
 40
0.0
 40
0.0
 40
0.0154281866
 40
0.0312696173
 40
0.0478985872
 40
0.0656280636
 40
0.0846937519
 40
0.1052648768
 40
0.1274502068
 40
0.1513044044
 40
0.176847367
 40
0.2040611337
 40
0.2329014227
 40
0.2633052488
 40
0.2951849634
 40
0.3284414205
 40
0.3629614389
 40
0.3986177264
 40
0.4352773779
 40
0.472796469
 40
0.5498011974
 40
0.5889808064
 40
0.6283938919
 40
0.6678771943
 40
0.7072664183
 40
0.7851012052
 40
0.8606151553
 40
0.9326231054
 40
0.9669664849
 40
1.0
 40
1.0
 40
1.0
 40
1.0
 10
16.1244190712
 20
12.7610548422
 30
0.0
 10
16.1267019291
 20
12.7610551064
 30
0.0
 10
16.1313390383
 20
12.7606317397
 30
0.0
 10
16.1382049592
 20
12.7587467512
 30
0.0
 10
16.1449814617
 20
12.7556325447
 30
0.0
 10
16.1516308509
 20
12.7513136417
 30
0.0
 10
16.158129687
 20
12.745823598
 30
0.0
 10
16.1644508222
 20
12.7391902912
 30
0.0
 10
16.1705679019
 20
12.731446744
 30
0.0
 10
16.1764571277
 20
12.7226314699
 30
0.0
 10
16.1820888224
 20
12.7127843432
 30
0.0
 10
16.1874387831
 20
12.7019534601
 30
0.0
 10
16.1924818864
 20
12.6901905378
 30
0.0
 10
16.1971916334
 20
12.6775515312
 30
0.0
 10
16.2015479051
 20
12.6640984492
 30
0.0
 10
16.2055276328
 20
12.649896088
 30
0.0
 10
16.2091111735
 20
12.6350136172
 30
0.0
 10
16.2122827094
 20
12.6195239117
 30
0.0
 10
16.2150243145
 20
12.6035020205
 30
0.0
 10
16.2181171573
 20
12.5813440121
 30
0.0
 10
16.2202551739
 20
12.5586866828
 30
0.0
 10
16.2214671917
 20
12.5356933605
 30
0.0
 10
16.2219074529
 20
12.5182252569
 30
0.0
 10
16.2218715929
 20
12.5007207273
 30
0.0
 10
16.2211923226
 20
12.4775409167
 30
0.0
 10
16.2191834262
 20
12.4490766168
 30
0.0
 10
16.2149469635
 20
12.4159835206
 30
0.0
 10
16.209888316
 20
12.3895310202
 30
0.0
 10
16.2049461852
 20
12.3695038038
 30
0.0
 10
16.2021990067
 20
12.3599170621
 30
0.0
 10
16.2007558789
 20
12.3552470983
 30
0.0
  0
SPLINE
  5
2F2
100
AcDbEntity
  8
0
100
AcDbSpline
 62
7
  6
CONTINUOUS
 70
0
 71
3
 72
33
 73
29
 74
0
 42
0.0000001
 43
0.0000001
 44
0.0000000001
 40
0.0
 40
0.0
 40
0.0
 40
0.0
 40
0.0939090104
 40
0.1828535372
 40
0.2664710057
 40
0.3445681933
 40
0.3815196131
 40
0.4170647367
 40
0.4512088954
 40
0.4839680156
 40
0.5153727518
 40
0.5454650368
 40
0.6019171742
 40
0.6284707721
 40
0.6540366237
 40
0.6787410195
 40
0.7027314791
 40
0.726172829
 40
0.7492443587
 40
0.7721370123
 40
0.7950474097
 40
0.8181711326
 40
0.8416978162
 40
0.8658049739
 40
0.8906533406
 40
0.9430900888
 40
0.9709458225
 40
1.0
 40
1.0
 40
1.0
 40
1.0
 10
15.8915452275
 20
13.0416599058
 30
0.0
 10
15.896822959
 20
13.0587386512
 30
0.0
 10
15.9078384286
 20
13.0917719306
 30
0.0
 10
15.9262817935
 20
13.1390479276
 30
0.0
 10
15.9461120147
 20
13.1824749377
 30
0.0
 10
15.9640060701
 20
13.2158279293
 30
0.0
 10
15.9789693357
 20
13.2402857696
 30
0.0
 10
15.9902515335
 20
13.257167946
 30
0.0
 10
16.0017840921
 20
13.2729018298
 30
0.0
 10
16.013550565
 20
13.2874618301
 30
0.0
 10
16.0255335215
 20
13.3008283944
 30
0.0
 10
16.0414327337
 20
13.3166901246
 30
0.0
 10
16.0580245739
 20
13.3305268782
 30
0.0
 10
16.075264498
 20
13.3419545916
 30
0.0
 10
16.0880585704
 20
13.3490704781
 30
0.0
 10
16.1009601087
 20
13.3548895566
 30
0.0
 10
16.1139489496
 20
13.3594023713
 30
0.0
 10
16.1270039913
 20
13.3626004746
 30
0.0
 10
16.1401037785
 20
13.3644750225
 30
0.0
 10
16.1532251457
 20
13.3650196658
 30
0.0
 10
16.1663442072
 20
13.3642359307
 30
0.0
 10
16.1794379047
 20
13.362125906
 30
0.0
 10
16.192482739
 20
13.3586922582
 30
0.0
 10
16.2054574767
 20
13.3539430825
 30
0.0
 10
16.2229449724
 20
13.3457291072
 30
0.0
 10
16.2399244279
 20
13.3349561573
 30
0.0
 10
16.2562510315
 20
13.3220328785
 30
0.0
 10
16.2642970866
 20
13.3147653311
 30
0.0
 10
16.268290855
 20
13.3109396302
 30
0.0
  0
SPLINE
  5
2F3
100
AcDbEntity
  8
0
100
AcDbSpline
 62
7
  6
CONTINUOUS
 70
0
 71
3
 72
9
 73
5
 74
0
 42
0.0000001
 43
0.0000001
 44
0.0000000001
 40
0.0
 40
0.0
 40
0.0
 40
0.0
 40
0.2420033811
 40
1.0
 40
1.0
 40
1.0
 40
1.0
 10
16.268290855
 20
13.3109396302
 30
0.0
 10
16.2703764803
 20
13.3089417732
 30
0.0
 10
16.2788679682
 20
13.3005544223
 30
0.0
 10
16.2868597624
 20
13.2916662952
 30
0.0
 10
16.2926563584
 20
13.2847214007
 30
0.0
  0
SPLINE
  5
2F4
100
AcDbEntity
  8
0
100
AcDbSpline
 62
7
  6
CONTINUOUS
 70
0
 71
3
 72
27
 73
23
 74
0
 42
0.0000001
 43
0.0000001
 44
0.0000000001
 40
0.0
 40
0.0
 40
0.0
 40
0.0
 40
0.0937849823
 40
0.1823064385
 40
0.2651358611
 40
0.3420507478
 40
0.4129741676
 40
0.4779927947
 40
0.5373866394
 40
0.5917072287
 40
0.6418423027
 40
0.6657442178
 40
0.6890993803
 40
0.7121143548
 40
0.7350068449
 40
0.7579999541
 40
0.781313064
 40
0.8051534754
 40
0.8297121263
 40
0.8816024644
 40
0.938121212
 40
1.0
 40
1.0
 40
1.0
 40
1.0
 10
16.2375389648
 20
12.3365987993
 30
0.0
 10
16.2357012858
 20
12.3306520677
 30
0.0
 10
16.2318554628
 20
12.319174079
 30
0.0
 10
16.22537745
 20
12.3028038828
 30
0.0
 10
16.2183897207
 20
12.2878695928
 30
0.0
 10
16.2109439633
 20
12.2744771854
 30
0.0
 10
16.2030842624
 20
12.2627167411
 30
0.0
 10
16.1948611857
 20
12.2526641471
 30
0.0
 10
16.1863202257
 20
12.2443865902
 30
0.0
 10
16.1775078239
 20
12.2379483092
 30
0.0
 10
16.1698491738
 20
12.2341030414
 30
0.0
 10
16.1637020222
 20
12.2320746835
 30
0.0
 10
16.1591401554
 20
12.2310654409
 30
0.0
 10
16.154563996
 20
12.2305476482
 30
0.0
 10
16.1499824847
 20
12.2305230446
 30
0.0
 10
16.1454053338
 20
12.230993339
 30
0.0
 10
16.1408420125
 20
12.2319557087
 30
0.0
 10
16.1363010662
 20
12.2334069597
 30
0.0
 10
16.1301768436
 20
12.2360360951
 30
0.0
 10
16.1225842466
 20
12.2406239141
 30
0.0
 10
16.1138908831
 20
12.2478977669
 30
0.0
 10
16.1085415127
 20
12.2536821413
 30
0.0
 10
16.1059101444
 20
12.2568350478
 30
0.0
  0
SPLINE
  5
2F5
100
AcDbEntity
  8
AXIS
100
AcDbSpline
 62
7
  6
CONTINUOUS
 70
0
 71
3
 72
44
 73
40
 74
0
 42
0.0000001
 43
0.0000001
 44
0.0000000001
 40
0.0
 40
0.0
 40
0.0
 40
0.0
 40
0.0329797997
 40
0.0672453935
 40
0.1026565628
 40
0.1390851211
 40
0.1763943995
 40
0.2144353612
 40
0.2530546529
 40
0.2920957214
 40
0.3313984215
 40
0.3708007213
 40
0.4101399056
 40
0.4492537574
 40
0.4879816343
 40
0.5261657159
 40
0.5636520063
 40
0.6002920948
 40
0.6359434689
 40
0.6704724352
 40
0.7037536092
 40
0.7356740063
 40
0.7661325313
 40
0.7950445125
 40
0.8223429038
 40
0.8479825878
 40
0.8719451288
 40
0.8942432618
 40
0.9047861373
 40
0.9149367405
 40
0.9247090389
 40
0.9341213167
 40
0.9519480857
 40
0.9604290375
 40
0.9686641991
 40
0.9766932867
 40
0.9845600882
 40
0.9923122474
 40
1.0
 40
1.0
 40
1.0
 40
1.0
 10
15.4587059143
 20
13.0603082049
 30
0.0
 10
15.4536253799
 20
13.0438675894
 30
0.0
 10
15.4439561981
 20
13.0101289935
 30
0.0
 10
15.4311176932
 20
12.9581167095
 30
0.0
 10
15.4197198756
 20
12.9039297492
 30
0.0
 10
15.4098173617
 20
12.8478374781
 30
0.0
 10
15.4014576673
 20
12.7901083888
 30
0.0
 10
15.3946821699
 20
12.7310218427
 30
0.0
 10
15.3895235047
 20
12.6708656408
 30
0.0
 10
15.3860081676
 20
12.6099319057
 30
0.0
 10
15.3841512746
 20
12.5485165195
 30
0.0
 10
15.3839643582
 20
12.4869178621
 30
0.0
 10
15.3854459341
 20
12.4254352719
 30
0.0
 10
15.3885908283
 20
12.3643675111
 30
0.0
 10
15.393382112
 20
12.3040111713
 30
0.0
 10
15.3997971834
 20
12.2446594907
 30
0.0
 10
15.4078046741
 20
12.1866006047
 30
0.0
 10
15.4173645791
 20
12.1301162619
 30
0.0
 10
15.4284318551
 20
12.0754805295
 30
0.0
 10
15.4409501631
 20
12.0229578939
 30
0.0
 10
15.4548611846
 20
11.9728029025
 30
0.0
 10
15.4700944461
 20
11.9252573387
 30
0.0
 10
15.4865785698
 20
11.880550841
 30
0.0
 10
15.5042321749
 20
11.8388975848
 30
0.0
 10
15.5229716722
 20
11.8004971793
 30
0.0
 10
15.5427090623
 20
11.7655315498
 30
0.0
 10
15.5633503372
 20
11.7341677519
 30
0.0
 10
15.5815583283
 20
11.7107316417
 30
0.0
 10
15.5965230309
 20
11.6940110928
 30
0.0
 10
15.6076988531
 20
11.6826974149
 30
0.0
 10
15.6190256386
 20
11.6723897002
 30
0.0
 10
15.6340337908
 20
11.6602270236
 30
0.0
 10
15.6495730909
 20
11.6498179831
 30
0.0
 10
15.6655569152
 20
11.6414598287
 30
0.0
 10
15.6774298249
 20
11.6363529466
 30
0.0
 10
15.6893695595
 20
11.6323130241
 30
0.0
 10
15.7013624529
 20
11.6293478994
 30
0.0
 10
15.7133910031
 20
11.6274617634
 30
0.0
 10
15.7214417744
 20
11.6269241297
 30
0.0
 10
15.7254520294
 20
11.6268368842
 30
0.0
  0
SPLINE
  5
2F6
100
AcDbEntity
  8
0
100
AcDbSpline
 62
7
  6
CONTINUOUS
 70
0
 71
3
 72
21
 73
17
 74
0
 42
0.0000001
 43
0.0000001
 44
0.0000000001
 40
0.0
 40
0.0
 40
0.0
 40
0.0
 40
0.1726041434
 40
0.3316371377
 40
0.4057079724
 40
0.4760513683
 40
0.542643403
 40
0.6055097565
 40
0.664731329
 40
0.7204440779
 40
0.7728640715
 40
0.8223074228
 40
0.8691811779
 40
0.9139951473
 40
0.957369074
 40
1.0
 40
1.0
 40
1.0
 40
1.0
 10
16.2007558789
 20
12.3552470983
 30
0.0
 10
16.1985670931
 20
12.3481641857
 30
0.0
 10
16.1939362127
 20
12.3346810623
 30
0.0
 10
16.1870516019
 20
12.3186497194
 30
0.0
 10
16.1810895599
 20
12.3070550436
 30
0.0
 10
16.1765460549
 20
12.2992085761
 30
0.0
 10
16.1718375391
 20
12.2920282602
 30
0.0
 10
16.1669780348
 20
12.285535792
 30
0.0
 10
16.1619826641
 20
12.2797504562
 30
0.0
 10
16.1568647054
 20
12.2746913771
 30
0.0
 10
16.151637318
 20
12.270376641
 30
0.0
 10
16.1463166677
 20
12.2668191791
 30
0.0
 10
16.1409176051
 20
12.2640323187
 30
0.0
 10
16.1354548162
 20
12.2620314029
 30
0.0
 10
16.1299493295
 20
12.2608254931
 30
0.0
 10
16.1262500812
 20
12.2605553554
 30
0.0
 10
16.1244190711
 20
12.2605551436
 30
0.0
  0
ENDSEC
  0
SECTION
  2
OBJECTS
  0
DICTIONARY
  5
C
100
AcDbDictionary
280
0
281
1
  3
ACAD_GROUP
350
D
  3
ACAD_MLINESTYLE
350
17
  3
ACAD_LAYOUT
350
1A
  3
ACAD_PLOTSETTINGS
350
19
  3
ACAD_PLOTSTYLENAME
350
E
  0
DICTIONARY
  5
D
102
{ACAD_REACTORS
330
C
102
}
100
AcDbDictionary
280
0
281
1
  0
ACDBDICTIONARYWDFLT
  5
E
102
{ACAD_REACTORS
330
C
102
}
100
AcDbDictionary
281
1
  3
Normal
350
F
100
AcDbDictionaryWithDefault
340
F
  0
DICTIONARY
  5
17
102
{ACAD_REACTORS
330
C
102
}
100
AcDbDictionary
280
0
281
1
  3
Standard
350
18
  0
DICTIONARY
  5
19
102
{ACAD_REACTORS
330
C
102
}
100
AcDbDictionary
281
1
  0
DICTIONARY
  5
1A
102
{ACAD_REACTORS
330
C
102
}
100
AcDbDictionary
281
1
  3
Model
350
2F7
  3
Layout1
350
2F8
  0
ACDBPLACEHOLDER
  5
F
102
{ACAD_REACTORS
330
E
102
}
  0
MLINESTYLE
  5
18
102
{ACAD_REACTORS
330
17
102
}
100
AcDbMlineStyle
  2
STANDARD
 70
0
  3

 62
256
 51
90.0
 52
90.0
 71
2
 49
0.5
 62
256
  6
BYLAYER
 49
-0.5
 62
256
  6
BYLAYER
  0
LAYOUT
  5
2F7
102
{ACAD_REACTORS
330
1A
102
}
100
AcDbPlotSettings
  1

  2
none_device
  4
ANSI_C_(22.00_x_17.00_Inches)
  6

 40
0.0
 41
0.0
 42
0.0
 43
0.0
 44
558.8
 45
431.8
 46
0.0
 47
0.0
 48
0.0
 49
0.0
140
0.0
141
0.0
142
1.0
143
1.0
 70
1024
 72
0
 73
0
 74
0
  7

 75
0
147
1.0
148
0.0
149
0.0
100
AcDbLayout
  1
Model
 70
0
 71
0
 10
0.0
 20
0.0
 11
22.0
 21
17.0
 12
0.0
 22
0.0
 32
0.0
 14
0.0
 24
0.0
 34
0.0
 15
0.0
 25
0.0
 35
0.0
146
0.0
 13
0.0
 23
0.0
 33
0.0
 16
1.0
 26
0.0
 36
0.0
 17
0.0
 27
1.0
 37
0.0
 76
0
330
224
345
0
346
0
  0
LAYOUT
  5
2F8
102
{ACAD_REACTORS
330
1A
102
}
100
AcDbPlotSettings
  1

  2
none_device
  4
ANSI_C_(22.00_x_17.00_Inches)
  6

 40
0.0
 41
0.0
 42
0.0
 43
0.0
 44
558.8
 45
431.8
 46
0.0
 47
0.0
 48
0.0
 49
0.0
140
0.0
141
0.0
142
1.0
143
1.0
 70
0
 72
0
 73
0
 74
0
  7

 75
0
147
1.0
148
0.0
149
0.0
100
AcDbLayout
  1
Layout1
 70
0
 71
1
 10
0.0
 20
0.0
 11
22.0
 21
17.0
 12
0.0
 22
0.0
 32
0.0
 14
0.0
 24
0.0
 34
0.0
 15
0.0
 25
0.0
 35
0.0
146
0.0
 13
0.0
 23
0.0
 33
0.0
 16
1.0
 26
0.0
 36
0.0
 17
0.0
 27
1.0
 37
0.0
 76
0
330
225
345
0
346
0
  0
ENDSEC
  0
EOF