999
DXF file: _cgs_temp_output.dxf
999
Pro/ENGINEER 2016360 by Parametric Technology Corporation
  0
SECTION
  2
HEADER
  9
$ACADVER
  1
AC1021
  9
$DWGCODEPAGE
  3
ANSI_1252
  9
$EXTMAX
 10
22.0
 20
17.0
 30
0.0
  9
$EXTMIN
 10
0.0
 20
0.0
 30
0.0
  9
$LIMMIN
 10
0.0
 20
0.0
  9
$LIMMAX
 10
22.0
 20
17.0
  9
$VIEWCTR
 10
11.0
 20
8.5
  9
$VIEWSIZE
 40
17.0
  9
$CLAYER
  8
0
  9
$LTSCALE
 40
1.21
  9
$CELTYPE
  6
BYLAYER
  9
$DIMSCALE
 40
1.0
  9
$DIMASZ
 40
0.1875
  9
$DIMEXO
 40
0.0625
  9
$DIMDLI
 40
0.836
  9
$DIMEXE
 40
0.125
  9
$DIMCEN
 40
0.198
  9
$DIMLFAC
 40
1.0
  9
$DIMBLK
  1
_CLOSED
  9
$DIMALT
 70
0
  9
$DIMALTF
 40
25.4
  9
$DIMTXT
 40
0.15625
  9
$DIMTOL
 70
0
  9
$DIMLIM
 70
0
  9
$DIMTFAC
 40
1.0
  9
$DIMGAP
 40
0.09
  9
$DIMDSEP
 70
46
  9
$AUNITS
 70
0
  9
$PDMODE
 70
3
  9
$PDSIZE
 40
0.3125
  9
$HANDSEED
  5
354
  9
$TILEMODE
 70
1
  9
$MEASUREMENT
 70
0
  9
$INSUNITS
 70
1
  0
ENDSEC
  0
SECTION
  2
CLASSES
  0
CLASS
  1
ACDBDICTIONARYWDFLT
  2
AcDbDictionaryWithDefault
  3
AutoCAD 2000
 90
0
 91
1
280
0
281
0
  0
CLASS
  1
ACDBPLACEHOLDER
  2
AcDbPlaceHolder
  3
AutoCAD 2000
 90
0
 91
1
280
0
281
0
  0
CLASS
  1
LAYOUT
  2
AcDbLayout
  3
AutoCAD 2000
 90
0
 91
0
280
0
281
0
  0
ENDSEC
  0
SECTION
  2
TABLES
  0
TABLE
  2
VPORT
  5
8
100
AcDbSymbolTable
 70
2
  0
VPORT
  5
1F4
100
AcDbSymbolTableRecord
100
AcDbViewportTableRecord
  2
*ACTIVE
 70
0
 10
0.0
 20
0.0
 11
1.0
 21
1.0
 12
11.0
 22
8.5
 13
0.0
 23
0.0
 14
1.0
 24
1.0
 15
0.0
 25
0.0
 16
0.0
 26
0.0
 36
1.0
 17
0.0
 27
0.0
 37
0.0
 40
17.0
 41
1.2941176471
 42
50.0
 43
0.0
 44
0.0
 50
0.0
 51
0.0
 71
0
 72
100
 73
1
 74
1
 75
0
 76
0
 77
0
 78
0
  0
ENDTAB
  0
TABLE
  2
LTYPE
  5
5
100
AcDbSymbolTable
 70
6
  0
LTYPE
  5
14
100
AcDbSymbolTableRecord
100
AcDbLinetypeTableRecord
  2
BYBLOCK
 70
0
  3

 72
65
 73
0
 40
0.0
  0
LTYPE
  5
15
100
AcDbSymbolTableRecord
100
AcDbLinetypeTableRecord
  2
BYLAYER
 70
0
  3

 72
65
 73
0
 40
0.0
  0
LTYPE
  5
16
100
AcDbSymbolTableRecord
100
AcDbLinetypeTableRecord
  2
CONTINUOUS
 70
64
  3
Solid line
 72
65
 73
0
 40
0.0
  0
LTYPE
  5
1F5
100
AcDbSymbolTableRecord
100
AcDbLinetypeTableRecord
  2
CENTER
 70
64
  3
____ _ ____ _ ____ _ ____ _ ____ _ ____ _ ____
 72
65
 73
4
 40
0.6
 49
0.375
 74
0
 49
-0.075
 74
0
 49
0.075
 74
0
 49
-0.075
 74
0
  0
LTYPE
  5
1F6
100
AcDbSymbolTableRecord
100
AcDbLinetypeTableRecord
  2
HIDDEN
 70
64
  3
- - - - - - - - - - - - - - - - - - - -
 72
65
 73
2
 40
0.2
 49
0.1
 74
0
 49
-0.1
 74
0
  0
LTYPE
  5
1F7
100
AcDbSymbolTableRecord
100
AcDbLinetypeTableRecord
  2
PHANTOM
 70
64
  3
_____ _ _ _____ _ _ _____ _ _ _____
 72
65
 73
6
 40
0.8
 49
0.45
 74
0
 49
-0.05
 74
0
 49
0.1
 74
0
 49
-0.05
 74
0
 49
0.1
 74
0
 49
-0.05
 74
0
  0
LTYPE
  5
1F8
100
AcDbSymbolTableRecord
100
AcDbLinetypeTableRecord
  2
DOT
 70
64
  3
. . . . . . . . . . . . . . . . . . . .
 72
65
 73
2
 40
0.2
 49
0.1
 74
0
 49
-0.1
 74
0
  0
LTYPE
  5
1F9
100
AcDbSymbolTableRecord
100
AcDbLinetypeTableRecord
  2
DASHED
 70
64
  3
- - - - - - - - - - - - - - - - - - - -
 72
65
 73
2
 40
0.2
 49
0.1
 74
0
 49
-0.1
 74
0
  0
ENDTAB
  0
TABLE
  2
LAYER
  5
2
100
AcDbSymbolTable
 70
36
  0
LAYER
  5
10
100
AcDbSymbolTableRecord
100
AcDbLayerTableRecord
  2
0
 70
0
 62
7
  6
CONTINUOUS
370
-3
390
F
  0
LAYER
  5
1FA
100
AcDbSymbolTableRecord
100
AcDbLayerTableRecord
  2
DEFAULT_1
 70
0
 62
7
  6
CENTER
370
-3
390
F
  0
LAYER
  5
1FB
100
AcDbSymbolTableRecord
100
AcDbLayerTableRecord
  2
DEFAULT_2
 70
0
 62
8
  6
HIDDEN
370
-3
390
F
  0
LAYER
  5
1FC
100
AcDbSymbolTableRecord
100
AcDbLayerTableRecord
  2
DEFAULT_3
 70
0
 62
7
  6
PHANTOM
370
-3
390
F
  0
LAYER
  5
1FD
100
AcDbSymbolTableRecord
100
AcDbLayerTableRecord
  2
01_ALL_DTM_PLN
 70
0
 62
7
  6
CONTINUOUS
370
-3
390
F
  0
LAYER
  5
1FE
100
AcDbSymbolTableRecord
100
AcDbLayerTableRecord
  2
01__ASM_ALL_DTM_PLN
 70
0
 62
7
  6
CONTINUOUS
370
-3
390
F
  0
LAYER
  5
1FF
100
AcDbSymbolTableRecord
100
AcDbLayerTableRecord
  2
01__ASM_DEF_DTM_PLN
 70
0
 62
7
  6
CONTINUOUS
370
-3
390
F
  0
LAYER
  5
200
100
AcDbSymbolTableRecord
100
AcDbLayerTableRecord
  2
01___PRT_ALL_DTM_PLN
 70
0
 62
7
  6
CONTINUOUS
370
-3
390
F
  0
LAYER
  5
201
100
AcDbSymbolTableRecord
100
AcDbLayerTableRecord
  2
01___PRT_DEF_DTM_PLN
 70
0
 62
7
  6
CONTINUOUS
370
-3
390
F
  0
LAYER
  5
202
100
AcDbSymbolTableRecord
100
AcDbLayerTableRecord
  2
02_ALL_AXES
 70
0
 62
7
  6
CONTINUOUS
370
-3
390
F
  0
LAYER
  5
203
100
AcDbSymbolTableRecord
100
AcDbLayerTableRecord
  2
02__ASM_ALL_AXES
 70
0
 62
7
  6
CONTINUOUS
370
-3
390
F
  0
LAYER
  5
204
100
AcDbSymbolTableRecord
100
AcDbLayerTableRecord
  2
02___PRT_ALL_AXES
 70
0
 62
7
  6
CONTINUOUS
370
-3
390
F
  0
LAYER
  5
205
100
AcDbSymbolTableRecord
100
AcDbLayerTableRecord
  2
03_ALL_CURVES
 70
0
 62
7
  6
CONTINUOUS
370
-3
390
F
  0
LAYER
  5
206
100
AcDbSymbolTableRecord
100
AcDbLayerTableRecord
  2
03__ASM_ALL_CURVES
 70
0
 62
7
  6
CONTINUOUS
370
-3
390
F
  0
LAYER
  5
207
100
AcDbSymbolTableRecord
100
AcDbLayerTableRecord
  2
03___PRT_ALL_CURVES
 70
0
 62
7
  6
CONTINUOUS
370
-3
390
F
  0
LAYER
  5
208
100
AcDbSymbolTableRecord
100
AcDbLayerTableRecord
  2
04_ALL_DTM_PNT
 70
0
 62
7
  6
CONTINUOUS
370
-3
390
F
  0
LAYER
  5
209
100
AcDbSymbolTableRecord
100
AcDbLayerTableRecord
  2
04__ASM_ALL_DTM_PNT
 70
0
 62
7
  6
CONTINUOUS
370
-3
390
F
  0
LAYER
  5
20A
100
AcDbSymbolTableRecord
100
AcDbLayerTableRecord
  2
04___PRT_ALL_DTM_PNT
 70
0
 62
7
  6
CONTINUOUS
370
-3
390
F
  0
LAYER
  5
20B
100
AcDbSymbolTableRecord
100
AcDbLayerTableRecord
  2
05_ALL_DTM_CSYS
 70
0
 62
7
  6
CONTINUOUS
370
-3
390
F
  0
LAYER
  5
20C
100
AcDbSymbolTableRecord
100
AcDbLayerTableRecord
  2
05__ASM_ALL_DTM_CSYS
 70
0
 62
7
  6
CONTINUOUS
370
-3
390
F
  0
LAYER
  5
20D
100
AcDbSymbolTableRecord
100
AcDbLayerTableRecord
  2
05__ASM_DEF_DTM_CSYS
 70
0
 62
7
  6
CONTINUOUS
370
-3
390
F
  0
LAYER
  5
20E
100
AcDbSymbolTableRecord
100
AcDbLayerTableRecord
  2
05___PRT_ALL_DTM_CSYS
 70
0
 62
7
  6
CONTINUOUS
370
-3
390
F
  0
LAYER
  5
20F
100
AcDbSymbolTableRecord
100
AcDbLayerTableRecord
  2
05___PRT_DEF_DTM_CSYS
 70
0
 62
7
  6
CONTINUOUS
370
-3
390
F
  0
LAYER
  5
210
100
AcDbSymbolTableRecord
100
AcDbLayerTableRecord
  2
06_ALL_SURFS
 70
0
 62
7
  6
CONTINUOUS
370
-3
390
F
  0
LAYER
  5
211
100
AcDbSymbolTableRecord
100
AcDbLayerTableRecord
  2
06__ASM_ALL_SURFS
 70
0
 62
7
  6
CONTINUOUS
370
-3
390
F
  0
LAYER
  5
212
100
AcDbSymbolTableRecord
100
AcDbLayerTableRecord
  2
06___PRT_ALL_SURFS
 70
0
 62
7
  6
CONTINUOUS
370
-3
390
F
  0
LAYER
  5
213
100
AcDbSymbolTableRecord
100
AcDbLayerTableRecord
  2
07__ASM_ALL_SKELETONS
 70
0
 62
7
  6
CONTINUOUS
370
-3
390
F
  0
LAYER
  5
214
100
AcDbSymbolTableRecord
100
AcDbLayerTableRecord
  2
LAYER_AXIS
 70
0
 62
7
  6
CONTINUOUS
370
-3
390
F
  0
LAYER
  5
215
100
AcDbSymbolTableRecord
100
AcDbLayerTableRecord
  2
LAYER_CHAMFER_FEAT
 70
0
 62
7
  6
CONTINUOUS
370
-3
390
F
  0
LAYER
  5
216
100
AcDbSymbolTableRecord
100
AcDbLayerTableRecord
  2
LAYER_CUT_FEAT
 70
0
 62
7
  6
CONTINUOUS
370
-3
390
F
  0
LAYER
  5
217
100
AcDbSymbolTableRecord
100
AcDbLayerTableRecord
  2
LAYER_DATUM
 70
0
 62
7
  6
CONTINUOUS
370
-3
390
F
  0
LAYER
  5
218
100
AcDbSymbolTableRecord
100
AcDbLayerTableRecord
  2
LAYER_DIM
 70
0
 62
7
  6
CONTINUOUS
370
-3
390
F
  0
LAYER
  5
219
100
AcDbSymbolTableRecord
100
AcDbLayerTableRecord
  2
LAYER_FEATURE
 70
0
 62
7
  6
CONTINUOUS
370
-3
390
F
  0
LAYER
  5
21A
100
AcDbSymbolTableRecord
100
AcDbLayerTableRecord
  2
LAYER_GEOM_FEAT
 70
0
 62
7
  6
CONTINUOUS
370
-3
390
F
  0
LAYER
  5
21B
100
AcDbSymbolTableRecord
100
AcDbLayerTableRecord
  2
LAYER_NOGEOM_FEAT
 70
0
 62
7
  6
CONTINUOUS
370
-3
390
F
  0
LAYER
  5
21C
100
AcDbSymbolTableRecord
100
AcDbLayerTableRecord
  2
LAYER_PARAMETER_DIM
 70
0
 62
7
  6
CONTINUOUS
370
-3
390
F
  0
LAYER
  5
21D
100
AcDbSymbolTableRecord
100
AcDbLayerTableRecord
  2
LAYER_PROTRUSION_FEAT
 70
0
 62
7
  6
CONTINUOUS
370
-3
390
F
  0
LAYER
  5
21E
100
AcDbSymbolTableRecord
100
AcDbLayerTableRecord
  2
LAYER_QUILT
 70
0
 62
7
  6
CONTINUOUS
370
-3
390
F
  0
LAYER
  5
21F
100
AcDbSymbolTableRecord
100
AcDbLayerTableRecord
  2
LAYER_ROUND_FEAT
 70
0
 62
7
  6
CONTINUOUS
370
-3
390
F
  0
ENDTAB
  0
TABLE
  2
STYLE
  5
3
100
AcDbSymbolTable
 70
1
  0
STYLE
  5
11
100
AcDbSymbolTableRecord
100
AcDbTextStyleTableRecord
  2
STANDARD
 70
0
 40
0.0
 41
0.8
 50
0.0
 71
0
 42
0.2
  3
txt
  4

  0
STYLE
  5
220
100
AcDbSymbolTableRecord
100
AcDbTextStyleTableRecord
  2
TEXTSTYLE_1
 70
0
 40
0.0
 41
0.8
 50
0.0
 71
0
 42
0.2
  3
gdt
  4

  0
ENDTAB
  0
TABLE
  2
VIEW
  5
6
100
AcDbSymbolTable
 70
0
  0
ENDTAB
  0
TABLE
  2
UCS
  5
7
100
AcDbSymbolTable
 70
0
  0
ENDTAB
  0
TABLE
  2
APPID
  5
9
100
AcDbSymbolTable
 70
1
  0
APPID
  5
221
100
AcDbSymbolTableRecord
100
AcDbRegAppTableRecord
  2
ACAD
 70
0
  0
ENDTAB
  0
TABLE
  2
BLOCK_RECORD
  5
1
100
AcDbSymbolTable
 70
0
  0
BLOCK_RECORD
  5
222
100
AcDbSymbolTableRecord
100
AcDbBlockTableRecord
  2
*Model_Space
  0
BLOCK_RECORD
  5
223
100
AcDbSymbolTableRecord
100
AcDbBlockTableRecord
  2
*Paper_Space
  0
ENDTAB
  0
TABLE
  2
DIMSTYLE
  5
A
100
AcDbSymbolTable
 70
1
100
AcDbDimStyleTable
 71
0
  0
DIMSTYLE
105
224
100
AcDbSymbolTableRecord
100
AcDbDimStyleTableRecord
  2
STANDARD
 70
0
  3

  4

 40
1.0
 41
0.1875
 42
0.0625
 43
0.38
 44
0.125
 45
0.0
 46
0.0
 47
0.0001
 48
0.0001
140
0.15625
141
0.09
142
0.0
143
25.4
144
1.0
145
0.0
146
1.0
147
0.09
 71
0.0
 72
0.0
 73
1
 74
1
 75
0
 76
0
 77
0
 78
4
 79
1
170
0
171
3
172
0
173
0
174
0
175
0
176
0
177
0
178
0
270
2
179
4
271
4
272
4
273
2
274
2
275
0
280
0
281
0
282
0
283
1
284
4
285
0
286
0
287
3
288
0
340
11
278
46
  0
ENDTAB
  0
ENDSEC
  0
SECTION
  2
BLOCKS
  0
BLOCK
  5
20
100
AcDbEntity
  8
0
100
AcDbBlockBegin
  2
*Model_Space
 70
0
 10
0.0
 20
0.0
 30
0.0
  3
*Model_Space
  1

  0
ENDBLK
  5
21
100
AcDbEntity
  8
0
100
AcDbBlockEnd
  0
BLOCK
  5
1C
100
AcDbEntity
  8
0
100
AcDbBlockBegin
  2
*Paper_Space
 70
0
 10
0.0
 20
0.0
 30
0.0
  3
*Paper_Space
  1

  0
ENDBLK
  5
1D
100
AcDbEntity
  8
0
100
AcDbBlockEnd
  0
ENDSEC
  0
SECTION
  2
ENTITIES
  0
MTEXT
  5
225
100
AcDbEntity
  8
0
100
AcDbMText
 62
7
  6
CONTINUOUS
  7
STANDARD
 71
1
 72
1
 10
15.9560215477
 20
0.9479130325
 30
0.0
 11
1.0
 21
0.0
 31
0.0
 44
0.9
  1
SCALE: 1:3.000
 40
0.3
 41
3.36
  0
LINE
  5
226
100
AcDbEntity
  8
0
100
AcDbLine
 62
7
  6
CONTINUOUS
 10
0.0
 20
0.0
 11
0.0
 21
17.0
  0
LINE
  5
227
100
AcDbEntity
  8
0
100
AcDbLine
 62
7
  6
CONTINUOUS
 10
0.0
 20
0.0
 11
22.0
 21
0.0
  0
LINE
  5
228
100
AcDbEntity
  8
0
100
AcDbLine
 62
7
  6
CONTINUOUS
 10
0.0
 20
17.0
 11
22.0
 21
17.0
  0
LINE
  5
229
100
AcDbEntity
  8
0
100
AcDbLine
 62
7
  6
CONTINUOUS
 10
22.0
 20
0.0
 11
22.0
 21
17.0
  0
LINE
  5
22A
100
AcDbEntity
  8
LAYER_FEATURE
100
AcDbLine
 62
7
  6
CONTINUOUS
 10
5.9335672762
 20
6.3391198968
 11
5.9006380751
 21
6.3061906957
  0
LINE
  5
22B
100
AcDbEntity
  8
LAYER_FEATURE
100
AcDbLine
 62
7
  6
CONTINUOUS
 10
6.9493672762
 20
5.7169198968
 11
6.9493672762
 21
5.3233198968
  0
LINE
  5
22C
100
AcDbEntity
  8
LAYER_FEATURE
100
AcDbLine
 62
7
  6
CONTINUOUS
 10
6.9493672762
 20
5.3233198968
 11
6.9164380751
 21
5.2903906957
  0
LINE
  5
22D
100
AcDbEntity
  8
LAYER_FEATURE
100
AcDbLine
 62
7
  6
CONTINUOUS
 10
5.9335672762
 20
6.3391198968
 11
6.3271672762
 21
6.3391198968
  0
LINE
  5
22E
100
AcDbEntity
  8
LAYER_FEATURE
100
AcDbLine
 62
7
  6
CONTINUOUS
 10
6.3271672762
 20
6.3391198968
 11
6.3600964772
 21
6.3061906957
  0
LINE
  5
22F
100
AcDbEntity
  8
LAYER_FEATURE
100
AcDbLine
 62
7
  6
CONTINUOUS
 10
6.9493672762
 20
5.7169198968
 11
6.9164380751
 21
5.7498490978
  0
LINE
  5
230
100
AcDbEntity
  8
LAYER_FEATURE
100
AcDbLine
 62
7
  6
CONTINUOUS
 10
4.6533720839
 20
12.4650477814
 11
4.6533720839
 21
12.5610477814
  0
LINE
  5
231
100
AcDbEntity
  8
LAYER_FEATURE
100
AcDbLine
 62
7
  6
CONTINUOUS
 10
4.6533720839
 20
13.5360477814
 11
4.6533720839
 21
13.6320477814
  0
LINE
  5
232
100
AcDbEntity
  8
02___PRT_ALL_AXES
100
AcDbLine
 62
7
  6
CONTINUOUS
 10
4.9548720839
 20
12.6135477814
 11
4.9548720839
 21
13.4835477814
  0
LINE
  5
233
100
AcDbEntity
  8
LAYER_CUT_FEAT
100
AcDbLine
 62
7
  6
CONTINUOUS
 10
4.9717388694
 20
13.4835477814
 11
4.9717388694
 21
12.6135477814
  0
LINE
  5
234
100
AcDbEntity
  8
LAYER_CUT_FEAT
100
AcDbLine
 62
7
  6
CONTINUOUS
 10
5.0351037236
 20
13.4835477814
 11
5.0351037236
 21
12.6135477814
  0
LINE
  5
235
100
AcDbEntity
  8
LAYER_CUT_FEAT
100
AcDbLine
 62
7
  6
CONTINUOUS
 10
5.1428188245
 20
13.4835477814
 11
5.1428188245
 21
12.6135477814
  0
LINE
  5
236
100
AcDbEntity
  8
02___PRT_ALL_AXES
100
AcDbLine
 62
7
  6
CONTINUOUS
 10
5.2518720839
 20
11.5680477814
 11
6.8898720839
 21
11.5680477814
  0
LINE
  5
237
100
AcDbEntity
  8
02___PRT_ALL_AXES
100
AcDbLine
 62
7
  6
CONTINUOUS
 10
5.2518720839
 20
11.5680477814
 11
5.2518720839
 21
12.4650477814
  0
LINE
  5
238
100
AcDbEntity
  8
LAYER_CUT_FEAT
100
AcDbLine
 62
7
  6
CONTINUOUS
 10
5.2901765054
 20
13.4835477814
 11
5.2901765054
 21
12.6135477814
  0
LINE
  5
239
100
AcDbEntity
  8
LAYER_CUT_FEAT
100
AcDbLine
 62
7
  6
CONTINUOUS
 10
5.9998580007
 20
11.8935477814
 11
6.141886167
 21
11.8935477814
  0
LINE
  5
23A
100
AcDbEntity
  8
LAYER_CUT_FEAT
100
AcDbLine
 62
7
  6
CONTINUOUS
 10
5.4707365284
 20
13.4835477814
 11
5.4707365284
 21
12.6135477814
  0
LINE
  5
23B
100
AcDbEntity
  8
LAYER_CUT_FEAT
100
AcDbLine
 62
7
  6
CONTINUOUS
 10
6.141886167
 20
12.1395477814
 11
5.9998580007
 21
12.1395477814
  0
LINE
  5
23C
100
AcDbEntity
  8
LAYER_FEATURE
100
AcDbLine
 62
7
  6
CONTINUOUS
 10
7.3677046467
 20
13.4958253023
 11
7.4883720839
 21
13.5360477814
  0
LINE
  5
23D
100
AcDbEntity
  8
LAYER_FEATURE
100
AcDbLine
 62
7
  6
CONTINUOUS
 10
4.6533720839
 20
12.5610477814
 11
4.774039521
 21
12.6012702604
  0
LINE
  5
23E
100
AcDbEntity
  8
LAYER_CUT_FEAT
100
AcDbLine
 62
7
  6
CONTINUOUS
 10
5.9288439176
 20
12.0165477814
 11
5.9998580007
 21
11.8935477814
  0
LINE
  5
23F
100
AcDbEntity
  8
LAYER_FEATURE
100
AcDbLine
 62
7
  6
CONTINUOUS
 10
4.6533720839
 20
12.4650477814
 11
7.4883720839
 21
12.4650477814
  0
LINE
  5
240
100
AcDbEntity
  8
LAYER_CUT_FEAT
100
AcDbLine
 62
7
  6
CONTINUOUS
 10
6.2129002501
 20
12.0165477814
 11
6.141886167
 21
12.1395477814
  0
LINE
  5
241
100
AcDbEntity
  8
LAYER_FEATURE
100
AcDbLine
 62
7
  6
CONTINUOUS
 10
4.6533720839
 20
12.5610477814
 11
7.4883720839
 21
12.5610477814
  0
LINE
  5
242
100
AcDbEntity
  8
LAYER_FEATURE
100
AcDbLine
 62
7
  6
CONTINUOUS
 10
7.2920470657
 20
12.6135477814
 11
4.849697102
 21
12.6135477814
  0
LINE
  5
243
100
AcDbEntity
  8
LAYER_CUT_FEAT
100
AcDbLine
 62
7
  6
CONTINUOUS
 10
5.9998580007
 20
12.1395477814
 11
5.9288439176
 21
12.0165477814
  0
LINE
  5
244
100
AcDbEntity
  8
LAYER_FEATURE
100
AcDbLine
 62
7
  6
CONTINUOUS
 10
6.879154725
 20
12.2240651402
 11
6.8898720839
 21
12.2133477814
  0
LINE
  5
245
100
AcDbEntity
  8
LAYER_CUT_FEAT
100
AcDbLine
 62
7
  6
CONTINUOUS
 10
6.141886167
 20
11.8935477814
 11
6.2129002501
 21
12.0165477814
  0
LINE
  5
246
100
AcDbEntity
  8
LAYER_FEATURE
100
AcDbLine
 62
7
  6
CONTINUOUS
 10
7.4883720839
 20
12.5610477814
 11
7.3677046467
 21
12.6012702604
  0
LINE
  5
247
100
AcDbEntity
  8
LAYER_FEATURE
100
AcDbLine
 62
7
  6
CONTINUOUS
 10
4.774039521
 20
13.4958253023
 11
4.6533720839
 21
13.5360477814
  0
LINE
  5
248
100
AcDbEntity
  8
LAYER_CUT_FEAT
100
AcDbLine
 62
7
  6
CONTINUOUS
 10
6.6710076393
 20
13.4835477814
 11
6.6710076393
 21
12.6135477814
  0
LINE
  5
249
100
AcDbEntity
  8
LAYER_CUT_FEAT
100
AcDbLine
 62
7
  6
CONTINUOUS
 10
6.8515676624
 20
13.4835477814
 11
6.8515676624
 21
12.6135477814
  0
LINE
  5
24A
100
AcDbEntity
  8
02___PRT_ALL_AXES
100
AcDbLine
 62
7
  6
CONTINUOUS
 10
6.8898720839
 20
11.5680477814
 11
6.8898720839
 21
11.7705477814
  0
LINE
  5
24B
100
AcDbEntity
  8
LAYER_FEATURE
100
AcDbLine
 62
7
  6
CONTINUOUS
 10
6.8898720839
 20
11.8197477814
 11
6.8898720839
 21
12.2133477814
  0
LINE
  5
24C
100
AcDbEntity
  8
02___PRT_ALL_AXES
100
AcDbLine
 62
7
  6
CONTINUOUS
 10
6.8898720839
 20
12.2625477814
 11
6.8898720839
 21
12.4650477814
  0
LINE
  5
24D
100
AcDbEntity
  8
LAYER_CUT_FEAT
100
AcDbLine
 62
7
  6
CONTINUOUS
 10
6.9989253432
 20
13.4835477814
 11
6.9989253432
 21
12.6135477814
  0
LINE
  5
24E
100
AcDbEntity
  8
LAYER_FEATURE
100
AcDbLine
 62
7
  6
CONTINUOUS
 10
7.2920470657
 20
13.4835477814
 11
4.849697102
 21
13.4835477814
  0
LINE
  5
24F
100
AcDbEntity
  8
LAYER_FEATURE
100
AcDbLine
 62
7
  6
CONTINUOUS
 10
4.6533720839
 20
13.5360477814
 11
7.4883720839
 21
13.5360477814
  0
LINE
  5
250
100
AcDbEntity
  8
LAYER_CUT_FEAT
100
AcDbLine
 62
7
  6
CONTINUOUS
 10
7.1066404441
 20
13.4835477814
 11
7.1066404441
 21
12.6135477814
  0
LINE
  5
251
100
AcDbEntity
  8
LAYER_FEATURE
100
AcDbLine
 62
7
  6
CONTINUOUS
 10
4.6533720839
 20
13.6320477814
 11
7.4883720839
 21
13.6320477814
  0
LINE
  5
252
100
AcDbEntity
  8
LAYER_CUT_FEAT
100
AcDbLine
 62
7
  6
CONTINUOUS
 10
7.1700052983
 20
13.4835477814
 11
7.1700052983
 21
12.6135477814
  0
LINE
  5
253
100
AcDbEntity
  8
02___PRT_ALL_AXES
100
AcDbLine
 62
7
  6
CONTINUOUS
 10
7.1868720839
 20
12.6135477814
 11
7.1868720839
 21
13.4835477814
  0
LINE
  5
254
100
AcDbEntity
  8
LAYER_FEATURE
100
AcDbLine
 62
7
  6
CONTINUOUS
 10
6.8791547238
 20
11.8090304213
 11
6.8898720839
 21
11.8197477814
  0
LINE
  5
255
100
AcDbEntity
  8
LAYER_FEATURE
100
AcDbLine
 62
7
  6
CONTINUOUS
 10
7.4883720839
 20
12.4650477814
 11
7.4883720839
 21
12.5610477814
  0
LINE
  5
256
100
AcDbEntity
  8
LAYER_FEATURE
100
AcDbLine
 62
7
  6
CONTINUOUS
 10
7.4883720839
 20
13.5360477814
 11
7.4883720839
 21
13.6320477814
  0
LINE
  5
257
100
AcDbEntity
  8
LAYER_FEATURE
100
AcDbLine
 62
7
  6
CONTINUOUS
 10
16.5923552569
 20
4.0431247044
 11
16.4963552569
 21
4.0431247044
  0
LINE
  5
258
100
AcDbEntity
  8
LAYER_FEATURE
100
AcDbLine
 62
7
  6
CONTINUOUS
 10
15.5213552569
 20
4.0431247044
 11
15.4253552569
 21
4.0431247044
  0
LINE
  5
259
100
AcDbEntity
  8
LAYER_FEATURE
100
AcDbLine
 62
7
  6
CONTINUOUS
 10
14.7693385015
 20
6.2689079491
 11
14.7800552569
 21
6.2796247044
  0
LINE
  5
25A
100
AcDbEntity
  8
LAYER_CUT_FEAT
100
AcDbLine
 62
7
  6
CONTINUOUS
 10
16.4438552569
 20
4.3473854595
 11
15.5738552569
 21
4.3473854595
  0
LINE
  5
25B
100
AcDbEntity
  8
LAYER_CUT_FEAT
100
AcDbLine
 62
7
  6
CONTINUOUS
 10
16.4438552569
 20
4.3874097736
 11
15.5738552569
 21
4.3874097736
  0
LINE
  5
25C
100
AcDbEntity
  8
02___PRT_ALL_AXES
100
AcDbLine
 62
7
  6
CONTINUOUS
 10
14.5283552569
 20
6.2796247044
 11
14.5283552569
 21
4.6416247044
  0
LINE
  5
25D
100
AcDbEntity
  8
LAYER_CUT_FEAT
100
AcDbLine
 62
7
  6
CONTINUOUS
 10
16.4438552569
 20
4.4734209293
 11
15.5738552569
 21
4.4734209293
  0
LINE
  5
25E
100
AcDbEntity
  8
LAYER_CUT_FEAT
100
AcDbLine
 62
7
  6
CONTINUOUS
 10
16.4438552569
 20
4.6016598262
 11
15.5738552569
 21
4.6016598262
  0
LINE
  5
25F
100
AcDbEntity
  8
02___PRT_ALL_AXES
100
AcDbLine
 62
7
  6
CONTINUOUS
 10
15.4253552569
 20
4.6416247044
 11
14.5283552569
 21
4.6416247044
  0
LINE
  5
260
100
AcDbEntity
  8
LAYER_CUT_FEAT
100
AcDbLine
 62
7
  6
CONTINUOUS
 10
14.8538552569
 20
5.5316387876
 11
14.8538552569
 21
5.3896106213
  0
LINE
  5
261
100
AcDbEntity
  8
LAYER_CUT_FEAT
100
AcDbLine
 62
7
  6
CONTINUOUS
 10
16.4438552569
 20
4.7665218094
 11
15.5738552569
 21
4.7665218094
  0
LINE
  5
262
100
AcDbEntity
  8
LAYER_CUT_FEAT
100
AcDbLine
 62
7
  6
CONTINUOUS
 10
15.0998552569
 20
5.3896106213
 11
15.0998552569
 21
5.5316387876
  0
LINE
  5
263
100
AcDbEntity
  8
LAYER_FEATURE
100
AcDbLine
 62
7
  6
CONTINUOUS
 10
15.5738552569
 20
4.960801619
 11
16.4438552569
 21
4.960801619
  0
LINE
  5
264
100
AcDbEntity
  8
LAYER_CUT_FEAT
100
AcDbLine
 62
7
  6
CONTINUOUS
 10
14.9768552569
 20
5.6026528707
 11
14.8538552569
 21
5.5316387876
  0
LINE
  5
265
100
AcDbEntity
  8
LAYER_CUT_FEAT
100
AcDbLine
 62
7
  6
CONTINUOUS
 10
14.8538552569
 20
5.3896106213
 11
14.9768552569
 21
5.3185965382
  0
LINE
  5
266
100
AcDbEntity
  8
LAYER_FEATURE
100
AcDbLine
 62
7
  6
CONTINUOUS
 10
15.4253552569
 20
6.8781247044
 11
15.4253552569
 21
4.0431247044
  0
LINE
  5
267
100
AcDbEntity
  8
LAYER_CUT_FEAT
100
AcDbLine
 62
7
  6
CONTINUOUS
 10
14.9768552569
 20
5.3185965382
 11
15.0998552569
 21
5.3896106213
  0
LINE
  5
268
100
AcDbEntity
  8
LAYER_CUT_FEAT
100
AcDbLine
 62
7
  6
CONTINUOUS
 10
15.0998552569
 20
5.5316387876
 11
14.9768552569
 21
5.6026528707
  0
LINE
  5
269
100
AcDbEntity
  8
LAYER_FEATURE
100
AcDbLine
 62
7
  6
CONTINUOUS
 10
15.5213552569
 20
6.8781247044
 11
15.5213552569
 21
4.0431247044
  0
LINE
  5
26A
100
AcDbEntity
  8
LAYER_FEATURE
100
AcDbLine
 62
7
  6
CONTINUOUS
 10
15.5738552569
 20
4.2394496346
 11
15.5738552569
 21
6.6817997742
  0
LINE
  5
26B
100
AcDbEntity
  8
LAYER_FEATURE
100
AcDbLine
 62
7
  6
CONTINUOUS
 10
15.1843720124
 20
6.268907949
 11
15.1736552569
 21
6.2796247044
  0
LINE
  5
26C
100
AcDbEntity
  8
LAYER_FEATURE
100
AcDbLine
 62
7
  6
CONTINUOUS
 10
15.561577736
 20
4.1637921416
 11
15.5213552569
 21
4.0431247044
  0
LINE
  5
26D
100
AcDbEntity
  8
LAYER_FEATURE
100
AcDbLine
 62
7
  6
CONTINUOUS
 10
16.4963552569
 20
6.8781247044
 11
16.4561327779
 21
6.7574572673
  0
LINE
  5
26E
100
AcDbEntity
  8
LAYER_FEATURE
100
AcDbLine
 62
7
  6
CONTINUOUS
 10
15.561577736
 20
6.7574572673
 11
15.5213552569
 21
6.8781247044
  0
LINE
  5
26F
100
AcDbEntity
  8
LAYER_FEATURE
100
AcDbLine
 62
7
  6
CONTINUOUS
 10
16.4963552569
 20
4.0431247044
 11
16.4561327779
 21
4.1637921416
  0
LINE
  5
270
100
AcDbEntity
  8
LAYER_FEATURE
100
AcDbLine
 62
7
  6
CONTINUOUS
 10
15.5738552569
 20
5.9604477899
 11
16.4438552569
 21
5.9604477899
  0
LINE
  5
271
100
AcDbEntity
  8
LAYER_CUT_FEAT
100
AcDbLine
 62
7
  6
CONTINUOUS
 10
16.4438552569
 20
6.1547275995
 11
15.5738552569
 21
6.1547275995
  0
LINE
  5
272
100
AcDbEntity
  8
02___PRT_ALL_AXES
100
AcDbLine
 62
7
  6
CONTINUOUS
 10
15.4253552569
 20
6.2796247044
 11
15.2228552569
 21
6.2796247044
  0
LINE
  5
273
100
AcDbEntity
  8
02___PRT_ALL_AXES
100
AcDbLine
 62
7
  6
CONTINUOUS
 10
14.7308552569
 20
6.2796247044
 11
14.5283552569
 21
6.2796247044
  0
LINE
  5
274
100
AcDbEntity
  8
LAYER_FEATURE
100
AcDbLine
 62
7
  6
CONTINUOUS
 10
14.7800552569
 20
6.2796247044
 11
15.1736552569
 21
6.2796247044
  0
LINE
  5
275
100
AcDbEntity
  8
LAYER_FEATURE
100
AcDbLine
 62
7
  6
CONTINUOUS
 10
16.4438552569
 20
4.2394496346
 11
16.4438552569
 21
6.6817997742
  0
LINE
  5
276
100
AcDbEntity
  8
LAYER_FEATURE
100
AcDbLine
 62
7
  6
CONTINUOUS
 10
16.4963552569
 20
6.8781247044
 11
16.4963552569
 21
4.0431247044
  0
LINE
  5
277
100
AcDbEntity
  8
LAYER_CUT_FEAT
100
AcDbLine
 62
7
  6
CONTINUOUS
 10
16.4438552569
 20
6.3195895827
 11
15.5738552569
 21
6.3195895827
  0
LINE
  5
278
100
AcDbEntity
  8
LAYER_FEATURE
100
AcDbLine
 62
7
  6
CONTINUOUS
 10
16.5923552569
 20
6.8781247044
 11
16.5923552569
 21
4.0431247044
  0
LINE
  5
279
100
AcDbEntity
  8
LAYER_CUT_FEAT
100
AcDbLine
 62
7
  6
CONTINUOUS
 10
16.4438552569
 20
6.4478284796
 11
15.5738552569
 21
6.4478284796
  0
LINE
  5
27A
100
AcDbEntity
  8
LAYER_CUT_FEAT
100
AcDbLine
 62
7
  6
CONTINUOUS
 10
16.4438552569
 20
6.5338396353
 11
15.5738552569
 21
6.5338396353
  0
LINE
  5
27B
100
AcDbEntity
  8
LAYER_CUT_FEAT
100
AcDbLine
 62
7
  6
CONTINUOUS
 10
16.4438552569
 20
6.5738639494
 11
15.5738552569
 21
6.5738639494
  0
LINE
  5
27C
100
AcDbEntity
  8
LAYER_FEATURE
100
AcDbLine
 62
7
  6
CONTINUOUS
 10
16.5923552569
 20
6.8781247044
 11
16.4963552569
 21
6.8781247044
  0
LINE
  5
27D
100
AcDbEntity
  8
LAYER_FEATURE
100
AcDbLine
 62
7
  6
CONTINUOUS
 10
15.5213552569
 20
6.8781247044
 11
15.4253552569
 21
6.8781247044
  0
LINE
  5
27E
100
AcDbEntity
  8
LAYER_FEATURE
100
AcDbLine
 62
7
  6
CONTINUOUS
 10
13.975557722
 20
12.6375522262
 11
13.9987960891
 21
12.7127516095
  0
LINE
  5
27F
100
AcDbEntity
  8
LAYER_FEATURE
100
AcDbLine
 62
7
  6
CONTINUOUS
 10
14.2348107544
 20
13.4764953464
 11
14.2580491215
 21
13.5516947297
  0
LINE
  5
280
100
AcDbEntity
  8
LAYER_CUT_FEAT
100
AcDbLine
 62
7
  6
CONTINUOUS
 10
14.5032618102
 20
13.3206989323
 11
14.4356708934
 21
13.1019746454
  0
LINE
  5
281
100
AcDbEntity
  8
LAYER_CUT_FEAT
100
AcDbLine
 62
7
  6
CONTINUOUS
 10
14.5337784944
 20
13.4043633288
 11
14.4408900955
 21
13.1037763596
  0
LINE
  5
282
100
AcDbEntity
  8
LAYER_FEATURE
100
AcDbLine
 62
7
  6
CONTINUOUS
 10
14.5342314201
 20
13.4054758441
 11
14.533778499
 21
13.4043633274
  0
LINE
  5
283
100
AcDbEntity
  8
LAYER_FEATURE
100
AcDbLine
 62
7
  6
CONTINUOUS
 10
14.8679655092
 20
13.6147736912
 11
14.8855606325
 21
13.6209750491
  0
LINE
  5
284
100
AcDbEntity
  8
LAYER_CUT_FEAT
100
AcDbLine
 62
7
  6
CONTINUOUS
 10
14.6160659518
 20
13.5132584312
 11
14.4947461312
 21
13.1206673481
  0
LINE
  5
285
100
AcDbEntity
  8
LAYER_CUT_FEAT
100
AcDbLine
 62
7
  6
CONTINUOUS
 10
14.7394482239
 20
13.6007294108
 11
14.5987440774
 21
13.145410626
  0
LINE
  5
286
100
AcDbEntity
  8
LAYER_CUT_FEAT
100
AcDbLine
 62
7
  6
CONTINUOUS
 10
14.432726596
 20
12.4962763589
 11
14.445435078
 21
12.5374010217
  0
LINE
  5
287
100
AcDbEntity
  8
LAYER_CUT_FEAT
100
AcDbLine
 62
7
  6
CONTINUOUS
 10
14.8985329135
 20
13.6629533659
 11
14.7452142326
 21
13.1668139327
  0
LINE
  5
288
100
AcDbEntity
  8
02___PRT_ALL_AXES
100
AcDbLine
 62
7
  6
CONTINUOUS
 10
14.3302436052
 20
11.7582024364
 11
14.5473770973
 21
12.4608466743
  0
LINE
  5
289
100
AcDbEntity
  8
LAYER_CUT_FEAT
100
AcDbLine
 62
7
  6
CONTINUOUS
 10
15.0863672563
 20
13.6972108111
 11
14.9250886077
 21
13.1753129131
  0
LINE
  5
28A
100
AcDbEntity
  8
LAYER_FEATURE
100
AcDbLine
 62
7
  6
CONTINUOUS
 10
15.5036987125
 20
13.665129854
 11
15.5159534911
 21
13.6796595277
  0
LINE
  5
28B
100
AcDbEntity
  8
LAYER_FEATURE
100
AcDbLine
 62
7
  6
CONTINUOUS
 10
15.7218993675
 20
13.6165280414
 11
15.7396972979
 21
13.6280201862
  0
LINE
  5
28C
100
AcDbEntity
  8
LAYER_FEATURE
100
AcDbLine
 62
7
  6
CONTINUOUS
 10
15.9337414966
 20
13.5417177502
 11
15.9563047238
 21
13.5496701041
  0
LINE
  5
28D
100
AcDbEntity
  8
LAYER_CUT_FEAT
100
AcDbLine
 62
7
  6
CONTINUOUS
 10
16.0189735137
 20
11.7794308342
 11
15.9419180311
 21
11.7794308342
  0
LINE
  5
28E
100
AcDbEntity
  8
LAYER_FEATURE
100
AcDbLine
 62
7
  6
CONTINUOUS
 10
15.2886759473
 20
13.6853990554
 11
15.2948519816
 21
13.7023312416
  0
LINE
  5
28F
100
AcDbEntity
  8
LAYER_CUT_FEAT
100
AcDbLine
 62
7
  6
CONTINUOUS
 10
16.0270854031
 20
11.9199231061
 11
15.9302412166
 21
11.9199231061
  0
LINE
  5
290
100
AcDbEntity
  8
LAYER_CUT_FEAT
100
AcDbLine
 62
7
  6
CONTINUOUS
 10
14.84065413
 20
12.3768155221
 11
14.8781742796
 21
12.3003574961
  0
LINE
  5
291
100
AcDbEntity
  8
LAYER_CUT_FEAT
100
AcDbLine
 62
7
  6
CONTINUOUS
 10
14.84065413
 20
12.3768155221
 11
14.8762882742
 21
12.2804663123
  0
LINE
  5
292
100
AcDbEntity
  8
LAYER_CUT_FEAT
100
AcDbLine
 62
7
  6
CONTINUOUS
 10
14.8781742796
 20
12.3003574961
 11
14.8855309078
 21
12.2804663123
  0
LINE
  5
293
100
AcDbEntity
  8
LAYER_CUT_FEAT
100
AcDbLine
 62
7
  6
CONTINUOUS
 10
14.9358365897
 20
12.473164732
 11
14.9733567393
 21
12.3967067059
  0
LINE
  5
294
100
AcDbEntity
  8
LAYER_CUT_FEAT
100
AcDbLine
 62
7
  6
CONTINUOUS
 10
14.9358365897
 20
12.473164732
 11
14.84065413
 21
12.3768155221
  0
LINE
  5
295
100
AcDbEntity
  8
LAYER_CUT_FEAT
100
AcDbLine
 62
7
  6
CONTINUOUS
 10
14.9733567393
 20
12.3967067059
 11
14.8781742796
 21
12.3003574961
  0
LINE
  5
296
100
AcDbEntity
  8
LAYER_CUT_FEAT
100
AcDbLine
 62
7
  6
CONTINUOUS
 10
15.1022873379
 20
12.3768155221
 11
15.0666531937
 21
12.473164732
  0
LINE
  5
297
100
AcDbEntity
  8
LAYER_CUT_FEAT
100
AcDbLine
 62
7
  6
CONTINUOUS
 10
15.0071048781
 20
12.2804663123
 11
15.1022873379
 21
12.3768155221
  0
LINE
  5
298
100
AcDbEntity
  8
LAYER_CUT_FEAT
100
AcDbLine
 62
7
  6
CONTINUOUS
 10
14.8762882742
 20
12.2804663123
 11
15.0071048781
 21
12.2804663123
  0
LINE
  5
299
100
AcDbEntity
  8
LAYER_CUT_FEAT
100
AcDbLine
 62
7
  6
CONTINUOUS
 10
15.0949307097
 20
12.3967067059
 11
14.9733567393
 21
12.3967067059
  0
LINE
  5
29A
100
AcDbEntity
  8
LAYER_CUT_FEAT
100
AcDbLine
 62
7
  6
CONTINUOUS
 10
15.0666531937
 20
12.473164732
 11
14.9358365897
 21
12.473164732
  0
LINE
  5
29B
100
AcDbEntity
  8
LAYER_FEATURE
100
AcDbLine
 62
7
  6
CONTINUOUS
 10
15.9708350608
 20
12.0906485991
 11
16.0080508047
 21
12.0460622709
  0
LINE
  5
29C
100
AcDbEntity
  8
LAYER_CUT_FEAT
100
AcDbLine
 62
7
  6
CONTINUOUS
 10
15.9242125506
 20
11.8155108102
 11
15.9675370875
 21
11.7272246863
  0
LINE
  5
29D
100
AcDbEntity
  8
LAYER_CUT_FEAT
100
AcDbLine
 62
7
  6
CONTINUOUS
 10
16.0270854031
 20
11.9199231061
 11
15.9837608661
 21
12.00820923
  0
LINE
  5
29E
100
AcDbEntity
  8
LAYER_CUT_FEAT
100
AcDbLine
 62
7
  6
CONTINUOUS
 10
15.9323244399
 20
11.956003082
 11
15.9242125506
 21
11.8155108102
  0
LINE
  5
29F
100
AcDbEntity
  8
LAYER_CUT_FEAT
100
AcDbLine
 62
7
  6
CONTINUOUS
 10
16.2448089233
 20
13.3919629392
 11
16.0797650947
 21
12.8578809141
  0
LINE
  5
2A0
100
AcDbEntity
  8
LAYER_FEATURE
100
AcDbLine
 62
7
  6
CONTINUOUS
 10
16.0559568466
 20
13.5030243875
 11
16.0561294791
 21
13.4844297067
  0
LINE
  5
2A1
100
AcDbEntity
  8
LAYER_CUT_FEAT
100
AcDbLine
 62
7
  6
CONTINUOUS
 10
16.0189735137
 20
11.7794308342
 11
16.0270854031
 21
11.9199231061
  0
LINE
  5
2A2
100
AcDbEntity
  8
LAYER_CUT_FEAT
100
AcDbLine
 62
7
  6
CONTINUOUS
 10
16.4056369933
 20
13.2664029523
 11
16.2461719449
 21
12.7503738664
  0
LINE
  5
2A3
100
AcDbEntity
  8
LAYER_CUT_FEAT
100
AcDbLine
 62
7
  6
CONTINUOUS
 10
15.9837608661
 20
12.00820923
 11
15.9323244399
 21
11.956003082
  0
LINE
  5
2A4
100
AcDbEntity
  8
LAYER_FEATURE
100
AcDbLine
 62
7
  6
CONTINUOUS
 10
15.8462563208
 20
13.5931647214
 11
15.8527700751
 21
13.5737202226
  0
LINE
  5
2A5
100
AcDbEntity
  8
02___PRT_ALL_AXES
100
AcDbLine
 62
7
  6
CONTINUOUS
 10
15.8952229481
 20
11.2745872419
 11
16.1123564402
 21
11.9772314799
  0
LINE
  5
2A6
100
AcDbEntity
  8
LAYER_CUT_FEAT
100
AcDbLine
 62
7
  6
CONTINUOUS
 10
16.5311008084
 20
13.129665655
 11
16.3807037899
 21
12.642980725
  0
LINE
  5
2A7
100
AcDbEntity
  8
LAYER_FEATURE
100
AcDbLine
 62
7
  6
CONTINUOUS
 10
16.1299665824
 20
13.4439685489
 11
16.156308985
 21
13.4480335561
  0
LINE
  5
2A8
100
AcDbEntity
  8
LAYER_FEATURE
100
AcDbLine
 62
7
  6
CONTINUOUS
 10
16.3019986469
 20
13.3275525469
 11
16.3309689356
 21
13.3275525469
  0
LINE
  5
2A9
100
AcDbEntity
  8
LAYER_FEATURE
100
AcDbLine
 62
7
  6
CONTINUOUS
 10
14.5733327355
 20
13.4480335561
 11
14.5950121034
 21
13.445128153
  0
LINE
  5
2AA
100
AcDbEntity
  8
LAYER_FEATURE
100
AcDbLine
 62
7
  6
CONTINUOUS
 10
16.4423190634
 20
13.1975576819
 11
16.4726510975
 21
13.1934926747
  0
LINE
  5
2AB
100
AcDbEntity
  8
LAYER_FEATURE
100
AcDbLine
 62
7
  6
CONTINUOUS
 10
14.6735850496
 20
13.5496701041
 11
14.7039531738
 21
13.5417177502
  0
LINE
  5
2AC
100
AcDbEntity
  8
LAYER_FEATURE
100
AcDbLine
 62
7
  6
CONTINUOUS
 10
16.5447951563
 20
13.0596653533
 11
16.5751632805
 21
13.0517129994
  0
LINE
  5
2AD
100
AcDbEntity
  8
LAYER_FEATURE
100
AcDbLine
 62
7
  6
CONTINUOUS
 10
14.8132952039
 20
13.6280201862
 11
14.8423721854
 21
13.6165280414
  0
LINE
  5
2AE
100
AcDbEntity
  8
LAYER_FEATURE
100
AcDbLine
 62
7
  6
CONTINUOUS
 10
16.6049482288
 20
12.9199021177
 11
16.6340252103
 21
12.908409973
  0
LINE
  5
2AF
100
AcDbEntity
  8
LAYER_FEATURE
100
AcDbLine
 62
7
  6
CONTINUOUS
 10
14.9863571943
 20
13.6796595277
 11
15.0128722294
 21
13.665129854
  0
LINE
  5
2B0
100
AcDbEntity
  8
LAYER_FEATURE
100
AcDbLine
 62
7
  6
CONTINUOUS
 10
16.6341320837
 20
12.7767140335
 11
16.646664338
 21
12.7698466254
  0
LINE
  5
2B1
100
AcDbEntity
  8
LAYER_FEATURE
100
AcDbLine
 62
7
  6
CONTINUOUS
 10
15.1852073813
 20
13.7023312416
 11
15.2080016358
 21
13.6853990554
  0
LINE
  5
2B2
100
AcDbEntity
  8
LAYER_FEATURE
100
AcDbLine
 62
7
  6
CONTINUOUS
 10
15.4011550577
 20
13.6950444653
 11
15.4192323133
 21
13.6764497844
  0
LINE
  5
2B3
100
AcDbEntity
  8
LAYER_FEATURE
100
AcDbLine
 62
7
  6
CONTINUOUS
 10
15.6247622736
 20
13.6581176657
 11
15.6373324675
 21
13.638673167
  0
LINE
  5
2B4
100
AcDbEntity
  8
LAYER_CUT_FEAT
100
AcDbLine
 62
7
  6
CONTINUOUS
 10
16.2270069415
 20
11.9418017953
 11
16.2397154235
 21
11.982926458
  0
LINE
  5
2B5
100
AcDbEntity
  8
LAYER_CUT_FEAT
100
AcDbLine
 62
7
  6
CONTINUOUS
 10
16.6157169976
 20
12.9877271232
 11
16.4795280088
 21
12.5470193938
  0
LINE
  5
2B6
100
AcDbEntity
  8
LAYER_FEATURE
100
AcDbLine
 62
7
  6
CONTINUOUS
 10
15.9708350608
 20
11.6447853172
 11
16.0080508047
 21
11.6893716454
  0
LINE
  5
2B7
100
AcDbEntity
  8
LAYER_CUT_FEAT
100
AcDbLine
 62
7
  6
CONTINUOUS
 10
15.9675370875
 20
11.7272246863
 11
16.0189735137
 21
11.7794308342
  0
LINE
  5
2B8
100
AcDbEntity
  8
LAYER_FEATURE
100
AcDbLine
 62
7
  6
CONTINUOUS
 10
16.6495607353
 20
12.7130161655
 11
16.6496931539
 21
12.7135081441
  0
LINE
  5
2B9
100
AcDbEntity
  8
LAYER_CUT_FEAT
100
AcDbLine
 62
7
  6
CONTINUOUS
 10
16.6557874275
 20
12.8467907519
 11
16.5412089117
 21
12.4760145387
  0
LINE
  5
2BA
100
AcDbEntity
  8
LAYER_CUT_FEAT
100
AcDbLine
 62
7
  6
CONTINUOUS
 10
16.6495608281
 20
12.7130161368
 11
16.5663006487
 21
12.4435860977
  0
LINE
  5
2BB
100
AcDbEntity
  8
LAYER_FEATURE
100
AcDbLine
 62
7
  6
CONTINUOUS
 10
15.4432243664
 20
13.6652194515
 11
15.4825923281
 21
13.6599434768
  0
LINE
  5
2BC
100
AcDbEntity
  8
LAYER_FEATURE
100
AcDbLine
 62
7
  6
CONTINUOUS
 10
15.6586130608
 20
13.6250950552
 11
15.6980278638
 21
13.6147736912
  0
LINE
  5
2BD
100
AcDbEntity
  8
LAYER_FEATURE
100
AcDbLine
 62
7
  6
CONTINUOUS
 10
15.8704091446
 20
13.5583877606
 11
15.9081481728
 21
13.5434721004
  0
LINE
  5
2BE
100
AcDbEntity
  8
LAYER_FEATURE
100
AcDbLine
 62
7
  6
CONTINUOUS
 10
16.0693561127
 20
13.4680129966
 11
16.1037699895
 21
13.4491549261
  0
LINE
  5
2BF
100
AcDbEntity
  8
LAYER_FEATURE
100
AcDbLine
 62
7
  6
CONTINUOUS
 10
16.2467590279
 20
13.357920574
 11
16.2763437017
 21
13.3359442814
  0
LINE
  5
2C0
100
AcDbEntity
  8
LAYER_FEATURE
100
AcDbLine
 62
7
  6
CONTINUOUS
 10
15.0390688223
 20
13.6599434768
 11
15.0732586394
 21
13.6652194515
  0
LINE
  5
2C1
100
AcDbEntity
  8
LAYER_FEATURE
100
AcDbLine
 62
7
  6
CONTINUOUS
 10
15.233656581
 20
13.6770073209
 11
15.2712571326
 21
13.6770073209
  0
LINE
  5
2C2
100
AcDbEntity
  8
LAYER_FEATURE
100
AcDbLine
 62
7
  6
CONTINUOUS
 10
16.3951878442
 20
13.2325894932
 11
16.4183270102
 21
13.2087880148
  0
LINE
  5
2C3
100
AcDbEntity
  8
LAYER_FEATURE
100
AcDbLine
 62
7
  6
CONTINUOUS
 10
16.51685056
 20
13.0835518343
 11
16.523514563
 21
13.0732434651
  0
LINE
  5
2C4
100
AcDbEntity
  8
LAYER_FEATURE
100
AcDbLine
 62
7
  6
CONTINUOUS
 10
16.6841758155
 20
11.800525928
 11
16.7074141825
 21
11.8757253114
  0
LINE
  5
2C5
100
AcDbEntity
  8
LAYER_FEATURE
100
AcDbLine
 62
7
  6
CONTINUOUS
 10
16.9434288479
 20
12.6394690482
 11
16.9666672149
 21
12.7146684316
  0
CIRCLE
  5
2C6
100
AcDbEntity
  8
LAYER_FEATURE
100
AcDbCircle
 62
7
  6
CONTINUOUS
 10
6.1303672762
 20
5.5201198968
 40
1.4175
  0
CIRCLE
  5
2C7
100
AcDbEntity
  8
LAYER_FEATURE
100
AcDbCircle
 62
7
  6
CONTINUOUS
 10
6.1303672762
 20
5.5201198968
 40
1.26
  0
CIRCLE
  5
2C8
100
AcDbEntity
  8
LAYER_CUT_FEAT
100
AcDbCircle
 62
7
  6
CONTINUOUS
 10
6.1303672762
 20
5.5201198968
 40
0.939
  0
CIRCLE
  5
2C9
100
AcDbEntity
  8
02___PRT_ALL_AXES
100
AcDbCircle
 62
7
  6
CONTINUOUS
 10
6.1303672762
 20
5.5201198968
 40
0.819
  0
CIRCLE
  5
2CA
100
AcDbEntity
  8
LAYER_CHAMFER_FEAT
100
AcDbCircle
 62
7
  6
CONTINUOUS
 10
6.1303672762
 20
5.5201198968
 40
0.43125
  0
CIRCLE
  5
2CB
100
AcDbEntity
  8
LAYER_CHAMFER_FEAT
100
AcDbCircle
 62
7
  6
CONTINUOUS
 10
6.1303672762
 20
5.5201198968
 40
0.375
  0
CIRCLE
  5
2CC
100
AcDbEntity
  8
02___PRT_ALL_AXES
100
AcDbCircle
 62
7
  6
CONTINUOUS
 10
6.0708720839
 20
12.0165477814
 40
0.246
  0
ARC
  5
2CD
100
AcDbEntity
  8
LAYER_FEATURE
100
AcDbCircle
 62
7
  6
CONTINUOUS
 10
7.2920471537
 20
12.3742977814
 40
0.23925
100
AcDbArc
 50
71.5650511771
 51
90.0
  0
ARC
  5
2CE
100
AcDbEntity
  8
LAYER_FEATURE
100
AcDbCircle
 62
7
  6
CONTINUOUS
 10
4.8496970141
 20
12.3742977814
 40
0.23925
100
AcDbArc
 50
90.0
 51
108.4349488229
  0
ARC
  5
2CF
100
AcDbEntity
  8
LAYER_FEATURE
100
AcDbCircle
 62
7
  6
CONTINUOUS
 10
7.2920471537
 20
13.7227977814
 40
0.23925
100
AcDbArc
 50
270.0
 51
288.4349488229
  0
ARC
  5
2D0
100
AcDbEntity
  8
LAYER_FEATURE
100
AcDbCircle
 62
7
  6
CONTINUOUS
 10
4.8496970141
 20
13.7227977814
 40
0.23925
100
AcDbArc
 50
251.5650511771
 51
270.0
  0
CIRCLE
  5
2D1
100
AcDbEntity
  8
LAYER_FEATURE
100
AcDbCircle
 62
7
  6
CONTINUOUS
 10
6.0708720839
 20
12.0165477814
 40
0.1968
  0
CIRCLE
  5
2D2
100
AcDbEntity
  8
02___PRT_ALL_AXES
100
AcDbCircle
 62
7
  6
CONTINUOUS
 10
14.9768552569
 20
5.4606247044
 40
0.246
  0
ARC
  5
2D3
100
AcDbEntity
  8
LAYER_FEATURE
100
AcDbCircle
 62
7
  6
CONTINUOUS
 10
15.3346052569
 20
4.2394496346
 40
0.23925
100
AcDbArc
 50
341.5650511771
 51
360.0
  0
ARC
  5
2D4
100
AcDbEntity
  8
LAYER_FEATURE
100
AcDbCircle
 62
7
  6
CONTINUOUS
 10
15.3346052569
 20
6.6817997742
 40
0.23925
100
AcDbArc
 50
0.0
 51
18.4349488229
  0
ARC
  5
2D5
100
AcDbEntity
  8
LAYER_FEATURE
100
AcDbCircle
 62
7
  6
CONTINUOUS
 10
16.6831052569
 20
4.2394496346
 40
0.23925
100
AcDbArc
 50
180.0
 51
198.4349488229
  0
ARC
  5
2D6
100
AcDbEntity
  8
LAYER_FEATURE
100
AcDbCircle
 62
7
  6
CONTINUOUS
 10
16.6831052569
 20
6.6817997742
 40
0.23925
100
AcDbArc
 50
161.5650511771
 51
180.0
  0
CIRCLE
  5
2D7
100
AcDbEntity
  8
LAYER_FEATURE
100
AcDbCircle
 62
7
  6
CONTINUOUS
 10
14.9768552569
 20
5.4606247044
 40
0.1968
  0
ARC
  5
2D8
100
AcDbEntity
  8
LAYER_FEATURE
100
AcDbCircle
 62
7
  6
CONTINUOUS
 10
15.1901605641
 20
11.7669104713
 40
1.947220456
100
AcDbArc
 50
70.7810760784
 51
72.9930743744
  0
ARC
  5
2D9
100
AcDbEntity
  8
LAYER_FEATURE
100
AcDbCircle
 62
7
  6
CONTINUOUS
 10
15.2041469489
 20
11.8268462501
 40
1.8856632194
100
AcDbArc
 50
77.6715044853
 51
79.9313910076
  0
ARC
  5
2DA
100
AcDbEntity
  8
LAYER_FEATURE
100
AcDbCircle
 62
7
  6
CONTINUOUS
 10
15.2308542695
 20
11.8654656784
 40
1.8405479552
100
AcDbArc
 50
63.7680504199
 51
66.0647218521
  0
ARC
  5
2DB
100
AcDbEntity
  8
LAYER_FEATURE
100
AcDbCircle
 62
7
  6
CONTINUOUS
 10
15.2311405065
 20
12.0391308276
 40
1.6715456789
100
AcDbArc
 50
84.8541704671
 51
87.3031691591
  0
ARC
  5
2DC
100
AcDbEntity
  8
LAYER_FEATURE
100
AcDbCircle
 62
7
  6
CONTINUOUS
 10
15.3510732368
 20
12.082055373
 40
1.5926785491
100
AcDbArc
 50
56.1954303334
 51
58.7246348275
  0
ARC
  5
2DD
100
AcDbEntity
  8
LAYER_FEATURE
100
AcDbCircle
 62
7
  6
CONTINUOUS
 10
15.2301460334
 20
12.3526373281
 40
1.3578050543
100
AcDbArc
 50
92.7966421508
 51
95.6097394762
  0
ARC
  5
2DE
100
AcDbEntity
  8
LAYER_FEATURE
100
AcDbCircle
 62
7
  6
CONTINUOUS
 10
15.5475796971
 20
12.3452002658
 40
1.2639934926
100
AcDbArc
 50
47.5264313227
 51
50.4770734657
  0
ARC
  5
2DF
100
AcDbEntity
  8
LAYER_FEATURE
100
AcDbCircle
 62
7
  6
CONTINUOUS
 10
15.1778458773
 20
12.6894735807
 40
1.0165784292
100
AcDbArc
 50
102.0995555712
 51
105.5114628765
  0
ARC
  5
2E0
100
AcDbEntity
  8
LAYER_FEATURE
100
AcDbCircle
 62
7
  6
CONTINUOUS
 10
15.7884242597
 20
12.57920923
 40
0.9277973263
100
AcDbArc
 50
37.0445989025
 51
40.6708763597
  0
ARC
  5
2E1
100
AcDbEntity
  8
LAYER_FEATURE
100
AcDbCircle
 62
7
  6
CONTINUOUS
 10
15.078542183
 20
12.9729049448
 40
0.7157756889
100
AcDbArc
 50
113.5674447772
 51
117.8786171009
  0
ARC
  5
2E2
100
AcDbEntity
  8
LAYER_FEATURE
100
AcDbCircle
 62
7
  6
CONTINUOUS
 10
16.0174917402
 20
12.7291726263
 40
0.653542549
100
AcDbArc
 50
23.855673771
 51
28.4213526782
  0
ARC
  5
2E3
100
AcDbEntity
  8
LAYER_CUT_FEAT
100
AcDbCircle
 62
7
  6
CONTINUOUS
 10
14.9617356705
 20
12.462846883
 40
0.5533516199
100
AcDbArc
 50
206.1422945786
 51
207.2101878884
  0
ARC
  5
2E4
100
AcDbEntity
  8
LAYER_FEATURE
100
AcDbCircle
 62
7
  6
CONTINUOUS
 10
14.9631986802
 20
13.1543949466
 40
0.5001857691
100
AcDbArc
 50
128.1508692298
 51
133.6259161868
  0
ARC
  5
2E5
100
AcDbEntity
  8
LAYER_FEATURE
100
AcDbCircle
 62
7
  6
CONTINUOUS
 10
16.2007778053
 20
12.7933897105
 40
0.4587488204
100
AcDbArc
 50
7.069361157
 51
12.8694340241
  0
ARC
  5
2E6
100
AcDbEntity
  8
LAYER_FEATURE
100
AcDbCircle
 62
7
  6
CONTINUOUS
 10
14.8779108009
 20
13.2295218273
 40
0.3861035396
100
AcDbArc
 50
146.3820887412
 51
152.8888514958
  0
ARC
  5
2E7
100
AcDbEntity
  8
LAYER_FEATURE
100
AcDbCircle
 62
7
  6
CONTINUOUS
 10
16.286578204
 20
12.7968186921
 40
0.3725499373
100
AcDbArc
 50
347.0780944623
 51
353.7417882913
  0
ARC
  5
2E8
100
AcDbEntity
  8
LAYER_FEATURE
100
AcDbCircle
 62
7
  6
CONTINUOUS
 10
14.8813897023
 20
12.2946028126
 40
0.1289150129
100
AcDbArc
 50
198.907128622
 51
201.8982414415
  0
ARC
  5
2E9
100
AcDbEntity
  8
LAYER_FEATURE
100
AcDbCircle
 62
7
  6
CONTINUOUS
 10
15.0916946178
 20
12.3978169294
 40
0.128820465
100
AcDbArc
 50
29.3054074211
 51
33.3610112689
  0
SPLINE
  5
2EA
100
AcDbEntity
  8
02___PRT_ALL_AXES
100
AcDbSpline
 62
7
  6
CONTINUOUS
 70
0
 71
3
 72
31
 73
27
 74
0
 42
0.0000001
 43
0.0000001
 44
0.0000000001
 40
0.0
 40
0.0
 40
0.0
 40
0.0
 40
0.0099771968
 40
0.0393203262
 40
0.086430458
 40
0.1490667388
 40
0.1854155389
 40
0.224668435
 40
0.2664723692
 40
0.3104568973
 40
0.3562300496
 40
0.4033752881
 40
0.4514520123
 40
0.5000000004
 40
0.5485479885
 40
0.5966247127
 40
0.6437699512
 40
0.6895431034
 40
0.7335276315
 40
0.7753315657
 40
0.8145844618
 40
0.8509332618
 40
0.9135695425
 40
0.9606796738
 40
0.9900228033
 40
1.0
 40
1.0
 40
1.0
 40
1.0
 10
6.8898720839
 20
11.7705477814
 30
0.0
 10
6.8893941457
 20
11.7721389589
 30
0.0
 10
6.8875258299
 20
11.7784144227
 30
0.0
 10
6.8835526168
 20
11.792248132
 30
0.0
 10
6.8775900348
 20
11.8146309722
 30
0.0
 10
6.8720097327
 20
11.8383155881
 30
0.0
 10
6.8673479081
 20
11.8608594813
 30
0.0
 10
6.863801862
 20
11.8800874238
 30
0.0
 10
6.8605116852
 20
11.9006499418
 30
0.0
 10
6.8576072161
 20
11.922366908
 30
0.0
 10
6.8552072497
 20
11.9450404579
 30
0.0
 10
6.8534133249
 20
11.9684538748
 30
0.0
 10
6.8523038061
 20
11.9923725551
 30
0.0
 10
6.8519283277
 20
12.0165477816
 30
0.0
 10
6.8523038061
 20
12.040723008
 30
0.0
 10
6.853413325
 20
12.0646416883
 30
0.0
 10
6.8552072497
 20
12.0880551052
 30
0.0
 10
6.8576072161
 20
12.1107286551
 30
0.0
 10
6.8605116853
 20
12.1324456213
 30
0.0
 10
6.8638018621
 20
12.1530081393
 30
0.0
 10
6.8673479082
 20
12.1722360818
 30
0.0
 10
6.8720097328
 20
12.1947799749
 30
0.0
 10
6.8775900349
 20
12.2184645908
 30
0.0
 10
6.8835526168
 20
12.2408474308
 30
0.0
 10
6.8875258299
 20
12.2546811401
 30
0.0
 10
6.8893941457
 20
12.2609566038
 30
0.0
 10
6.8898720839
 20
12.2625477814
 30
0.0
  0
SPLINE
  5
2EB
100
AcDbEntity
  8
02___PRT_ALL_AXES
100
AcDbSpline
 62
7
  6
CONTINUOUS
 70
0
 71
3
 72
31
 73
27
 74
0
 42
0.0000001
 43
0.0000001
 44
0.0000000001
 40
0.0
 40
0.0
 40
0.0
 40
0.0
 40
0.0099771974
 40
0.0393203104
 40
0.0864304241
 40
0.1490667375
 40
0.1854155451
 40
0.2246684606
 40
0.2664723838
 40
0.3104569362
 40
0.356230079
 40
0.4033753072
 40
0.4514520264
 40
0.5
 40
0.5485479735
 40
0.5966246926
 40
0.643769921
 40
0.6895430637
 40
0.7335276162
 40
0.7753315393
 40
0.8145844548
 40
0.8509332624
 40
0.913569576
 40
0.9606796897
 40
0.9900228026
 40
1.0
 40
1.0
 40
1.0
 40
1.0
 10
15.2228552569
 20
6.2796247044
 30
0.0
 10
15.2212640795
 20
6.2791467655
 30
0.0
 10
15.2149886187
 20
6.277278449
 30
0.0
 10
15.2011549129
 20
6.2733052441
 30
0.0
 10
15.1787720739
 20
6.2673426594
 30
0.0
 10
15.1550874543
 20
6.2617623569
 30
0.0
 10
15.1325435527
 20
6.2571005235
 30
0.0
 10
15.1133156055
 20
6.2535544888
 30
0.0
 10
15.0927530849
 20
6.2502642933
 30
0.0
 10
15.0710361156
 20
6.2473598423
 30
0.0
 10
15.0483625659
 20
6.2449598687
 30
0.0
 10
15.0249491534
 20
6.2431659367
 30
0.0
 10
15.0010304775
 20
6.2420564325
 30
0.0
 10
14.976855257
 20
6.2416809427
 30
0.0
 10
14.9526800364
 20
6.2420564325
 30
0.0
 10
14.9287613605
 20
6.2431659367
 30
0.0
 10
14.905347948
 20
6.2449598687
 30
0.0
 10
14.8826743983
 20
6.2473598423
 30
0.0
 10
14.860957429
 20
6.2502642933
 30
0.0
 10
14.8403949084
 20
6.2535544888
 30
0.0
 10
14.8211669612
 20
6.2571005235
 30
0.0
 10
14.7986230596
 20
6.2617623569
 30
0.0
 10
14.77493844
 20
6.2673426594
 30
0.0
 10
14.7525556009
 20
6.2733052441
 30
0.0
 10
14.7387218952
 20
6.2772784491
 30
0.0
 10
14.7324464344
 20
6.2791467655
 30
0.0
 10
14.7308552569
 20
6.2796247044
 30
0.0
  0
SPLINE
  5
2EC
100
AcDbEntity
  8
02___PRT_ALL_AXES
100
AcDbSpline
 62
7
  6
CONTINUOUS
 70
0
 71
3
 72
70
 73
66
 74
0
 42
0.0000001
 43
0.0000001
 44
0.0000000001
 40
0.0
 40
0.0
 40
0.0
 40
0.0
 40
0.0135104257
 40
0.0275369849
 40
0.0420576764
 40
0.0570514276
 40
0.0724950769
 40
0.0883642717
 40
0.1046339307
 40
0.1212782378
 40
0.1382708858
 40
0.1555852043
 40
0.1731943495
 40
0.1910714164
 40
0.2091895603
 40
0.2275221148
 40
0.2460426657
 40
0.2647251438
 40
0.2835438488
 40
0.3024735023
 40
0.3214892791
 40
0.3405668334
 40
0.3596822955
 40
0.3788122819
 40
0.3979339133
 40
0.4170247924
 40
0.4360630336
 40
0.4550272324
 40
0.4738965198
 40
0.4926505634
 40
0.5112695679
 40
0.5297343668
 40
0.5480264213
 40
0.5661279052
 40
0.5840217639
 40
0.6016917805
 40
0.6191226927
 40
0.6363002369
 40
0.6532112696
 40
0.6698438522
 40
0.6861873274
 40
0.7022324167
 40
0.7179712504
 40
0.7333974755
 40
0.7632886563
 40
0.7777543089
 40
0.7918974101
 40
0.8057193514
 40
0.8192230923
 40
0.8324130543
 40
0.8452951373
 40
0.8578766921
 40
0.8701664413
 40
0.8821745418
 40
0.893912527
 40
0.9053933023
 40
0.9166312218
 40
0.9276420523
 40
0.938443037
 40
0.9490529359
 40
0.9594920221
 40
0.9697821451
 40
0.9799466859
 40
0.9900105259
 40
1.0
 40
1.0
 40
1.0
 40
1.0
 10
15.9161006612
 20
11.6750185384
 30
0.0
 10
15.9151096997
 20
11.6770379057
 30
0.0
 10
15.9131267766
 20
11.6811719585
 30
0.0
 10
15.9102014698
 20
11.687534312
 30
0.0
 10
15.9072736477
 20
11.6941664013
 30
0.0
 10
15.9043491825
 20
11.7010570065
 30
0.0
 10
15.9014342461
 20
11.7081947629
 30
0.0
 10
15.8985353817
 20
11.7155677988
 30
0.0
 10
15.8956594333
 20
11.7231639346
 30
0.0
 10
15.8928135287
 20
11.7309707679
 30
0.0
 10
15.8900050124
 20
11.7389756902
 30
0.0
 10
15.8872414636
 20
11.74716597
 30
0.0
 10
15.8845306386
 20
11.7555287868
 30
0.0
 10
15.8818804332
 20
11.7640512742
 30
0.0
 10
15.8792989008
 20
11.7727205671
 30
0.0
 10
15.8767941769
 20
11.7815238142
 30
0.0
 10
15.8743744894
 20
11.7904482131
 30
0.0
 10
15.8720481328
 20
11.7994810155
 30
0.0
 10
15.8698234306
 20
11.808609529
 30
0.0
 10
15.8677087434
 20
11.8178211175
 30
0.0
 10
15.8657124176
 20
11.8271031882
 30
0.0
 10
15.8638427938
 20
11.8364431827
 30
0.0
 10
15.8621081519
 20
11.8458285501
 30
0.0
 10
15.8605167127
 20
11.8552467305
 30
0.0
 10
15.8590765993
 20
11.8646851262
 30
0.0
 10
15.8577957739
 20
11.8741310754
 30
0.0
 10
15.8566820806
 20
11.883571831
 30
0.0
 10
15.8557430883
 20
11.8929945265
 30
0.0
 10
15.854986143
 20
11.9023861673
 30
0.0
 10
15.8544182918
 20
11.9117336071
 30
0.0
 10
15.8540461352
 20
11.921023537
 30
0.0
 10
15.8538759509
 20
11.9302424871
 30
0.0
 10
15.8539134284
 20
11.9393768285
 30
0.0
 10
15.8541636968
 20
11.9484127899
 30
0.0
 10
15.8546313455
 20
11.9573364756
 30
0.0
 10
15.8553201037
 20
11.9661339135
 30
0.0
 10
15.8562330436
 20
11.9747910847
 30
0.0
 10
15.8573724033
 20
11.9832939787
 30
0.0
 10
15.8587394054
 20
11.991628678
 30
0.0
 10
15.8603345031
 20
11.9997813768
 30
0.0
 10
15.8621570813
 20
12.0077385227
 30
0.0
 10
15.8642054495
 20
12.0154867776
 30
0.0
 10
15.8664771897
 20
12.0230134452
 30
0.0
 10
15.8697640727
 20
12.0326345122
 30
0.0
 10
15.8735053036
 20
12.0418712821
 30
0.0
 10
15.8777091733
 20
12.0506597546
 30
0.0
 10
15.8810235207
 20
12.0569010474
 30
0.0
 10
15.8845253154
 20
12.0628540296
 30
0.0
 10
15.8882056559
 20
12.0685100634
 30
0.0
 10
15.8920550518
 20
12.0738609312
 30
0.0
 10
15.8960633778
 20
12.0788991734
 30
0.0
 10
15.9002199609
 20
12.083618009
 30
0.0
 10
15.9045138041
 20
12.0880111939
 30
0.0
 10
15.9089334332
 20
12.0920731731
 30
0.0
 10
15.9134671258
 20
12.0957989057
 30
0.0
 10
15.9181029339
 20
12.099183833
 30
0.0
 10
15.9228286494
 20
12.1022239605
 30
0.0
 10
15.9276319807
 20
12.1049156427
 30
0.0
 10
15.9325004837
 20
12.1072556876
 30
0.0
 10
15.9374216278
 20
12.1092412911
 30
0.0
 10
15.9423828584
 20
12.1108699381
 30
0.0
 10
15.9473715163
 20
12.1121395344
 30
0.0
 10
15.9523750667
 20
12.1130482637
 30
0.0
 10
15.9573805151
 20
12.1135946431
 30
0.0
 10
15.9607205148
 20
12.1137169604
 30
0.0
 10
15.9623837068
 20
12.1137169574
 30
0.0
  0
SPLINE
  5
2ED
100
AcDbEntity
  8
02___PRT_ALL_AXES
100
AcDbSpline
 62
7
  6
CONTINUOUS
 70
0
 71
3
 72
37
 73
33
 74
0
 42
0.0000001
 43
0.0000001
 44
0.0000000001
 40
0.0
 40
0.0
 40
0.0
 40
0.0
 40
0.0390161751
 40
0.0775767608
 40
0.1156539513
 40
0.1532280354
 40
0.1902814007
 40
0.226797212
 40
0.2627606647
 40
0.2981599353
 40
0.3329855686
 40
0.3672308397
 40
0.4008917742
 40
0.4339674006
 40
0.4664598099
 40
0.4983742346
 40
0.5297192247
 40
0.5605065901
 40
0.6204636178
 40
0.6784177888
 40
0.7067162332
 40
0.7346010903
 40
0.7621084397
 40
0.7892774642
 40
0.8161504101
 40
0.8427722066
 40
0.8691902357
 40
0.8954539113
 40
0.9216142624
 40
0.9477234937
 40
0.9738344104
 40
1.0
 40
1.0
 40
1.0
 40
1.0
 10
14.9119224184
 20
12.1841171024
 30
0.0
 10
14.9096222264
 20
12.1841171024
 30
0.0
 10
14.9050485626
 20
12.1841622169
 30
0.0
 10
14.8982328457
 20
12.1843678028
 30
0.0
 10
14.891507746
 20
12.1847108989
 30
0.0
 10
14.8848801326
 20
12.1851913124
 30
0.0
 10
14.8783563159
 20
12.185808834
 30
0.0
 10
14.8719424735
 20
12.1865631772
 30
0.0
 10
14.8656446072
 20
12.187454043
 30
0.0
 10
14.8594684583
 20
12.18848103
 30
0.0
 10
14.8534194962
 20
12.1896437312
 30
0.0
 10
14.8475029422
 20
12.1909416738
 30
0.0
 10
14.8417237601
 20
12.1923743687
 30
0.0
 10
14.8360866547
 20
12.1939412813
 30
0.0
 10
14.8305960636
 20
12.1956418605
 30
0.0
 10
14.8252562034
 20
12.1974755241
 30
0.0
 10
14.8200709261
 20
12.1994417062
 30
0.0
 10
14.813427519
 20
12.2022144652
 30
0.0
 10
14.8055129123
 20
12.2060020182
 30
0.0
 10
14.7980265198
 20
12.2102932109
 30
0.0
 10
14.7923995437
 20
12.213986139
 30
0.0
 10
14.7883885934
 20
12.2168620816
 30
0.0
 10
14.7845562182
 20
12.2198652452
 30
0.0
 10
14.7809045722
 20
12.2229949424
 30
0.0
 10
14.7774357175
 20
12.2262503535
 30
0.0
 10
14.774151607
 20
12.2296306703
 30
0.0
 10
14.7710540321
 20
12.2331349721
 30
0.0
 10
14.7681447169
 20
12.2367623197
 30
0.0
 10
14.7654252217
 20
12.2405116322
 30
0.0
 10
14.7628970374
 20
12.2443818247
 30
0.0
 10
14.7605615592
 20
12.2483715012
 30
0.0
 10
14.7591361902
 20
12.2511056771
 30
0.0
 10
14.7584566161
 20
12.2524905079
 30
0.0
  0
SPLINE
  5
2EE
100
AcDbEntity
  8
LAYER_CUT_FEAT
100
AcDbSpline
 62
7
  6
CONTINUOUS
 70
0
 71
3
 72
28
 73
24
 74
0
 42
0.0000001
 43
0.0000001
 44
0.0000000001
 40
0.0
 40
0.0
 40
0.0
 40
0.0
 40
0.0696894171
 40
0.1381380473
 40
0.2053812452
 40
0.2714663202
 40
0.3364452313
 40
0.4003773948
 40
0.4633294358
 40
0.5253748187
 40
0.5865938857
 40
0.6470734889
 40
0.7069065559
 40
0.7366137012
 40
0.7661965789
 40
0.7956682558
 40
0.8250420417
 40
0.8543314943
 40
0.8835503566
 40
0.9127125388
 40
0.9418320957
 40
0.9709231754
 40
1.0
 40
1.0
 40
1.0
 40
1.0
 10
14.4649904954
 20
12.2190390771
 30
0.0
 10
14.4620638057
 20
12.2250030436
 30
0.0
 10
14.456478268
 20
12.236932271
 30
0.0
 10
14.4488590825
 20
12.2549726976
 30
0.0
 10
14.4420825541
 20
12.2729801731
 30
0.0
 10
14.4361554334
 20
12.290937041
 30
0.0
 10
14.4310835005
 20
12.3088264012
 30
0.0
 10
14.4268717809
 20
12.3266311096
 30
0.0
 10
14.4235244825
 20
12.3443341543
 30
0.0
 10
14.4210450384
 20
12.3619185632
 30
0.0
 10
14.419436015
 20
12.3793675341
 30
0.0
 10
14.4186991199
 20
12.396663963
 30
0.0
 10
14.418812932
 20
12.4109714509
 30
0.0
 10
14.4193431181
 20
12.4223159231
 30
0.0
 10
14.4199577218
 20
12.4307560798
 30
0.0
 10
14.4207900673
 20
12.4391455745
 30
0.0
 10
14.4218400073
 20
12.4474824561
 30
0.0
 10
14.423107247
 20
12.4557647083
 30
0.0
 10
14.4245914933
 20
12.4639903486
 30
0.0
 10
14.4262924273
 20
12.472157386
 30
0.0
 10
14.4282095963
 20
12.4802638896
 30
0.0
 10
14.4303425478
 20
12.4883078294
 30
0.0
 10
14.4319082243
 20
12.4936280788
 30
0.0
 10
14.432726604
 20
12.4962763564
 30
0.0
  0
SPLINE
  5
2EF
100
AcDbEntity
  8
LAYER_CHAMFER_FEAT
100
AcDbSpline
 62
7
  6
CONTINUOUS
 70
0
 71
3
 72
28
 73
24
 74
0
 42
0.0000001
 43
0.0000001
 44
0.0000000001
 40
0.0
 40
0.0
 40
0.0
 40
0.0
 40
0.0739466903
 40
0.1460971176
 40
0.2164555449
 40
0.2850408898
 40
0.3518876606
 40
0.4170469197
 40
0.4805872163
 40
0.5425953953
 40
0.6031770258
 40
0.6624565598
 40
0.7205770933
 40
0.7492568168
 40
0.7777085641
 40
0.8059550324
 40
0.83401974
 40
0.8619270675
 40
0.8897021046
 40
0.9173705276
 40
0.9449585564
 40
0.9724927654
 40
1.0
 40
1.0
 40
1.0
 40
1.0
 10
14.8932049917
 20
11.7773026432
 30
0.0
 10
14.8891794143
 20
11.7760700545
 30
0.0
 10
14.8812745507
 20
11.7734723631
 30
0.0
 10
14.8697408139
 20
11.7691204068
 30
0.0
 10
14.8586969302
 20
11.7643686163
 30
0.0
 10
14.8481642434
 20
11.759225978
 30
0.0
 10
14.8381628276
 20
11.7537020808
 30
0.0
 10
14.8287118793
 20
11.74780723
 30
0.0
 10
14.8198295781
 20
11.7415523964
 30
0.0
 10
14.8115330872
 20
11.7349492911
 30
0.0
 10
14.8038384687
 20
11.7280101805
 30
0.0
 10
14.7967609845
 20
11.7207483689
 30
0.0
 10
14.7913646285
 20
11.7144105167
 30
0.0
 10
14.7873782154
 20
11.709197115
 30
0.0
 10
14.784563688
 20
11.7052326472
 30
0.0
 10
14.7819128468
 20
11.7011987828
 30
0.0
 10
14.7794269863
 20
11.6970973695
 30
0.0
 10
14.7771073082
 20
11.6929304058
 30
0.0
 10
14.7749549024
 20
11.688699906
 30
0.0
 10
14.7729708875
 20
11.6844078793
 30
0.0
 10
14.7711561538
 20
11.6800564037
 30
0.0
 10
14.769511631
 20
11.6756476515
 30
0.0
 10
14.7685290843
 20
11.6726710107
 30
0.0
 10
14.7680667015
 20
11.6711747388
 30
0.0
  0
SPLINE
  5
2F0
100
AcDbEntity
  8
LAYER_CHAMFER_FEAT
100
AcDbSpline
 62
7
  6
CONTINUOUS
 70
0
 71
3
 72
28
 73
24
 74
0
 42
0.0000001
 43
0.0000001
 44
0.0000000001
 40
0.0
 40
0.0
 40
0.0
 40
0.0
 40
0.0739369536
 40
0.1460786831
 40
0.2164295894
 40
0.2850087126
 40
0.351850667
 40
0.4170065947
 40
0.4805450881
 40
0.5425530043
 40
0.6031358931
 40
0.6624181475
 40
0.7205427587
 40
0.7492249798
 40
0.7776795088
 40
0.8059290162
 40
0.8339969927
 40
0.8619077932
 40
0.889686474
 40
0.9173586806
 40
0.9449505992
 40
0.9724887688
 40
1.0
 40
1.0
 40
1.0
 40
1.0
 10
15.4412792527
 20
11.6078461777
 30
0.0
 10
15.4439033472
 20
11.6045594239
 30
0.0
 10
15.4489562213
 20
11.5979591402
 30
0.0
 10
15.4560120165
 20
11.5878656834
 30
0.0
 10
15.4624385778
 20
11.5777187388
 30
0.0
 10
15.4682233919
 20
11.5675377269
 30
0.0
 10
15.473355331
 20
11.5573418482
 30
0.0
 10
15.4778243941
 20
11.5471504
 30
0.0
 10
15.4816217872
 20
11.5369826534
 30
0.0
 10
15.4847399713
 20
11.5268579181
 30
0.0
 10
15.4871726289
 20
11.5167953417
 30
0.0
 10
15.4889146849
 20
11.5068144757
 30
0.0
 10
15.489791572
 20
11.4985436514
 30
0.0
 10
15.4901398393
 20
11.4919953126
 30
0.0
 10
15.4902258828
 20
11.4871379417
 30
0.0
 10
15.4901378832
 20
11.4823155821
 30
0.0
 10
15.489875811
 20
11.4775304847
 30
0.0
 10
15.4894398091
 20
11.472784972
 30
0.0
 10
15.4888301071
 20
11.4680813173
 30
0.0
 10
15.4880469173
 20
11.4634218054
 30
0.0
 10
15.4870906791
 20
11.4588086485
 30
0.0
 10
15.4859618429
 20
11.4542441611
 30
0.0
 10
15.4850943552
 20
11.4512343856
 30
0.0
 10
15.4846323133
 20
11.4497392168
 30
0.0
  0
SPLINE
  5
2F1
100
AcDbEntity
  8
LAYER_FEATURE
100
AcDbSpline
 62
7
  6
CONTINUOUS
 70
0
 71
3
 72
45
 73
41
 74
0
 42
0.0000001
 43
0.0000001
 44
0.0000000001
 40
0.0
 40
0.0
 40
0.0
 40
0.0
 40
0.009989956
 40
0.020281742
 40
0.0308783909
 40
0.0417818591
 40
0.0529929634
 40
0.064511484
 40
0.0763363783
 40
0.0884656062
 40
0.1008964791
 40
0.1136254816
 40
0.1266484485
 40
0.1399606356
 40
0.1674293164
 40
0.1959835247
 40
0.2255662847
 40
0.2561139311
 40
0.2875569131
 40
0.3198205372
 40
0.3528256194
 40
0.3864890737
 40
0.4207244586
 40
0.4554424882
 40
0.4905515263
 40
0.5259580764
 40
0.5615672437
 40
0.597283188
 40
0.6330095695
 40
0.6686499971
 40
0.7041084819
 40
0.7392898877
 40
0.7741003772
 40
0.8084478794
 40
0.8422425524
 40
0.875397261
 40
0.9078283042
 40
0.939455082
 40
0.9702031904
 40
1.0
 40
1.0
 40
1.0
 40
1.0
 10
16.0080508029
 20
12.0460622612
 30
0.0
 10
16.0087136242
 20
12.0452681699
 30
0.0
 10
16.0100297941
 20
12.0436311627
 30
0.0
 10
16.01194739
 20
12.0410722163
 30
0.0
 10
16.0138361032
 20
12.0383755564
 30
0.0
 10
16.0156943815
 20
12.0355433378
 30
0.0
 10
16.0175207822
 20
12.0325777944
 30
0.0
 10
16.0193138883
 20
12.0294812859
 30
0.0
 10
16.0210722397
 20
12.0262562412
 30
0.0
 10
16.0227945031
 20
12.0229052383
 30
0.0
 10
16.024479269
 20
12.0194309109
 30
0.0
 10
16.0261252279
 20
12.0158360264
 30
0.0
 10
16.0277310877
 20
12.0121234227
 30
0.0
 10
16.0298390069
 20
12.006966397
 30
0.0
 10
16.0323600667
 20
12.0002426667
 30
0.0
 10
16.0351748471
 20
11.9918360538
 30
0.0
 10
16.0378010259
 20
11.9830354984
 30
0.0
 10
16.0402302337
 20
11.9738689372
 30
0.0
 10
16.0424547517
 20
11.9643653674
 30
0.0
 10
16.0444674955
 20
11.9545549169
 30
0.0
 10
16.0462620516
 20
11.9444686948
 30
0.0
 10
16.0478326977
 20
11.9341387028
 30
0.0
 10
16.0491744213
 20
11.9235977278
 30
0.0
 10
16.0502829403
 20
11.9128792387
 30
0.0
 10
16.0511547219
 20
11.9020172772
 30
0.0
 10
16.051786986
 20
11.8910463455
 30
0.0
 10
16.0521777153
 20
11.880001295
 30
0.0
 10
16.0523256619
 20
11.8689172151
 30
0.0
 10
16.0522303499
 20
11.8578293217
 30
0.0
 10
16.0518920833
 20
11.846772843
 30
0.0
 10
16.0513119455
 20
11.8357829059
 30
0.0
 10
16.0504917887
 20
11.8248944227
 30
0.0
 10
16.0494342297
 20
11.8141419798
 30
0.0
 10
16.0481426414
 20
11.8035597267
 30
0.0
 10
16.0466211389
 20
11.7931812707
 30
0.0
 10
16.0448745814
 20
11.7830395399
 30
0.0
 10
16.0429085316
 20
11.7731667695
 30
0.0
 10
16.0407292675
 20
11.7635941292
 30
0.0
 10
16.0383437301
 20
11.7543522236
 30
0.0
 10
16.0365921073
 20
11.7483317612
 30
0.0
 10
16.0356812162
 20
11.7453841164
 30
0.0
  0
SPLINE
  5
2F2
100
AcDbEntity
  8
LAYER_FEATURE
100
AcDbSpline
 62
7
  6
CONTINUOUS
 70
0
 71
3
 72
23
 73
19
 74
0
 42
0.0000001
 43
0.0000001
 44
0.0000000001
 40
0.0
 40
0.0
 40
0.0
 40
0.0
 40
0.0507377155
 40
0.1030493762
 40
0.1569516586
 40
0.2124540277
 40
0.2695607267
 40
0.3282698489
 40
0.3885747904
 40
0.4504644232
 40
0.5139231573
 40
0.5789318532
 40
0.6454662965
 40
0.7134996618
 40
0.7830037887
 40
0.8539489856
 40
0.9262973792
 40
1.0
 40
1.0
 40
1.0
 40
1.0
 10
16.0080508039
 20
11.68937165
 30
0.0
 10
16.0087318295
 20
11.6901875584
 30
0.0
 10
16.0100838519
 20
11.6918709161
 30
0.0
 10
16.0120521298
 20
11.6945049368
 30
0.0
 10
16.0139897982
 20
11.697284125
 30
0.0
 10
16.0158952765
 20
11.7002060816
 30
0.0
 10
16.0177669391
 20
11.7032684138
 30
0.0
 10
16.0196032722
 20
11.7064685381
 30
0.0
 10
16.0214027316
 20
11.7098037934
 30
0.0
 10
16.02316381
 20
11.7132714015
 30
0.0
 10
16.024885073
 20
11.7168684598
 30
0.0
 10
16.026565027
 20
11.7205919714
 30
0.0
 10
16.0282023202
 20
11.724438777
 30
0.0
 10
16.0297955425
 20
11.7284056822
 30
0.0
 10
16.0313434092
 20
11.7324894415
 30
0.0
 10
16.0328446207
 20
11.7366866877
 30
0.0
 10
16.0342978403
 20
11.7409936808
 30
0.0
 10
16.0352254085
 20
11.7439091221
 30
0.0
 10
16.0356812162
 20
11.7453841164
 30
0.0
  0
SPLINE
  5
2F3
100
AcDbEntity
  8
02___PRT_ALL_AXES
100
AcDbSpline
 62
7
  6
CONTINUOUS
 70
0
 71
3
 72
37
 73
33
 74
0
 42
0.0000001
 43
0.0000001
 44
0.0000000001
 40
0.0
 40
0.0
 40
0.0
 40
0.0
 40
0.0177204758
 40
0.0356711482
 40
0.0539712924
 40
0.0727333387
 40
0.0920609474
 40
0.1120487691
 40
0.1327817535
 40
0.1543347493
 40
0.1767738523
 40
0.2001565366
 40
0.2245318169
 40
0.2499421276
 40
0.2764233975
 40
0.3040051855
 40
0.3327125747
 40
0.3625658741
 40
0.3935806763
 40
0.4257696154
 40
0.4591416389
 40
0.4937021263
 40
0.5294544891
 40
0.5663991428
 40
0.6045338393
 40
0.6438549578
 40
0.6843559815
 40
0.7260281982
 40
0.7688619883
 40
0.8128461693
 40
0.9042140029
 40
1.0
 40
1.0
 40
1.0
 40
1.0
 10
15.9623837068
 20
11.6217169588
 30
0.0
 10
15.9619510165
 20
11.6217169605
 30
0.0
 10
15.9610796084
 20
11.6217531728
 30
0.0
 10
15.9597703625
 20
11.6219147699
 30
0.0
 10
15.9584529247
 20
11.622183789
 30
0.0
 10
15.9571271749
 20
11.6225600896
 30
0.0
 10
15.9557927961
 20
11.6230434472
 30
0.0
 10
15.9544495043
 20
11.6236336605
 30
0.0
 10
15.9530970012
 20
11.6243305056
 30
0.0
 10
15.9517349823
 20
11.6251337165
 30
0.0
 10
15.9503631804
 20
11.6260430476
 30
0.0
 10
15.9489813578
 20
11.6270582231
 30
0.0
 10
15.9475892967
 20
11.6281789219
 30
0.0
 10
15.9461868372
 20
11.6294048136
 30
0.0
 10
15.9447738581
 20
11.6307355196
 30
0.0
 10
15.9433502695
 20
11.6321706081
 30
0.0
 10
15.9419160404
 20
11.6337096138
 30
0.0
 10
15.9404711783
 20
11.6353520128
 30
0.0
 10
15.9390157287
 20
11.6370972254
 30
0.0
 10
15.9375497913
 20
11.6389446213
 30
0.0
 10
15.9360735047
 20
11.6408935075
 30
0.0
 10
15.9345870514
 20
11.6429431328
 30
0.0
 10
15.9330906614
 20
11.645092686
 30
0.0
 10
15.931584605
 20
11.6473412957
 30
0.0
 10
15.9300691993
 20
11.6496880342
 30
0.0
 10
15.9285448052
 20
11.6521319028
 30
0.0
 10
15.9270118314
 20
11.6546718347
 30
0.0
 10
15.9254707393
 20
11.6573066983
 30
0.0
 10
15.9239220069
 20
11.66003531
 30
0.0
 10
15.921820864
 20
11.6638452924
 30
0.0
 10
15.9191825101
 20
11.6688350145
 30
0.0
 10
15.9171310278
 20
11.672918872
 30
0.0
 10
15.9161006612
 20
11.6750185384
 30
0.0
  0
SPLINE
  5
2F4
100
AcDbEntity
  8
LAYER_FEATURE
100
AcDbSpline
 62
7
  6
CONTINUOUS
 70
0
 71
3
 72
46
 73
42
 74
0
 42
0.0000001
 43
0.0000001
 44
0.0000000001
 40
0.0
 40
0.0
 40
0.0
 40
0.0
 40
0.012804138
 40
0.025614115
 40
0.038435758
 40
0.0512748655
 40
0.0641371999
 40
0.0770284692
 40
0.0899543176
 40
0.1029203173
 40
0.1159319465
 40
0.1289945922
 40
0.1421135309
 40
0.1552939181
 40
0.1818571014
 40
0.2087247625
 40
0.2359331573
 40
0.2635160122
 40
0.2915043969
 40
0.3199266337
 40
0.3488082622
 40
0.3781720316
 40
0.393041766
 40
0.4080392884
 40
0.4384245313
 40
0.4693436976
 40
0.500808767
 40
0.5328292176
 40
0.5654121099
 40
0.5985621928
 40
0.6322820127
 40
0.6665720163
 40
0.7014306429
 40
0.7368544278
 40
0.77283811
 40
0.8093747275
 40
0.8464557018
 40
0.884070925
 40
0.9222088563
 40
0.9608566043
 40
1.0
 40
1.0
 40
1.0
 40
1.0
 10
13.9755577297
 20
12.6375522238
 30
0.0
 10
13.9743662349
 20
12.6336965392
 30
0.0
 10
13.9720830815
 20
12.6259519784
 30
0.0
 10
13.9689609702
 20
12.6142457478
 30
0.0
 10
13.9661418082
 20
12.6024514743
 30
0.0
 10
13.963626204
 20
12.5905719077
 30
0.0
 10
13.9614147712
 20
12.5786096612
 30
0.0
 10
13.9595079624
 20
12.5665674239
 30
0.0
 10
13.9579061931
 20
12.5544478825
 30
0.0
 10
13.9566098657
 20
12.5422537411
 30
0.0
 10
13.9556192002
 20
12.5299877228
 30
0.0
 10
13.9549344548
 20
12.5176525856
 30
0.0
 10
13.9545557811
 20
12.5052509944
 30
0.0
 10
13.9544587433
 20
12.4885887615
 30
0.0
 10
13.9551092954
 20
12.4675954201
 30
0.0
 10
13.9571129642
 20
12.4422495128
 30
0.0
 10
13.9603395536
 20
12.4167061636
 30
0.0
 10
13.9647859507
 20
12.3909886049
 30
0.0
 10
13.9704479477
 20
12.3651196693
 30
0.0
 10
13.9773202669
 20
12.3391223481
 30
0.0
 10
13.9853964805
 20
12.3130199612
 30
0.0
 10
13.9930912853
 20
12.2912914035
 30
0.0
 10
13.9998328009
 20
12.2738817857
 30
0.0
 10
14.0070284413
 20
12.2563064504
 30
0.0
 10
14.0167700931
 20
12.2343125897
 30
0.0
 10
14.0295778973
 20
12.2080213542
 30
0.0
 10
14.04354248
 20
12.1817408743
 30
0.0
 10
14.0586512331
 20
12.1554946818
 30
0.0
 10
14.0748906708
 20
12.1293059458
 30
0.0
 10
14.0922462768
 20
12.1031978758
 30
0.0
 10
14.1107025777
 20
12.0771935935
 30
0.0
 10
14.1302431399
 20
12.0513161475
 30
0.0
 10
14.1508505629
 20
12.0255884716
 30
0.0
 10
14.1725064968
 20
12.0000333683
 30
0.0
 10
14.1951916765
 20
11.9746734992
 30
0.0
 10
14.2188859339
 20
11.9495313652
 30
0.0
 10
14.2435682047
 20
11.9246292745
 30
0.0
 10
14.2692165205
 20
11.8999893293
 30
0.0
 10
14.2958081254
 20
11.8756333652
 30
0.0
 10
14.3233192036
 20
11.8515831542
 30
0.0
 10
14.3421396287
 20
11.8358654731
 30
0.0
 10
14.3516948241
 20
11.828061401
 30
0.0
  0
SPLINE
  5
2F5
100
AcDbEntity
  8
LAYER_FEATURE
100
AcDbSpline
 62
7
  6
CONTINUOUS
 70
0
 71
3
 72
30
 73
26
 74
0
 42
0.0000001
 43
0.0000001
 44
0.0000000001
 40
0.0
 40
0.0
 40
0.0
 40
0.0
 40
0.0289281316
 40
0.0578716185
 40
0.0868457772
 40
0.1158658401
 40
0.1449469273
 40
0.1741039908
 40
0.2033517979
 40
0.2327048791
 40
0.2621774996
 40
0.2917836397
 40
0.3215369346
 40
0.3514506903
 40
0.3815378154
 40
0.411810827
 40
0.4729576313
 40
0.5349875883
 40
0.5979847234
 40
0.6620253453
 40
0.7271778841
 40
0.7935028452
 40
0.8610528592
 40
0.9298728037
 40
1.0
 40
1.0
 40
1.0
 40
1.0
 10
14.2348107621
 20
13.476495344
 30
0.0
 10
14.2335252306
 20
13.472335356
 30
0.0
 10
14.2310703314
 20
13.4639765441
 30
0.0
 10
14.227740383
 20
13.4513346123
 30
0.0
 10
14.2247632178
 20
13.4385906687
 30
0.0
 10
14.2221396115
 20
13.4257481664
 30
0.0
 10
14.2198703003
 20
13.4128104008
 30
0.0
 10
14.217955794
 20
13.3997807612
 30
0.0
 10
14.2163966467
 20
13.3866626255
 30
0.0
 10
14.2151932275
 20
13.3734594118
 30
0.0
 10
14.2143458273
 20
13.3601745523
 30
0.0
 10
14.2138547103
 20
13.3468115014
 30
0.0
 10
14.2137199207
 20
13.3333737257
 30
0.0
 10
14.2139415528
 20
13.319864744
 30
0.0
 10
14.2145195042
 20
13.3062879602
 30
0.0
 10
14.2157690206
 20
13.2880405155
 30
0.0
 10
14.2182311429
 20
13.2650650157
 30
0.0
 10
14.2225975168
 20
13.2373745163
 30
0.0
 10
14.2283806291
 20
13.2095000193
 30
0.0
 10
14.2355741032
 20
13.1814709239
 30
0.0
 10
14.244170163
 20
13.1533160751
 30
0.0
 10
14.2541595881
 20
13.1250646225
 30
0.0
 10
14.2655318457
 20
13.0967455704
 30
0.0
 10
14.2782746696
 20
13.0683886136
 30
0.0
 10
14.2875863909
 20
13.0496558337
 30
0.0
 10
14.2924595738
 20
13.0402929943
 30
0.0
  0
SPLINE
  5
2F6
100
AcDbEntity
  8
LAYER_FEATURE
100
AcDbSpline
 62
7
  6
CONTINUOUS
 70
0
 71
3
 72
47
 73
43
 74
0
 42
0.0000001
 43
0.0000001
 44
0.0000000001
 40
0.0
 40
0.0
 40
0.0
 40
0.0
 40
0.01280387
 40
0.0256135803
 40
0.0384349573
 40
0.0512738015
 40
0.0641358758
 40
0.0770268874
 40
0.0899524846
 40
0.1029182361
 40
0.1159296232
 40
0.1289920348
 40
0.1421107433
 40
0.1552909105
 40
0.1818536742
 40
0.208720954
 40
0.2359290071
 40
0.2635115601
 40
0.291499684
 40
0.3056556024
 40
0.3199232976
 40
0.3488047617
 40
0.378168411
 40
0.3930381008
 40
0.4080355902
 40
0.4384208045
 40
0.4693399889
 40
0.5008051174
 40
0.5328256632
 40
0.565408692
 40
0.5985589503
 40
0.6322789773
 40
0.6665692128
 40
0.7014280988
 40
0.7368521695
 40
0.7728361554
 40
0.8093730871
 40
0.8464543857
 40
0.8840699424
 40
0.9222082131
 40
0.9608562851
 40
1.0
 40
1.0
 40
1.0
 40
1.0
 10
16.6841758078
 20
11.8005259304
 30
0.0
 10
16.6829842244
 20
11.7966699593
 30
0.0
 10
16.6804998849
 20
11.7889869409
 30
0.0
 10
16.6764730125
 20
11.7775593621
 30
0.0
 10
16.6721463314
 20
11.7662300054
 30
0.0
 10
16.6675208218
 20
11.755001511
 30
0.0
 10
16.6625974869
 20
11.7438763708
 30
0.0
 10
16.6573774855
 20
11.7328570514
 30
0.0
 10
16.6518619322
 20
11.7219460358
 30
0.0
 10
16.646052091
 20
11.7111457485
 30
0.0
 10
16.6399492751
 20
11.7004585833
 30
0.0
 10
16.6335548183
 20
11.6898869713
 30
0.0
 10
16.6268701503
 20
11.6794331658
 30
0.0
 10
16.6175488798
 20
11.6656202339
 30
0.0
 10
16.6051665398
 20
11.6486528557
 30
0.0
 10
16.5892109533
 20
11.6288550466
 30
0.0
 10
16.5721340621
 20
11.6095842018
 30
0.0
 10
16.5539517646
 20
11.5908579414
 30
0.0
 10
16.5379529685
 20
11.5757774803
 30
0.0
 10
16.524628109
 20
11.5640017465
 30
0.0
 10
16.5108422878
 20
11.5523283618
 30
0.0
 10
16.4929393821
 20
11.5381077542
 30
0.0
 10
16.4743253851
 20
11.5245082048
 30
0.0
 10
16.4589353372
 20
11.5139368194
 30
0.0
 10
16.4430767938
 20
11.5034848592
 30
0.0
 10
16.4226227439
 20
11.4908210816
 30
0.0
 10
16.3972120546
 20
11.4763390385
 30
0.0
 10
16.3708522197
 20
11.4625186085
 30
0.0
 10
16.3435669372
 20
11.4493721002
 30
0.0
 10
16.3153804079
 20
11.436911056
 30
0.0
 10
16.2863177184
 20
11.4251464497
 30
0.0
 10
16.2564047014
 20
11.4140886366
 30
0.0
 10
16.2256679399
 20
11.4037473667
 30
0.0
 10
16.1941347396
 20
11.3941317736
 30
0.0
 10
16.1618331209
 20
11.3852503381
 30
0.0
 10
16.1287917872
 20
11.3771108938
 30
0.0
 10
16.095040096
 20
11.3697206321
 30
0.0
 10
16.0606080291
 20
11.3630860961
 30
0.0
 10
16.025526198
 20
11.3572131514
 30
0.0
 10
15.9898257241
 20
11.3521069805
 30
0.0
 10
15.9535385637
 20
11.3477721136
 30
0.0
 10
15.929129221
 20
11.3454136438
 30
0.0
 10
15.9168357404
 20
11.3443614504
 30
0.0
  0
SPLINE
  5
2F7
100
AcDbEntity
  8
LAYER_FEATURE
100
AcDbSpline
 62
7
  6
CONTINUOUS
 70
0
 71
3
 72
31
 73
27
 74
0
 42
0.0000001
 43
0.0000001
 44
0.0000000001
 40
0.0
 40
0.0
 40
0.0
 40
0.0
 40
0.0289275037
 40
0.0578703673
 40
0.0868439082
 40
0.1158633661
 40
0.1449438603
 40
0.1741003487
 40
0.2033476036
 40
0.2327001522
 40
0.2621722732
 40
0.2917779374
 40
0.321530793
 40
0.3514441448
 40
0.3815308987
 40
0.4118035884
 40
0.4422743014
 40
0.4729547028
 40
0.5349843106
 40
0.5979812946
 40
0.6620219706
 40
0.7271747711
 40
0.7935002008
 40
0.8610508878
 40
0.929871714
 40
1.0
 40
1.0
 40
1.0
 40
1.0
 10
16.9434288402
 20
12.6394690506
 30
0.0
 10
16.9421431451
 20
12.6353085332
 30
0.0
 10
16.9394538991
 20
12.6270209785
 30
0.0
 10
16.9350704438
 20
12.6147028666
 30
0.0
 10
16.9303381105
 20
12.602499572
 30
0.0
 10
16.9252581211
 20
12.5904144191
 30
0.0
 10
16.919831809
 20
12.5784505115
 30
0.0
 10
16.9140606159
 20
12.5666109573
 30
0.0
 10
16.9079459936
 20
12.5548988604
 30
0.0
 10
16.9014896081
 20
12.5433172277
 30
0.0
 10
16.8946930844
 20
12.5318691012
 30
0.0
 10
16.8875582333
 20
12.5205574329
 30
0.0
 10
16.8800869168
 20
12.5093851555
 30
0.0
 10
16.8722810523
 20
12.498355193
 30
0.0
 10
16.8641427268
 20
12.4874703581
 30
0.0
 10
16.8556740214
 20
12.4767335359
 30
0.0
 10
16.8468771191
 20
12.4661474006
 30
0.0
 10
16.8346696892
 20
12.4521871577
 30
0.0
 10
16.8185848447
 20
12.4351233703
 30
0.0
 10
16.7980800913
 20
12.415369816
 30
0.0
 10
16.7763230378
 20
12.3962841152
 30
0.0
 10
16.7533367873
 20
12.3778861915
 30
0.0
 10
16.7291453035
 20
12.3601947802
 30
0.0
 10
16.7037736895
 20
12.3432279255
 30
0.0
 10
16.6772488251
 20
12.3270032231
 30
0.0
 10
16.6589882815
 20
12.3167894792
 30
0.0
 10
16.6496805476
 20
12.3118081719
 30
0.0
  0
SPLINE
  5
2F8
100
AcDbEntity
  8
LAYER_CUT_FEAT
100
AcDbSpline
 62
7
  6
CONTINUOUS
 70
0
 71
3
 72
28
 73
24
 74
0
 42
0.0000001
 43
0.0000001
 44
0.0000000001
 40
0.0
 40
0.0
 40
0.0
 40
0.0
 40
0.0289602886
 40
0.0579356952
 40
0.0869412994
 40
0.115992099
 40
0.1451029856
 40
0.1742886859
 40
0.2035637439
 40
0.2329424871
 40
0.2624389681
 40
0.2920669738
 40
0.3517659161
 40
0.4121480732
 40
0.4733107004
 40
0.5353442741
 40
0.5983320608
 40
0.662349803
 40
0.7274655383
 40
0.7937395771
 40
0.8612245471
 40
0.9299654823
 40
1.0
 40
1.0
 40
1.0
 40
1.0
 10
16.2270069335
 20
11.9418017978
 30
0.0
 10
16.2261624442
 20
11.9390690295
 30
0.0
 10
16.2243967181
 20
11.9336253113
 30
0.0
 10
16.2215204466
 20
11.9255334435
 30
0.0
 10
16.2184169235
 20
11.9175163277
 30
0.0
 10
16.2150869935
 20
11.9095760879
 30
0.0
 10
16.2115314516
 20
11.9017147548
 30
0.0
 10
16.2077512615
 20
11.8939343243
 30
0.0
 10
16.2037473761
 20
11.8862367838
 30
0.0
 10
16.199520809
 20
11.8786241318
 30
0.0
 10
16.1950726474
 20
11.8710982251
 30
0.0
 10
16.1888325955
 20
11.8611576813
 30
0.0
 10
16.1804742485
 20
11.8489516694
 30
0.0
 10
16.1696027469
 20
11.834720838
 30
0.0
 10
16.1578753559
 20
11.8208830256
 30
0.0
 10
16.1453044514
 20
11.8074525763
 30
0.0
 10
16.1319030134
 20
11.794443007
 30
0.0
 10
16.1176849018
 20
11.7818674804
 30
0.0
 10
16.1026647695
 20
11.7697386435
 30
0.0
 10
16.0868580693
 20
11.7580687126
 30
0.0
 10
16.0702809055
 20
11.7468693827
 30
0.0
 10
16.0529505545
 20
11.7361520888
 30
0.0
 10
16.0410188087
 20
11.7293992265
 30
0.0
 10
16.0349369512
 20
11.7261044116
 30
0.0
  0
SPLINE
  5
2F9
100
AcDbEntity
  8
02___PRT_ALL_AXES
100
AcDbSpline
 62
7
  6
CONTINUOUS
 70
0
 71
3
 72
60
 73
56
 74
0
 42
0.0000001
 43
0.0000001
 44
0.0000000001
 40
0.0
 40
0.0
 40
0.0
 40
0.0
 40
0.014083976
 40
0.0281350362
 40
0.0421563988
 40
0.056151611
 40
0.0701245584
 40
0.0840795174
 40
0.098021159
 40
0.1119545792
 40
0.1258852838
 40
0.1398192134
 40
0.1537627083
 40
0.1677225021
 40
0.1817056797
 40
0.1957196187
 40
0.2097719716
 40
0.2238705439
 40
0.2380232745
 40
0.2522381023
 40
0.2665229204
 40
0.280885474
 40
0.2953332334
 40
0.3098733885
 40
0.3245126719
 40
0.3392573612
 40
0.3541131584
 40
0.369085146
 40
0.384177766
 40
0.3993947072
 40
0.414738966
 40
0.4302127299
 40
0.4615496531
 40
0.4774173748
 40
0.4934155865
 40
0.5257924236
 40
0.5421685768
 40
0.558663642
 40
0.591987852
 40
0.62572078
 40
0.6598036403
 40
0.6941664912
 40
0.7287286851
 40
0.7633995259
 40
0.7980791439
 40
0.8326596732
 40
0.8670269643
 40
0.8840945888
 40
0.9010643371
 40
0.9179212517
 40
0.9346504014
 40
0.9512368675
 40
0.9676665376
 40
0.9839260786
 40
1.0
 40
1.0
 40
1.0
 40
1.0
 10
15.2001405804
 20
12.4692375157
 30
0.0
 10
15.2011395274
 20
12.4672018708
 30
0.0
 10
15.2030519807
 20
12.46309393
 30
0.0
 10
15.2056605797
 20
12.456825992
 30
0.0
 10
15.208001315
 20
12.4504682513
 30
0.0
 10
15.2100697399
 20
12.4440299918
 30
0.0
 10
15.2118618695
 20
12.4375204757
 30
0.0
 10
15.2133738869
 20
12.4309490789
 30
0.0
 10
15.2146023338
 20
12.4243252652
 30
0.0
 10
15.2155441256
 20
12.4176585766
 30
0.0
 10
15.2161964532
 20
12.4109585962
 30
0.0
 10
15.2165570873
 20
12.4042349588
 30
0.0
 10
15.2166240478
 20
12.3974972906
 30
0.0
 10
15.2163960214
 20
12.3907552058
 30
0.0
 10
15.2158720789
 20
12.3840182606
 30
0.0
 10
15.2150518548
 20
12.3772959255
 30
0.0
 10
15.2139356268
 20
12.3705975295
 30
0.0
 10
15.2125240627
 20
12.3639322627
 30
0.0
 10
15.2108186545
 20
12.3573090654
 30
0.0
 10
15.2088212547
 20
12.3507366778
 30
0.0
 10
15.2065344535
 20
12.3442235211
 30
0.0
 10
15.2039613802
 20
12.3377777006
 30
0.0
 10
15.2011056328
 20
12.3314070096
 30
0.0
 10
15.19797153
 20
12.3251187842
 30
0.0
 10
15.1945636698
 20
12.3189200629
 30
0.0
 10
15.1908873346
 20
12.3128173674
 30
0.0
 10
15.1869481058
 20
12.306816863
 30
0.0
 10
15.1827520088
 20
12.3009242677
 30
0.0
 10
15.1783054782
 20
12.2951448206
 30
0.0
 10
15.1736151718
 20
12.289483461
 30
0.0
 10
15.1686880856
 20
12.2839444858
 30
0.0
 10
15.1617842914
 20
12.276698194
 30
0.0
 10
15.1544603895
 20
12.2697437131
 30
0.0
 10
15.1467604057
 20
12.2630893469
 30
0.0
 10
15.1387313976
 20
12.2565667197
 30
0.0
 10
15.1303501581
 20
12.250355598
 30
0.0
 10
15.1216566685
 20
12.2444565077
 30
0.0
 10
15.1126783371
 20
12.2387121005
 30
0.0
 10
15.1010642441
 20
12.23191196
 30
0.0
 10
15.0866161455
 20
12.2243879334
 30
0.0
 10
15.071678774
 20
12.217481471
 30
0.0
 10
15.0563237505
 20
12.2112011395
 30
0.0
 10
15.0406242186
 20
12.2055546929
 30
0.0
 10
15.0246554823
 20
12.2005495487
 30
0.0
 10
15.0084949166
 20
12.1961927975
 30
0.0
 10
14.9922222077
 20
12.1924912568
 30
0.0
 10
14.9786044096
 20
12.1899519946
 30
0.0
 10
14.9677221667
 20
12.1882544826
 30
0.0
 10
14.9596020384
 20
12.1871520524
 30
0.0
 10
14.9515157022
 20
12.1862180239
 30
0.0
 10
14.9434736057
 20
12.1854529207
 30
0.0
 10
14.9354861666
 20
12.184857138
 30
0.0
 10
14.9275635716
 20
12.1844310261
 30
0.0
 10
14.9197162497
 20
12.1841748686
 30
0.0
 10
14.9145103443
 20
12.1841171024
 30
0.0
 10
14.9119224184
 20
12.1841171024
 30
0.0
  0
SPLINE
  5
2FA
100
AcDbEntity
  8
02___PRT_ALL_AXES
100
AcDbSpline
 62
7
  6
CONTINUOUS
 70
0
 71
3
 72
78
 73
74
 74
0
 42
0.0000001
 43
0.0000001
 44
0.0000000001
 40
0.0
 40
0.0
 40
0.0
 40
0.0
 40
0.005311755
 40
0.0106263453
 40
0.0159465983
 40
0.0212753272
 40
0.0266153221
 40
0.0319693448
 40
0.0373401199
 40
0.0427303303
 40
0.0481426086
 40
0.0535795341
 40
0.0590436239
 40
0.0645373315
 40
0.075622126
 40
0.0868530306
 40
0.0982469029
 40
0.1098192246
 40
0.1215840475
 40
0.1335539638
 40
0.1396197193
 40
0.1457407967
 40
0.1581528153
 40
0.1707989522
 40
0.183686044
 40
0.1968195755
 40
0.2102037309
 40
0.2238414484
 40
0.2377344783
 40
0.2518834414
 40
0.2662878877
 40
0.2809463542
 40
0.2958564214
 40
0.311014768
 40
0.3264172239
 40
0.3420588207
 40
0.3579338405
 40
0.3740358627
 40
0.3903578079
 40
0.4068919813
 40
0.4236301127
 40
0.4405633962
 40
0.4576825277
 40
0.4749777406
 40
0.4924388412
 40
0.5100552418
 40
0.5278159938
 40
0.545709819
 40
0.5637251407
 40
0.5818501134
 40
0.6000726528
 40
0.618380464
 40
0.6367610705
 40
0.6552018418
 40
0.673690021
 40
0.6922127524
 40
0.7107571086
 40
0.7293101172
 40
0.7478587882
 40
0.7663901403
 40
0.7848912282
 40
0.8033491692
 40
0.8217511708
 40
0.8400845574
 40
0.8583367982
 40
0.8764955349
 40
0.89454861
 40
0.9124840954
 40
0.9302903221
 40
0.9479559085
 40
0.9654697951
 40
0.9828212662
 40
1.0
 40
1.0
 40
1.0
 40
1.0
 10
14.3302436073
 20
11.7582024358
 30
0.0
 10
14.3294988019
 20
11.7557922458
 30
0.0
 10
14.3280766827
 20
11.7509492973
 30
0.0
 10
14.3261482448
 20
11.7436246269
 30
0.0
 10
14.3244247523
 20
11.7362407038
 30
0.0
 10
14.3229067009
 20
11.7287995311
 30
0.0
 10
14.3215944559
 20
11.7213030406
 30
0.0
 10
14.3204883823
 20
11.7137531955
 30
0.0
 10
14.3195887425
 20
11.7061519727
 30
0.0
 10
14.31889579
 20
11.6985013594
 30
0.0
 10
14.3184096796
 20
11.6908033535
 30
0.0
 10
14.3181305526
 20
11.6830599833
 30
0.0
 10
14.3180584637
 20
11.675273209
 30
0.0
 10
14.3182389258
 20
11.6648053321
 30
0.0
 10
14.3189872459
 20
11.6516128773
 30
0.0
 10
14.3207104953
 20
11.6356899687
 30
0.0
 10
14.3232596166
 20
11.6196438274
 30
0.0
 10
14.3266317553
 20
11.603491473
 30
0.0
 10
14.330823125
 20
11.5872498302
 30
0.0
 10
14.3349764005
 20
11.5737149205
 30
0.0
 10
14.3386974585
 20
11.5628618866
 30
0.0
 10
14.3427224326
 20
11.5518938766
 30
0.0
 10
14.34826334
 20
11.5381570985
 30
0.0
 10
14.3556779618
 20
11.521727192
 30
0.0
 10
14.3638809089
 20
11.5052925558
 30
0.0
 10
14.3728634779
 20
11.4888704113
 30
0.0
 10
14.3826162675
 20
11.4724777091
 30
0.0
 10
14.3931290652
 20
11.4561314419
 30
0.0
 10
14.4043908887
 20
11.4398485385
 30
0.0
 10
14.416389986
 20
11.4236458722
 30
0.0
 10
14.4291138479
 20
11.4075402372
 30
0.0
 10
14.4425492188
 20
11.3915483335
 30
0.0
 10
14.4566821085
 20
11.3756867491
 30
0.0
 10
14.4714978057
 20
11.3599719426
 30
0.0
 10
14.486980892
 20
11.344420226
 30
0.0
 10
14.5031152568
 20
11.329047747
 30
0.0
 10
14.5198841133
 20
11.3138704724
 30
0.0
 10
14.5372700153
 20
11.2989041702
 30
0.0
 10
14.5552548749
 20
11.2841643934
 30
0.0
 10
14.5738199808
 20
11.2696664631
 30
0.0
 10
14.5929460174
 20
11.2554254521
 30
0.0
 10
14.6126130848
 20
11.2414561688
 30
0.0
 10
14.6328007194
 20
11.2277731415
 30
0.0
 10
14.6534879147
 20
11.2143906028
 30
0.0
 10
14.6746531436
 20
11.2013224747
 30
0.0
 10
14.6962743803
 20
11.1885823536
 30
0.0
 10
14.7183291236
 20
11.1761834959
 30
0.0
 10
14.7407944199
 20
11.1641388041
 30
0.0
 10
14.7636468878
 20
11.152460813
 30
0.0
 10
14.7868627416
 20
11.1411616767
 30
0.0
 10
14.8104178169
 20
11.1302531554
 30
0.0
 10
14.8342875953
 20
11.1197466036
 30
0.0
 10
14.8584472303
 20
11.1096529575
 30
0.0
 10
14.8828715731
 20
11.0999827241
 30
0.0
 10
14.9075351989
 20
11.0907459696
 30
0.0
 10
14.9324124335
 20
11.0819523094
 30
0.0
 10
14.9574773799
 20
11.0736108975
 30
0.0
 10
14.9827039456
 20
11.0657304173
 30
0.0
 10
15.00806587
 20
11.0583190724
 30
0.0
 10
15.0335367513
 20
11.051384578
 30
0.0
 10
15.0590900746
 20
11.0449341528
 30
0.0
 10
15.0846992393
 20
11.0389745114
 30
0.0
 10
15.1103375871
 20
11.0335118578
 30
0.0
 10
15.1359784298
 20
11.0285518783
 30
0.0
 10
15.1615950773
 20
11.0240997359
 30
0.0
 10
15.1871608652
 20
11.0201600652
 30
0.0
 10
15.2126491831
 20
11.016736967
 30
0.0
 10
15.2380335014
 20
11.013834005
 30
0.0
 10
15.2632874034
 20
11.0114542013
 30
0.0
 10
15.2883845959
 20
11.0096000338
 30
0.0
 10
15.3132990018
 20
11.0082734342
 30
0.0
 10
15.3380045407
 20
11.0074757848
 30
0.0
 10
15.3544040772
 20
11.0072962752
 30
0.0
 10
15.3625625654
 20
11.0072962752
 30
0.0
  0
SPLINE
  5
2FB
100
AcDbEntity
  8
02___PRT_ALL_AXES
100
AcDbSpline
 62
7
  6
CONTINUOUS
 70
0
 71
3
 72
46
 73
42
 74
0
 42
0.0000001
 43
0.0000001
 44
0.0000000001
 40
0.0
 40
0.0
 40
0.0
 40
0.0
 40
0.0123992807
 40
0.0248057419
 40
0.0372265429
 40
0.0496688033
 40
0.06213958
 40
0.0746458517
 40
0.0871944956
 40
0.0997922744
 40
0.112445814
 40
0.1251615936
 40
0.1379459252
 40
0.1508049452
 40
0.1767683028
 40
0.2030991914
 40
0.2298392356
 40
0.2570263758
 40
0.2846947442
 40
0.3128746077
 40
0.3271656244
 40
0.3415940884
 40
0.3708723309
 40
0.4007299081
 40
0.4311820545
 40
0.4622405211
 40
0.4939137229
 40
0.5262068961
 40
0.5591222584
 40
0.59265917
 40
0.6268142937
 40
0.6615817502
 40
0.6969532691
 40
0.7329183347
 40
0.7694643258
 40
0.8065766479
 40
0.8442388651
 40
0.8824328081
 40
0.9211387331
 40
0.9603353174
 40
1.0
 40
1.0
 40
1.0
 40
1.0
 10
15.895222946
 20
11.2745872426
 30
0.0
 10
15.8944471295
 20
11.2720767008
 30
0.0
 10
15.892821197
 20
11.2670766427
 30
0.0
 10
15.8901620348
 20
11.2596480383
 30
0.0
 10
15.8872830581
 20
11.2522919751
 30
0.0
 10
15.8841850884
 20
11.2450106369
 30
0.0
 10
15.8808690252
 20
11.237806057
 30
0.0
 10
15.877335793
 20
11.2306802963
 30
0.0
 10
15.8735864191
 20
11.2236353632
 30
0.0
 10
15.869621955
 20
11.216673266
 30
0.0
 10
15.8654435432
 20
11.209795964
 30
0.0
 10
15.8610523744
 20
11.2030054266
 30
0.0
 10
15.8564496612
 20
11.1963035163
 30
0.0
 10
15.8500123372
 20
11.1874607245
 30
0.0
 10
15.8414326557
 20
11.1766332548
 30
0.0
 10
15.8303465778
 20
11.1640682813
 30
0.0
 10
15.8184494097
 20
11.1519030539
 30
0.0
 10
15.8057549899
 20
11.1401514554
 30
0.0
 10
15.7922779803
 20
11.12882666
 30
0.0
 10
15.7804632924
 20
11.1197979494
 30
0.0
 10
15.7706432273
 20
11.1127988934
 30
0.0
 10
15.7604798316
 20
11.1058854769
 30
0.0
 10
15.7473082866
 20
11.0975360623
 30
0.0
 10
15.7308626024
 20
11.0880393998
 30
0.0
 10
15.7137191469
 20
11.0790273968
 30
0.0
 10
15.6958974959
 20
11.0705102177
 30
0.0
 10
15.677417722
 20
11.0624973156
 30
0.0
 10
15.6583006968
 20
11.0549976344
 30
0.0
 10
15.6385679831
 20
11.0480195397
 30
0.0
 10
15.6182418375
 20
11.0415708251
 30
0.0
 10
15.5973451813
 20
11.0356586981
 30
0.0
 10
15.575901578
 20
11.0302897718
 30
0.0
 10
15.5539352084
 20
11.025470056
 30
0.0
 10
15.5314708441
 20
11.0212049495
 30
0.0
 10
15.5085338202
 20
11.0174992327
 30
0.0
 10
15.4851500084
 20
11.0143570604
 30
0.0
 10
15.4613457848
 20
11.0117819583
 30
0.0
 10
15.4371480127
 20
11.0097768134
 30
0.0
 10
15.41258396
 20
11.0083438792
 30
0.0
 10
15.3876815012
 20
11.0074847567
 30
0.0
 10
15.3709683887
 20
11.0072962752
 30
0.0
 10
15.3625625654
 20
11.0072962752
 30
0.0
  0
SPLINE
  5
2FC
100
AcDbEntity
  8
LAYER_CHAMFER_FEAT
100
AcDbSpline
 62
7
  6
CONTINUOUS
 70
0
 71
3
 72
15
 73
11
 74
0
 42
0.0000001
 43
0.0000001
 44
0.0000000001
 40
0.0
 40
0.0
 40
0.0
 40
0.0
 40
0.131764132
 40
0.2617725002
 40
0.3899186346
 40
0.5161210923
 40
0.6402989349
 40
0.7623789461
 40
0.8822975414
 40
1.0
 40
1.0
 40
1.0
 40
1.0
 10
14.9811839717
 20
11.784464138
 30
0.0
 10
14.9762047007
 20
11.784464138
 30
0.0
 10
14.9663120041
 20
11.7843386141
 30
0.0
 10
14.9515867481
 20
11.7837656961
 30
0.0
 10
14.9370918162
 20
11.7828100518
 30
0.0
 10
14.9228482937
 20
11.7814731002
 30
0.0
 10
14.9088763353
 20
11.7797567395
 30
0.0
 10
14.8951959003
 20
11.7776633888
 30
0.0
 10
14.8818267474
 20
11.7751960397
 30
0.0
 10
14.8730508002
 20
11.7732859985
 30
0.0
 10
14.8687210359
 20
11.77226773
 30
0.0
  0
SPLINE
  5
2FD
100
AcDbEntity
  8
LAYER_CHAMFER_FEAT
100
AcDbSpline
 62
7
  6
CONTINUOUS
 70
0
 71
3
 72
39
 73
35
 74
0
 42
0.0000001
 43
0.0000001
 44
0.0000000001
 40
0.0
 40
0.0
 40
0.0
 40
0.0
 40
0.0305398826
 40
0.0614592002
 40
0.0927264534
 40
0.1243126363
 40
0.1561858736
 40
0.1883135647
 40
0.2206623617
 40
0.2531980702
 40
0.2858858929
 40
0.3186905349
 40
0.3515763178
 40
0.384507296
 40
0.4174473773
 40
0.4503604439
 40
0.4832104612
 40
0.5159615996
 40
0.5485783577
 40
0.5810256721
 40
0.6132690359
 40
0.6452746387
 40
0.677009479
 40
0.7084414818
 40
0.7395396478
 40
0.7702741945
 40
0.8006166737
 40
0.8305401194
 40
0.8600192318
 40
0.8890305139
 40
0.9175524231
 40
0.9455655735
 40
0.9730529359
 40
1.0
 40
1.0
 40
1.0
 40
1.0
 10
14.9811839717
 20
11.784464138
 30
0.0
 10
14.9865672276
 20
11.784464138
 30
0.0
 10
14.9974011544
 20
11.7843155299
 30
0.0
 10
15.0137345422
 20
11.7836574496
 30
0.0
 10
15.0302294567
 20
11.7825637168
 30
0.0
 10
15.0468586419
 20
11.7810362102
 30
0.0
 10
15.063595226
 20
11.7790773636
 30
0.0
 10
15.0804118752
 20
11.7766903962
 30
0.0
 10
15.097281192
 20
11.7738792039
 30
0.0
 10
15.1141756897
 20
11.7706483406
 30
0.0
 10
15.1310678345
 20
11.7670030896
 30
0.0
 10
15.1479300992
 20
11.7629494004
 30
0.0
 10
15.1647349995
 20
11.7584938669
 30
0.0
 10
15.1814551432
 20
11.7536437419
 30
0.0
 10
15.1980632843
 20
11.7484069496
 30
0.0
 10
15.2145323546
 20
11.7427920251
 30
0.0
 10
15.2308355052
 20
11.736808101
 30
0.0
 10
15.2469461679
 20
11.7304649392
 30
0.0
 10
15.2628380912
 20
11.7237728889
 30
0.0
 10
15.2784853724
 20
11.7167428482
 30
0.0
 10
15.293862505
 20
11.7093862592
 30
0.0
 10
15.3089444402
 20
11.7017151277
 30
0.0
 10
15.323706605
 20
11.6937419547
 30
0.0
 10
15.3381249372
 20
11.6854797129
 30
0.0
 10
15.3521759474
 20
11.6769418631
 30
0.0
 10
15.3658367554
 20
11.6681423229
 30
0.0
 10
15.3790851061
 20
11.6590954152
 30
0.0
 10
15.3918994086
 20
11.6498158495
 30
0.0
 10
15.4042588044
 20
11.6403187433
 30
0.0
 10
15.4161431757
 20
11.6306195467
 30
0.0
 10
15.4275331457
 20
11.6207340322
 30
0.0
 10
15.4384102094
 20
11.6106782149
 30
0.0
 10
15.4487565042
 20
11.6004686229
 30
0.0
 10
15.45535581
 20
11.5935001603
 30
0.0
 10
15.4585599992
 20
11.5899937083
 30
0.0
  0
SPLINE
  5
2FE
100
AcDbEntity
  8
LAYER_FEATURE
100
AcDbSpline
 62
7
  6
CONTINUOUS
 70
0
 71
3
 72
50
 73
46
 74
0
 42
0.0000001
 43
0.0000001
 44
0.0000000001
 40
0.0
 40
0.0
 40
0.0
 40
0.0
 40
0.0396641793
 40
0.0788606661
 40
0.1175661307
 40
0.1557597858
 40
0.1934216622
 40
0.2305336657
 40
0.2670793388
 40
0.3030440904
 40
0.3384152998
 40
0.3731824522
 40
0.4073372782
 40
0.4408738985
 40
0.4737889752
 40
0.5060818677
 40
0.5377547925
 40
0.5688129867
 40
0.5992648666
 40
0.6291221833
 40
0.6584001714
 40
0.6728285106
 40
0.6871194029
 40
0.7152990215
 40
0.7429671481
 40
0.7566197094
 40
0.7701560775
 40
0.7835806402
 40
0.7968980187
 40
0.8101130807
 40
0.8232309096
 40
0.8362568292
 40
0.8491963692
 40
0.8620552768
 40
0.874839498
 40
0.8875551653
 40
0.9002085963
 40
0.9128062638
 40
0.9253547993
 40
0.9378609614
 40
0.9503316297
 40
0.9627737816
 40
0.9751944743
 40
0.9876008274
 40
1.0
 40
1.0
 40
1.0
 40
1.0
 10
14.9207082899
 20
13.1753705904
 30
0.0
 10
14.9061598074
 20
13.1753705904
 30
0.0
 10
14.877233235
 20
13.1750443622
 30
0.0
 10
14.8341328382
 20
13.1735574397
 30
0.0
 10
14.7916180721
 20
13.1710773364
 30
0.0
 10
14.7497373451
 20
13.1676069086
 30
0.0
 10
14.7085377142
 20
13.1631499961
 30
0.0
 10
14.6680657342
 20
13.1577116268
 30
0.0
 10
14.6283670371
 20
13.1512978872
 30
0.0
 10
14.5894864073
 20
13.1439159706
 30
0.0
 10
14.5514676923
 20
13.1355741524
 30
0.0
 10
14.5143537649
 20
13.1262817783
 30
0.0
 10
14.4781864753
 20
13.1160492509
 30
0.0
 10
14.4430066066
 20
13.1048880159
 30
0.0
 10
14.408853831
 20
13.0928105468
 30
0.0
 10
14.3757666711
 20
13.0798303307
 30
0.0
 10
14.3437824487
 20
13.065961844
 30
0.0
 10
14.3129372867
 20
13.0512205697
 30
0.0
 10
14.2832659234
 20
13.03562287
 30
0.0
 10
14.2548022404
 20
13.0191863401
 30
0.0
 10
14.2320053315
 20
13.0047354276
 30
0.0
 10
14.2144148429
 20
12.9927699082
 30
0.0
 10
14.1974185487
 20
12.9806561322
 30
0.0
 10
14.1769702509
 20
12.9650297072
 30
0.0
 10
14.1574459613
 20
12.9486232904
 30
0.0
 10
14.142518331
 20
12.9351291387
 30
0.0
 10
14.1317136807
 20
12.9248715934
 30
0.0
 10
14.1212541769
 20
12.9144357236
 30
0.0
 10
14.1111427512
 20
12.9038243804
 30
0.0
 10
14.1013822428
 20
12.8930406214
 30
0.0
 10
14.0919754791
 20
12.8820874282
 30
0.0
 10
14.0829250785
 20
12.8709679455
 30
0.0
 10
14.0742336557
 20
12.8596852762
 30
0.0
 10
14.0659036669
 20
12.8482426237
 30
0.0
 10
14.0579374711
 20
12.8366432299
 30
0.0
 10
14.0503373778
 20
12.824890348
 30
0.0
 10
14.0431054901
 20
12.812987345
 30
0.0
 10
14.0362439417
 20
12.8009375455
 30
0.0
 10
14.0297546204
 20
12.7887444039
 30
0.0
 10
14.023639425
 20
12.7764113489
 30
0.0
 10
14.0179000789
 20
12.7639418869
 30
0.0
 10
14.012538206
 20
12.7513395715
 30
0.0
 10
14.0075553696
 20
12.7386079207
 30
0.0
 10
14.0029529633
 20
12.7257507246
 30
0.0
 10
14.0001388536
 20
12.7170967764
 30
0.0
 10
13.9987960968
 20
12.7127516071
 30
0.0
  0
SPLINE
  5
2FF
100
AcDbEntity
  8
LAYER_FEATURE
100
AcDbSpline
 62
7
  6
CONTINUOUS
 70
0
 71
3
 72
50
 73
46
 74
0
 42
0.0000001
 43
0.0000001
 44
0.0000000001
 40
0.0
 40
0.0
 40
0.0
 40
0.0
 40
0.0396641793
 40
0.0788606661
 40
0.1175661307
 40
0.1557597858
 40
0.1934216622
 40
0.2305336657
 40
0.2670793388
 40
0.3030440904
 40
0.3384152998
 40
0.3731824522
 40
0.4073372782
 40
0.4408738985
 40
0.4737889752
 40
0.5060818677
 40
0.5377547925
 40
0.5688129867
 40
0.5992648666
 40
0.6291221833
 40
0.6584001714
 40
0.6728285106
 40
0.6871194029
 40
0.7152990215
 40
0.7429671481
 40
0.7566197094
 40
0.7701560775
 40
0.7835806402
 40
0.7968980187
 40
0.8101130807
 40
0.8232309096
 40
0.8362568292
 40
0.8491963692
 40
0.8620552768
 40
0.874839498
 40
0.8875551653
 40
0.9002085963
 40
0.9128062638
 40
0.9253547993
 40
0.9378609614
 40
0.9503316297
 40
0.9627737816
 40
0.9751944743
 40
0.9876008274
 40
1.0
 40
1.0
 40
1.0
 40
1.0
 10
15.1799613222
 20
14.0143137107
 30
0.0
 10
15.1654128398
 20
14.0143137107
 30
0.0
 10
15.1364862674
 20
14.0139874824
 30
0.0
 10
15.0933858706
 20
14.0125005599
 30
0.0
 10
15.0508711045
 20
14.0100204567
 30
0.0
 10
15.0089903775
 20
14.0065500289
 30
0.0
 10
14.9677907466
 20
14.0020931163
 30
0.0
 10
14.9273187665
 20
13.996654747
 30
0.0
 10
14.8876200694
 20
13.9902410074
 30
0.0
 10
14.8487394396
 20
13.9828590909
 30
0.0
 10
14.8107207247
 20
13.9745172726
 30
0.0
 10
14.7736067973
 20
13.9652248985
 30
0.0
 10
14.7374395077
 20
13.9549923711
 30
0.0
 10
14.702259639
 20
13.9438311361
 30
0.0
 10
14.6681068633
 20
13.931753667
 30
0.0
 10
14.6350197035
 20
13.9187734509
 30
0.0
 10
14.6030354811
 20
13.9049049642
 30
0.0
 10
14.5721903191
 20
13.8901636899
 30
0.0
 10
14.5425189557
 20
13.8745659902
 30
0.0
 10
14.5140552728
 20
13.8581294603
 30
0.0
 10
14.4912583638
 20
13.8436785478
 30
0.0
 10
14.4736678752
 20
13.8317130284
 30
0.0
 10
14.4566715811
 20
13.8195992524
 30
0.0
 10
14.4362232833
 20
13.8039728274
 30
0.0
 10
14.4166989937
 20
13.7875664106
 30
0.0
 10
14.4017713634
 20
13.7740722589
 30
0.0
 10
14.390966713
 20
13.7638147136
 30
0.0
 10
14.3805072093
 20
13.7533788438
 30
0.0
 10
14.3703957836
 20
13.7427675006
 30
0.0
 10
14.3606352752
 20
13.7319837416
 30
0.0
 10
14.3512285114
 20
13.7210305484
 30
0.0
 10
14.3421781109
 20
13.7099110657
 30
0.0
 10
14.3334866881
 20
13.6986283964
 30
0.0
 10
14.3251566993
 20
13.6871857439
 30
0.0
 10
14.3171905034
 20
13.6755863501
 30
0.0
 10
14.3095904102
 20
13.6638334682
 30
0.0
 10
14.3023585225
 20
13.6519304652
 30
0.0
 10
14.295496974
 20
13.6398806657
 30
0.0
 10
14.2890076528
 20
13.6276875241
 30
0.0
 10
14.2828924574
 20
13.6153544691
 30
0.0
 10
14.2771531113
 20
13.6028850071
 30
0.0
 10
14.2717912383
 20
13.5902826917
 30
0.0
 10
14.266808402
 20
13.5775510409
 30
0.0
 10
14.2622059957
 20
13.5646938448
 30
0.0
 10
14.2593918859
 20
13.5560398966
 30
0.0
 10
14.2580491291
 20
13.5516947273
 30
0.0
  0
SPLINE
  5
300
100
AcDbEntity
  8
LAYER_FEATURE
100
AcDbSpline
 62
7
  6
CONTINUOUS
 70
0
 71
3
 72
80
 73
76
 74
0
 42
0.0000001
 43
0.0000001
 44
0.0000000001
 40
0.0
 40
0.0
 40
0.0
 40
0.0
 40
0.017178625
 40
0.0345301896
 40
0.0520439856
 40
0.0697095611
 40
0.0875157513
 40
0.105451206
 40
0.1235042502
 40
0.1416629551
 40
0.159915164
 40
0.1782485184
 40
0.1966504877
 40
0.2151083967
 40
0.2336094524
 40
0.2521407721
 40
0.2706894106
 40
0.2892423869
 40
0.3077867108
 40
0.3263094099
 40
0.3447975567
 40
0.3632382956
 40
0.3816188701
 40
0.3999266497
 40
0.4181491573
 40
0.4362740982
 40
0.4542893881
 40
0.4721831821
 40
0.4899439035
 40
0.5075602738
 40
0.5250213437
 40
0.5423165259
 40
0.5594356272
 40
0.5763688815
 40
0.5931069843
 40
0.6096411291
 40
0.6259630453
 40
0.6420650388
 40
0.6579400309
 40
0.673581601
 40
0.6889840307
 40
0.7041423508
 40
0.7190523912
 40
0.7337108317
 40
0.7481152531
 40
0.7622641923
 40
0.7761571984
 40
0.7897948916
 40
0.8031790229
 40
0.8163125314
 40
0.8291996012
 40
0.8418457167
 40
0.8542577138
 40
0.8603787793
 40
0.8664445248
 40
0.8784144197
 40
0.8901792221
 40
0.8959889949
 40
0.9017523402
 40
0.9131461931
 40
0.9243770779
 40
0.9299370835
 40
0.935462781
 40
0.9409564793
 40
0.9464205592
 40
0.9518574755
 40
0.9572697442
 40
0.9626599452
 40
0.9680307112
 40
0.9733847242
 40
0.9787247102
 40
0.9840534294
 40
0.9893736733
 40
0.9946882542
 40
1.0
 40
1.0
 40
1.0
 40
1.0
 10
14.9207082899
 20
13.1753705904
 30
0.0
 10
14.9348286855
 20
13.1753705904
 30
0.0
 10
14.9632125352
 20
13.1750598894
 30
0.0
 10
15.0059721102
 20
13.1736793625
 30
0.0
 10
15.0490932646
 20
13.1713833006
 30
0.0
 10
15.0925306767
 20
13.1681741804
 30
0.0
 10
15.1362393655
 20
13.164055287
 30
0.0
 10
15.1801737593
 20
13.159030932
 30
0.0
 10
15.2242881561
 20
13.1531063355
 30
0.0
 10
15.268536635
 20
13.1462876721
 30
0.0
 10
15.3128731399
 20
13.1385820415
 30
0.0
 10
15.3572515216
 20
13.1299974642
 30
0.0
 10
15.4016255855
 20
13.1205428745
 30
0.0
 10
15.4459491395
 20
13.1102281093
 30
0.0
 10
15.4901760444
 20
13.0990639087
 30
0.0
 10
15.5342602615
 20
13.0870618978
 30
0.0
 10
15.5781558999
 20
13.0742345714
 30
0.0
 10
15.6218172646
 20
13.0605952819
 30
0.0
 10
15.6651989032
 20
13.0461582246
 30
0.0
 10
15.7082556542
 20
13.0309384253
 30
0.0
 10
15.7509426976
 20
13.0149517325
 30
0.0
 10
15.7932155983
 20
12.9982147898
 30
0.0
 10
15.8350303521
 20
12.9807450197
 30
0.0
 10
15.8763434317
 20
12.9625606061
 30
0.0
 10
15.9171118312
 20
12.9436804731
 30
0.0
 10
15.9572931147
 20
12.9241242727
 30
0.0
 10
15.9968454615
 20
12.9039123636
 30
0.0
 10
16.0357277055
 20
12.8830657822
 30
0.0
 10
16.0738993784
 20
12.8616062231
 30
0.0
 10
16.1113207515
 20
12.8395560158
 30
0.0
 10
16.147952877
 20
12.8169381001
 30
0.0
 10
16.1837576356
 20
12.7937760118
 30
0.0
 10
16.2186977713
 20
12.7700938485
 30
0.0
 10
16.2527369279
 20
12.745916244
 30
0.0
 10
16.2858396865
 20
12.7212683427
 30
0.0
 10
16.3179716015
 20
12.6961757719
 30
0.0
 10
16.3490992403
 20
12.6706646175
 30
0.0
 10
16.3791902219
 20
12.6447614008
 30
0.0
 10
16.4082132426
 20
12.6184930409
 30
0.0
 10
16.4361381074
 20
12.5918868288
 30
0.0
 10
16.4629357603
 20
12.5649703983
 30
0.0
 10
16.4885783122
 20
12.5377716941
 30
0.0
 10
16.5130390791
 20
12.51031895
 30
0.0
 10
16.5362926034
 20
12.4826406546
 30
0.0
 10
16.5583146734
 20
12.4547655176
 30
0.0
 10
16.5790823457
 20
12.4267224427
 30
0.0
 10
16.5985739662
 20
12.3985404957
 30
0.0
 10
16.6167691898
 20
12.370248878
 30
0.0
 10
16.633649014
 20
12.3418768924
 30
0.0
 10
16.6491957668
 20
12.31345395
 30
0.0
 10
16.6633931787
 20
12.2850093879
 30
0.0
 10
16.6762261805
 20
12.2565730127
 30
0.0
 10
16.6858162204
 20
12.232797819
 30
0.0
 10
16.6927825041
 20
12.213814727
 30
0.0
 10
16.6992228135
 20
12.1950306039
 30
0.0
 10
16.7064111185
 20
12.1716050258
 30
0.0
 10
16.7124815859
 20
12.1480816901
 30
0.0
 10
16.7166187374
 20
12.1293483045
 30
0.0
 10
16.720251181
 20
12.1108212339
 30
0.0
 10
16.7239138335
 20
12.0877662519
 30
0.0
 10
16.7264075419
 20
12.0647230677
 30
0.0
 10
16.727678363
 20
12.0464217467
 30
0.0
 10
16.7282702534
 20
12.0328051549
 30
0.0
 10
16.7285038602
 20
12.019256616
 30
0.0
 10
16.7283790708
 20
12.0057795713
 30
0.0
 10
16.7278959793
 20
11.9923775671
 30
0.0
 10
16.7270546294
 20
11.9790540999
 30
0.0
 10
16.7258552818
 20
11.9658126536
 30
0.0
 10
16.7242982316
 20
11.952656689
 30
0.0
 10
16.7223838462
 20
11.9395896534
 30
0.0
 10
16.7201126843
 20
11.9266149529
 30
0.0
 10
16.717485259
 20
11.9137360057
 30
0.0
 10
16.7145023106
 20
11.9009561348
 30
0.0
 10
16.7111646217
 20
11.8882788222
 30
0.0
 10
16.7087032587
 20
11.8798967971
 30
0.0
 10
16.7074141749
 20
11.8757253137
 30
0.0
  0
SPLINE
  5
301
100
AcDbEntity
  8
LAYER_FEATURE
100
AcDbSpline
 62
7
  6
CONTINUOUS
 70
0
 71
3
 72
80
 73
76
 74
0
 42
0.0000001
 43
0.0000001
 44
0.0000000001
 40
0.0
 40
0.0
 40
0.0
 40
0.0
 40
0.017178625
 40
0.0345301896
 40
0.0520439856
 40
0.0697095611
 40
0.0875157513
 40
0.105451206
 40
0.1235042502
 40
0.1416629551
 40
0.159915164
 40
0.1782485184
 40
0.1966504877
 40
0.2151083967
 40
0.2336094524
 40
0.2521407721
 40
0.2706894106
 40
0.2892423869
 40
0.3077867108
 40
0.3263094099
 40
0.3447975567
 40
0.3632382956
 40
0.3816188701
 40
0.3999266497
 40
0.4181491573
 40
0.4362740982
 40
0.4542893881
 40
0.4721831821
 40
0.4899439035
 40
0.5075602738
 40
0.5250213437
 40
0.5423165259
 40
0.5594356272
 40
0.5763688815
 40
0.5931069843
 40
0.6096411291
 40
0.6259630453
 40
0.6420650388
 40
0.6579400309
 40
0.673581601
 40
0.6889840307
 40
0.7041423508
 40
0.7190523912
 40
0.7337108317
 40
0.7481152531
 40
0.7622641923
 40
0.7761571984
 40
0.7897948916
 40
0.8031790229
 40
0.8163125314
 40
0.8291996012
 40
0.8418457167
 40
0.8542577138
 40
0.8603787793
 40
0.8664445248
 40
0.8784144197
 40
0.8901792221
 40
0.8959889949
 40
0.9017523402
 40
0.9131461931
 40
0.9243770779
 40
0.9299370835
 40
0.935462781
 40
0.9409564793
 40
0.9464205592
 40
0.9518574755
 40
0.9572697442
 40
0.9626599452
 40
0.9680307112
 40
0.9733847242
 40
0.9787247102
 40
0.9840534294
 40
0.9893736733
 40
0.9946882542
 40
1.0
 40
1.0
 40
1.0
 40
1.0
 10
15.1799613222
 20
14.0143137107
 30
0.0
 10
15.1940817179
 20
14.0143137107
 30
0.0
 10
15.2224655676
 20
14.0140030096
 30
0.0
 10
15.2652251425
 20
14.0126224827
 30
0.0
 10
15.308346297
 20
14.0103264208
 30
0.0
 10
15.351783709
 20
14.0071173006
 30
0.0
 10
15.3954923979
 20
14.0029984072
 30
0.0
 10
15.4394267917
 20
13.9979740522
 30
0.0
 10
15.4835411884
 20
13.9920494557
 30
0.0
 10
15.5277896673
 20
13.9852307923
 30
0.0
 10
15.5721261722
 20
13.9775251617
 30
0.0
 10
15.616504554
 20
13.9689405844
 30
0.0
 10
15.6608786179
 20
13.9594859948
 30
0.0
 10
15.7052021719
 20
13.9491712295
 30
0.0
 10
15.7494290768
 20
13.9380070289
 30
0.0
 10
15.7935132939
 20
13.926005018
 30
0.0
 10
15.8374089323
 20
13.9131776916
 30
0.0
 10
15.881070297
 20
13.8995384021
 30
0.0
 10
15.9244519356
 20
13.8851013448
 30
0.0
 10
15.9675086866
 20
13.8698815456
 30
0.0
 10
16.01019573
 20
13.8538948527
 30
0.0
 10
16.0524686306
 20
13.83715791
 30
0.0
 10
16.0942833845
 20
13.8196881399
 30
0.0
 10
16.1355964641
 20
13.8015037263
 30
0.0
 10
16.1763648635
 20
13.7826235933
 30
0.0
 10
16.2165461471
 20
13.7630673929
 30
0.0
 10
16.2560984938
 20
13.7428554838
 30
0.0
 10
16.2949807378
 20
13.7220089024
 30
0.0
 10
16.3331524108
 20
13.7005493433
 30
0.0
 10
16.3705737839
 20
13.678499136
 30
0.0
 10
16.4072059094
 20
13.6558812203
 30
0.0
 10
16.443010668
 20
13.632719132
 30
0.0
 10
16.4779508037
 20
13.6090369687
 30
0.0
 10
16.5119899603
 20
13.5848593642
 30
0.0
 10
16.5450927188
 20
13.5602114629
 30
0.0
 10
16.5772246339
 20
13.5351188921
 30
0.0
 10
16.6083522727
 20
13.5096077377
 30
0.0
 10
16.6384432543
 20
13.483704521
 30
0.0
 10
16.667466275
 20
13.4574361611
 30
0.0
 10
16.6953911398
 20
13.430829949
 30
0.0
 10
16.7221887926
 20
13.4039135185
 30
0.0
 10
16.7478313446
 20
13.3767148143
 30
0.0
 10
16.7722921115
 20
13.3492620702
 30
0.0
 10
16.7955456358
 20
13.3215837748
 30
0.0
 10
16.8175677058
 20
13.2937086378
 30
0.0
 10
16.8383353781
 20
13.2656655629
 30
0.0
 10
16.8578269986
 20
13.2374836159
 30
0.0
 10
16.8760222221
 20
13.2091919982
 30
0.0
 10
16.8929020464
 20
13.1808200126
 30
0.0
 10
16.9084487991
 20
13.1523970702
 30
0.0
 10
16.922646211
 20
13.1239525082
 30
0.0
 10
16.9354792129
 20
13.0955161329
 30
0.0
 10
16.9450692527
 20
13.0717409392
 30
0.0
 10
16.9520355365
 20
13.0527578473
 30
0.0
 10
16.9584758459
 20
13.0339737242
 30
0.0
 10
16.9656641509
 20
13.010548146
 30
0.0
 10
16.9717346182
 20
12.9870248103
 30
0.0
 10
16.9758717698
 20
12.9682914247
 30
0.0
 10
16.9795042133
 20
12.9497643541
 30
0.0
 10
16.9831668659
 20
12.9267093721
 30
0.0
 10
16.9856605742
 20
12.9036661879
 30
0.0
 10
16.9869313954
 20
12.8853648669
 30
0.0
 10
16.9875232858
 20
12.8717482751
 30
0.0
 10
16.9877568925
 20
12.8581997362
 30
0.0
 10
16.9876321032
 20
12.8447226915
 30
0.0
 10
16.9871490116
 20
12.8313206873
 30
0.0
 10
16.9863076618
 20
12.8179972201
 30
0.0
 10
16.9851083141
 20
12.8047557738
 30
0.0
 10
16.983551264
 20
12.7915998092
 30
0.0
 10
16.9816368786
 20
12.7785327736
 30
0.0
 10
16.9793657167
 20
12.7655580732
 30
0.0
 10
16.9767382914
 20
12.7526791259
 30
0.0
 10
16.9737553429
 20
12.739899255
 30
0.0
 10
16.9704176541
 20
12.7272219424
 30
0.0
 10
16.9679562911
 20
12.7188399173
 30
0.0
 10
16.9666672072
 20
12.7146684339
 30
0.0
  0
SPLINE
  5
302
100
AcDbEntity
  8
02___PRT_ALL_AXES
100
AcDbSpline
 62
7
  6
CONTINUOUS
 70
0
 71
3
 72
24
 73
20
 74
0
 42
0.0000001
 43
0.0000001
 44
0.0000000001
 40
0.0
 40
0.0
 40
0.0
 40
0.0
 40
0.0250670613
 40
0.0505918184
 40
0.1030085267
 40
0.157258209
 40
0.2133250416
 40
0.2711715924
 40
0.3307433244
 40
0.3919695277
 40
0.4547654677
 40
0.5190339959
 40
0.5846671383
 40
0.6515474524
 40
0.719549148
 40
0.7885388612
 40
0.8583762288
 40
0.928914376
 40
1.0
 40
1.0
 40
1.0
 40
1.0
 10
16.0351972924
 20
12.0604153779
 30
0.0
 10
16.0358654139
 20
12.0590538893
 30
0.0
 10
16.0371709485
 20
12.0562847673
 30
0.0
 10
16.0396594258
 20
12.0505702153
 30
0.0
 10
16.0425318871
 20
12.043101231
 30
0.0
 10
16.0455720929
 20
12.0337324437
 30
0.0
 10
16.0482312215
 20
12.0239079971
 30
0.0
 10
16.0505073894
 20
12.0136582487
 30
0.0
 10
16.0524015829
 20
12.0030142719
 30
0.0
 10
16.0539173171
 20
11.9920078603
 30
0.0
 10
16.0550605437
 20
11.9806712238
 30
0.0
 10
16.0558394341
 20
11.969036792
 30
0.0
 10
16.0562641771
 20
11.9571370378
 30
0.0
 10
16.0563467431
 20
11.9450043493
 30
0.0
 10
16.0561006653
 20
11.9326709548
 30
0.0
 10
16.0555408293
 20
11.9201689061
 30
0.0
 10
16.054683264
 20
11.9075300725
 30
0.0
 10
16.0535449711
 20
11.8947862891
 30
0.0
 10
16.0526136919
 20
11.886268026
 30
0.0
 10
16.0521070681
 20
11.8819972038
 30
0.0
  0
SPLINE
  5
303
100
AcDbEntity
  8
02___PRT_ALL_AXES
100
AcDbSpline
 62
7
  6
CONTINUOUS
 70
0
 71
3
 72
38
 73
34
 74
0
 42
0.0000001
 43
0.0000001
 44
0.0000000001
 40
0.0
 40
0.0
 40
0.0
 40
0.0
 40
0.0987060218
 40
0.1462657431
 40
0.1926015717
 40
0.2376954663
 40
0.281530393
 40
0.3240920648
 40
0.3653682096
 40
0.4053482472
 40
0.4440248498
 40
0.4813924
 40
0.5174482304
 40
0.55219286
 40
0.5856291926
 40
0.6177642666
 40
0.6486085276
 40
0.6781764156
 40
0.7064876518
 40
0.7335667137
 40
0.7594444204
 40
0.7841586243
 40
0.8077546901
 40
0.830287417
 40
0.8518216072
 40
0.8724333881
 40
0.892211644
 40
0.9112584106
 40
0.9296894889
 40
0.9476339744
 40
0.9652327859
 40
0.9826361273
 40
1.0
 40
1.0
 40
1.0
 40
1.0
 10
16.0070752074
 20
11.6881836997
 30
0.0
 10
16.0061564304
 20
11.6855897888
 30
0.0
 10
16.0047664083
 20
11.6817560254
 30
0.0
 10
16.002870309
 20
11.6767323535
 30
0.0
 10
16.0014686604
 20
11.6731197959
 30
0.0
 10
16.0000699365
 20
11.669617683
 30
0.0
 10
15.9986742236
 20
11.6662278807
 30
0.0
 10
15.9972815193
 20
11.6629521846
 30
0.0
 10
15.9958917581
 20
11.6597922909
 30
0.0
 10
15.9945048269
 20
11.6567497888
 30
0.0
 10
15.9931205293
 20
11.6538261988
 30
0.0
 10
15.9917386276
 20
11.651022932
 30
0.0
 10
15.9903588236
 20
11.6483413207
 30
0.0
 10
15.9889807663
 20
11.6457826168
 30
0.0
 10
15.9876040563
 20
11.6433479802
 30
0.0
 10
15.9862282512
 20
11.6410385015
 30
0.0
 10
15.984852863
 20
11.6388551913
 30
0.0
 10
15.9834773573
 20
11.6367989917
 30
0.0
 10
15.9821011775
 20
11.6348707716
 30
0.0
 10
15.9807237077
 20
11.6330713418
 30
0.0
 10
15.9793443097
 20
11.6314014517
 30
0.0
 10
15.9779623187
 20
11.6298617894
 30
0.0
 10
15.9765770067
 20
11.6284530205
 30
0.0
 10
15.9751876529
 20
11.6271757465
 30
0.0
 10
15.9737934884
 20
11.6260305587
 30
0.0
 10
15.972393721
 20
11.625018055
 30
0.0
 10
15.9709875921
 20
11.62413879
 30
0.0
 10
15.9695743288
 20
11.6233933839
 30
0.0
 10
15.9681532373
 20
11.6227824412
 30
0.0
 10
15.9667237334
 20
11.6223065378
 30
0.0
 10
15.9652852764
 20
11.6219662763
 30
0.0
 10
15.9638376881
 20
11.6217620822
 30
0.0
 10
15.9628677936
 20
11.621716957
 30
0.0
 10
15.9623837068
 20
11.6217169588
 30
0.0
  0
SPLINE
  5
304
100
AcDbEntity
  8
LAYER_FEATURE
100
AcDbSpline
 62
7
  6
CONTINUOUS
 70
0
 71
3
 72
85
 73
81
 74
0
 42
0.0000001
 43
0.0000001
 44
0.0000000001
 40
0.0
 40
0.0
 40
0.0
 40
0.0
 40
0.0053540729
 40
0.0107128352
 40
0.0160809554
 40
0.021463063
 40
0.0268637259
 40
0.0322874357
 40
0.0377385855
 40
0.0432214585
 40
0.0487402078
 40
0.0542988477
 40
0.0599012373
 40
0.0655510736
 40
0.0712518805
 40
0.0770070023
 40
0.082819599
 40
0.088692639
 40
0.1006297076
 40
0.1128394366
 40
0.1190524734
 40
0.1253397071
 40
0.1381420615
 40
0.1446608988
 40
0.151259331
 40
0.1579382732
 40
0.1646984592
 40
0.1715404733
 40
0.1784647293
 40
0.1854714999
 40
0.1925608988
 40
0.1997329068
 40
0.2069873578
 40
0.2217416208
 40
0.2368205242
 40
0.2522182859
 40
0.2679273615
 40
0.2839385792
 40
0.3002412677
 40
0.3168233768
 40
0.3336715915
 40
0.3507714403
 40
0.3681073972
 40
0.3856629798
 40
0.4034208419
 40
0.4213628632
 40
0.439470235
 40
0.4577235436
 40
0.4761028508
 40
0.4945877724
 40
0.5131575556
 40
0.531791154
 40
0.5504673024
 40
0.5691645908
 40
0.587861537
 40
0.6065366602
 40
0.6251685538
 40
0.6437359583
 40
0.6622178358
 40
0.6805934437
 40
0.6988424111
 40
0.7169448151
 40
0.73488126
 40
0.7526329577
 40
0.7701818114
 40
0.7875105009
 40
0.8046025727
 40
0.8214425329
 40
0.8380159452
 40
0.8543095332
 40
0.8703112889
 40
0.8860105867
 40
0.9013983046
 40
0.9164669521
 40
0.9312108063
 40
0.9456260507
 40
0.9597109365
 40
0.9734659041
 40
0.9868938238
 40
1.0
 40
1.0
 40
1.0
 40
1.0
 10
14.445435086
 20
12.5374010192
 30
0.0
 10
14.4465292057
 20
12.5409415918
 30
0.0
 10
14.4488465832
 20
12.5479869573
 30
0.0
 10
14.4527044367
 20
12.5584297208
 30
0.0
 10
14.4569430363
 20
12.5687449566
 30
0.0
 10
14.4615605779
 20
12.5789280062
 30
0.0
 10
14.4665549959
 20
12.5889745751
 30
0.0
 10
14.4719241963
 20
12.5988802949
 30
0.0
 10
14.4776657882
 20
12.6086409515
 30
0.0
 10
14.4837773415
 20
12.6182523225
 30
0.0
 10
14.4902561626
 20
12.6277103203
 30
0.0
 10
14.4970994874
 20
12.6370108685
 30
0.0
 10
14.5043043287
 20
12.6461500117
 30
0.0
 10
14.5118675939
 20
12.6551238277
 30
0.0
 10
14.5197860142
 20
12.6639285
 30
0.0
 10
14.5280561578
 20
12.6725602526
 30
0.0
 10
14.5366745521
 20
12.6810154708
 30
0.0
 10
14.5486892071
 20
12.6921081416
 30
0.0
 10
14.564580804
 20
12.7055136195
 30
0.0
 10
14.581395223
 20
12.7181353138
 30
0.0
 10
14.595478676
 20
12.7278421183
 30
0.0
 10
14.6101580441
 20
12.7373961582
 30
0.0
 10
14.6253871122
 20
12.746482293
 30
0.0
 10
14.6411217945
 20
12.7551025537
 30
0.0
 10
14.6532945137
 20
12.7613955435
 30
0.0
 10
14.6657616419
 20
12.7674740642
 30
0.0
 10
14.6785179765
 20
12.7733356899
 30
0.0
 10
14.6915580516
 20
12.7789778335
 30
0.0
 10
14.7048762808
 20
12.7843981693
 30
0.0
 10
14.7184669969
 20
12.7895943272
 30
0.0
 10
14.7323243604
 20
12.7945641494
 30
0.0
 10
14.7464425251
 20
12.7993054919
 30
0.0
 10
14.7657139801
 20
12.8053537387
 30
0.0
 10
14.7904273131
 20
12.812321001
 30
0.0
 10
14.8208603812
 20
12.8196914943
 30
0.0
 10
14.8521839406
 20
12.8261059075
 30
0.0
 10
14.8843442763
 20
12.8315533313
 30
0.0
 10
14.9172866631
 20
12.8360245877
 30
0.0
 10
14.9509549131
 20
12.8395121124
 30
0.0
 10
14.9852916212
 20
12.84201001
 30
0.0
 10
15.0202382208
 20
12.8435140577
 30
0.0
 10
15.0557350952
 20
12.8440217185
 30
0.0
 10
15.0917216772
 20
12.8435321473
 30
0.0
 10
15.1281365535
 20
12.8420461951
 30
0.0
 10
15.1649175702
 20
12.8395664093
 30
0.0
 10
15.2020019403
 20
12.8360970305
 30
0.0
 10
15.2393263512
 20
12.8316439871
 30
0.0
 10
15.2768270741
 20
12.8262148854
 30
0.0
 10
15.3144400739
 20
12.819818998
 30
0.0
 10
15.3521011188
 20
12.812467248
 30
0.0
 10
15.3897458916
 20
12.804172191
 30
0.0
 10
15.4273100999
 20
12.794947994
 30
0.0
 10
15.4647295866
 20
12.7848104111
 30
0.0
 10
15.5019404407
 20
12.7737767567
 30
0.0
 10
15.5388791068
 20
12.7618658761
 30
0.0
 10
15.5754824943
 20
12.7490981128
 30
0.0
 10
15.611688086
 20
12.7354952739
 30
0.0
 10
15.6474340457
 20
12.721080592
 30
0.0
 10
15.6826593238
 20
12.7058786856
 30
0.0
 10
15.7173037626
 20
12.689915516
 30
0.0
 10
15.7513081997
 20
12.6732183427
 30
0.0
 10
15.7846145689
 20
12.6558156757
 30
0.0
 10
15.8171660003
 20
12.637737226
 30
0.0
 10
15.8489069176
 20
12.6190138538
 30
0.0
 10
15.8797831332
 20
12.5996775143
 30
0.0
 10
15.9097419407
 20
12.5797612019
 30
0.0
 10
15.9387322052
 20
12.559298892
 30
0.0
 10
15.9667044495
 20
12.5383254809
 30
0.0
 10
15.9936109385
 20
12.5168767239
 30
0.0
 10
16.0194057591
 20
12.4949891721
 30
0.0
 10
16.044044897
 20
12.4727001071
 30
0.0
 10
16.0674863093
 20
12.4500474744
 30
0.0
 10
16.0896899921
 20
12.4270698157
 30
0.0
 10
16.1106180469
 20
12.403806199
 30
0.0
 10
16.1302347305
 20
12.3802961561
 30
0.0
 10
16.1485065342
 20
12.3565795851
 30
0.0
 10
16.1654021542
 20
12.3326967884
 30
0.0
 10
16.1808927705
 20
12.3086880173
 30
0.0
 10
16.1949513363
 20
12.2845947828
 30
0.0
 10
16.20345522
 20
12.2683073514
 30
0.0
 10
16.2074515241
 20
12.2601637399
 30
0.0
  0
SPLINE
  5
305
100
AcDbEntity
  8
LAYER_CUT_FEAT
100
AcDbSpline
 62
7
  6
CONTINUOUS
 70
0
 71
3
 72
85
 73
81
 74
0
 42
0.0000001
 43
0.0000001
 44
0.0000000001
 40
0.0
 40
0.0
 40
0.0
 40
0.0
 40
0.0053540729
 40
0.0107128352
 40
0.0160809554
 40
0.021463063
 40
0.0268637259
 40
0.0322874357
 40
0.0377385855
 40
0.0432214585
 40
0.0487402078
 40
0.0542988477
 40
0.0599012373
 40
0.0655510736
 40
0.0712518805
 40
0.0770070023
 40
0.082819599
 40
0.088692639
 40
0.1006297076
 40
0.1128394366
 40
0.1190524734
 40
0.1253397071
 40
0.1381420615
 40
0.1446608988
 40
0.151259331
 40
0.1579382732
 40
0.1646984592
 40
0.1715404733
 40
0.1784647293
 40
0.1854714999
 40
0.1925608988
 40
0.1997329068
 40
0.2069873578
 40
0.2217416208
 40
0.2368205242
 40
0.2522182859
 40
0.2679273615
 40
0.2839385792
 40
0.3002412677
 40
0.3168233768
 40
0.3336715915
 40
0.3507714403
 40
0.3681073972
 40
0.3856629798
 40
0.4034208419
 40
0.4213628631
 40
0.439470235
 40
0.4577235436
 40
0.4761028507
 40
0.4945877724
 40
0.5131575556
 40
0.531791154
 40
0.5504673024
 40
0.5691645907
 40
0.587861537
 40
0.6065366602
 40
0.6251685537
 40
0.6437359583
 40
0.6622178358
 40
0.6805934437
 40
0.6988424111
 40
0.716944815
 40
0.7348812599
 40
0.7526329577
 40
0.7701818114
 40
0.7875105009
 40
0.8046025726
 40
0.8214425329
 40
0.8380159452
 40
0.8543095332
 40
0.8703112889
 40
0.8860105867
 40
0.9013983046
 40
0.9164669521
 40
0.9312108063
 40
0.9456260507
 40
0.9597109365
 40
0.9734659041
 40
0.9868938238
 40
1.0
 40
1.0
 40
1.0
 40
1.0
 10
14.432726604
 20
12.4962763564
 30
0.0
 10
14.4338207237
 20
12.499816929
 30
0.0
 10
14.4361381012
 20
12.5068622945
 30
0.0
 10
14.4399959547
 20
12.517305058
 30
0.0
 10
14.4442345544
 20
12.5276202938
 30
0.0
 10
14.4488520959
 20
12.5378033434
 30
0.0
 10
14.453846514
 20
12.5478499124
 30
0.0
 10
14.4592157143
 20
12.5577556321
 30
0.0
 10
14.4649573062
 20
12.5675162887
 30
0.0
 10
14.4710688596
 20
12.5771276598
 30
0.0
 10
14.4775476807
 20
12.5865856575
 30
0.0
 10
14.4843910054
 20
12.5958862057
 30
0.0
 10
14.4915958467
 20
12.6050253489
 30
0.0
 10
14.4991591119
 20
12.6139991649
 30
0.0
 10
14.5070775322
 20
12.6228038372
 30
0.0
 10
14.5153476758
 20
12.6314355899
 30
0.0
 10
14.5239660701
 20
12.639890808
 30
0.0
 10
14.5359807251
 20
12.6509834788
 30
0.0
 10
14.551872322
 20
12.6643889567
 30
0.0
 10
14.568686741
 20
12.6770106511
 30
0.0
 10
14.582770194
 20
12.6867174556
 30
0.0
 10
14.5974495622
 20
12.6962714954
 30
0.0
 10
14.6126786302
 20
12.7053576303
 30
0.0
 10
14.6284133125
 20
12.7139778909
 30
0.0
 10
14.6405860317
 20
12.7202708808
 30
0.0
 10
14.6530531599
 20
12.7263494014
 30
0.0
 10
14.6658094945
 20
12.7322110271
 30
0.0
 10
14.6788495696
 20
12.7378531708
 30
0.0
 10
14.6921677989
 20
12.7432735065
 30
0.0
 10
14.7057585149
 20
12.7484696644
 30
0.0
 10
14.7196158785
 20
12.7534394866
 30
0.0
 10
14.7337340431
 20
12.7581808291
 30
0.0
 10
14.7530054981
 20
12.7642290759
 30
0.0
 10
14.7777188311
 20
12.7711963383
 30
0.0
 10
14.8081518992
 20
12.7785668315
 30
0.0
 10
14.8394754586
 20
12.7849812448
 30
0.0
 10
14.8716357944
 20
12.7904286685
 30
0.0
 10
14.9045781811
 20
12.794899925
 30
0.0
 10
14.9382464311
 20
12.7983874496
 30
0.0
 10
14.9725831392
 20
12.8008853473
 30
0.0
 10
15.0075297388
 20
12.802389395
 30
0.0
 10
15.0430266132
 20
12.8028970557
 30
0.0
 10
15.0790131952
 20
12.8024074845
 30
0.0
 10
15.1154280715
 20
12.8009215324
 30
0.0
 10
15.1522090882
 20
12.7984417465
 30
0.0
 10
15.1892934583
 20
12.7949723678
 30
0.0
 10
15.2266178692
 20
12.7905193243
 30
0.0
 10
15.2641185921
 20
12.7850902227
 30
0.0
 10
15.3017315919
 20
12.7786943353
 30
0.0
 10
15.3393926368
 20
12.7713425852
 30
0.0
 10
15.3770374096
 20
12.7630475283
 30
0.0
 10
15.4146016178
 20
12.7538233313
 30
0.0
 10
15.4520211046
 20
12.7436857483
 30
0.0
 10
15.4892319587
 20
12.732652094
 30
0.0
 10
15.5261706247
 20
12.7207412134
 30
0.0
 10
15.5627740122
 20
12.7079734501
 30
0.0
 10
15.598979604
 20
12.6943706111
 30
0.0
 10
15.6347255636
 20
12.6799559293
 30
0.0
 10
15.6699508417
 20
12.6647540228
 30
0.0
 10
15.7045952806
 20
12.6487908533
 30
0.0
 10
15.7385997177
 20
12.63209368
 30
0.0
 10
15.7719060869
 20
12.614691013
 30
0.0
 10
15.8044575183
 20
12.5966125633
 30
0.0
 10
15.8361984356
 20
12.577889191
 30
0.0
 10
15.8670746511
 20
12.5585528516
 30
0.0
 10
15.8970334587
 20
12.5386365392
 30
0.0
 10
15.9260237232
 20
12.5181742293
 30
0.0
 10
15.9539959675
 20
12.4972008181
 30
0.0
 10
15.9809024565
 20
12.4757520611
 30
0.0
 10
16.0066972771
 20
12.4538645094
 30
0.0
 10
16.031336415
 20
12.4315754444
 30
0.0
 10
16.0547778273
 20
12.4089228116
 30
0.0
 10
16.0769815101
 20
12.385945153
 30
0.0
 10
16.0979095649
 20
12.3626815362
 30
0.0
 10
16.1175262485
 20
12.3391714933
 30
0.0
 10
16.1357980522
 20
12.3154549224
 30
0.0
 10
16.1526936722
 20
12.2915721256
 30
0.0
 10
16.1681842886
 20
12.2675633546
 30
0.0
 10
16.1822428543
 20
12.24347012
 30
0.0
 10
16.190746738
 20
12.2271826886
 30
0.0
 10
16.1947430421
 20
12.2190390771
 30
0.0
  0
SPLINE
  5
306
100
AcDbEntity
  8
LAYER_CHAMFER_FEAT
100
AcDbSpline
 62
7
  6
CONTINUOUS
 70
0
 71
3
 72
86
 73
82
 74
0
 42
0.0000001
 43
0.0000001
 44
0.0000000001
 40
0.0
 40
0.0
 40
0.0
 40
0.0
 40
0.0157577792
 40
0.0311470772
 40
0.0461642062
 40
0.0608082456
 40
0.0750812508
 40
0.0889884716
 40
0.1025385713
 40
0.1091840365
 40
0.1157451538
 40
0.1286216909
 40
0.1411895419
 40
0.147365876
 40
0.1534744082
 40
0.1595187692
 40
0.1655028511
 40
0.171430765
 40
0.1773068674
 40
0.1831357287
 40
0.1889221199
 40
0.1946710142
 40
0.2003875444
 40
0.2060770037
 40
0.211744812
 40
0.2173964918
 40
0.2230376497
 40
0.2286739401
 40
0.2343110444
 40
0.2399546377
 40
0.2456103661
 40
0.251283811
 40
0.2569804715
 40
0.2627057332
 40
0.2684648415
 40
0.2742628939
 40
0.2801047975
 40
0.2859952743
 40
0.2919388347
 40
0.2979397576
 40
0.3040021069
 40
0.3163244445
 40
0.3289350956
 40
0.3418575533
 40
0.355111285
 40
0.3687118307
 40
0.3826709524
 40
0.3969968198
 40
0.411694212
 40
0.4267647366
 40
0.4422070596
 40
0.4580171234
 40
0.4741883547
 40
0.4907118565
 40
0.5075766018
 40
0.5247696182
 40
0.5422761547
 40
0.560079837
 40
0.5781628106
 40
0.5965058883
 40
0.6150886871
 40
0.6338897539
 40
0.6528866845
 40
0.6720562392
 40
0.691374462
 40
0.7108167914
 40
0.7303581658
 40
0.7499731271
 40
0.7696359264
 40
0.7893206289
 40
0.8090012145
 40
0.8286516778
 40
0.848246131
 40
0.8677589064
 40
0.8871646652
 40
0.9064384843
 40
0.925555979
 40
0.9444934628
 40
0.9632277099
 40
0.9817372669
 40
1.0
 40
1.0
 40
1.0
 40
1.0
 10
14.8687210359
 20
11.77226773
 30
0.0
 10
14.8637531978
 20
11.7710994
 30
0.0
 10
14.8539766543
 20
11.7686018883
 30
0.0
 10
14.839648903
 20
11.764316075
 30
0.0
 10
14.8258567275
 20
11.7595425547
 30
0.0
 10
14.8126274542
 20
11.7542906105
 30
0.0
 10
14.7999868794
 20
11.7485702891
 30
0.0
 10
14.7879600812
 20
11.7423927221
 30
0.0
 10
14.7784073422
 20
11.7368377351
 30
0.0
 10
14.7711026828
 20
11.7321739699
 30
0.0
 10
14.7641130192
 20
11.727428548
 30
0.0
 10
14.7557912307
 20
11.7212381135
 30
0.0
 10
14.7479558817
 20
11.714632928
 30
0.0
 10
14.7420576517
 20
11.709154343
 30
0.0
 10
14.7378415254
 20
11.7049739561
 30
0.0
 10
14.7338098275
 20
11.7007006516
 30
0.0
 10
14.7299644497
 20
11.6963365449
 30
0.0
 10
14.7263073721
 20
11.6918837327
 30
0.0
 10
14.7228403788
 20
11.6873444296
 30
0.0
 10
14.7195651843
 20
11.682720874
 30
0.0
 10
14.7164834746
 20
11.6780153057
 30
0.0
 10
14.7135967128
 20
11.6732300941
 30
0.0
 10
14.710906404
 20
11.6683675596
 30
0.0
 10
14.7084138646
 20
11.6634301241
 30
0.0
 10
14.7061203149
 20
11.6584202396
 30
0.0
 10
14.7040269692
 20
11.6533403575
 30
0.0
 10
14.7021347866
 20
11.6481930319
 30
0.0
 10
14.7004447747
 20
11.6429807894
 30
0.0
 10
14.6989577542
 20
11.637706227
 30
0.0
 10
14.6976744245
 20
11.6323719701
 30
0.0
 10
14.696595499
 20
11.6269806496
 30
0.0
 10
14.695721417
 20
11.6215349598
 30
0.0
 10
14.6950526635
 20
11.6160375907
 30
0.0
 10
14.6945895515
 20
11.6104912728
 30
0.0
 10
14.6943322494
 20
11.604898755
 30
0.0
 10
14.6942809566
 20
11.5992628043
 30
0.0
 10
14.6944355959
 20
11.5935862103
 30
0.0
 10
14.6947961267
 20
11.5878717732
 30
0.0
 10
14.6953623527
 20
11.5821223358
 30
0.0
 10
14.6961339419
 20
11.5763406562
 30
0.0
 10
14.6974430685
 20
11.5685510321
 30
0.0
 10
14.699600755
 20
11.5587394705
 30
0.0
 10
14.7029891963
 20
11.5469491221
 30
0.0
 10
14.7071838024
 20
11.5351007234
 30
0.0
 10
14.7121758687
 20
11.5232177771
 30
0.0
 10
14.7179552747
 20
11.5113233164
 30
0.0
 10
14.7245104188
 20
11.499440512
 30
0.0
 10
14.7318282565
 20
11.4875924743
 30
0.0
 10
14.7398942891
 20
11.4758022627
 30
0.0
 10
14.7486925816
 20
11.4640928297
 30
0.0
 10
14.7582058057
 20
11.4524869959
 30
0.0
 10
14.7684152589
 20
11.4410074012
 30
0.0
 10
14.7793008959
 20
11.4296764672
 30
0.0
 10
14.7908413413
 20
11.4185163354
 30
0.0
 10
14.8030139376
 20
11.4075488286
 30
0.0
 10
14.8157947971
 20
11.3967954132
 30
0.0
 10
14.8291588429
 20
11.3862771518
 30
0.0
 10
14.843079855
 20
11.3760146645
 30
0.0
 10
14.8575305047
 20
11.3660280659
 30
0.0
 10
14.8724824221
 20
11.3563369398
 30
0.0
 10
14.8879062548
 20
11.3469603008
 30
0.0
 10
14.9037717234
 20
11.3379165558
 30
0.0
 10
14.9200476778
 20
11.3292234656
 30
0.0
 10
14.9367021487
 20
11.3208980909
 30
0.0
 10
14.9537024245
 20
11.3129567786
 30
0.0
 10
14.9710151144
 20
11.3054151263
 30
0.0
 10
14.9886062145
 20
11.2982879545
 30
0.0
 10
15.0064411692
 20
11.2915892673
 30
0.0
 10
15.0244849378
 20
11.2853322153
 30
0.0
 10
15.0427020723
 20
11.2795290892
 30
0.0
 10
15.0610567847
 20
11.2741912906
 30
0.0
 10
15.0795130183
 20
11.2693293148
 30
0.0
 10
15.0980345139
 20
11.2649527127
 30
0.0
 10
15.1165848855
 20
11.2610700727
 30
0.0
 10
15.1351276929
 20
11.2576890226
 30
0.0
 10
15.1536265109
 20
11.2548162058
 30
0.0
 10
15.1720450256
 20
11.2524572687
 30
0.0
 10
15.190346989
 20
11.2506168704
 30
0.0
 10
15.2084966697
 20
11.2492985496
 30
0.0
 10
15.2264580372
 20
11.2485050106
 30
0.0
 10
15.2383679457
 20
11.2483255403
 30
0.0
 10
15.2442825817
 20
11.2483255403
 30
0.0
  0
SPLINE
  5
307
100
AcDbEntity
  8
02___PRT_ALL_AXES
100
AcDbSpline
 62
7
  6
CONTINUOUS
 70
0
 71
3
 72
78
 73
74
 74
0
 42
0.0000001
 43
0.0000001
 44
0.0000000001
 40
0.0
 40
0.0
 40
0.0
 40
0.0
 40
0.0171787338
 40
0.0345302049
 40
0.0520440915
 40
0.0697096779
 40
0.0875159046
 40
0.10545139
 40
0.1235044651
 40
0.1416632018
 40
0.1599154426
 40
0.1782488292
 40
0.1966508308
 40
0.2151087718
 40
0.2336098597
 40
0.2521412118
 40
0.2706898828
 40
0.2892428914
 40
0.3077872476
 40
0.326309979
 40
0.3447981582
 40
0.3632389295
 40
0.381619536
 40
0.3999273472
 40
0.4181498866
 40
0.4362748593
 40
0.454290181
 40
0.4721840062
 40
0.4899447582
 40
0.5075611588
 40
0.5250222594
 40
0.5423174723
 40
0.5594366038
 40
0.5763698873
 40
0.5931080187
 40
0.6096421921
 40
0.6259641373
 40
0.6420661595
 40
0.6579411793
 40
0.6735827761
 40
0.688985232
 40
0.7041435786
 40
0.7190536458
 40
0.7337121123
 40
0.7481165586
 40
0.7622655217
 40
0.7761585516
 40
0.7897962691
 40
0.8031804245
 40
0.816313956
 40
0.8292010478
 40
0.8418471847
 40
0.8542592033
 40
0.8603802807
 40
0.8664460362
 40
0.8784159525
 40
0.8901807754
 40
0.9017530971
 40
0.9131469694
 40
0.924377874
 40
0.9354626685
 40
0.9409563761
 40
0.9464204659
 40
0.9518573914
 40
0.9572696697
 40
0.9626598801
 40
0.9680306552
 40
0.9733846779
 40
0.9787246728
 40
0.9840534017
 40
0.9893736547
 40
0.994688245
 40
1.0
 40
1.0
 40
1.0
 40
1.0
 10
14.8629039879
 20
12.0254934032
 30
0.0
 10
14.8710624762
 20
12.0254934032
 30
0.0
 10
14.8874620126
 20
12.0253138935
 30
0.0
 10
14.9121675516
 20
12.0245162441
 30
0.0
 10
14.9370819574
 20
12.0231896446
 30
0.0
 10
14.9621791499
 20
12.021335477
 30
0.0
 10
14.987433052
 20
12.0189556734
 30
0.0
 10
15.0128173703
 20
12.0160527113
 30
0.0
 10
15.0383056882
 20
12.0126296132
 30
0.0
 10
15.063871476
 20
12.0086899424
 30
0.0
 10
15.0894881235
 20
12.0042378
 30
0.0
 10
15.1151289662
 20
11.9992778205
 30
0.0
 10
15.1407673141
 20
11.9938151669
 30
0.0
 10
15.1663764788
 20
11.9878555256
 30
0.0
 10
15.191929802
 20
11.9814051003
 30
0.0
 10
15.2174006833
 20
11.9744706059
 30
0.0
 10
15.2427626077
 20
11.967059261
 30
0.0
 10
15.2679891735
 20
11.9591787809
 30
0.0
 10
15.2930541199
 20
11.950837369
 30
0.0
 10
15.3179313544
 20
11.9420437087
 30
0.0
 10
15.3425949802
 20
11.9328069542
 30
0.0
 10
15.367019323
 20
11.9231367208
 30
0.0
 10
15.3911789581
 20
11.9130430747
 30
0.0
 10
15.4150487365
 20
11.9025365229
 30
0.0
 10
15.4386038117
 20
11.8916280017
 30
0.0
 10
15.4618196656
 20
11.8803288653
 30
0.0
 10
15.4846721334
 20
11.8686508742
 30
0.0
 10
15.5071374298
 20
11.8566061824
 30
0.0
 10
15.529192173
 20
11.8442073247
 30
0.0
 10
15.5508134097
 20
11.8314672036
 30
0.0
 10
15.5719786386
 20
11.8183990755
 30
0.0
 10
15.5926658339
 20
11.8050165369
 30
0.0
 10
15.6128534685
 20
11.7913335096
 30
0.0
 10
15.632520536
 20
11.7773642263
 30
0.0
 10
15.6516465726
 20
11.7631232152
 30
0.0
 10
15.6702116784
 20
11.7486252849
 30
0.0
 10
15.688196538
 20
11.7338855081
 30
0.0
 10
15.70558244
 20
11.718919206
 30
0.0
 10
15.7223512965
 20
11.7037419313
 30
0.0
 10
15.7384856613
 20
11.6883694524
 30
0.0
 10
15.7539687476
 20
11.6728177357
 30
0.0
 10
15.7687844448
 20
11.6571029293
 30
0.0
 10
15.7829173345
 20
11.6412413448
 30
0.0
 10
15.7963527054
 20
11.6252494412
 30
0.0
 10
15.8090765673
 20
11.6091438062
 30
0.0
 10
15.8210756646
 20
11.5929411398
 30
0.0
 10
15.8323374881
 20
11.5766582364
 30
0.0
 10
15.8428502858
 20
11.5603119692
 30
0.0
 10
15.8526030755
 20
11.543919267
 30
0.0
 10
15.8615856444
 20
11.5274971225
 30
0.0
 10
15.8697885915
 20
11.5110624864
 30
0.0
 10
15.8772032134
 20
11.4946325798
 30
0.0
 10
15.8827441207
 20
11.4808958018
 30
0.0
 10
15.8867690949
 20
11.4699277917
 30
0.0
 10
15.8904901529
 20
11.4590747579
 30
0.0
 10
15.8946434283
 20
11.4455398481
 30
0.0
 10
15.898834798
 20
11.4292982053
 30
0.0
 10
15.9022069367
 20
11.4131458509
 30
0.0
 10
15.9047560581
 20
11.3970997097
 30
0.0
 10
15.9064793074
 20
11.381176801
 30
0.0
 10
15.9072276276
 20
11.3679843462
 30
0.0
 10
15.9074080897
 20
11.3575164694
 30
0.0
 10
15.9073360007
 20
11.349729695
 30
0.0
 10
15.9070568737
 20
11.3419863248
 30
0.0
 10
15.9065707633
 20
11.3342883189
 30
0.0
 10
15.9058778108
 20
11.3266377057
 30
0.0
 10
15.904978171
 20
11.3190364828
 30
0.0
 10
15.9038720975
 20
11.3114866378
 30
0.0
 10
15.9025598525
 20
11.3039901472
 30
0.0
 10
15.9010418011
 20
11.2965489745
 30
0.0
 10
15.8993183085
 20
11.2891650514
 30
0.0
 10
15.8973898706
 20
11.281840381
 30
0.0
 10
15.8959677514
 20
11.2769974325
 30
0.0
 10
15.895222946
 20
11.2745872426
 30
0.0
  0
SPLINE
  5
308
100
AcDbEntity
  8
LAYER_CHAMFER_FEAT
100
AcDbSpline
 62
7
  6
CONTINUOUS
 70
0
 71
3
 72
69
 73
65
 74
0
 42
0.0000001
 43
0.0000001
 44
0.0000000001
 40
0.0
 40
0.0
 40
0.0
 40
0.0
 40
0.0180026588
 40
0.0357336106
 40
0.053190388
 40
0.0703714015
 40
0.087275871
 40
0.1039039754
 40
0.1202568009
 40
0.136336474
 40
0.15214613
 40
0.1676900227
 40
0.1979982034
 40
0.2127817304
 40
0.2273281317
 40
0.2416476473
 40
0.2557517824
 40
0.2696533208
 40
0.2833662901
 40
0.2969059626
 40
0.3102887737
 40
0.3235322955
 40
0.3366551102
 40
0.3496767454
 40
0.3626175085
 40
0.3754983784
 40
0.3883408149
 40
0.4011666087
 40
0.4139976862
 40
0.4268559288
 40
0.4397629954
 40
0.452740127
 40
0.4658080087
 40
0.4789865764
 40
0.4922949317
 40
0.5057511658
 40
0.5193723306
 40
0.5331742893
 40
0.5471717387
 40
0.5613780907
 40
0.5758055327
 40
0.5904649416
 40
0.6053659675
 40
0.6359203227
 40
0.6515916189
 40
0.6675308697
 40
0.6837417785
 40
0.7002269925
 40
0.7169881308
 40
0.7340258349
 40
0.7513398213
 40
0.7689289064
 40
0.7867910819
 40
0.8049235189
 40
0.8233226603
 40
0.8419841853
 40
0.8609031307
 40
0.880073897
 40
0.8994903202
 40
0.9191454355
 40
0.9390318349
 40
0.9591422522
 40
0.9794686888
 40
1.0
 40
1.0
 40
1.0
 40
1.0
 10
15.4585599992
 20
11.5899937083
 30
0.0
 10
15.4608113521
 20
11.5875299771
 30
0.0
 10
15.4652190823
 20
11.5825835082
 30
0.0
 10
15.4715864666
 20
11.5750527134
 30
0.0
 10
15.4776545992
 20
11.5674727806
 30
0.0
 10
15.4834184226
 20
11.5598501287
 30
0.0
 10
15.4888730787
 20
11.5521910251
 30
0.0
 10
15.4940140637
 20
11.5445018915
 30
0.0
 10
15.4988370324
 20
11.5367890562
 30
0.0
 10
15.5033379719
 20
11.529059026
 30
0.0
 10
15.5075131668
 20
11.5213179637
 30
0.0
 10
15.512597685
 20
11.5110780625
 30
0.0
 10
15.5170721651
 20
11.5007531425
 30
0.0
 10
15.5208895827
 20
11.490374706
 30
0.0
 10
15.5233885961
 20
11.4826759521
 30
0.0
 10
15.5255448181
 20
11.475005025
 30
0.0
 10
15.5273564446
 20
11.4673681642
 30
0.0
 10
15.5288219046
 20
11.4597717819
 30
0.0
 10
15.5299398854
 20
11.4522222071
 30
0.0
 10
15.5307094249
 20
11.4447257659
 30
0.0
 10
15.5311297627
 20
11.4372887365
 30
0.0
 10
15.5312005445
 20
11.4299173717
 30
0.0
 10
15.5309215788
 20
11.4226178759
 30
0.0
 10
15.5302931293
 20
11.4153964054
 30
0.0
 10
15.5293155886
 20
11.4082590713
 30
0.0
 10
15.5279898456
 20
11.4012119025
 30
0.0
 10
15.5263168894
 20
11.3942608905
 30
0.0
 10
15.5242982344
 20
11.3874119017
 30
0.0
 10
15.5219354724
 20
11.3806707765
 30
0.0
 10
15.5192307327
 20
11.3740431826
 30
0.0
 10
15.5161862076
 20
11.3675347754
 30
0.0
 10
15.5128046204
 20
11.3611509928
 30
0.0
 10
15.5090887528
 20
11.3548972736
 30
0.0
 10
15.5050418945
 20
11.348778803
 30
0.0
 10
15.5006673994
 20
11.3428007772
 30
0.0
 10
15.4959690945
 20
11.3369681158
 30
0.0
 10
15.4909508868
 20
11.3312857531
 30
0.0
 10
15.4856171132
 20
11.3257583363
 30
0.0
 10
15.4799722167
 20
11.3203905248
 30
0.0
 10
15.4740210154
 20
11.3151866865
 30
0.0
 10
15.4677684993
 20
11.3101512129
 30
0.0
 10
15.4612198375
 20
11.3052881177
 30
0.0
 10
15.4520249591
 20
11.2989873258
 30
0.0
 10
15.4423258632
 20
11.293104874
 30
0.0
 10
15.4321783518
 20
11.287638917
 30
0.0
 10
15.4242363338
 20
11.2836954266
 30
0.0
 10
15.4160348146
 20
11.2799463339
 30
0.0
 10
15.4075804197
 20
11.2763946204
 30
0.0
 10
15.3988802538
 20
11.273043256
 30
0.0
 10
15.3899415542
 20
11.2698949922
 30
0.0
 10
15.3807717681
 20
11.2669524544
 30
0.0
 10
15.371378541
 20
11.2642180506
 30
0.0
 10
15.3617696911
 20
11.2616940794
 30
0.0
 10
15.3519532309
 20
11.2593825899
 30
0.0
 10
15.3419373308
 20
11.2572855478
 30
0.0
 10
15.3317303473
 20
11.2554046358
 30
0.0
 10
15.3213407745
 20
11.2537414726
 30
0.0
 10
15.3107772645
 20
11.2522973746
 30
0.0
 10
15.3000486292
 20
11.2510736174
 30
0.0
 10
15.2891638545
 20
11.2500711326
 30
0.0
 10
15.2781319504
 20
11.2492908169
 30
0.0
 10
15.2669619513
 20
11.2487332662
 30
0.0
 10
15.2556634996
 20
11.2483990349
 30
0.0
 10
15.2480888078
 20
11.2483255403
 30
0.0
 10
15.2442825817
 20
11.2483255403
 30
0.0
  0
SPLINE
  5
309
100
AcDbEntity
  8
LAYER_FEATURE
100
AcDbSpline
 62
7
  6
CONTINUOUS
 70
0
 71
3
 72
21
 73
17
 74
0
 42
0.0000001
 43
0.0000001
 44
0.0000000001
 40
0.0
 40
0.0
 40
0.0
 40
0.0
 40
0.0594147862
 40
0.1190375367
 40
0.1789192008
 40
0.2391090893
 40
0.2996544896
 40
0.3606004989
 40
0.4219897298
 40
0.4838620973
 40
0.5462546683
 40
0.6092016632
 40
0.6727343253
 40
0.7368799947
 40
0.8670853823
 40
1.0
 40
1.0
 40
1.0
 40
1.0
 10
14.7594302925
 20
12.2528298202
 30
0.0
 10
14.758820736
 20
12.2546091606
 30
0.0
 10
14.7576770148
 20
12.2582011619
 30
0.0
 10
14.7561931437
 20
12.2636689804
 30
0.0
 10
14.7549397582
 20
12.2692194375
 30
0.0
 10
14.7539181831
 20
12.2748468295
 30
0.0
 10
14.7531293899
 20
12.2805455354
 30
0.0
 10
14.7525741664
 20
12.286309827
 30
0.0
 10
14.7522530515
 20
12.2921339231
 30
0.0
 10
14.75216633
 20
12.2980119796
 30
0.0
 10
14.7523140943
 20
12.3039381118
 30
0.0
 10
14.7526961344
 20
12.3099063741
 30
0.0
 10
14.7533121196
 20
12.3159108534
 30
0.0
 10
14.7544499244
 20
12.3239964849
 30
0.0
 10
14.7564627723
 20
12.334168802
 30
0.0
 10
14.7586555098
 20
12.3422122939
 30
0.0
 10
14.7598977893
 20
12.3462323117
 30
0.0
  0
SPLINE
  5
30A
100
AcDbEntity
  8
02___PRT_ALL_AXES
100
AcDbSpline
 62
7
  6
CONTINUOUS
 70
0
 71
3
 72
56
 73
52
 74
0
 42
0.0000001
 43
0.0000001
 44
0.0000000001
 40
0.0
 40
0.0
 40
0.0
 40
0.0
 40
0.0108923804
 40
0.0218605301
 40
0.03292991
 40
0.0441248818
 40
0.0554682722
 40
0.0669812971
 40
0.0786832736
 40
0.0905914857
 40
0.1027211641
 40
0.1150852334
 40
0.1276945432
 40
0.1405575847
 40
0.1536807573
 40
0.1670682905
 40
0.1807223215
 40
0.1946431289
 40
0.2088290001
 40
0.2232766303
 40
0.2379810433
 40
0.2529358509
 40
0.2681333923
 40
0.2835648134
 40
0.2992203557
 40
0.3150893554
 40
0.3311605186
 40
0.3474219907
 40
0.3638615197
 40
0.3804665795
 40
0.3972244731
 40
0.4141224505
 40
0.4482856218
 40
0.4828584153
 40
0.5177446618
 40
0.5528533878
 40
0.5880997338
 40
0.6234053742
 40
0.6586987383
 40
0.6939150088
 40
0.7289960576
 40
0.7638904179
 40
0.7985532476
 40
0.8329462856
 40
0.8670379392
 40
0.8839648848
 40
0.9008077165
 40
0.9175643862
 40
0.934233225
 40
0.9672974061
 40
1.0
 40
1.0
 40
1.0
 40
1.0
 10
14.7584566161
 20
12.2524905079
 30
0.0
 10
14.7576976145
 20
12.2540371954
 30
0.0
 10
14.7562584798
 20
12.2571834167
 30
0.0
 10
14.7543485965
 20
12.2620317806
 30
0.0
 10
14.7526826326
 20
12.2670198611
 30
0.0
 10
14.7512618015
 20
12.2721447152
 30
0.0
 10
14.7500869045
 20
12.2774033236
 30
0.0
 10
14.7491586685
 20
12.2827923186
 30
0.0
 10
14.7484775751
 20
12.2883080152
 30
0.0
 10
14.748043892
 20
12.2939463816
 30
0.0
 10
14.7478577323
 20
12.2997030107
 30
0.0
 10
14.7479188873
 20
12.3055731196
 30
0.0
 10
14.7482270208
 20
12.311551508
 30
0.0
 10
14.7487814482
 20
12.3176325815
 30
0.0
 10
14.7495812911
 20
12.3238103159
 30
0.0
 10
14.7506253806
 20
12.3300782756
 30
0.0
 10
14.7519122468
 20
12.3364296285
 30
0.0
 10
14.7534401974
 20
12.3428571233
 30
0.0
 10
14.7552071821
 20
12.3493531644
 30
0.0
 10
14.7572109387
 20
12.3559097719
 30
0.0
 10
14.7594488854
 20
12.3625186661
 30
0.0
 10
14.761918187
 20
12.3691712683
 30
0.0
 10
14.7646157731
 20
12.3758587347
 30
0.0
 10
14.7675382961
 20
12.382572026
 30
0.0
 10
14.7706822353
 20
12.3893018937
 30
0.0
 10
14.7740438276
 20
12.3960389754
 30
0.0
 10
14.7776191562
 20
12.4027737841
 30
0.0
 10
14.7814041393
 20
12.4094967706
 30
0.0
 10
14.7853945463
 20
12.4161983598
 30
0.0
 10
14.7895860489
 20
12.4228689378
 30
0.0
 10
14.7939742161
 20
12.4294989932
 30
0.0
 10
14.800103249
 20
12.4383037723
 30
0.0
 10
14.808229216
 20
12.4491471644
 30
0.0
 10
14.8186566368
 20
12.4618000434
 30
0.0
 10
14.8297583953
 20
12.4740684829
 30
0.0
 10
14.8414959134
 20
12.485881021
 30
0.0
 10
14.8538299291
 20
12.4971682141
 30
0.0
 10
14.8667199254
 20
12.5078623872
 30
0.0
 10
14.8801237387
 20
12.5178977968
 30
0.0
 10
14.8939969973
 20
12.5272107727
 30
0.0
 10
14.9082925658
 20
12.5357400241
 30
0.0
 10
14.9229599386
 20
12.5434270869
 30
0.0
 10
14.93794496
 20
12.5502170005
 30
0.0
 10
14.9531887506
 20
12.5560589523
 30
0.0
 10
14.966087357
 20
12.5601093238
 30
0.0
 10
14.9764723356
 20
12.562829911
 30
0.0
 10
14.9842665628
 20
12.5646031925
 30
0.0
 10
14.9920750755
 20
12.5661103081
 30
0.0
 10
15.0024641171
 20
12.5677559464
 30
0.0
 10
15.0154404708
 20
12.5691384526
 30
0.0
 10
15.0258463748
 20
12.5695139419
 30
0.0
 10
15.0310190495
 20
12.5695139419
 30
0.0
  0
SPLINE
  5
30B
100
AcDbEntity
  8
LAYER_FEATURE
100
AcDbSpline
 62
7
  6
CONTINUOUS
 70
0
 71
3
 72
11
 73
7
 74
0
 42
0.0000001
 43
0.0000001
 44
0.0000000001
 40
0.0
 40
0.0
 40
0.0
 40
0.0
 40
0.245170872
 40
0.4923247852
 40
0.7433897253
 40
1.0
 40
1.0
 40
1.0
 40
1.0
 10
16.6557874197
 20
12.8467907543
 30
0.0
 10
16.6558619738
 20
12.8470319906
 30
0.0
 10
16.6559850407
 20
12.8475251006
 30
0.0
 10
16.6560883815
 20
12.8482851423
 30
0.0
 10
16.6561104052
 20
12.8490635936
 30
0.0
 10
16.6560714814
 20
12.8495860076
 30
0.0
 10
16.6560391676
 20
12.8498482998
 30
0.0
  0
SPLINE
  5
30C
100
AcDbEntity
  8
LAYER_FEATURE
100
AcDbSpline
 62
7
  6
CONTINUOUS
 70
0
 71
3
 72
15
 73
11
 74
0
 42
0.0000001
 43
0.0000001
 44
0.0000000001
 40
0.0
 40
0.0
 40
0.0
 40
0.0
 40
0.1173936932
 40
0.2355817295
 40
0.3553330773
 40
0.4773615665
 40
0.6023148949
 40
0.7307747957
 40
0.863229378
 40
1.0
 40
1.0
 40
1.0
 40
1.0
 10
16.6157169958
 20
12.9877271237
 30
0.0
 10
16.6157852703
 20
12.9879480461
 30
0.0
 10
16.6158999418
 20
12.9883986392
 30
0.0
 10
16.6160039685
 20
12.9890918784
 30
0.0
 10
16.6160398999
 20
12.9898011249
 30
0.0
 10
16.6160077662
 20
12.9905238107
 30
0.0
 10
16.6159077018
 20
12.9912575016
 30
0.0
 10
16.6157401745
 20
12.9919997819
 30
0.0
 10
16.6155057959
 20
12.9927480397
 30
0.0
 10
16.6153089227
 20
12.993241047
 30
0.0
 10
16.6152002637
 20
12.9934875604
 30
0.0
  0
SPLINE
  5
30D
100
AcDbEntity
  8
LAYER_FEATURE
100
AcDbSpline
 62
7
  6
CONTINUOUS
 70
0
 71
3
 72
20
 73
16
 74
0
 42
0.0000001
 43
0.0000001
 44
0.0000000001
 40
0.0
 40
0.0
 40
0.0
 40
0.0
 40
0.0554971566
 40
0.1111935328
 40
0.167284625
 40
0.2239594704
 40
0.2813965208
 40
0.3397629683
 40
0.4598204257
 40
0.5218287748
 40
0.5852796882
 40
0.6502590259
 40
0.7168394703
 40
0.8549904097
 40
1.0
 40
1.0
 40
1.0
 40
1.0
 10
16.5311008084
 20
13.129665655
 30
0.0
 10
16.5311504269
 20
13.1298262219
 30
0.0
 10
16.5312380675
 20
13.130151706
 30
0.0
 10
16.5313338219
 20
13.1306495836
 30
0.0
 10
16.5313937974
 20
13.1311566382
 30
0.0
 10
16.5314178671
 20
13.1316719092
 30
0.0
 10
16.5314060545
 20
13.1321945066
 30
0.0
 10
16.5313418852
 20
13.1329062913
 30
0.0
 10
16.5312051229
 20
13.1336237359
 30
0.0
 10
16.5310014234
 20
13.1343390616
 30
0.0
 10
16.530811928
 20
13.1348840818
 30
0.0
 10
16.5305877136
 20
13.135430702
 30
0.0
 10
16.5302387078
 20
13.1361694821
 30
0.0
 10
16.5297148329
 20
13.1370918873
 30
0.0
 10
16.529225636
 20
13.137797551
 30
0.0
 10
16.5289612982
 20
13.138148201
 30
0.0
  0
SPLINE
  5
30E
100
AcDbEntity
  8
LAYER_FEATURE
100
AcDbSpline
 62
7
  6
CONTINUOUS
 70
0
 71
3
 72
23
 73
19
 74
0
 42
0.0000001
 43
0.0000001
 44
0.0000000001
 40
0.0
 40
0.0
 40
0.0
 40
0.0
 40
0.0523222428
 40
0.1049673729
 40
0.1582471389
 40
0.2124556466
 40
0.2678621743
 40
0.3247035896
 40
0.3831839953
 40
0.4434702608
 40
0.5056958105
 40
0.5699583844
 40
0.6363246694
 40
0.7048263407
 40
0.7754718243
 40
0.8482514253
 40
0.9231267726
 40
1.0
 40
1.0
 40
1.0
 40
1.0
 10
16.4056369897
 20
13.2664029534
 30
0.0
 10
16.4057021156
 20
13.2666137211
 30
0.0
 10
16.4058124722
 20
13.2670431332
 30
0.0
 10
16.4059161833
 20
13.2677031883
 30
0.0
 10
16.405957967
 20
13.2683780277
 30
0.0
 10
16.4059378064
 20
13.2690654396
 30
0.0
 10
16.4058557729
 20
13.2697633038
 30
0.0
 10
16.4057122704
 20
13.2704694852
 30
0.0
 10
16.405507734
 20
13.2711818253
 30
0.0
 10
16.4052429281
 20
13.2718982089
 30
0.0
 10
16.404918633
 20
13.2726164698
 30
0.0
 10
16.4045359332
 20
13.2733345065
 30
0.0
 10
16.404095949
 20
13.2740501361
 30
0.0
 10
16.4036001074
 20
13.2747612714
 30
0.0
 10
16.4030498384
 20
13.27546577
 30
0.0
 10
16.402446807
 20
13.2761615992
 30
0.0
 10
16.4017928742
 20
13.2768465425
 30
0.0
 10
16.4013303049
 20
13.2772889095
 30
0.0
 10
16.4010913278
 20
13.2775078575
 30
0.0
  0
SPLINE
  5
30F
100
AcDbEntity
  8
LAYER_FEATURE
100
AcDbSpline
 62
7
  6
CONTINUOUS
 70
0
 71
3
 72
16
 73
12
 74
0
 42
0.0000001
 43
0.0000001
 44
0.0000000001
 40
0.0
 40
0.0
 40
0.0
 40
0.0
 40
0.0511303958
 40
0.1034796083
 40
0.2122648696
 40
0.3271809313
 40
0.4486700091
 40
0.5768899274
 40
0.7117462303
 40
0.8529452214
 40
1.0
 40
1.0
 40
1.0
 40
1.0
 10
16.2380707324
 20
13.3702520302
 30
0.0
 10
16.2381054595
 20
13.3699907131
 30
0.0
 10
16.2381953784
 20
13.3694642651
 30
0.0
 10
16.2384548702
 20
13.3684003631
 30
0.0
 10
16.2389315834
 20
13.3670548114
 30
0.0
 10
16.2397237153
 20
13.3654570549
 30
0.0
 10
16.240735471
 20
13.3638687805
 30
0.0
 10
16.2419574027
 20
13.3623039304
 30
0.0
 10
16.2433784856
 20
13.3607759233
 30
0.0
 10
16.2449858947
 20
13.3592982711
 30
0.0
 10
16.2461503989
 20
13.35837268
 30
0.0
 10
16.2467590279
 20
13.357920574
 30
0.0
  0
SPLINE
  5
310
100
AcDbEntity
  8
LAYER_FEATURE
100
AcDbSpline
 62
7
  6
CONTINUOUS
 70
0
 71
3
 72
23
 73
19
 74
0
 42
0.0000001
 43
0.0000001
 44
0.0000000001
 40
0.0
 40
0.0
 40
0.0
 40
0.0
 40
0.049484877
 40
0.0994340702
 40
0.1502872841
 40
0.2024568817
 40
0.2562929561
 40
0.312085613
 40
0.3700629775
 40
0.4303889916
 40
0.4931692454
 40
0.5584535149
 40
0.6262432694
 40
0.6964964687
 40
0.7691269922
 40
0.844022135
 40
0.9210484749
 40
1.0
 40
1.0
 40
1.0
 40
1.0
 10
16.2448089133
 20
13.3919629422
 30
0.0
 10
16.2448895684
 20
13.3922239804
 30
0.0
 10
16.245020462
 20
13.3927587156
 30
0.0
 10
16.2451214242
 20
13.3935841231
 30
0.0
 10
16.2451271524
 20
13.3944304986
 30
0.0
 10
16.245037783
 20
13.3952935715
 30
0.0
 10
16.2448540032
 20
13.39616931
 30
0.0
 10
16.2445768712
 20
13.3970536261
 30
0.0
 10
16.244207837
 20
13.3979424688
 30
0.0
 10
16.2437487899
 20
13.3988318386
 30
0.0
 10
16.2432018936
 20
13.3997176944
 30
0.0
 10
16.242569753
 20
13.4005960489
 30
0.0
 10
16.2418553132
 20
13.4014629331
 30
0.0
 10
16.2410618582
 20
13.4023143651
 30
0.0
 10
16.2401931039
 20
13.4031465119
 30
0.0
 10
16.2392529601
 20
13.4039555812
 30
0.0
 10
16.2382458499
 20
13.4047377581
 30
0.0
 10
16.2375410392
 20
13.4052332405
 30
0.0
 10
16.2371788838
 20
13.4054758441
 30
0.0
  0
SPLINE
  5
311
100
AcDbEntity
  8
02___PRT_ALL_AXES
100
AcDbSpline
 62
7
  6
CONTINUOUS
 70
0
 71
3
 72
46
 73
42
 74
0
 42
0.0000001
 43
0.0000001
 44
0.0000000001
 40
0.0
 40
0.0
 40
0.0
 40
0.0
 40
0.0123992809
 40
0.0248057417
 40
0.0372265433
 40
0.0496688029
 40
0.0621395805
 40
0.0746458516
 40
0.0871944957
 40
0.0997922748
 40
0.1124458135
 40
0.1251615943
 40
0.1379459248
 40
0.1508049455
 40
0.1767683023
 40
0.2030991908
 40
0.2298392362
 40
0.2570263777
 40
0.2846947465
 40
0.3128746091
 40
0.3271656243
 40
0.341594088
 40
0.3708723298
 40
0.4007299082
 40
0.4311820561
 40
0.4622405229
 40
0.4939137235
 40
0.5262068948
 40
0.5591222562
 40
0.5926591693
 40
0.6268142948
 40
0.6615817518
 40
0.69695327
 40
0.7329183338
 40
0.7694643244
 40
0.8065766505
 40
0.8442388555
 40
0.8824328507
 40
0.921138628
 40
0.9603355108
 40
1.0
 40
1.0
 40
1.0
 40
1.0
 10
14.5473771009
 20
12.4608466732
 30
0.0
 10
14.5481529191
 20
12.4633572145
 30
0.0
 10
14.549778855
 20
12.4683572713
 30
0.0
 10
14.5524380046
 20
12.4757858805
 30
0.0
 10
14.5553169985
 20
12.4831419366
 30
0.0
 10
14.5584149492
 20
12.4904232831
 30
0.0
 10
14.5617310294
 20
12.4976278551
 30
0.0
 10
14.5652642501
 20
12.5047536214
 30
0.0
 10
14.5690136288
 20
12.5117985521
 30
0.0
 10
14.5729780945
 20
12.5187606481
 30
0.0
 10
14.5771564994
 20
12.5256379546
 30
0.0
 10
14.5815476772
 20
12.5324284858
 30
0.0
 10
14.5861503823
 20
12.5391304019
 30
0.0
 10
14.5925877129
 20
12.5479731886
 30
0.0
 10
14.6011673887
 20
12.5588006624
 30
0.0
 10
14.6122534671
 20
12.5713656357
 30
0.0
 10
14.6241506374
 20
12.5835308616
 30
0.0
 10
14.6368450597
 20
12.5952824583
 30
0.0
 10
14.6503220696
 20
12.6066072534
 30
0.0
 10
14.6621367571
 20
12.6156359637
 30
0.0
 10
14.6719568192
 20
12.6226350229
 30
0.0
 10
14.6821202149
 20
12.6295484383
 30
0.0
 10
14.6952917584
 20
12.6378978552
 30
0.0
 10
14.7117374443
 20
12.6473945157
 30
0.0
 10
14.7288809012
 20
12.6564065172
 30
0.0
 10
14.7467025524
 20
12.6649236959
 30
0.0
 10
14.7651823251
 20
12.6729365991
 30
0.0
 10
14.7842993484
 20
12.6804362824
 30
0.0
 10
14.8040320613
 20
12.6874143785
 30
0.0
 10
14.8243582079
 20
12.6938630913
 30
0.0
 10
14.8452548655
 20
12.6997752165
 30
0.0
 10
14.8666984692
 20
12.7051441421
 30
0.0
 10
14.8886648381
 20
12.7099638587
 30
0.0
 10
14.9111292013
 20
12.714228967
 30
0.0
 10
14.9340662253
 20
12.7179346854
 30
0.0
 10
14.9574500356
 20
12.7210768543
 30
0.0
 10
14.9812542683
 20
12.7236519588
 30
0.0
 10
15.0054520182
 20
12.7256570928
 30
0.0
 10
15.0300161129
 20
12.7270900438
 30
0.0
 10
15.0549185632
 20
12.7279491522
 30
0.0
 10
15.0716316977
 20
12.7281376411
 30
0.0
 10
15.08003748
 20
12.7281376411
 30
0.0
  0
SPLINE
  5
312
100
AcDbEntity
  8
LAYER_CHAMFER_FEAT
100
AcDbSpline
 62
7
  6
CONTINUOUS
 70
0
 71
3
 72
58
 73
54
 74
0
 42
0.0000001
 43
0.0000001
 44
0.0000000001
 40
0.0
 40
0.0
 40
0.0
 40
0.0
 40
0.0106255961
 40
0.0212738377
 40
0.0319671271
 40
0.042727408
 40
0.0535759325
 40
0.064533083
 40
0.0756181978
 40
0.0868494219
 40
0.0982436261
 40
0.1098162752
 40
0.1215814417
 40
0.1335516976
 40
0.1457381852
 40
0.1581505595
 40
0.1707970587
 40
0.183684524
 40
0.1968184278
 40
0.2102029744
 40
0.2238410767
 40
0.2377345128
 40
0.2518838772
 40
0.2662887414
 40
0.2809476277
 40
0.2958581226
 40
0.3110169078
 40
0.3264198015
 40
0.3420618538
 40
0.3579373235
 40
0.3740398147
 40
0.3903622242
 40
0.4068968763
 40
0.4236354871
 40
0.4405692572
 40
0.4576888824
 40
0.4924442682
 40
0.5278206097
 40
0.5637290403
 40
0.6000759112
 40
0.6367637445
 40
0.6736921498
 40
0.7107587145
 40
0.7478598762
 40
0.7848917872
 40
0.8217511721
 40
0.858336203
 40
0.8945473343
 40
0.9302883609
 40
0.947954276
 40
0.965468697
 40
0.9828214056
 40
1.0
 40
1.0
 40
1.0
 40
1.0
 10
14.7680667015
 20
11.6711747388
 30
0.0
 10
14.7673845315
 20
11.6689672351
 30
0.0
 10
14.7661431462
 20
11.6645079704
 30
0.0
 10
14.7646580952
 20
11.6577137447
 30
0.0
 10
14.7635505325
 20
11.6508180271
 30
0.0
 10
14.7628217482
 20
11.6438283976
 30
0.0
 10
14.7624723775
 20
11.6367521916
 30
0.0
 10
14.7625027248
 20
11.6295969024
 30
0.0
 10
14.762912697
 20
11.6223700665
 30
0.0
 10
14.7637017046
 20
11.6150792693
 30
0.0
 10
14.7648689135
 20
11.6077321604
 30
0.0
 10
14.7664129009
 20
11.6003363939
 30
0.0
 10
14.7683320681
 20
11.5928997027
 30
0.0
 10
14.7706242313
 20
11.5854297943
 30
0.0
 10
14.7732869958
 20
11.5779344495
 30
0.0
 10
14.7763174743
 20
11.5704214269
 30
0.0
 10
14.7797124637
 20
11.5628985167
 30
0.0
 10
14.7834683974
 20
11.5553735226
 30
0.0
 10
14.78758128
 20
11.547854211
 30
0.0
 10
14.7920468618
 20
11.5403484093
 30
0.0
 10
14.7968603943
 20
11.5328638403
 30
0.0
 10
14.8020169245
 20
11.5254083122
 30
0.0
 10
14.8075110033
 20
11.517989498
 30
0.0
 10
14.8133369558
 20
11.5106151304
 30
0.0
 10
14.8194886796
 20
11.5032928278
 30
0.0
 10
14.8259597802
 20
11.4960301949
 30
0.0
 10
14.8327435314
 20
11.4888347786
 30
0.0
 10
14.8398328456
 20
11.4817140172
 30
0.0
 10
14.8472203878
 20
11.4746753514
 30
0.0
 10
14.8548984225
 20
11.4677260338
 30
0.0
 10
14.8628590122
 20
11.4608733467
 30
0.0
 10
14.8710938284
 20
11.4541243527
 30
0.0
 10
14.8795943425
 20
11.4474861131
 30
0.0
 10
14.8883516758
 20
11.4409655067
 30
0.0
 10
14.8973567695
 20
11.4345692893
 30
0.0
 10
14.9097429974
 20
11.4261740336
 30
0.0
 10
14.9257893142
 20
11.4160395736
 30
0.0
 10
14.9457817208
 20
11.4045389753
 30
0.0
 10
14.9665243184
 20
11.3936860386
 30
0.0
 10
14.9879307335
 20
11.3835259572
 30
0.0
 10
15.0099121514
 20
11.3741008723
 30
0.0
 10
15.0323772583
 20
11.3654499397
 30
0.0
 10
15.0552327434
 20
11.3576090921
 30
0.0
 10
15.0783836567
 20
11.3506109018
 30
0.0
 10
15.101733828
 20
11.3444844399
 30
0.0
 10
15.1251862386
 20
11.3392551564
 30
0.0
 10
15.1486435448
 20
11.3349447669
 30
0.0
 10
15.1720080745
 20
11.3315711991
 30
0.0
 10
15.1913952578
 20
11.3295444168
 30
0.0
 10
15.2067758652
 20
11.3284080771
 30
0.0
 10
15.2181837223
 20
11.3278006412
 30
0.0
 10
15.2294958039
 20
11.3274354598
 30
0.0
 10
15.2370047735
 20
11.3273532397
 30
0.0
 10
15.2407402073
 20
11.3273532397
 30
0.0
  0
SPLINE
  5
313
100
AcDbEntity
  8
LAYER_FEATURE
100
AcDbSpline
 62
7
  6
CONTINUOUS
 70
0
 71
3
 72
15
 73
11
 74
0
 42
0.0000001
 43
0.0000001
 44
0.0000000001
 40
0.0
 40
0.0
 40
0.0
 40
0.0
 40
0.1391844866
 40
0.2740132754
 40
0.404602365
 40
0.5310940849
 40
0.6536601756
 40
0.7725035446
 40
0.8878599052
 40
1.0
 40
1.0
 40
1.0
 40
1.0
 10
15.9708350593
 20
11.6447853252
 30
0.0
 10
15.969999134
 20
11.6437838478
 30
0.0
 10
15.9683167193
 20
11.641842473
 30
0.0
 10
15.9657195981
 20
11.6390778653
 30
0.0
 10
15.9630916807
 20
11.6365097909
 30
0.0
 10
15.9604351795
 20
11.6341405419
 30
0.0
 10
15.9577523072
 20
11.6319721798
 30
0.0
 10
15.9550452604
 20
11.630006593
 30
0.0
 10
15.9523164146
 20
11.6282456543
 30
0.0
 10
15.9504592461
 20
11.6271950798
 30
0.0
 10
15.9495287488
 20
11.626706368
 30
0.0
  0
SPLINE
  5
314
100
AcDbEntity
  8
LAYER_CHAMFER_FEAT
100
AcDbSpline
 62
7
  6
CONTINUOUS
 70
0
 71
3
 72
39
 73
35
 74
0
 42
0.0000001
 43
0.0000001
 44
0.0000000001
 40
0.0
 40
0.0
 40
0.0
 40
0.0
 40
0.0248034963
 40
0.0496643347
 40
0.0746391942
 40
0.099783485
 40
0.1251507464
 40
0.1507921142
 40
0.1767559258
 40
0.2030872574
 40
0.2298277661
 40
0.2570153712
 40
0.2846842088
 40
0.3128645651
 40
0.3415828039
 40
0.3708615622
 40
0.4007196409
 40
0.4311723134
 40
0.4622313148
 40
0.493905049
 40
0.5261987895
 40
0.5591147003
 40
0.5926522007
 40
0.6268079011
 40
0.6615759528
 40
0.6969480925
 40
0.7329137578
 40
0.7694603575
 40
0.8065733574
 40
0.8442363193
 40
0.8824305683
 40
0.9211370727
 40
0.9603360377
 40
1.0
 40
1.0
 40
1.0
 40
1.0
 10
15.4846323133
 20
11.4497392168
 30
0.0
 10
15.48392173
 20
11.4474397676
 30
0.0
 10
15.4823632106
 20
11.44287624
 30
0.0
 10
15.4796233157
 20
11.4361678606
 30
0.0
 10
15.4764833127
 20
11.4296002891
 30
0.0
 10
15.4729469414
 20
11.4231813845
 30
0.0
 10
15.4690182992
 20
11.4169184114
 30
0.0
 10
15.4647020346
 20
11.4108184822
 30
0.0
 10
15.4600030965
 20
11.4048885605
 30
0.0
 10
15.4549270172
 20
11.399135273
 30
0.0
 10
15.4494795977
 20
11.393565143
 30
0.0
 10
15.4436671436
 20
11.3881843772
 30
0.0
 10
15.4374963125
 20
11.3829989893
 30
0.0
 10
15.4309741291
 20
11.3780147974
 30
0.0
 10
15.4241080634
 20
11.3732372903
 30
0.0
 10
15.4169058647
 20
11.3686718642
 30
0.0
 10
15.4093757416
 20
11.3643235251
 30
0.0
 10
15.4015261868
 20
11.3601971651
 30
0.0
 10
15.3933660845
 20
11.3562973602
 30
0.0
 10
15.3849046562
 20
11.3526284353
 30
0.0
 10
15.376151433
 20
11.3491945347
 30
0.0
 10
15.367116314
 20
11.3459994159
 30
0.0
 10
15.3578094664
 20
11.3430467247
 30
0.0
 10
15.3482414027
 20
11.3403396982
 30
0.0
 10
15.3384229027
 20
11.3378813974
 30
0.0
 10
15.3283650394
 20
11.3356745785
 30
0.0
 10
15.3180791634
 20
11.3337216746
 30
0.0
 10
15.3075768599
 20
11.3320249342
 30
0.0
 10
15.2968699766
 20
11.3305861946
 30
0.0
 10
15.2859706249
 20
11.3294071387
 30
0.0
 10
15.274891093
 20
11.3284890189
 30
0.0
 10
15.2636436928
 20
11.3278328956
 30
0.0
 10
15.252241445
 20
11.3274395685
 30
0.0
 10
15.2445888916
 20
11.3273532397
 30
0.0
 10
15.2407402073
 20
11.3273532397
 30
0.0
  0
SPLINE
  5
315
100
AcDbEntity
  8
02___PRT_ALL_AXES
100
AcDbSpline
 62
7
  6
CONTINUOUS
 70
0
 71
3
 72
46
 73
42
 74
0
 42
0.0000001
 43
0.0000001
 44
0.0000000001
 40
0.0
 40
0.0
 40
0.0
 40
0.0
 40
0.0396646826
 40
0.0788612669
 40
0.1175671919
 40
0.1557611349
 40
0.1934233521
 40
0.2305356742
 40
0.2670816653
 40
0.3030467309
 40
0.3384182498
 40
0.3731857063
 40
0.40734083
 40
0.4408777416
 40
0.4737931039
 40
0.5060862771
 40
0.5377594789
 40
0.5688179455
 40
0.5992700919
 40
0.6291276691
 40
0.6584059116
 40
0.6728343756
 40
0.6871253923
 40
0.7153052558
 40
0.7429736242
 40
0.7701607644
 40
0.7969008086
 40
0.8232316972
 40
0.8491950548
 40
0.8620540748
 40
0.8748384064
 40
0.887554186
 40
0.9002077256
 40
0.9128055044
 40
0.9253541483
 40
0.93786042
 40
0.9503311967
 40
0.9627734571
 40
0.9751942581
 40
0.9876007193
 40
1.0
 40
1.0
 40
1.0
 40
1.0
 10
14.8629039879
 20
12.0254934032
 30
0.0
 10
14.8544981646
 20
12.0254934032
 30
0.0
 10
14.8377850521
 20
12.0253049217
 30
0.0
 10
14.8128825933
 20
12.0244457992
 30
0.0
 10
14.7883185406
 20
12.0230128649
 30
0.0
 10
14.7641207686
 20
12.0210077201
 30
0.0
 10
14.740316545
 20
12.0184326179
 30
0.0
 10
14.7169327331
 20
12.0152904456
 30
0.0
 10
14.6939957093
 20
12.0115847288
 30
0.0
 10
14.6715313449
 20
12.0073196223
 30
0.0
 10
14.6495649753
 20
12.0024999065
 30
0.0
 10
14.6281213721
 20
11.9971309802
 30
0.0
 10
14.6072247158
 20
11.9912188532
 30
0.0
 10
14.5868985702
 20
11.9847701386
 30
0.0
 10
14.5671658566
 20
11.9777920439
 30
0.0
 10
14.5480488314
 20
11.9702923627
 30
0.0
 10
14.5295690574
 20
11.9622794607
 30
0.0
 10
14.5117474065
 20
11.9537622815
 30
0.0
 10
14.4946039509
 20
11.9447502785
 30
0.0
 10
14.4781582667
 20
11.935253616
 30
0.0
 10
14.4649867218
 20
11.9269042014
 30
0.0
 10
14.4548233261
 20
11.9199907849
 30
0.0
 10
14.445003261
 20
11.9129917289
 30
0.0
 10
14.433188573
 20
11.9039630183
 30
0.0
 10
14.4197115635
 20
11.892638223
 30
0.0
 10
14.4070171436
 20
11.8808866244
 30
0.0
 10
14.3951199755
 20
11.868721397
 30
0.0
 10
14.3840338976
 20
11.8561564236
 30
0.0
 10
14.3754542161
 20
11.8453289539
 30
0.0
 10
14.3690168921
 20
11.8364861621
 30
0.0
 10
14.364414179
 20
11.8297842517
 30
0.0
 10
14.3600230101
 20
11.8229937143
 30
0.0
 10
14.3558445983
 20
11.8161164123
 30
0.0
 10
14.3518801342
 20
11.8091543151
 30
0.0
 10
14.3481307603
 20
11.802109382
 30
0.0
 10
14.3445975281
 20
11.7949836213
 30
0.0
 10
14.3412814649
 20
11.7877790414
 30
0.0
 10
14.3381834952
 20
11.7804977032
 30
0.0
 10
14.3353045186
 20
11.77314164
 30
0.0
 10
14.3326453564
 20
11.7657130357
 30
0.0
 10
14.3310194238
 20
11.7607129776
 30
0.0
 10
14.3302436073
 20
11.7582024358
 30
0.0
  0
SPLINE
  5
316
100
AcDbEntity
  8
LAYER_FEATURE
100
AcDbSpline
 62
7
  6
CONTINUOUS
 70
0
 71
3
 72
15
 73
11
 74
0
 42
0.0000001
 43
0.0000001
 44
0.0000000001
 40
0.0
 40
0.0
 40
0.0
 40
0.0
 40
0.1099205567
 40
0.2232552413
 40
0.340539359
 40
0.462235753
 40
0.5887366389
 40
0.7203659048
 40
0.8573857406
 40
1.0
 40
1.0
 40
1.0
 40
1.0
 10
15.9438437015
 20
12.1112580066
 30
0.0
 10
15.9450253875
 20
12.1108257119
 30
0.0
 10
15.9473885189
 20
12.1098434909
 30
0.0
 10
15.9508593024
 20
12.1080605958
 30
0.0
 10
15.9543006473
 20
12.1059507316
 30
0.0
 10
15.9577077399
 20
12.103517267
 30
0.0
 10
15.9610762624
 20
12.1007636898
 30
0.0
 10
15.9644019381
 20
12.0976939345
 30
0.0
 10
15.9676803565
 20
12.0943123023
 30
0.0
 10
15.9697889417
 20
12.0919019017
 30
0.0
 10
15.9708350599
 20
12.0906485944
 30
0.0
  0
SPLINE
  5
317
100
AcDbEntity
  8
LAYER_FEATURE
100
AcDbSpline
 62
7
  6
CONTINUOUS
 70
0
 71
3
 72
46
 73
42
 74
0
 42
0.0000001
 43
0.0000001
 44
0.0000000001
 40
0.0
 40
0.0
 40
0.0
 40
0.0
 40
0.0475517155
 40
0.0938180973
 40
0.138742701
 40
0.1822849036
 40
0.2244077556
 40
0.2650791153
 40
0.3042752232
 40
0.3419802734
 40
0.3781872852
 40
0.4128998122
 40
0.4461327175
 40
0.477914185
 40
0.5082872336
 40
0.5373115075
 40
0.5650656943
 40
0.5916489764
 40
0.6171829974
 40
0.6418127374
 40
0.6538436366
 40
0.6657133507
 40
0.6774461712
 40
0.6890674561
 40
0.7006035532
 40
0.7120815302
 40
0.7235289495
 40
0.7349736692
 40
0.7464435587
 40
0.757966266
 40
0.7695689887
 40
0.7812781861
 40
0.7931194422
 40
0.8051173161
 40
0.8296680189
 40
0.8551078095
 40
0.8815837849
 40
0.9092199076
 40
0.9381174945
 40
0.968356987
 40
1.0
 40
1.0
 40
1.0
 40
1.0
 10
15.9156167375
 20
11.9900497999
 30
0.0
 10
15.9162712874
 20
11.9921679243
 30
0.0
 10
15.9176126234
 20
11.9963317163
 30
0.0
 10
15.9197524223
 20
12.0024367443
 30
0.0
 10
15.9219895788
 20
12.0083072594
 30
0.0
 10
15.9243201011
 20
12.0139328612
 30
0.0
 10
15.9267399486
 20
12.0193039494
 30
0.0
 10
15.9292449985
 20
12.024411193
 30
0.0
 10
15.9318308784
 20
12.0292457519
 30
0.0
 10
15.9344931483
 20
12.0337992854
 30
0.0
 10
15.9372272867
 20
12.0380639236
 30
0.0
 10
15.9400285993
 20
12.0420323407
 30
0.0
 10
15.9428924069
 20
12.0456976717
 30
0.0
 10
15.9458139045
 20
12.0490535995
 30
0.0
 10
15.9487882495
 20
12.05209431
 30
0.0
 10
15.9518106235
 20
12.0548144242
 30
0.0
 10
15.9548760572
 20
12.0572091047
 30
0.0
 10
15.9579796968
 20
12.0592738826
 30
0.0
 10
15.9611162394
 20
12.0610046378
 30
0.0
 10
15.9637742915
 20
12.0621748078
 30
0.0
 10
15.9659062842
 20
12.0629346381
 30
0.0
 10
15.9674973877
 20
12.0634149245
 30
0.0
 10
15.9690921529
 20
12.0638097396
 30
0.0
 10
15.9706899098
 20
12.0641188629
 30
0.0
 10
15.972289922
 20
12.0643421566
 30
0.0
 10
15.9738914655
 20
12.0644795324
 30
0.0
 10
15.9754938139
 20
12.0645308826
 30
0.0
 10
15.9770962321
 20
12.0644961792
 30
0.0
 10
15.9786979895
 20
12.0643754783
 30
0.0
 10
15.9802983565
 20
12.0641688198
 30
0.0
 10
15.9818966024
 20
12.0638762815
 30
0.0
 10
15.9834920037
 20
12.0634980608
 30
0.0
 10
15.9850838822
 20
12.0630343205
 30
0.0
 10
15.9872167439
 20
12.0622967254
 30
0.0
 10
15.9898764518
 20
12.0611543739
 30
0.0
 10
15.9930159035
 20
12.0594561189
 30
0.0
 10
15.9961229807
 20
12.0574235221
 30
0.0
 10
15.9991923251
 20
12.0550606027
 30
0.0
 10
16.0022190855
 20
12.052371759
 30
0.0
 10
16.0051982522
 20
12.0493619605
 30
0.0
 10
16.0071054573
 20
12.0471948299
 30
0.0
 10
16.0080508029
 20
12.0460622612
 30
0.0
  0
SPLINE
  5
318
100
AcDbEntity
  8
02___PRT_ALL_AXES
100
AcDbSpline
 62
7
  6
CONTINUOUS
 70
0
 71
3
 72
25
 73
21
 74
0
 42
0.0000001
 43
0.0000001
 44
0.0000000001
 40
0.0
 40
0.0
 40
0.0
 40
0.0
 40
0.0565193345
 40
0.1129430647
 40
0.1694701406
 40
0.2263035919
 40
0.2836479971
 40
0.3417066483
 40
0.4006785914
 40
0.4607557656
 40
0.5221203062
 40
0.5533436537
 40
0.5849512781
 40
0.6493855227
 40
0.7155717499
 40
0.7493644879
 40
0.7836390196
 40
0.85367491
 40
0.9257760555
 40
1.0
 40
1.0
 40
1.0
 40
1.0
 10
15.9623837068
 20
12.1137169574
 30
0.0
 10
15.9641786524
 20
12.1137169542
 30
0.0
 10
15.9677671792
 20
12.1135751124
 30
0.0
 10
15.9731163107
 20
12.1129329504
 30
0.0
 10
15.9784068875
 20
12.1118620071
 30
0.0
 10
15.983622781
 20
12.1103630655
 30
0.0
 10
15.9887486966
 20
12.1084376752
 30
0.0
 10
15.9937695319
 20
12.1060881648
 30
0.0
 10
15.9986706516
 20
12.1033175569
 30
0.0
 10
16.0034377763
 20
12.1001299012
 30
0.0
 10
16.0072655634
 20
12.0971470236
 30
0.0
 10
16.0102464341
 20
12.094563165
 30
0.0
 10
16.0132084723
 20
12.091812273
 30
0.0
 10
16.0168037119
 20
12.0881164463
 30
0.0
 10
16.0201989545
 20
12.0841448843
 30
0.0
 10
16.0228190922
 20
12.0807806473
 30
0.0
 10
16.0254098693
 20
12.0772410242
 30
0.0
 10
16.0285187445
 20
12.0725762448
 30
0.0
 10
16.0320098033
 20
12.0666544145
 30
0.0
 10
16.0341588407
 20
12.06253152
 30
0.0
 10
16.0351972924
 20
12.0604153779
 30
0.0
  0
SPLINE
  5
319
100
AcDbEntity
  8
LAYER_FEATURE
100
AcDbSpline
 62
7
  6
CONTINUOUS
 70
0
 71
3
 72
78
 73
74
 74
0
 42
0.0000001
 43
0.0000001
 44
0.0000000001
 40
0.0
 40
0.0
 40
0.0
 40
0.0
 40
0.0176367147
 40
0.0357018449
 40
0.0541702323
 40
0.0730192045
 40
0.0922240316
 40
0.1117584832
 40
0.1315956303
 40
0.1517077217
 40
0.1720661836
 40
0.1926417586
 40
0.2134046583
 40
0.2343245591
 40
0.2553707427
 40
0.2765121701
 40
0.2977175406
 40
0.3189554073
 40
0.3401942266
 40
0.3614024639
 40
0.3825486511
 40
0.403601489
 40
0.4245299162
 40
0.4453031802
 40
0.4658909627
 40
0.4862633973
 40
0.5063912229
 40
0.5262458405
 40
0.5457993736
 40
0.5650248567
 40
0.5838962171
 40
0.6023884687
 40
0.6204778134
 40
0.6381416778
 40
0.6553589967
 40
0.6721102083
 40
0.6883774854
 40
0.7041449614
 40
0.7193987853
 40
0.7341275424
 40
0.7483223849
 40
0.761977357
 40
0.7750898729
 40
0.7876609441
 40
0.7996958435
 40
0.8112045837
 40
0.8222024929
 40
0.8327110721
 40
0.8427585395
 40
0.8523806595
 40
0.8616213312
 40
0.8705328554
 40
0.8748851527
 40
0.8791786188
 40
0.8834220587
 40
0.8876246724
 40
0.8917959881
 40
0.8959458189
 40
0.9000841674
 40
0.9042211338
 40
0.9083668372
 40
0.9125313109
 40
0.9167244235
 40
0.9209558048
 40
0.9252347409
 40
0.9295701347
 40
0.9384413141
 40
0.9476338086
 40
0.9572011467
 40
0.967188331
 40
0.9776321808
 40
0.9885619766
 40
1.0
 40
1.0
 40
1.0
 40
1.0
 10
15.9156167375
 20
11.9900497999
 30
0.0
 10
15.9149438785
 20
11.9878724275
 30
0.0
 10
15.9136358328
 20
11.9834479278
 30
0.0
 10
15.9118063324
 20
11.9766909407
 30
0.0
 10
15.9100883865
 20
11.9697432544
 30
0.0
 10
15.908485036
 20
11.9626172486
 30
0.0
 10
15.9069990178
 20
11.9553252393
 30
0.0
 10
15.9056329934
 20
11.9478799692
 30
0.0
 10
15.9043893282
 20
11.9402944827
 30
0.0
 10
15.9032702035
 20
11.9325820354
 30
0.0
 10
15.9022776035
 20
11.9247561098
 30
0.0
 10
15.9014132351
 20
11.9168303987
 30
0.0
 10
15.9006786449
 20
11.9088187635
 30
0.0
 10
15.9000751068
 20
11.9007352189
 30
0.0
 10
15.8996036698
 20
11.8925939075
 30
0.0
 10
15.89926519
 20
11.884409071
 30
0.0
 10
15.8990602268
 20
11.8761950302
 30
0.0
 10
15.898989162
 20
11.8679661563
 30
0.0
 10
15.8990521197
 20
11.859736846
 30
0.0
 10
15.8992489681
 20
11.8515214979
 30
0.0
 10
15.8995793957
 20
11.8433344859
 30
0.0
 10
15.9000427934
 20
11.8351901325
 30
0.0
 10
15.900638359
 20
11.8271026872
 30
0.0
 10
15.9013650613
 20
11.8190862984
 30
0.0
 10
15.9022215954
 20
11.8111549878
 30
0.0
 10
15.9032064929
 20
11.8033226312
 30
0.0
 10
15.9043180061
 20
11.7956029254
 30
0.0
 10
15.9055541826
 20
11.7880093706
 30
0.0
 10
15.9069128817
 20
11.7805552474
 30
0.0
 10
15.9083916851
 20
11.7732535831
 30
0.0
 10
15.9099880299
 20
11.7661171439
 30
0.0
 10
15.9116991115
 20
11.759158399
 30
0.0
 10
15.913521914
 20
11.7523895013
 30
0.0
 10
15.9154532834
 20
11.7458222782
 30
0.0
 10
15.9174898021
 20
11.7394681839
 30
0.0
 10
15.9196279287
 20
11.7333383067
 30
0.0
 10
15.9218639371
 20
11.7274433355
 30
0.0
 10
15.9241938931
 20
11.721793528
 30
0.0
 10
15.9266137832
 20
11.7163987304
 30
0.0
 10
15.9291193701
 20
11.7112683088
 30
0.0
 10
15.9317063178
 20
11.7064111702
 30
0.0
 10
15.9343701896
 20
11.7018357494
 30
0.0
 10
15.9371063657
 20
11.6975499459
 30
0.0
 10
15.9399102208
 20
11.6935611967
 30
0.0
 10
15.9427769883
 20
11.6898763923
 30
0.0
 10
15.9457018463
 20
11.6865019053
 30
0.0
 10
15.9486799815
 20
11.6834436514
 30
0.0
 10
15.9517064604
 20
11.6807069759
 30
0.0
 10
15.9547763706
 20
11.678296837
 30
0.0
 10
15.9578847965
 20
11.6762177151
 30
0.0
 10
15.961026391
 20
11.674473718
 30
0.0
 10
15.9636890959
 20
11.6732934323
 30
0.0
 10
15.965824911
 20
11.672526103
 30
0.0
 10
15.9674188351
 20
11.672040612
 30
0.0
 10
15.9690164725
 20
11.6716409245
 30
0.0
 10
15.9706171375
 20
11.6713271992
 30
0.0
 10
15.972220105
 20
11.6710996387
 30
0.0
 10
15.9738246437
 20
11.6709583543
 30
0.0
 10
15.9754300174
 20
11.6709033835
 30
0.0
 10
15.9770354933
 20
11.6709347809
 30
0.0
 10
15.9786403313
 20
11.671052552
 30
0.0
 10
15.9802437986
 20
11.6712565908
 30
0.0
 10
15.981845169
 20
11.6715468045
 30
0.0
 10
15.9834436984
 20
11.6719230794
 30
0.0
 10
15.9850387098
 20
11.672385205
 30
0.0
 10
15.9871757915
 20
11.6731210092
 30
0.0
 10
15.9898407924
 20
11.6742620757
 30
0.0
 10
15.9929865561
 20
11.6759600367
 30
0.0
 10
15.9960998263
 20
11.6779937099
 30
0.0
 10
15.9991752656
 20
11.6803589604
 30
0.0
 10
16.0022079978
 20
11.6830513836
 30
0.0
 10
16.0051929224
 20
11.6860660363
 30
0.0
 10
16.007103714
 20
11.6882369812
 30
0.0
 10
16.0080508039
 20
11.68937165
 30
0.0
  0
SPLINE
  5
31A
100
AcDbEntity
  8
LAYER_FEATURE
100
AcDbSpline
 62
7
  6
CONTINUOUS
 70
0
 71
3
 72
50
 73
46
 74
0
 42
0.0000001
 43
0.0000001
 44
0.0000000001
 40
0.0
 40
0.0
 40
0.0
 40
0.0
 40
0.0396641793
 40
0.0788606661
 40
0.1175661307
 40
0.1557597858
 40
0.1934216622
 40
0.2305336657
 40
0.2670793388
 40
0.3030440904
 40
0.3384152998
 40
0.3731824522
 40
0.4073372782
 40
0.4408738985
 40
0.4737889752
 40
0.5060818677
 40
0.5377547925
 40
0.5688129867
 40
0.5992648666
 40
0.6291221833
 40
0.6584001714
 40
0.6728285106
 40
0.6871194029
 40
0.7152990215
 40
0.7429671481
 40
0.7566197094
 40
0.7701560775
 40
0.7835806402
 40
0.7968980187
 40
0.8101130807
 40
0.8232309096
 40
0.8362568292
 40
0.8491963692
 40
0.8620552768
 40
0.874839498
 40
0.8875551653
 40
0.9002085963
 40
0.9128062638
 40
0.9253547993
 40
0.9378609614
 40
0.9503316297
 40
0.9627737816
 40
0.9751944743
 40
0.9876008274
 40
1.0
 40
1.0
 40
1.0
 40
1.0
 10
14.8974699228
 20
13.1001712071
 30
0.0
 10
14.8829214403
 20
13.1001712071
 30
0.0
 10
14.853994868
 20
13.0998449789
 30
0.0
 10
14.8108944712
 20
13.0983580563
 30
0.0
 10
14.7683797051
 20
13.0958779531
 30
0.0
 10
14.7264989781
 20
13.0924075253
 30
0.0
 10
14.6852993471
 20
13.0879506127
 30
0.0
 10
14.6448273671
 20
13.0825122435
 30
0.0
 10
14.60512867
 20
13.0760985039
 30
0.0
 10
14.5662480402
 20
13.0687165873
 30
0.0
 10
14.5282293253
 20
13.0603747691
 30
0.0
 10
14.4911153979
 20
13.051082395
 30
0.0
 10
14.4549481083
 20
13.0408498676
 30
0.0
 10
14.4197682396
 20
13.0296886326
 30
0.0
 10
14.3856154639
 20
13.0176111635
 30
0.0
 10
14.3525283041
 20
13.0046309473
 30
0.0
 10
14.3205440817
 20
12.9907624606
 30
0.0
 10
14.2896989196
 20
12.9760211864
 30
0.0
 10
14.2600275563
 20
12.9604234867
 30
0.0
 10
14.2315638734
 20
12.9439869567
 30
0.0
 10
14.2087669644
 20
12.9295360443
 30
0.0
 10
14.1911764758
 20
12.9175705249
 30
0.0
 10
14.1741801817
 20
12.9054567489
 30
0.0
 10
14.1537318838
 20
12.8898303239
 30
0.0
 10
14.1342075943
 20
12.873423907
 30
0.0
 10
14.119279964
 20
12.8599297553
 30
0.0
 10
14.1084753136
 20
12.84967221
 30
0.0
 10
14.0980158099
 20
12.8392363403
 30
0.0
 10
14.0879043842
 20
12.8286249971
 30
0.0
 10
14.0781438757
 20
12.8178412381
 30
0.0
 10
14.068737112
 20
12.8068880449
 30
0.0
 10
14.0596867115
 20
12.7957685622
 30
0.0
 10
14.0509952887
 20
12.7844858929
 30
0.0
 10
14.0426652999
 20
12.7730432404
 30
0.0
 10
14.034699104
 20
12.7614438466
 30
0.0
 10
14.0270990108
 20
12.7496909647
 30
0.0
 10
14.019867123
 20
12.7377879616
 30
0.0
 10
14.0130055746
 20
12.7257381621
 30
0.0
 10
14.0065162534
 20
12.7135450206
 30
0.0
 10
14.000401058
 20
12.7012119656
 30
0.0
 10
13.9946617119
 20
12.6887425036
 30
0.0
 10
13.9892998389
 20
12.6761401882
 30
0.0
 10
13.9843170026
 20
12.6634085374
 30
0.0
 10
13.9797145963
 20
12.6505513413
 30
0.0
 10
13.9769004865
 20
12.641897393
 30
0.0
 10
13.9755577297
 20
12.6375522238
 30
0.0
  0
SPLINE
  5
31B
100
AcDbEntity
  8
LAYER_FEATURE
100
AcDbSpline
 62
7
  6
CONTINUOUS
 70
0
 71
3
 72
50
 73
46
 74
0
 42
0.0000001
 43
0.0000001
 44
0.0000000001
 40
0.0
 40
0.0
 40
0.0
 40
0.0
 40
0.0396641793
 40
0.0788606661
 40
0.1175661307
 40
0.1557597858
 40
0.1934216622
 40
0.2305336657
 40
0.2670793388
 40
0.3030440904
 40
0.3384152998
 40
0.3731824522
 40
0.4073372782
 40
0.4408738985
 40
0.4737889752
 40
0.5060818677
 40
0.5377547925
 40
0.5688129867
 40
0.5992648666
 40
0.6291221833
 40
0.6584001714
 40
0.6728285106
 40
0.6871194029
 40
0.7152990215
 40
0.7429671481
 40
0.7566197094
 40
0.7701560775
 40
0.7835806402
 40
0.7968980187
 40
0.8101130807
 40
0.8232309096
 40
0.8362568292
 40
0.8491963692
 40
0.8620552768
 40
0.874839498
 40
0.8875551653
 40
0.9002085963
 40
0.9128062638
 40
0.9253547993
 40
0.9378609614
 40
0.9503316297
 40
0.9627737816
 40
0.9751944743
 40
0.9876008274
 40
1.0
 40
1.0
 40
1.0
 40
1.0
 10
15.1567229552
 20
13.9391143273
 30
0.0
 10
15.1421744727
 20
13.9391143273
 30
0.0
 10
15.1132479003
 20
13.9387880991
 30
0.0
 10
15.0701475036
 20
13.9373011765
 30
0.0
 10
15.0276327375
 20
13.9348210733
 30
0.0
 10
14.9857520105
 20
13.9313506455
 30
0.0
 10
14.9445523795
 20
13.926893733
 30
0.0
 10
14.9040803995
 20
13.9214553637
 30
0.0
 10
14.8643817024
 20
13.9150416241
 30
0.0
 10
14.8255010726
 20
13.9076597075
 30
0.0
 10
14.7874823576
 20
13.8993178893
 30
0.0
 10
14.7503684303
 20
13.8900255152
 30
0.0
 10
14.7142011407
 20
13.8797929878
 30
0.0
 10
14.679021272
 20
13.8686317528
 30
0.0
 10
14.6448684963
 20
13.8565542837
 30
0.0
 10
14.6117813364
 20
13.8435740675
 30
0.0
 10
14.579797114
 20
13.8297055809
 30
0.0
 10
14.548951952
 20
13.8149643066
 30
0.0
 10
14.5192805887
 20
13.7993666069
 30
0.0
 10
14.4908169058
 20
13.782930077
 30
0.0
 10
14.4680199968
 20
13.7684791645
 30
0.0
 10
14.4504295082
 20
13.7565136451
 30
0.0
 10
14.4334332141
 20
13.7443998691
 30
0.0
 10
14.4129849162
 20
13.7287734441
 30
0.0
 10
14.3934606266
 20
13.7123670272
 30
0.0
 10
14.3785329963
 20
13.6988728755
 30
0.0
 10
14.367728346
 20
13.6886153303
 30
0.0
 10
14.3572688422
 20
13.6781794605
 30
0.0
 10
14.3471574166
 20
13.6675681173
 30
0.0
 10
14.3373969081
 20
13.6567843583
 30
0.0
 10
14.3279901444
 20
13.6458311651
 30
0.0
 10
14.3189397438
 20
13.6347116824
 30
0.0
 10
14.310248321
 20
13.6234290131
 30
0.0
 10
14.3019183322
 20
13.6119863606
 30
0.0
 10
14.2939521364
 20
13.6003869668
 30
0.0
 10
14.2863520432
 20
13.5886340849
 30
0.0
 10
14.2791201554
 20
13.5767310819
 30
0.0
 10
14.272258607
 20
13.5646812824
 30
0.0
 10
14.2657692857
 20
13.5524881408
 30
0.0
 10
14.2596540903
 20
13.5401550858
 30
0.0
 10
14.2539147442
 20
13.5276856238
 30
0.0
 10
14.2485528713
 20
13.5150833084
 30
0.0
 10
14.243570035
 20
13.5023516576
 30
0.0
 10
14.2389676286
 20
13.4894944615
 30
0.0
 10
14.2361535189
 20
13.4808405133
 30
0.0
 10
14.2348107621
 20
13.476495344
 30
0.0
  0
SPLINE
  5
31C
100
AcDbEntity
  8
LAYER_FEATURE
100
AcDbSpline
 62
7
  6
CONTINUOUS
 70
0
 71
3
 72
114
 73
110
 74
0
 42
0.0000001
 43
0.0000001
 44
0.0000000001
 40
0.0
 40
0.0
 40
0.0
 40
0.0
 40
0.0090881894
 40
0.0182427188
 40
0.0274603453
 40
0.0367384281
 40
0.0554642569
 40
0.0743970462
 40
0.0935122938
 40
0.112784653
 40
0.132188101
 40
0.1516960493
 40
0.1712814667
 40
0.190916996
 40
0.2105750708
 40
0.2302280312
 40
0.2498482383
 40
0.2694081898
 40
0.2888806354
 40
0.3082386938
 40
0.3274559708
 40
0.3465066807
 40
0.3653657689
 40
0.3840090397
 40
0.4024132865
 40
0.4205564286
 40
0.4295238055
 40
0.4384182153
 40
0.4472372787
 40
0.4559787176
 40
0.4646403519
 40
0.4732201175
 40
0.4817160563
 40
0.490126338
 40
0.4984492512
 40
0.5066832202
 40
0.5148268058
 40
0.5228787106
 40
0.530837793
 40
0.5387030609
 40
0.5464736959
 40
0.5541490414
 40
0.5617286276
 40
0.5692121654
 40
0.5765995618
 40
0.5838909268
 40
0.5910865748
 40
0.5981870453
 40
0.6051930936
 40
0.6121057176
 40
0.618926147
 40
0.6256558653
 40
0.6388489736
 40
0.6453180198
 40
0.6517048805
 40
0.6580123677
 40
0.6642435623
 40
0.6704018291
 40
0.6764908042
 40
0.6825143994
 40
0.688476794
 40
0.6943824253
 40
0.7002359837
 40
0.7060423918
 40
0.7118067974
 40
0.7175345466
 40
0.7232311686
 40
0.7289023482
 40
0.7345539005
 40
0.7401917433
 40
0.7458218656
 40
0.7514502978
 40
0.7570830792
 40
0.7627262255
 40
0.7683856987
 40
0.7740673743
 40
0.7797770139
 40
0.785520237
 40
0.791302494
 40
0.797129048
 40
0.803004947
 40
0.8089350163
 40
0.8149238334
 40
0.8209757252
 40
0.8270947529
 40
0.8332847071
 40
0.8395491065
 40
0.8458911877
 40
0.8523139173
 40
0.8588199778
 40
0.8654117866
 40
0.872091486
 40
0.8788609579
 40
0.8857218257
 40
0.8926754584
 40
0.8997229864
 40
0.9068652946
 40
0.9141030481
 40
0.9214366809
 40
0.9288664207
 40
0.9363922845
 40
0.9440140925
 40
0.9517314767
 40
0.9595438806
 40
0.9674505804
 40
0.9754506748
 40
0.9835431102
 40
0.9917266711
 40
1.0
 40
1.0
 40
1.0
 40
1.0
 10
14.9582224988
 20
13.0433922999
 30
0.0
 10
14.967106941
 20
13.0433922999
 30
0.0
 10
14.9849409727
 20
13.0432540814
 30
0.0
 10
15.0117795682
 20
13.0426377566
 30
0.0
 10
15.0387915026
 20
13.0416118714
 30
0.0
 10
15.0751290292
 20
13.0396929143
 30
0.0
 10
15.1208923492
 20
13.0362662925
 30
0.0
 10
15.1761048439
 20
13.0305440803
 30
0.0
 10
15.2316655742
 20
13.0232110473
 30
0.0
 10
15.2874580942
 20
13.0142825484
 30
0.0
 10
15.3433658557
 20
13.0037772462
 30
0.0
 10
15.3992719518
 20
12.9917171047
 30
0.0
 10
15.4550595009
 20
12.9781273374
 30
0.0
 10
15.510611856
 20
12.9630363598
 30
0.0
 10
15.565812861
 20
12.9464757274
 30
0.0
 10
15.6205470924
 20
12.9284800688
 30
0.0
 10
15.6747001033
 20
12.9090870124
 30
0.0
 10
15.7281586641
 20
12.8883371079
 30
0.0
 10
15.7808110008
 20
12.8662737397
 30
0.0
 10
15.8325470308
 20
12.8429430353
 30
0.0
 10
15.8832585913
 20
12.8183937676
 30
0.0
 10
15.9328396792
 20
12.7926772476
 30
0.0
 10
15.9811866356
 20
12.7658472375
 30
0.0
 10
16.0281985012
 20
12.7379597455
 30
0.0
 10
16.0737767197
 20
12.7090732277
 30
0.0
 10
16.1106265366
 20
12.6841227511
 30
0.0
 10
16.1393010184
 20
12.6637085255
 30
0.0
 10
16.160307248
 20
12.6482454799
 30
0.0
 10
16.1808854916
 20
12.6325793334
 30
0.0
 10
16.2010250557
 20
12.6167182559
 30
0.0
 10
16.2207153608
 20
12.6006705169
 30
0.0
 10
16.2399461437
 20
12.5844445533
 30
0.0
 10
16.2587073041
 20
12.568048801
 30
0.0
 10
16.2769890613
 20
12.5514918774
 30
0.0
 10
16.2947818239
 20
12.5347824064
 30
0.0
 10
16.3120762963
 20
12.5179291399
 30
0.0
 10
16.3288634314
 20
12.5009408893
 30
0.0
 10
16.3451344275
 20
12.4838265143
 30
0.0
 10
16.3608808031
 20
12.4665949936
 30
0.0
 10
16.3760942744
 20
12.4492552869
 30
0.0
 10
16.3907669278
 20
12.4318165018
 30
0.0
 10
16.404891037
 20
12.4142877045
 30
0.0
 10
16.418459245
 20
12.3966780852
 30
0.0
 10
16.4314644256
 20
12.3789968218
 30
0.0
 10
16.4438997695
 20
12.3612531502
 30
0.0
 10
16.4557587801
 20
12.3434563498
 30
0.0
 10
16.4670352035
 20
12.3256156823
 30
0.0
 10
16.4777231777
 20
12.3077405061
 30
0.0
 10
16.4878170418
 20
12.2898400858
 30
0.0
 10
16.4973115197
 20
12.2719238942
 30
0.0
 10
16.5062017075
 20
12.2540009246
 30
0.0
 10
16.5171697338
 20
12.2302666021
 30
0.0
 10
16.5270016333
 20
12.2063943068
 30
0.0
 10
16.5356294703
 20
12.1824321476
 30
0.0
 10
16.5414338975
 20
12.1646169474
 30
0.0
 10
16.5466106098
 20
12.1468514747
 30
0.0
 10
16.551156861
 20
12.1291447594
 30
0.0
 10
16.5550702609
 20
12.1115061462
 30
0.0
 10
16.5583486632
 20
12.0939448394
 30
0.0
 10
16.5609903079
 20
12.076470049
 30
0.0
 10
16.5629937654
 20
12.0590909378
 30
0.0
 10
16.5643578788
 20
12.0418166227
 30
0.0
 10
16.5650819451
 20
12.024656186
 30
0.0
 10
16.5651654383
 20
12.0076186483
 30
0.0
 10
16.5646083527
 20
11.9907129825
 30
0.0
 10
16.5634108507
 20
11.9739480994
 30
0.0
 10
16.561573578
 20
11.9573328416
 30
0.0
 10
16.5590974374
 20
11.9408759831
 30
0.0
 10
16.5559836982
 20
11.924586222
 30
0.0
 10
16.5522340217
 20
11.9084721603
 30
0.0
 10
16.5478503062
 20
11.8925423354
 30
0.0
 10
16.5428349481
 20
11.8768051461
 30
0.0
 10
16.5371905099
 20
11.8612689407
 30
0.0
 10
16.5309200679
 20
11.8459418986
 30
0.0
 10
16.5240268923
 20
11.8308321362
 30
0.0
 10
16.5165146835
 20
11.8159476098
 30
0.0
 10
16.5083874362
 20
11.8012961606
 30
0.0
 10
16.4996494476
 20
11.7868855163
 30
0.0
 10
16.4903054166
 20
11.7727232151
 30
0.0
 10
16.4803602403
 20
11.7588167369
 30
0.0
 10
16.4698192715
 20
11.7451733141
 30
0.0
 10
16.4586880317
 20
11.7318001409
 30
0.0
 10
16.4469724677
 20
11.7187041625
 30
0.0
 10
16.4346787435
 20
11.7058922438
 30
0.0
 10
16.4218133597
 20
11.6933710609
 30
0.0
 10
16.4083831164
 20
11.6811471204
 30
0.0
 10
16.394395056
 20
11.6692268277
 30
0.0
 10
16.3798565842
 20
11.6576163283
 30
0.0
 10
16.364775294
 20
11.6463217289
 30
0.0
 10
16.349159153
 20
11.6353488354
 30
0.0
 10
16.3330163198
 20
11.6247034085
 30
0.0
 10
16.316355284
 20
11.6143909445
 30
0.0
 10
16.2991847694
 20
11.6044168168
 30
0.0
 10
16.281513766
 20
11.5947862233
 30
0.0
 10
16.2633515443
 20
11.5855041333
 30
0.0
 10
16.244707587
 20
11.5765754303
 30
0.0
 10
16.2255916796
 20
11.5680046896
 30
0.0
 10
16.2060137971
 20
11.5597964389
 30
0.0
 10
16.1859842038
 20
11.5519548889
 30
0.0
 10
16.1655133622
 20
11.5444841629
 30
0.0
 10
16.1446119858
 20
11.5373881313
 30
0.0
 10
16.1232910073
 20
11.5306704823
 30
0.0
 10
16.1015615696
 20
11.5243347461
 30
0.0
 10
16.0794350487
 20
11.5183841723
 30
0.0
 10
16.056923001
 20
11.5128219255
 30
0.0
 10
16.0340372194
 20
11.507650839
 30
0.0
 10
16.0107896357
 20
11.5028736652
 30
0.0
 10
15.9871925192
 20
11.4984928626
 30
0.0
 10
15.9713216552
 20
11.4958523257
 30
0.0
 10
15.9633317277
 20
11.4945975843
 30
0.0
  0
SPLINE
  5
31D
100
AcDbEntity
  8
LAYER_FEATURE
100
AcDbSpline
 62
7
  6
CONTINUOUS
 70
0
 71
3
 72
86
 73
82
 74
0
 42
0.0000001
 43
0.0000001
 44
0.0000000001
 40
0.0
 40
0.0
 40
0.0
 40
0.0
 40
0.0203498533
 40
0.0404849271
 40
0.0603949422
 40
0.0800713697
 40
0.0995056201
 40
0.1186898348
 40
0.1376167912
 40
0.1562799011
 40
0.1746732951
 40
0.1927918563
 40
0.2106312614
 40
0.2281880262
 40
0.24545956
 40
0.26244422
 40
0.2791413553
 40
0.2955513603
 40
0.3116757351
 40
0.3275171414
 40
0.3430794491
 40
0.3583677889
 40
0.3733886087
 40
0.3808014377
 40
0.3881504285
 40
0.4026610293
 40
0.4169317503
 40
0.4309746706
 40
0.4448033236
 40
0.4584326817
 40
0.4718791287
 40
0.4851604132
 40
0.4982955701
 40
0.5113048182
 40
0.5177693668
 40
0.5242104996
 40
0.5306310156
 40
0.5370337607
 40
0.5434216224
 40
0.5497975198
 40
0.5561644012
 40
0.5625252351
 40
0.5688830039
 40
0.5752406975
 40
0.5816013055
 40
0.5879678114
 40
0.594343184
 40
0.6007303728
 40
0.6071322997
 40
0.6135518517
 40
0.6199918791
 40
0.6264551829
 40
0.6329445144
 40
0.63946257
 40
0.6460119798
 40
0.6525953125
 40
0.6658726792
 40
0.6793147456
 40
0.6861036047
 40
0.6929401944
 40
0.6998265195
 40
0.7067645036
 40
0.7208018576
 40
0.73506669
 40
0.7422886298
 40
0.7495718623
 40
0.7643265429
 40
0.7793407232
 40
0.7946222438
 40
0.8101775829
 40
0.8260119074
 40
0.8421291216
 40
0.8585319126
 40
0.8752218067
 40
0.8921992293
 40
0.9094635583
 40
0.9270131698
 40
0.944845495
 40
0.9629570759
 40
0.9813436119
 40
1.0
 40
1.0
 40
1.0
 40
1.0
 10
14.9582224988
 20
13.0433922999
 30
0.0
 10
14.9465629626
 20
13.0433922999
 30
0.0
 10
14.9233662036
 20
13.0431564098
 30
0.0
 10
14.8887768759
 20
13.0420826498
 30
0.0
 10
14.8546033906
 20
13.0402916626
 30
0.0
 10
14.8208775018
 20
13.0377851718
 30
0.0
 10
14.7876298777
 20
13.0345653986
 30
0.0
 10
14.7548910628
 20
13.0306353084
 30
0.0
 10
14.7226910438
 20
13.0259984936
 30
0.0
 10
14.6910593224
 20
13.0206591692
 30
0.0
 10
14.6600248849
 20
13.0146221967
 30
0.0
 10
14.629616157
 20
13.0078930933
 30
0.0
 10
14.599860993
 20
13.0004779918
 30
0.0
 10
14.5707866534
 20
12.9923836336
 30
0.0
 10
14.542419773
 20
12.9836173795
 30
0.0
 10
14.5147863306
 20
12.9741872187
 30
0.0
 10
14.4879116395
 20
12.9641017246
 30
0.0
 10
14.4618203315
 20
12.9533700476
 30
0.0
 10
14.4365363158
 20
12.9420019268
 30
0.0
 10
14.4120827816
 20
12.9300077035
 30
0.0
 10
14.3884820996
 20
12.9173982151
 30
0.0
 10
14.3657561597
 20
12.9041850272
 30
0.0
 10
14.3474844116
 20
12.8926304245
 30
0.0
 10
14.3333323563
 20
12.8830944163
 30
0.0
 10
14.3196094259
 20
12.8734505781
 30
0.0
 10
14.3030299437
 20
12.8610446327
 30
0.0
 10
14.284003005
 20
12.8455412685
 30
0.0
 10
14.265946755
 20
12.8294991434
 30
0.0
 10
14.2488781128
 20
12.8129329742
 30
0.0
 10
14.232812895
 20
12.7958577955
 30
0.0
 10
14.2177661255
 20
12.7782892016
 30
0.0
 10
14.2037518121
 20
12.7602431686
 30
0.0
 10
14.1907832808
 20
12.7417366032
 30
0.0
 10
14.1808364738
 20
12.7259107409
 30
0.0
 10
14.1734220624
 20
12.7130448316
 30
0.0
 10
14.1681408006
 20
12.7033109425
 30
0.0
 10
14.1631291373
 20
12.6934753312
 30
0.0
 10
14.1583881986
 20
12.6835401802
 30
0.0
 10
14.1539190429
 20
12.6735078193
 30
0.0
 10
14.1497227511
 20
12.6633805288
 30
0.0
 10
14.1458002721
 20
12.653160653
 30
0.0
 10
14.1421524862
 20
12.6428505535
 30
0.0
 10
14.1387802934
 20
12.6324525856
 30
0.0
 10
14.135684416
 20
12.6219691642
 30
0.0
 10
14.1328655835
 20
12.6114026982
 30
0.0
 10
14.1303244763
 20
12.6007556159
 30
0.0
 10
14.1280616185
 20
12.5900303847
 30
0.0
 10
14.1260775799
 20
12.5792294644
 30
0.0
 10
14.1243728023
 20
12.5683553478
 30
0.0
 10
14.1229476392
 20
12.5574105438
 30
0.0
 10
14.121802477
 20
12.5463975659
 30
0.0
 10
14.1209375231
 20
12.5353189576
 30
0.0
 10
14.1203529781
 20
12.5241772621
 30
0.0
 10
14.1200490098
 20
12.5129750633
 30
0.0
 10
14.1200256274
 20
12.5017148654
 30
0.0
 10
14.1203695418
 20
12.4865856866
 30
0.0
 10
14.1215074579
 20
12.4675306221
 30
0.0
 10
14.1235703524
 20
12.4484354341
 30
0.0
 10
14.1257735962
 20
12.433083134
 30
0.0
 10
14.1277108598
 20
12.4214905131
 30
0.0
 10
14.1299268953
 20
12.4098609874
 30
0.0
 10
14.1332654542
 20
12.3942493912
 30
0.0
 10
14.1381425001
 20
12.3746492063
 30
0.0
 10
14.1438982208
 20
12.3551197162
 30
0.0
 10
14.1490444106
 20
12.3394586795
 30
0.0
 10
14.1546009426
 20
12.3236406762
 30
0.0
 10
14.1622386524
 20
12.3038266311
 30
0.0
 10
14.1724476349
 20
12.2801129839
 30
0.0
 10
14.1837301738
 20
12.2563820526
 30
0.0
 10
14.1960757059
 20
12.2326557632
 30
0.0
 10
14.2094728434
 20
12.2089557039
 30
0.0
 10
14.2239092363
 20
12.1853035399
 30
0.0
 10
14.2393715846
 20
12.16172086
 30
0.0
 10
14.255845653
 20
12.1382291974
 30
0.0
 10
14.2733163062
 20
12.1148500111
 30
0.0
 10
14.2917675153
 20
12.0916046744
 30
0.0
 10
14.3111823411
 20
12.0685144257
 30
0.0
 10
14.3315429522
 20
12.0456003823
 30
0.0
 10
14.3528307248
 20
12.0228834586
 30
0.0
 10
14.375025976
 20
12.0003846114
 30
0.0
 10
14.3903049749
 20
11.9856498543
 30
0.0
 10
14.3980878796
 20
11.9783227382
 30
0.0
  0
SPLINE
  5
31E
100
AcDbEntity
  8
LAYER_FEATURE
100
AcDbSpline
 62
7
  6
CONTINUOUS
 70
0
 71
3
 72
80
 73
76
 74
0
 42
0.0000001
 43
0.0000001
 44
0.0000000001
 40
0.0
 40
0.0
 40
0.0
 40
0.0
 40
0.017178625
 40
0.0345301896
 40
0.0520439856
 40
0.0697095611
 40
0.0875157513
 40
0.105451206
 40
0.1235042502
 40
0.1416629551
 40
0.159915164
 40
0.1782485184
 40
0.1966504877
 40
0.2151083967
 40
0.2336094524
 40
0.2521407721
 40
0.2706894106
 40
0.2892423869
 40
0.3077867108
 40
0.3263094099
 40
0.3447975567
 40
0.3632382956
 40
0.3816188701
 40
0.3999266497
 40
0.4181491573
 40
0.4362740982
 40
0.4542893881
 40
0.4721831821
 40
0.4899439035
 40
0.5075602738
 40
0.5250213437
 40
0.5423165259
 40
0.5594356272
 40
0.5763688815
 40
0.5931069843
 40
0.6096411291
 40
0.6259630453
 40
0.6420650388
 40
0.6579400309
 40
0.673581601
 40
0.6889840307
 40
0.7041423508
 40
0.7190523912
 40
0.7337108317
 40
0.7481152531
 40
0.7622641923
 40
0.7761571984
 40
0.7897948916
 40
0.8031790229
 40
0.8163125314
 40
0.8291996012
 40
0.8418457167
 40
0.8542577138
 40
0.8603787793
 40
0.8664445248
 40
0.8784144197
 40
0.8901792221
 40
0.8959889949
 40
0.9017523402
 40
0.9131461931
 40
0.9243770779
 40
0.9299370835
 40
0.935462781
 40
0.9409564793
 40
0.9464205592
 40
0.9518574755
 40
0.9572697442
 40
0.9626599452
 40
0.9680307112
 40
0.9733847242
 40
0.9787247102
 40
0.9840534294
 40
0.9893736733
 40
0.9946882542
 40
1.0
 40
1.0
 40
1.0
 40
1.0
 10
14.8974699228
 20
13.1001712071
 30
0.0
 10
14.9115903185
 20
13.1001712071
 30
0.0
 10
14.9399741682
 20
13.0998605061
 30
0.0
 10
14.9827337431
 20
13.0984799791
 30
0.0
 10
15.0258548975
 20
13.0961839173
 30
0.0
 10
15.0692923096
 20
13.0929747971
 30
0.0
 10
15.1130009985
 20
13.0888559037
 30
0.0
 10
15.1569353923
 20
13.0838315487
 30
0.0
 10
15.201049789
 20
13.0779069522
 30
0.0
 10
15.2452982679
 20
13.0710882888
 30
0.0
 10
15.2896347728
 20
13.0633826582
 30
0.0
 10
15.3340131546
 20
13.0547980809
 30
0.0
 10
15.3783872185
 20
13.0453434912
 30
0.0
 10
15.4227107725
 20
13.035028726
 30
0.0
 10
15.4669376774
 20
13.0238645253
 30
0.0
 10
15.5110218945
 20
13.0118625145
 30
0.0
 10
15.5549175329
 20
12.9990351881
 30
0.0
 10
15.5985788976
 20
12.9853958985
 30
0.0
 10
15.6419605362
 20
12.9709588413
 30
0.0
 10
15.6850172872
 20
12.955739042
 30
0.0
 10
15.7277043306
 20
12.9397523492
 30
0.0
 10
15.7699772312
 20
12.9230154064
 30
0.0
 10
15.8117919851
 20
12.9055456364
 30
0.0
 10
15.8531050647
 20
12.8873612228
 30
0.0
 10
15.8938734641
 20
12.8684810897
 30
0.0
 10
15.9340547477
 20
12.8489248894
 30
0.0
 10
15.9736070944
 20
12.8287129802
 30
0.0
 10
16.0124893384
 20
12.8078663988
 30
0.0
 10
16.0506610114
 20
12.7864068398
 30
0.0
 10
16.0880823845
 20
12.7643566325
 30
0.0
 10
16.1247145099
 20
12.7417387168
 30
0.0
 10
16.1605192686
 20
12.7185766285
 30
0.0
 10
16.1954594043
 20
12.6948944652
 30
0.0
 10
16.2294985609
 20
12.6707168607
 30
0.0
 10
16.2626013194
 20
12.6460689594
 30
0.0
 10
16.2947332345
 20
12.6209763885
 30
0.0
 10
16.3258608733
 20
12.5954652342
 30
0.0
 10
16.3559518549
 20
12.5695620175
 30
0.0
 10
16.3849748756
 20
12.5432936576
 30
0.0
 10
16.4128997404
 20
12.5166874455
 30
0.0
 10
16.4396973932
 20
12.489771015
 30
0.0
 10
16.4653399452
 20
12.4625723108
 30
0.0
 10
16.4898007121
 20
12.4351195667
 30
0.0
 10
16.5130542364
 20
12.4074412713
 30
0.0
 10
16.5350763064
 20
12.3795661343
 30
0.0
 10
16.5558439787
 20
12.3515230594
 30
0.0
 10
16.5753355992
 20
12.3233411124
 30
0.0
 10
16.5935308227
 20
12.2950494946
 30
0.0
 10
16.610410647
 20
12.2666775091
 30
0.0
 10
16.6259573997
 20
12.2382545667
 30
0.0
 10
16.6401548116
 20
12.2098100046
 30
0.0
 10
16.6529878135
 20
12.1813736294
 30
0.0
 10
16.6625778533
 20
12.1575984357
 30
0.0
 10
16.6695441371
 20
12.1386153437
 30
0.0
 10
16.6759844465
 20
12.1198312206
 30
0.0
 10
16.6831727515
 20
12.0964056425
 30
0.0
 10
16.6892432188
 20
12.0728823068
 30
0.0
 10
16.6933803703
 20
12.0541489212
 30
0.0
 10
16.6970128139
 20
12.0356218505
 30
0.0
 10
16.7006754665
 20
12.0125668686
 30
0.0
 10
16.7031691748
 20
11.9895236844
 30
0.0
 10
16.7044399959
 20
11.9712223634
 30
0.0
 10
16.7050318864
 20
11.9576057716
 30
0.0
 10
16.7052654931
 20
11.9440572327
 30
0.0
 10
16.7051407037
 20
11.9305801879
 30
0.0
 10
16.7046576122
 20
11.9171781838
 30
0.0
 10
16.7038162624
 20
11.9038547166
 30
0.0
 10
16.7026169147
 20
11.8906132703
 30
0.0
 10
16.7010598645
 20
11.8774573057
 30
0.0
 10
16.6991454792
 20
11.86439027
 30
0.0
 10
16.6968743173
 20
11.8514155696
 30
0.0
 10
16.694246892
 20
11.8385366224
 30
0.0
 10
16.6912639435
 20
11.8257567515
 30
0.0
 10
16.6879262547
 20
11.8130794389
 30
0.0
 10
16.6854648917
 20
11.8046974138
 30
0.0
 10
16.6841758078
 20
11.8005259304
 30
0.0
  0
SPLINE
  5
31F
100
AcDbEntity
  8
02___PRT_ALL_AXES
100
AcDbSpline
 62
7
  6
CONTINUOUS
 70
0
 71
3
 72
75
 73
71
 74
0
 42
0.0000001
 43
0.0000001
 44
0.0000000001
 40
0.0
 40
0.0
 40
0.0
 40
0.0
 40
0.0171786892
 40
0.0345303607
 40
0.052044229
 40
0.069709889
 40
0.0875161642
 40
0.1054517028
 40
0.1235048325
 40
0.1416636226
 40
0.1599159172
 40
0.1782493581
 40
0.1966514145
 40
0.2151094104
 40
0.233610553
 40
0.2521419599
 40
0.270690686
 40
0.2892437497
 40
0.3077881608
 40
0.3263109471
 40
0.3447991812
 40
0.3632400074
 40
0.3816206683
 40
0.3999285336
 40
0.4181511268
 40
0.4362761536
 40
0.4542915291
 40
0.4721854073
 40
0.4899462114
 40
0.5075626641
 40
0.5250238169
 40
0.5423190818
 40
0.5594382638
 40
0.5763715969
 40
0.5931097777
 40
0.6096440006
 40
0.6259659951
 40
0.6420680648
 40
0.6579431309
 40
0.6735847738
 40
0.6889872759
 40
0.7041456685
 40
0.7190557797
 40
0.7337142887
 40
0.7481187774
 40
0.7622677831
 40
0.7761608551
 40
0.7897986129
 40
0.8031828071
 40
0.8163163772
 40
0.8292035078
 40
0.8418496831
 40
0.8542617384
 40
0.860382833
 40
0.8664486067
 40
0.8784185581
 40
0.8901834163
 40
0.9017557731
 40
0.9131496792
 40
0.9243806165
 40
0.9354654436
 40
0.9464223124
 40
0.9572705583
 40
0.9680305606
 40
0.9733845989
 40
0.9787246098
 40
0.9840533545
 40
0.9893736232
 40
0.9946882293
 40
1.0
 40
1.0
 40
1.0
 40
1.0
 10
15.08003748
 20
12.7281376411
 30
0.0
 10
15.0881959228
 20
12.7281376411
 30
0.0
 10
15.1045954844
 20
12.7279581235
 30
0.0
 10
15.1293010158
 20
12.727160488
 30
0.0
 10
15.1542154683
 20
12.7258338727
 30
0.0
 10
15.179312636
 20
12.7239797162
 30
0.0
 10
15.204566546
 20
12.7215999112
 30
0.0
 10
15.2299508625
 20
12.718696948
 30
0.0
 10
15.2554391804
 20
12.7152738479
 30
0.0
 10
15.2810049683
 20
12.7113341768
 30
0.0
 10
15.3066216156
 20
12.7068820365
 30
0.0
 10
15.3322624587
 20
12.7019220591
 30
0.0
 10
15.3579008062
 20
12.6964594038
 30
0.0
 10
15.3835099704
 20
12.6904997604
 30
0.0
 10
15.4090632935
 20
12.6840493351
 30
0.0
 10
15.4345341751
 20
12.6771148425
 30
0.0
 10
15.4598961001
 20
12.6697034997
 30
0.0
 10
15.4851226653
 20
12.661823018
 30
0.0
 10
15.5101876109
 20
12.6534816042
 30
0.0
 10
15.5350648452
 20
12.6446879437
 30
0.0
 10
15.5597284717
 20
12.6354511909
 30
0.0
 10
15.5841528154
 20
12.6257809596
 30
0.0
 10
15.6083124498
 20
12.6156873122
 30
0.0
 10
15.632182227
 20
12.6051807585
 30
0.0
 10
15.655737302
 20
12.594272237
 30
0.0
 10
15.6789531567
 20
12.5829731021
 30
0.0
 10
15.7018056258
 20
12.5712951131
 30
0.0
 10
15.7242709214
 20
12.5592504201
 30
0.0
 10
15.7463256632
 20
12.5468515606
 30
0.0
 10
15.7679468995
 20
12.5341114393
 30
0.0
 10
15.7891121295
 20
12.5210433125
 30
0.0
 10
15.8097993266
 20
12.5076607758
 30
0.0
 10
15.8299869603
 20
12.4939777475
 30
0.0
 10
15.8496540258
 20
12.4800084626
 30
0.0
 10
15.8687800619
 20
12.4657674513
 30
0.0
 10
15.8873451692
 20
12.4512695221
 30
0.0
 10
15.9053300309
 20
12.4365297472
 30
0.0
 10
15.922715932
 20
12.4215634441
 30
0.0
 10
15.9394847862
 20
12.406386168
 30
0.0
 10
15.9556191503
 20
12.3910136888
 30
0.0
 10
15.9711022382
 20
12.3754619731
 30
0.0
 10
15.985917938
 20
12.3597471682
 30
0.0
 10
16.0000508268
 20
12.3438855832
 30
0.0
 10
16.0134861949
 20
12.3278936782
 30
0.0
 10
16.026210056
 20
12.311788043
 30
0.0
 10
16.0382091551
 20
12.2955853773
 30
0.0
 10
16.0494709817
 20
12.2793024753
 30
0.0
 10
16.0599837785
 20
12.2629562076
 30
0.0
 10
16.069736565
 20
12.2465635044
 30
0.0
 10
16.0787191328
 20
12.2301413597
 30
0.0
 10
16.086922082
 20
12.2137067241
 30
0.0
 10
16.0943367068
 20
12.1972768182
 30
0.0
 10
16.0998776156
 20
12.1835400408
 30
0.0
 10
16.1039025833
 20
12.1725720289
 30
0.0
 10
16.1076236436
 20
12.1617189966
 30
0.0
 10
16.111776916
 20
12.1481840848
 30
0.0
 10
16.1159682885
 20
12.1319424464
 30
0.0
 10
16.1193404307
 20
12.1157900779
 30
0.0
 10
16.1218895528
 20
12.0997439888
 30
0.0
 10
16.1236127928
 20
12.0838208888
 30
0.0
 10
16.1245081377
 20
12.0680374909
 30
0.0
 10
16.1245744244
 20
12.0524102854
 30
0.0
 10
16.1238114478
 20
12.0369560511
 30
0.0
 10
16.1224827184
 20
12.0242132456
 30
0.0
 10
16.1210055843
 20
12.0141309126
 30
0.0
 10
16.1196933426
 20
12.0066343761
 30
0.0
 10
16.1181752944
 20
11.9991932148
 30
0.0
 10
16.1164517953
 20
11.99180929
 30
0.0
 10
16.1145233629
 20
11.9844846191
 30
0.0
 10
16.1131012436
 20
11.9796416704
 30
0.0
 10
16.1123564366
 20
11.977231481
 30
0.0
  0
SPLINE
  5
320
100
AcDbEntity
  8
LAYER_FEATURE
100
AcDbSpline
 62
7
  6
CONTINUOUS
 70
0
 71
3
 72
18
 73
14
 74
0
 42
0.0000001
 43
0.0000001
 44
0.0000000001
 40
0.0
 40
0.0
 40
0.0
 40
0.0
 40
0.1447014119
 40
0.2826117631
 40
0.41400558
 40
0.4774325068
 40
0.5394430155
 40
0.6595866307
 40
0.7755009003
 40
0.8322886362
 40
0.8885101456
 40
0.9443532015
 40
1.0
 40
1.0
 40
1.0
 40
1.0
 10
14.5096785986
 20
13.3264492461
 30
0.0
 10
14.5092711983
 20
13.3263078217
 30
0.0
 10
14.5084859769
 20
13.3259998283
 30
0.0
 10
14.5073805781
 20
13.3254479257
 30
0.0
 10
14.5065395541
 20
13.3249188479
 30
0.0
 10
14.5059270777
 20
13.3244591597
 30
0.0
 10
14.5053673374
 20
13.3239870888
 30
0.0
 10
14.5047396787
 20
13.3233551443
 30
0.0
 10
14.5042076837
 20
13.3226597292
 30
0.0
 10
14.5038511731
 20
13.3220774781
 30
0.0
 10
14.5036188739
 20
13.3216305825
 30
0.0
 10
14.5034204216
 20
13.3211714018
 30
0.0
 10
14.503310795
 20
13.3208573754
 30
0.0
 10
14.5032618259
 20
13.3206989275
 30
0.0
  0
SPLINE
  5
321
100
AcDbEntity
  8
LAYER_FEATURE
100
AcDbSpline
 62
7
  6
CONTINUOUS
 70
0
 71
3
 72
23
 73
19
 74
0
 42
0.0000001
 43
0.0000001
 44
0.0000000001
 40
0.0
 40
0.0
 40
0.0
 40
0.0
 40
0.0768457954
 40
0.1524392379
 40
0.2265281467
 40
0.298921599
 40
0.3694374274
 40
0.4379109125
 40
0.5042085067
 40
0.5682275011
 40
0.629899173
 40
0.6891965628
 40
0.7461381338
 40
0.8007936205
 40
0.8532880285
 40
0.9038089176
 40
0.9526148448
 40
1.0
 40
1.0
 40
1.0
 40
1.0
 10
14.5733327355
 20
13.4480335561
 30
0.0
 10
14.5728644415
 20
13.4480963154
 30
0.0
 10
14.5719327429
 20
13.4482013351
 30
0.0
 10
14.5705428129
 20
13.4482971042
 30
0.0
 10
14.5691772903
 20
13.4483294215
 30
0.0
 10
14.5678429444
 20
13.4482981423
 30
0.0
 10
14.5665461657
 20
13.4482034571
 30
0.0
 10
14.5652932489
 20
13.4480457568
 30
0.0
 10
14.5640902724
 20
13.4478258098
 30
0.0
 10
14.5629430452
 20
13.4475446703
 30
0.0
 10
14.5618571238
 20
13.4472036093
 30
0.0
 10
14.5608377478
 20
13.4468042563
 30
0.0
 10
14.5598898539
 20
13.4463484373
 30
0.0
 10
14.5590180789
 20
13.4458382113
 30
0.0
 10
14.5582266803
 20
13.4452759817
 30
0.0
 10
14.5575195806
 20
13.4446642019
 30
0.0
 10
14.556900582
 20
13.4440058473
 30
0.0
 10
14.5565442314
 20
13.4435319634
 30
0.0
 10
14.5563830644
 20
13.4432892566
 30
0.0
  0
SPLINE
  5
322
100
AcDbEntity
  8
LAYER_FEATURE
100
AcDbSpline
 62
7
  6
CONTINUOUS
 70
0
 71
3
 72
11
 73
7
 74
0
 42
0.0000001
 43
0.0000001
 44
0.0000000001
 40
0.0
 40
0.0
 40
0.0
 40
0.0
 40
0.259671688
 40
0.5112461655
 40
0.7570853168
 40
1.0
 40
1.0
 40
1.0
 40
1.0
 10
14.618096993
 20
13.5164593458
 30
0.0
 10
14.6178572102
 20
13.5162304097
 30
0.0
 10
14.6174097476
 20
13.5157528038
 30
0.0
 10
14.6168382293
 20
13.5149702155
 30
0.0
 10
14.6163825169
 20
13.514139146
 30
0.0
 10
14.6161575306
 20
13.513554731
 30
0.0
 10
14.616065958
 20
13.5132584293
 30
0.0
  0
SPLINE
  5
323
100
AcDbEntity
  8
LAYER_FEATURE
100
AcDbSpline
 62
7
  6
CONTINUOUS
 70
0
 71
3
 72
22
 73
18
 74
0
 42
0.0000001
 43
0.0000001
 44
0.0000000001
 40
0.0
 40
0.0
 40
0.0
 40
0.0
 40
0.072748433
 40
0.1450176032
 40
0.2165458025
 40
0.2871208308
 40
0.3565298138
 40
0.4245672087
 40
0.4910464701
 40
0.5557990148
 40
0.6186761423
 40
0.6795548544
 40
0.7383404355
 40
0.7949707657
 40
0.8494195404
 40
0.901704288
 40
1.0
 40
1.0
 40
1.0
 40
1.0
 10
14.6735850496
 20
13.5496701041
 30
0.0
 10
14.6731138865
 20
13.5497934853
 30
0.0
 10
14.6721696228
 20
13.5500206385
 30
0.0
 10
14.6707471139
 20
13.5503024514
 30
0.0
 10
14.6693285349
 20
13.5505231333
 30
0.0
 10
14.6679209254
 20
13.5506816096
 30
0.0
 10
14.6665310504
 20
13.5507771617
 30
0.0
 10
14.6651656655
 20
13.55080927
 30
0.0
 10
14.663831415
 20
13.5507777945
 30
0.0
 10
14.6625347666
 20
13.5506828989
 30
0.0
 10
14.6612820063
 20
13.5505249883
 30
0.0
 10
14.6600792032
 20
13.5503048533
 30
0.0
 10
14.6589321532
 20
13.5500235033
 30
0.0
 10
14.6578464845
 20
13.549682269
 30
0.0
 10
14.6568271959
 20
13.5492826592
 30
0.0
 10
14.6555896756
 20
13.5486872593
 30
0.0
 10
14.6547339403
 20
13.5481414393
 30
0.0
 10
14.6542167739
 20
13.5477344758
 30
0.0
  0
SPLINE
  5
324
100
AcDbEntity
  8
LAYER_FEATURE
100
AcDbSpline
 62
7
  6
CONTINUOUS
 70
0
 71
3
 72
15
 73
11
 74
0
 42
0.0000001
 43
0.0000001
 44
0.0000000001
 40
0.0
 40
0.0
 40
0.0
 40
0.0
 40
0.1333615893
 40
0.265507072
 40
0.3957873962
 40
0.5236186265
 40
0.6484341965
 40
0.7697241661
 40
0.8870381209
 40
1.0
 40
1.0
 40
1.0
 40
1.0
 10
14.7039531738
 20
13.5417177502
 30
0.0
 10
14.7046918527
 20
13.5415243159
 30
0.0
 10
14.7061721411
 20
13.5411750501
 30
0.0
 10
14.7084016974
 20
13.5407644123
 30
0.0
 10
14.710617921
 20
13.5404715687
 30
0.0
 10
14.7128046545
 20
13.5402985977
 30
0.0
 10
14.7149461887
 20
13.5402467859
 30
0.0
 10
14.7170270928
 20
13.540316518
 30
0.0
 10
14.7190322569
 20
13.5405072997
 30
0.0
 10
14.7203349661
 20
13.540718532
 30
0.0
 10
14.7209692182
 20
13.5408452339
 30
0.0
  0
SPLINE
  5
325
100
AcDbEntity
  8
LAYER_FEATURE
100
AcDbSpline
 62
7
  6
CONTINUOUS
 70
0
 71
3
 72
15
 73
11
 74
0
 42
0.0000001
 43
0.0000001
 44
0.0000000001
 40
0.0
 40
0.0
 40
0.0
 40
0.0
 40
0.1390930935
 40
0.2731032791
 40
0.402356888
 40
0.5273912511
 40
0.6488612589
 40
0.7675263391
 40
0.8842568057
 40
1.0
 40
1.0
 40
1.0
 40
1.0
 10
14.7438455005
 20
13.605607851
 30
0.0
 10
14.7435693959
 20
13.6054615278
 30
0.0
 10
14.7430376193
 20
13.6051540462
 30
0.0
 10
14.7422934628
 20
13.6046391127
 30
0.0
 10
14.7416213018
 20
13.6040811971
 30
0.0
 10
14.7410241623
 20
13.6034826482
 30
0.0
 10
14.7405046237
 20
13.6028458936
 30
0.0
 10
14.7400651271
 20
13.6021734944
 30
0.0
 10
14.7397077208
 20
13.6014685099
 30
0.0
 10
14.7395250059
 20
13.6009778398
 30
0.0
 10
14.7394482311
 20
13.6007294086
 30
0.0
  0
SPLINE
  5
326
100
AcDbEntity
  8
LAYER_FEATURE
100
AcDbSpline
 62
7
  6
CONTINUOUS
 70
0
 71
3
 72
20
 73
16
 74
0
 42
0.0000001
 43
0.0000001
 44
0.0000000001
 40
0.0
 40
0.0
 40
0.0
 40
0.0
 40
0.1365284104
 40
0.2729695685
 40
0.4075532052
 40
0.4736238066
 40
0.5386003426
 40
0.6022928377
 40
0.6645261894
 40
0.7251422596
 40
0.7840027426
 40
0.8409907782
 40
0.8960183071
 40
0.9490358742
 40
1.0
 40
1.0
 40
1.0
 40
1.0
 10
14.8132952039
 20
13.6280201862
 30
0.0
 10
14.8123872086
 20
13.6283790547
 30
0.0
 10
14.8105418685
 20
13.6290232623
 30
0.0
 10
14.8077197932
 20
13.6297626949
 30
0.0
 10
14.8053432144
 20
13.6301842623
 30
0.0
 10
14.8034550525
 20
13.6303966053
 30
0.0
 10
14.8020652247
 20
13.6304919465
 30
0.0
 10
14.8006999391
 20
13.6305238424
 30
0.0
 10
14.7993657992
 20
13.6304921703
 30
0.0
 10
14.7980692805
 20
13.6303970631
 30
0.0
 10
14.796816676
 20
13.6302389437
 30
0.0
 10
14.795614055
 20
13.6300186208
 30
0.0
 10
14.7944671611
 20
13.6297370672
 30
0.0
 10
14.7933817098
 20
13.62939562
 30
0.0
 10
14.7926887583
 20
13.6291237893
 30
0.0
 10
14.7923548101
 20
13.6289778252
 30
0.0
  0
SPLINE
  5
327
100
AcDbEntity
  8
LAYER_FEATURE
100
AcDbSpline
 62
7
  6
CONTINUOUS
 70
0
 71
3
 72
20
 73
16
 74
0
 42
0.0000001
 43
0.0000001
 44
0.0000000001
 40
0.0
 40
0.0
 40
0.0
 40
0.0
 40
0.1348265887
 40
0.2696781006
 40
0.4030175594
 40
0.4686615765
 40
0.5333750586
 40
0.5969884146
 40
0.6593429996
 40
0.7202926992
 40
0.7797059584
 40
0.8374664905
 40
0.8934794793
 40
0.9476794484
 40
1.0
 40
1.0
 40
1.0
 40
1.0
 10
14.8423721854
 20
13.6165280414
 30
0.0
 10
14.8434653505
 20
13.6160959879
 30
0.0
 10
14.8456855893
 20
13.6153145163
 30
0.0
 10
14.8490805183
 20
13.6143974564
 30
0.0
 10
14.8519425686
 20
13.6138516405
 30
0.0
 10
14.8542227814
 20
13.6135546493
 30
0.0
 10
14.8559076043
 20
13.6134037105
 30
0.0
 10
14.8575685905
 20
13.6133241107
 30
0.0
 10
14.8591986865
 20
13.6133161553
 30
0.0
 10
14.8607909447
 20
13.6133798968
 30
0.0
 10
14.8623385778
 20
13.613515097
 30
0.0
 10
14.863834996
 20
13.6137211342
 30
0.0
 10
14.8652739187
 20
13.6139972104
 30
0.0
 10
14.8666490625
 20
13.614342172
 30
0.0
 10
14.8675353046
 20
13.6146220666
 30
0.0
 10
14.8679655092
 20
13.6147736912
 30
0.0
  0
SPLINE
  5
328
100
AcDbEntity
  8
LAYER_FEATURE
100
AcDbSpline
 62
7
  6
CONTINUOUS
 70
0
 71
3
 72
18
 73
14
 74
0
 42
0.0000001
 43
0.0000001
 44
0.0000000001
 40
0.0
 40
0.0
 40
0.0
 40
0.0
 40
0.1470771743
 40
0.2867654691
 40
0.4191990116
 40
0.5448465741
 40
0.6644694811
 40
0.7223899779
 40
0.7792467049
 40
0.8352261653
 40
0.8905322741
 40
0.9453815509
 40
1.0
 40
1.0
 40
1.0
 40
1.0
 10
14.9059811294
 20
13.6690251422
 30
0.0
 10
14.9055078233
 20
13.6688935114
 30
0.0
 10
14.9045947838
 20
13.6685992713
 30
0.0
 10
14.903305119
 20
13.668048607
 30
0.0
 10
14.9021404716
 20
13.6674037665
 30
0.0
 10
14.9011107791
 20
13.6666697915
 30
0.0
 10
14.9003642801
 20
13.6659805692
 30
0.0
 10
14.8998474833
 20
13.6653916548
 30
0.0
 10
14.8995027479
 20
13.6649366018
 30
0.0
 10
14.89919763
 20
13.6644644483
 30
0.0
 10
14.8989327477
 20
13.6639761798
 30
0.0
 10
14.8987086956
 20
13.6634728747
 30
0.0
 10
14.8985867848
 20
13.663127668
 30
0.0
 10
14.8985329204
 20
13.6629533638
 30
0.0
  0
SPLINE
  5
329
100
AcDbEntity
  8
LAYER_FEATURE
100
AcDbSpline
 62
7
  6
CONTINUOUS
 70
0
 71
3
 72
21
 73
17
 74
0
 42
0.0000001
 43
0.0000001
 44
0.0000000001
 40
0.0
 40
0.0
 40
0.0
 40
0.0
 40
0.0635700041
 40
0.1279757296
 40
0.2583827219
 40
0.3895706959
 40
0.4549317553
 40
0.5198450706
 40
0.5841020109
 40
0.6475008802
 40
0.709849097
 40
0.7709651874
 40
0.83067924
 40
0.8888402116
 40
0.9453245976
 40
1.0
 40
1.0
 40
1.0
 40
1.0
 10
14.9863571943
 20
13.6796595277
 30
0.0
 10
14.9859417448
 20
13.6798871851
 30
0.0
 10
14.9850952736
 20
13.6803273107
 30
0.0
 10
14.9833507103
 20
13.681143298
 30
0.0
 10
14.9810881184
 20
13.6820358313
 30
0.0
 10
14.9787548874
 20
13.6827472768
 30
0.0
 10
14.9768599198
 20
13.6832026492
 30
0.0
 10
14.9754373804
 20
13.6834840568
 30
0.0
 10
14.9740189052
 20
13.6837043227
 30
0.0
 10
14.9726113738
 20
13.6838624132
 30
0.0
 10
14.9712216294
 20
13.6839575448
 30
0.0
 10
14.9698564315
 20
13.6839892285
 30
0.0
 10
14.9685224203
 20
13.6839573612
 30
0.0
 10
14.9672259872
 20
13.6838620436
 30
0.0
 10
14.9659735697
 20
13.6837037126
 30
0.0
 10
14.9651582348
 20
13.6835541906
 30
0.0
 10
14.9647598781
 20
13.6834685806
 30
0.0
  0
SPLINE
  5
32A
100
AcDbEntity
  8
LAYER_FEATURE
100
AcDbSpline
 62
7
  6
CONTINUOUS
 70
0
 71
3
 72
21
 73
17
 74
0
 42
0.0000001
 43
0.0000001
 44
0.0000000001
 40
0.0
 40
0.0
 40
0.0
 40
0.0
 40
0.0630082386
 40
0.1268034338
 40
0.2559642425
 40
0.3860522086
 40
0.4509868344
 40
0.5155930443
 40
0.5796873585
 40
0.6430909963
 40
0.7056316154
 40
0.7671447311
 40
0.8274735823
 40
0.8864754711
 40
0.9440288591
 40
1.0
 40
1.0
 40
1.0
 40
1.0
 10
15.0128722294
 20
13.665129854
 30
0.0
 10
15.01337224
 20
13.6648558589
 30
0.0
 10
15.0143898857
 20
13.6643249279
 30
0.0
 10
15.0164844456
 20
13.6633350438
 30
0.0
 10
15.0191981553
 20
13.6622401921
 30
0.0
 10
15.0219958759
 20
13.6613483436
 30
0.0
 10
15.0242712546
 20
13.6607614692
 30
0.0
 10
15.0259836719
 20
13.6603881272
 30
0.0
 10
15.0276954678
 20
13.6600830064
 30
0.0
 10
15.0293993566
 20
13.659847371
 30
0.0
 10
15.0310880673
 20
13.6596822409
 30
0.0
 10
15.0327543899
 20
13.6595883456
 30
0.0
 10
15.034391207
 20
13.6595660351
 30
0.0
 10
15.0359916312
 20
13.6596154509
 30
0.0
 10
15.0375486907
 20
13.6597364092
 30
0.0
 10
15.0385682645
 20
13.6598662336
 30
0.0
 10
15.0390688223
 20
13.6599434768
 30
0.0
  0
LINE
  5
32B
100
AcDbEntity
  8
LAYER_FEATURE
100
AcDbLine
 62
7
  6
CONTINUOUS
 10
15.0732586394
 20
13.6652194515
 11
15.0767525404
 21
13.6660032153
  0
SPLINE
  5
32C
100
AcDbEntity
  8
LAYER_FEATURE
100
AcDbSpline
 62
7
  6
CONTINUOUS
 70
0
 71
3
 72
22
 73
18
 74
0
 42
0.0000001
 43
0.0000001
 44
0.0000000001
 40
0.0
 40
0.0
 40
0.0
 40
0.0
 40
0.0776011177
 40
0.1531877379
 40
0.2266341692
 40
0.2978802276
 40
0.3668923639
 40
0.4336561122
 40
0.4981868228
 40
0.5605376536
 40
0.679008422
 40
0.7355160786
 40
0.7904455354
 40
0.8440515549
 40
0.8966266192
 40
0.9484942196
 40
1.0
 40
1.0
 40
1.0
 40
1.0
 10
15.0974177746
 20
13.7039395795
 30
0.0
 10
15.0970654463
 20
13.7039048534
 30
0.0
 10
15.0963713104
 20
13.7038212157
 30
0.0
 10
15.0953511913
 20
13.7036503393
 30
0.0
 10
15.0943688904
 20
13.7034360903
 30
0.0
 10
15.0934278736
 20
13.7031792727
 30
0.0
 10
15.0925312836
 20
13.7028806921
 30
0.0
 10
15.0916821757
 20
13.702541399
 30
0.0
 10
15.090883374
 20
13.7021623823
 30
0.0
 10
15.0899061302
 20
13.7016154415
 30
0.0
 10
15.0890184945
 20
13.7009863993
 30
0.0
 10
15.0882444506
 20
13.7002769584
 30
0.0
 10
15.0877351977
 20
13.699720899
 30
0.0
 10
15.0872901704
 20
13.6991345507
 30
0.0
 10
15.086911005
 20
13.698519849
 30
0.0
 10
15.0865991375
 20
13.6978790894
 30
0.0
 10
15.0864366338
 20
13.6974353181
 30
0.0
 10
15.0863672563
 20
13.6972108111
 30
0.0
  0
SPLINE
  5
32D
100
AcDbEntity
  8
LAYER_FEATURE
100
AcDbSpline
 62
7
  6
CONTINUOUS
 70
0
 71
3
 72
19
 73
15
 74
0
 42
0.0000001
 43
0.0000001
 44
0.0000000001
 40
0.0
 40
0.0
 40
0.0
 40
0.0
 40
0.059131196
 40
0.1196263931
 40
0.181293357
 40
0.2439607165
 40
0.3714947217
 40
0.5006310403
 40
0.6296843144
 40
0.7569724254
 40
0.8194587155
 40
0.8809081614
 40
0.9411516834
 40
1.0
 40
1.0
 40
1.0
 40
1.0
 10
15.1852073813
 20
13.7023312416
 30
0.0
 10
15.1848484976
 20
13.7025978301
 30
0.0
 10
15.1841089438
 20
13.7031191951
 30
0.0
 10
15.1829526709
 20
13.7038560898
 30
0.0
 10
15.1817413568
 20
13.7045538107
 30
0.0
 10
15.180051274
 20
13.7054322714
 30
0.0
 10
15.1778402224
 20
13.7064094339
 30
0.0
 10
15.175083769
 20
13.707370879
 30
0.0
 10
15.1722613941
 20
13.7081096512
 30
0.0
 10
15.1698848555
 20
13.7085305185
 30
0.0
 10
15.167996818
 20
13.7087423416
 30
0.0
 10
15.1666070777
 20
13.7088372689
 30
0.0
 10
15.165241997
 20
13.7088687335
 30
0.0
 10
15.1643414383
 20
13.7088470866
 30
0.0
 10
15.163897049
 20
13.7088252345
 30
0.0
  0
SPLINE
  5
32E
100
AcDbEntity
  8
LAYER_FEATURE
100
AcDbSpline
 62
7
  6
CONTINUOUS
 70
0
 71
3
 72
19
 73
15
 74
0
 42
0.0000001
 43
0.0000001
 44
0.0000000001
 40
0.0
 40
0.0
 40
0.0
 40
0.0
 40
0.0588540998
 40
0.118989314
 40
0.1802388564
 40
0.2424546659
 40
0.3690917444
 40
0.4975189069
 40
0.6262704336
 40
0.7538695121
 40
0.8167953607
 40
0.8788997889
 40
0.9400269401
 40
1.0
 40
1.0
 40
1.0
 40
1.0
 10
15.2080016358
 20
13.6853990554
 30
0.0
 10
15.208433434
 20
13.6850783041
 30
0.0
 10
15.2093216225
 20
13.6844500346
 30
0.0
 10
15.2107072582
 20
13.6835583358
 30
0.0
 10
15.2121558032
 20
13.6827103152
 30
0.0
 10
15.2141743056
 20
13.6816365792
 30
0.0
 10
15.2168138911
 20
13.6804283859
 30
0.0
 10
15.2201080072
 20
13.679213249
 30
0.0
 10
15.2234919875
 20
13.6782446756
 30
0.0
 10
15.2263527322
 20
13.6776538571
 30
0.0
 10
15.2286377911
 20
13.6773194853
 30
0.0
 10
15.2303301857
 20
13.6771401831
 30
0.0
 10
15.2320015324
 20
13.6770320166
 30
0.0
 10
15.2331084592
 20
13.6770073209
 30
0.0
 10
15.233656581
 20
13.6770073209
 30
0.0
  0
SPLINE
  5
32F
100
AcDbEntity
  8
LAYER_FEATURE
100
AcDbSpline
 62
7
  6
CONTINUOUS
 70
0
 71
3
 72
23
 73
19
 74
0
 42
0.0000001
 43
0.0000001
 44
0.0000000001
 40
0.0
 40
0.0
 40
0.0
 40
0.0
 40
0.0784464166
 40
0.1550153091
 40
0.2295226171
 40
0.3018480128
 40
0.3718882755
 40
0.4395654813
 40
0.5048402295
 40
0.567711802
 40
0.6282215405
 40
0.6864598651
 40
0.7425689591
 40
0.79674631
 40
0.8492446134
 40
0.9003732896
 40
0.9504982166
 40
1.0
 40
1.0
 40
1.0
 40
1.0
 10
15.2712571326
 20
13.6770073209
 30
0.0
 10
15.2717934996
 20
13.6770073209
 30
0.0
 10
15.2728535663
 20
13.677030464
 30
0.0
 10
15.2744198326
 20
13.6771370934
 30
0.0
 10
15.2759375752
 20
13.6773148967
 30
0.0
 10
15.2774001985
 20
13.6775630981
 30
0.0
 10
15.2788015809
 20
13.6778806296
 30
0.0
 10
15.2801357549
 20
13.6782662371
 30
0.0
 10
15.2813970493
 20
13.6787183089
 30
0.0
 10
15.2825801201
 20
13.6792349786
 30
0.0
 10
15.2836799072
 20
13.6798141946
 30
0.0
 10
15.2846917181
 20
13.6804535709
 30
0.0
 10
15.2856111695
 20
13.6811505469
 30
0.0
 10
15.2864341837
 20
13.6819023263
 30
0.0
 10
15.2871571017
 20
13.6827057559
 30
0.0
 10
15.2877765823
 20
13.6835576019
 30
0.0
 10
15.2882895322
 20
13.6844539926
 30
0.0
 10
15.2885599673
 20
13.6850810852
 30
0.0
 10
15.2886759473
 20
13.6853990554
 30
0.0
  0
SPLINE
  5
330
100
AcDbEntity
  8
LAYER_FEATURE
100
AcDbSpline
 62
7
  6
CONTINUOUS
 70
0
 71
3
 72
23
 73
19
 74
0
 42
0.0000001
 43
0.0000001
 44
0.0000000001
 40
0.0
 40
0.0
 40
0.0
 40
0.0
 40
0.0788266481
 40
0.1558733841
 40
0.230911005
 40
0.3037808923
 40
0.3743418246
 40
0.4424794762
 40
0.5081217562
 40
0.5712393336
 40
0.6318498615
 40
0.6900267862
 40
0.7459031594
 40
0.799676787
 40
0.8516114567
 40
0.902039379
 40
0.9513614584
 40
1.0
 40
1.0
 40
1.0
 40
1.0
 10
15.3097887362
 20
13.7088252345
 30
0.0
 10
15.3093335531
 20
13.7088465869
 30
0.0
 10
15.3084323725
 20
13.7088687093
 30
0.0
 10
15.3070973578
 20
13.7088387156
 30
0.0
 10
15.3057997325
 20
13.7087452403
 30
0.0
 10
15.3045459231
 20
13.7085887537
 30
0.0
 10
15.3033419141
 20
13.7083700364
 30
0.0
 10
15.3021935448
 20
13.7080900597
 30
0.0
 10
15.3011063755
 20
13.7077501596
 30
0.0
 10
15.3000856488
 20
13.7073519361
 30
0.0
 10
15.2991363266
 20
13.7068971794
 30
0.0
 10
15.2982630112
 20
13.7063880186
 30
0.0
 10
15.2974699965
 20
13.7058267578
 30
0.0
 10
15.296761276
 20
13.7052159339
 30
0.0
 10
15.2961404363
 20
13.7045584415
 30
0.0
 10
15.2956107579
 20
13.7038572619
 30
0.0
 10
15.295175283
 20
13.7031160109
 30
0.0
 10
15.29494833
 20
13.7025953898
 30
0.0
 10
15.2948519816
 20
13.7023312416
 30
0.0
  0
SPLINE
  5
331
100
AcDbEntity
  8
LAYER_FEATURE
100
AcDbSpline
 62
7
  6
CONTINUOUS
 70
0
 71
3
 72
21
 73
17
 74
0
 42
0.0000001
 43
0.0000001
 44
0.0000000001
 40
0.0
 40
0.0
 40
0.0
 40
0.0
 40
0.0549372354
 40
0.1116606062
 40
0.1700331991
 40
0.2299278219
 40
0.2911903235
 40
0.3536482091
 40
0.4171179658
 40
0.4814054569
 40
0.546307874
 40
0.6116159357
 40
0.7425711061
 40
0.8725793145
 40
0.9367261554
 40
1.0
 40
1.0
 40
1.0
 40
1.0
 10
15.4011550577
 20
13.6950444653
 30
0.0
 10
15.4008691721
 20
13.6953385337
 30
0.0
 10
15.4002701132
 20
13.6959189665
 30
0.0
 10
15.3993109297
 20
13.6967512537
 30
0.0
 10
15.3982807943
 20
13.6975555667
 30
0.0
 10
15.3971848418
 20
13.6983279413
 30
0.0
 10
15.3960283525
 20
13.6990647183
 30
0.0
 10
15.3948169238
 20
13.6997622712
 30
0.0
 10
15.3935564631
 20
13.7004172283
 30
0.0
 10
15.3922531073
 20
13.7010264171
 30
0.0
 10
15.3909131588
 20
13.7015868542
 30
0.0
 10
15.389085083
 20
13.7022660083
 30
0.0
 10
15.3867524027
 20
13.7029765576
 30
0.0
 10
15.3843788166
 20
13.7034968934
 30
0.0
 10
15.3824792352
 20
13.7037913362
 30
0.0
 10
15.3815335437
 20
13.703897299
 30
0.0
 10
15.3810630731
 20
13.7039395795
 30
0.0
  0
SPLINE
  5
332
100
AcDbEntity
  8
LAYER_FEATURE
100
AcDbSpline
 62
7
  6
CONTINUOUS
 70
0
 71
3
 72
21
 73
17
 74
0
 42
0.0000001
 43
0.0000001
 44
0.0000000001
 40
0.0
 40
0.0
 40
0.0
 40
0.0
 40
0.0549271947
 40
0.1115339739
 40
0.1697020489
 40
0.2293225712
 40
0.2902636052
 40
0.3523773946
 40
0.4155066149
 40
0.4794844385
 40
0.5441360868
 40
0.6092804981
 40
0.7402835186
 40
0.871010685
 40
0.9358243585
 40
1.0
 40
1.0
 40
1.0
 40
1.0
 10
15.4192323133
 20
13.6764497844
 30
0.0
 10
15.4195761838
 20
13.6760960712
 30
0.0
 10
15.4202946628
 20
13.6753972453
 30
0.0
 10
15.4214411016
 20
13.6743920054
 30
0.0
 10
15.4226682699
 20
13.6734177337
 30
0.0
 10
15.4239708002
 20
13.6724786469
 30
0.0
 10
15.425343186
 20
13.6715786522
 30
0.0
 10
15.4267795982
 20
13.6707216327
 30
0.0
 10
15.4282738913
 20
13.6699112247
 30
0.0
 10
15.4298196821
 20
13.6691508732
 30
0.0
 10
15.4314104126
 20
13.6684438416
 30
0.0
 10
15.4335860123
 20
13.6675747184
 30
0.0
 10
15.4363722585
 20
13.6666406043
 30
0.0
 10
15.4392175361
 20
13.665917433
 30
0.0
 10
15.4415078049
 20
13.6654727682
 30
0.0
 10
15.4426530958
 20
13.6652960115
 30
0.0
 10
15.4432243664
 20
13.6652194515
 30
0.0
  0
SPLINE
  5
333
100
AcDbEntity
  8
LAYER_FEATURE
100
AcDbSpline
 62
7
  6
CONTINUOUS
 70
0
 71
3
 72
23
 73
19
 74
0
 42
0.0000001
 43
0.0000001
 44
0.0000000001
 40
0.0
 40
0.0
 40
0.0
 40
0.0
 40
0.0756440962
 40
0.15014646
 40
0.2232882346
 40
0.2949022478
 40
0.3648272363
 40
0.4329150463
 40
0.4990419224
 40
0.5631076919
 40
0.6250379444
 40
0.6847899224
 40
0.7423551277
 40
0.7977636844
 40
0.8510872614
 40
0.9024457141
 40
0.9520153827
 40
1.0
 40
1.0
 40
1.0
 40
1.0
 10
15.4825923281
 20
13.6599434768
 30
0.0
 10
15.4831564679
 20
13.6598678725
 30
0.0
 10
15.48427932
 20
13.6597398022
 30
0.0
 10
15.485955437
 20
13.6596173142
 30
0.0
 10
15.4876049669
 20
13.6595663458
 30
0.0
 10
15.4892207331
 20
13.6595871026
 30
0.0
 10
15.4907959411
 20
13.6596794563
 30
0.0
 10
15.492323878
 20
13.6598430786
 30
0.0
 10
15.493798034
 20
13.6600772658
 30
0.0
 10
15.4952121551
 20
13.6603810262
 30
0.0
 10
15.496560228
 20
13.6607531475
 30
0.0
 10
15.4978365397
 20
13.6611920545
 30
0.0
 10
15.4990356706
 20
13.6616959675
 30
0.0
 10
15.5001524959
 20
13.6622628658
 30
0.0
 10
15.5011822584
 20
13.6628903819
 30
0.0
 10
15.5021205585
 20
13.663576094
 30
0.0
 10
15.5029630904
 20
13.6643170964
 30
0.0
 10
15.5034659269
 20
13.6648538556
 30
0.0
 10
15.5036987125
 20
13.665129854
 30
0.0
  0
SPLINE
  5
334
100
AcDbEntity
  8
LAYER_FEATURE
100
AcDbSpline
 62
7
  6
CONTINUOUS
 70
0
 71
3
 72
23
 73
19
 74
0
 42
0.0000001
 43
0.0000001
 44
0.0000000001
 40
0.0
 40
0.0
 40
0.0
 40
0.0
 40
0.075556333
 40
0.1501287975
 40
0.2234591878
 40
0.2953462977
 40
0.3655940766
 40
0.434020025
 40
0.5004681615
 40
0.5648083644
 40
0.6269390191
 40
0.6867940996
 40
0.744346444
 40
0.7996131991
 40
0.8526598854
 40
0.9036084287
 40
0.9526474087
 40
1.0
 40
1.0
 40
1.0
 40
1.0
 10
15.5338123841
 20
13.6834685806
 30
0.0
 10
15.5333408024
 20
13.6835522743
 30
0.0
 10
15.532400244
 20
13.6836993614
 30
0.0
 10
15.5309923594
 20
13.6838591021
 30
0.0
 10
15.5296020166
 20
13.6839558721
 30
0.0
 10
15.5282361107
 20
13.6839892093
 30
0.0
 10
15.5269011928
 20
13.6839589961
 30
0.0
 10
15.5256037459
 20
13.6838653168
 30
0.0
 10
15.5243500718
 20
13.6837086359
 30
0.0
 10
15.5231462325
 20
13.6834897123
 30
0.0
 10
15.5219980589
 20
13.6832095325
 30
0.0
 10
15.5209110938
 20
13.6828694514
 30
0.0
 10
15.519890591
 20
13.6824710343
 30
0.0
 10
15.5189415125
 20
13.6820160904
 30
0.0
 10
15.5180684576
 20
13.6815067789
 30
0.0
 10
15.517275671
 20
13.6809453164
 30
0.0
 10
15.5165673005
 20
13.6803343913
 30
0.0
 10
15.5161470178
 20
13.6798889793
 30
0.0
 10
15.5159534911
 20
13.6796595277
 30
0.0
  0
SPLINE
  5
335
100
AcDbEntity
  8
LAYER_FEATURE
100
AcDbSpline
 62
7
  6
CONTINUOUS
 70
0
 71
3
 72
20
 73
16
 74
0
 42
0.0000001
 43
0.0000001
 44
0.0000000001
 40
0.0
 40
0.0
 40
0.0
 40
0.0
 40
0.0511855009
 40
0.1044157965
 40
0.159640244
 40
0.2168033368
 40
0.275811836
 40
0.3365444858
 40
0.3988593423
 40
0.4625952967
 40
0.5275748698
 40
0.5936062946
 40
0.727980557
 40
0.8640342986
 40
1.0
 40
1.0
 40
1.0
 40
1.0
 10
15.6247622736
 20
13.6581176657
 30
0.0
 10
15.6245628587
 20
13.6584261355
 30
0.0
 10
15.6241322504
 20
13.6590402653
 30
0.0
 10
15.6234118489
 20
13.659931993
 30
0.0
 10
15.622607647
 20
13.6608080998
 30
0.0
 10
15.6217236863
 20
13.6616642738
 30
0.0
 10
15.6207642325
 20
13.6624964883
 30
0.0
 10
15.6197339112
 20
13.6633006738
 30
0.0
 10
15.6186377454
 20
13.6640729572
 30
0.0
 10
15.6174810676
 20
13.6648096063
 30
0.0
 10
15.6162694555
 20
13.6655070309
 30
0.0
 10
15.6145789871
 20
13.6663851272
 30
0.0
 10
15.612367521
 20
13.6673617285
 30
0.0
 10
15.6096109608
 20
13.6683224544
 30
0.0
 10
15.6077199778
 20
13.6688168857
 30
0.0
 10
15.6067667529
 20
13.6690251422
 30
0.0
  0
SPLINE
  5
336
100
AcDbEntity
  8
LAYER_FEATURE
100
AcDbSpline
 62
7
  6
CONTINUOUS
 70
0
 71
3
 72
20
 73
16
 74
0
 42
0.0000001
 43
0.0000001
 44
0.0000000001
 40
0.0
 40
0.0
 40
0.0
 40
0.0
 40
0.0514212598
 40
0.1047687962
 40
0.1600009083
 40
0.2170730859
 40
0.2759085805
 40
0.3364065572
 40
0.3984483548
 40
0.4618984892
 40
0.526606918
 40
0.592410644
 40
0.7265804657
 40
0.8629580114
 40
1.0
 40
1.0
 40
1.0
 40
1.0
 10
15.6373324675
 20
13.638673167
 30
0.0
 10
15.6375722789
 20
13.6383022091
 30
0.0
 10
15.6380876315
 20
13.6375634066
 30
0.0
 10
15.6389450066
 20
13.6364881019
 30
0.0
 10
15.6398974454
 20
13.635429771
 30
0.0
 10
15.6409407475
 20
13.6343929909
 30
0.0
 10
15.642070494
 20
13.633382046
 30
0.0
 10
15.6432819037
 20
13.6324012716
 30
0.0
 10
15.6445697939
 20
13.6314548143
 30
0.0
 10
15.6459286669
 20
13.6305466884
 30
0.0
 10
15.6473527736
 20
13.6296807731
 30
0.0
 10
15.6493430734
 20
13.6285804193
 30
0.0
 10
15.6519543373
 20
13.6273360018
 30
0.0
 10
15.6552235294
 20
13.6260739211
 30
0.0
 10
15.6574742308
 20
13.6253932751
 30
0.0
 10
15.6586130608
 20
13.6250950552
 30
0.0
  0
SPLINE
  5
337
100
AcDbEntity
  8
LAYER_FEATURE
100
AcDbSpline
 62
7
  6
CONTINUOUS
 70
0
 71
3
 72
22
 73
18
 74
0
 42
0.0000001
 43
0.0000001
 44
0.0000000001
 40
0.0
 40
0.0
 40
0.0
 40
0.0
 40
0.0716496292
 40
0.1428699849
 40
0.2134345236
 40
0.2831588497
 40
0.3518570091
 40
0.419348196
 40
0.4854664411
 40
0.550059352
 40
0.6129894393
 40
0.6741385138
 40
0.733409523
 40
0.7907296138
 40
0.8460520486
 40
0.8993628038
 40
1.0
 40
1.0
 40
1.0
 40
1.0
 10
15.6980278638
 20
13.6147736912
 30
0.0
 10
15.6985952825
 20
13.614625104
 30
0.0
 10
15.6997324008
 20
13.6143500299
 30
0.0
 10
15.7014454186
 20
13.6140037811
 30
0.0
 10
15.7031549843
 20
13.6137263053
 30
0.0
 10
15.7048536541
 20
13.6135187903
 30
0.0
 10
15.7065342631
 20
13.6133820684
 30
0.0
 10
15.7081896421
 20
13.6133167771
 30
0.0
 10
15.7098127195
 20
13.6133231781
 30
0.0
 10
15.7113965871
 20
13.6134012316
 30
0.0
 10
15.7129345025
 20
13.613550656
 30
0.0
 10
15.7144199209
 20
13.6137707865
 30
0.0
 10
15.7158465521
 20
13.6140607317
 30
0.0
 10
15.7172082575
 20
13.614419287
 30
0.0
 10
15.7184994981
 20
13.614845017
 30
0.0
 10
15.720088422
 20
13.6154871874
 30
0.0
 10
15.7212072557
 20
13.616081144
 30
0.0
 10
15.7218993675
 20
13.6165280414
 30
0.0
  0
SPLINE
  5
338
100
AcDbEntity
  8
LAYER_FEATURE
100
AcDbSpline
 62
7
  6
CONTINUOUS
 70
0
 71
3
 72
21
 73
17
 74
0
 42
0.0000001
 43
0.0000001
 44
0.0000000001
 40
0.0
 40
0.0
 40
0.0
 40
0.0
 40
0.1421663121
 40
0.282405813
 40
0.3512625845
 40
0.4189822599
 40
0.4853678956
 40
0.5502371785
 40
0.6134240995
 40
0.6747842174
 40
0.7341969939
 40
0.7915695491
 40
0.8468393083
 40
0.8999817654
 40
0.9510211846
 40
1.0
 40
1.0
 40
1.0
 40
1.0
 10
15.7596978098
 20
13.6289778252
 30
0.0
 10
15.758764663
 20
13.6292632491
 30
0.0
 10
15.7568876409
 20
13.6297566732
 30
0.0
 10
15.7545111514
 20
13.6301801218
 30
0.0
 10
15.7526226794
 20
13.630394128
 30
0.0
 10
15.7512324379
 20
13.6304906857
 30
0.0
 10
15.74986661
 20
13.6305238278
 30
0.0
 10
15.7485317997
 20
13.6304934031
 30
0.0
 10
15.7472344898
 20
13.6303995121
 30
0.0
 10
15.7459809668
 20
13.630242638
 30
0.0
 10
15.7447772971
 20
13.6300235074
 30
0.0
 10
15.7436293162
 20
13.6297431244
 30
0.0
 10
15.7425425702
 20
13.6294028688
 30
0.0
 10
15.7415222466
 20
13.6290042432
 30
0.0
 10
15.7405734706
 20
13.6285491395
 30
0.0
 10
15.7399797262
 20
13.6282025505
 30
0.0
 10
15.7396972979
 20
13.6280201862
 30
0.0
  0
SPLINE
  5
339
100
AcDbEntity
  8
LAYER_FEATURE
100
AcDbSpline
 62
7
  6
CONTINUOUS
 70
0
 71
3
 72
22
 73
18
 74
0
 42
0.0000001
 43
0.0000001
 44
0.0000000001
 40
0.0
 40
0.0
 40
0.0
 40
0.0
 40
0.0985857692
 40
0.1510286839
 40
0.205631718
 40
0.2624037288
 40
0.3213109018
 40
0.3822847241
 40
0.4452250931
 40
0.5100045189
 40
0.5764706503
 40
0.6444519821
 40
0.7137597215
 40
0.784186732
 40
0.8555190827
 40
0.9275440259
 40
1.0
 40
1.0
 40
1.0
 40
1.0
 10
15.8462563208
 20
13.5931647214
 30
0.0
 10
15.8460456186
 20
13.593793698
 30
0.0
 10
15.8456278889
 20
13.5947273979
 30
0.0
 10
15.8449185005
 20
13.595916002
 30
0.0
 10
15.8442848993
 20
13.5968192555
 30
0.0
 10
15.8435642013
 20
13.5977109272
 30
0.0
 10
15.8427597583
 20
13.5985869515
 30
0.0
 10
15.8418755437
 20
13.5994430704
 30
0.0
 10
15.8409158465
 20
13.6002751978
 30
0.0
 10
15.839885302
 20
13.6010792793
 30
0.0
 10
15.8387889372
 20
13.6018514605
 30
0.0
 10
15.8376320612
 20
13.6025879879
 30
0.0
 10
15.8364202951
 20
13.6032852629
 30
0.0
 10
15.83515956
 20
13.6039399416
 30
0.0
 10
15.8338558916
 20
13.6045488413
 30
0.0
 10
15.8325157481
 20
13.6051089232
 30
0.0
 10
15.8316040985
 20
13.6054473634
 30
0.0
 10
15.8311437546
 20
13.605607851
 30
0.0
  0
SPLINE
  5
33A
100
AcDbEntity
  8
LAYER_FEATURE
100
AcDbSpline
 62
7
  6
CONTINUOUS
 70
0
 71
3
 72
22
 73
18
 74
0
 42
0.0000001
 43
0.0000001
 44
0.0000000001
 40
0.0
 40
0.0
 40
0.0
 40
0.0
 40
0.0994128608
 40
0.1520855864
 40
0.206797211
 40
0.2635642323
 40
0.3223665004
 40
0.3831539653
 40
0.4458489566
 40
0.5103496066
 40
0.5765318539
 40
0.6442542104
 40
0.7133592629
 40
0.7836724797
 40
0.8550122979
 40
0.9271969264
 40
1.0
 40
1.0
 40
1.0
 40
1.0
 10
15.8527700751
 20
13.5737202226
 30
0.0
 10
15.8530231432
 20
13.5729647779
 30
0.0
 10
15.8535166795
 20
13.57184256
 30
0.0
 10
15.8543485627
 20
13.5704083758
 30
0.0
 10
15.8550873011
 20
13.5693184483
 30
0.0
 10
15.8559252481
 20
13.5682402899
 30
0.0
 10
15.85685898
 20
13.5671782202
 30
0.0
 10
15.8578844467
 20
13.5661367718
 30
0.0
 10
15.8589972807
 20
13.5651203088
 30
0.0
 10
15.8601927644
 20
13.5641331728
 30
0.0
 10
15.8614657798
 20
13.563179518
 30
0.0
 10
15.8628109184
 20
13.5622634087
 30
0.0
 10
15.8642224462
 20
13.5613887686
 30
0.0
 10
15.8656943116
 20
13.5605592819
 30
0.0
 10
15.8672203345
 20
13.5597784802
 30
0.0
 10
15.8687938827
 20
13.559049779
 30
0.0
 10
15.8698665354
 20
13.558602217
 30
0.0
 10
15.8704091446
 20
13.5583877606
 30
0.0
  0
SPLINE
  5
33B
100
AcDbEntity
  8
LAYER_FEATURE
100
AcDbSpline
 62
7
  6
CONTINUOUS
 70
0
 71
3
 72
20
 73
16
 74
0
 42
0.0000001
 43
0.0000001
 44
0.0000000001
 40
0.0
 40
0.0
 40
0.0
 40
0.0
 40
0.1348265887
 40
0.2696781006
 40
0.4030175594
 40
0.4686615765
 40
0.5333750586
 40
0.5969884146
 40
0.6593429996
 40
0.7202926992
 40
0.7797059584
 40
0.8374664905
 40
0.8934794793
 40
0.9476794484
 40
1.0
 40
1.0
 40
1.0
 40
1.0
 10
15.9081481728
 20
13.5434721004
 30
0.0
 10
15.9092413379
 20
13.5430400469
 30
0.0
 10
15.9114615767
 20
13.5422585753
 30
0.0
 10
15.9148565057
 20
13.5413415154
 30
0.0
 10
15.9177185561
 20
13.5407956994
 30
0.0
 10
15.9199987688
 20
13.5404987083
 30
0.0
 10
15.9216835917
 20
13.5403477695
 30
0.0
 10
15.9233445779
 20
13.5402681697
 30
0.0
 10
15.9249746739
 20
13.5402602143
 30
0.0
 10
15.9265669321
 20
13.5403239558
 30
0.0
 10
15.9281145652
 20
13.540459156
 30
0.0
 10
15.9296109834
 20
13.5406651932
 30
0.0
 10
15.9310499062
 20
13.5409412694
 30
0.0
 10
15.93242505
 20
13.541286231
 30
0.0
 10
15.9333112921
 20
13.5415661256
 30
0.0
 10
15.9337414966
 20
13.5417177502
 30
0.0
  0
SPLINE
  5
33C
100
AcDbEntity
  8
LAYER_FEATURE
100
AcDbSpline
 62
7
  6
CONTINUOUS
 70
0
 71
3
 72
21
 73
17
 74
0
 42
0.0000001
 43
0.0000001
 44
0.0000000001
 40
0.0
 40
0.0
 40
0.0
 40
0.0
 40
0.0665971127
 40
0.1336327033
 40
0.268046707
 40
0.4015185671
 40
0.4673719608
 40
0.5323505664
 40
0.5962560734
 40
0.6589021271
 40
0.7201163992
 40
0.7797431019
 40
0.8376441548
 40
0.8937064431
 40
0.9478511783
 40
1.0
 40
1.0
 40
1.0
 40
1.0
 10
15.9775727364
 20
13.5477344758
 30
0.0
 10
15.9771300374
 20
13.5479310343
 30
0.0
 10
15.9762334589
 20
13.5483071375
 30
0.0
 10
15.9744062786
 20
13.5489881628
 30
0.0
 10
15.9720741314
 20
13.5497011732
 30
0.0
 10
15.9697008562
 20
13.550224037
 30
0.0
 10
15.967801063
 20
13.5505206486
 30
0.0
 10
15.9663932381
 20
13.5506799668
 30
0.0
 10
15.9650030874
 20
13.5507763152
 30
0.0
 10
15.9636373451
 20
13.5508092599
 30
0.0
 10
15.9623026443
 20
13.5507786233
 30
0.0
 10
15.9610054684
 20
13.550684521
 30
0.0
 10
15.959752112
 20
13.5505274568
 30
0.0
 10
15.9585485677
 20
13.5503081149
 30
0.0
 10
15.957400822
 20
13.5500275341
 30
0.0
 10
15.9566624444
 20
13.5497961819
 30
0.0
 10
15.9563047238
 20
13.5496701041
 30
0.0
  0
SPLINE
  5
33D
100
AcDbEntity
  8
LAYER_FEATURE
100
AcDbSpline
 62
7
  6
CONTINUOUS
 70
0
 71
3
 72
23
 73
19
 74
0
 42
0.0000001
 43
0.0000001
 44
0.0000000001
 40
0.0
 40
0.0
 40
0.0
 40
0.0
 40
0.047349904
 40
0.0961778365
 40
0.1467642296
 40
0.1993537427
 40
0.2541206872
 40
0.3111779255
 40
0.370584365
 40
0.4323490174
 40
0.4964367913
 40
0.5627720836
 40
0.6312464229
 40
0.7017215153
 40
0.7740288415
 40
0.8479832296
 40
0.9233914845
 40
1.0
 40
1.0
 40
1.0
 40
1.0
 10
16.0559568466
 20
13.5030243875
 30
0.0
 10
16.0559541277
 20
13.5033172478
 30
0.0
 10
16.0559139781
 20
13.5039122547
 30
0.0
 10
16.055754846
 20
13.5048075758
 30
0.0
 10
16.055496934
 20
13.505713283
 30
0.0
 10
16.0551417909
 20
13.5066247836
 30
0.0
 10
16.0546913484
 20
13.5075378427
 30
0.0
 10
16.0541478471
 20
13.508448075
 30
0.0
 10
16.0535140326
 20
13.5093511683
 30
0.0
 10
16.0527930299
 20
13.5102428352
 30
0.0
 10
16.0519883246
 20
13.5111187833
 30
0.0
 10
16.0511038633
 20
13.5119748422
 30
0.0
 10
16.0501439212
 20
13.5128068816
 30
0.0
 10
16.0491131537
 20
13.5136108604
 30
0.0
 10
16.0480166028
 20
13.5143829311
 30
0.0
 10
16.0468594985
 20
13.515119361
 30
0.0
 10
16.0456475682
 20
13.5158164859
 30
0.0
 10
16.0448127484
 20
13.5162498553
 30
0.0
 10
16.0443877265
 20
13.5164593458
 30
0.0
  0
SPLINE
  5
33E
100
AcDbEntity
  8
LAYER_FEATURE
100
AcDbSpline
 62
7
  6
CONTINUOUS
 70
0
 71
3
 72
22
 73
18
 74
0
 42
0.0000001
 43
0.0000001
 44
0.0000000001
 40
0.0
 40
0.0
 40
0.0
 40
0.0
 40
0.0480489676
 40
0.0974833315
 40
0.1485580603
 40
0.2015000367
 40
0.313520634
 40
0.3728666878
 40
0.4344576796
 40
0.4982805437
 40
0.5642862354
 40
0.6323960569
 40
0.7025041682
 40
0.7744769976
 40
0.8481650406
 40
0.9234102779
 40
1.0
 40
1.0
 40
1.0
 40
1.0
 10
16.0561294791
 20
13.4844297067
 30
0.0
 10
16.0561327501
 20
13.4840773803
 30
0.0
 10
16.0561783019
 20
13.4833624293
 30
0.0
 10
16.0563581954
 20
13.4822863247
 30
0.0
 10
16.0566496217
 20
13.4811977196
 30
0.0
 10
16.0571949462
 20
13.4797085376
 30
0.0
 10
16.0579545512
 20
13.4782407611
 30
0.0
 10
16.0588941157
 20
13.4768131977
 30
0.0
 10
16.0597125649
 20
13.4757322031
 30
0.0
 10
16.0606274342
 20
13.4746665973
 30
0.0
 10
16.0616348882
 20
13.4736206534
 30
0.0
 10
16.0627306201
 20
13.4725988475
 30
0.0
 10
16.0639099745
 20
13.4716055157
 30
0.0
 10
16.0651678848
 20
13.4706448348
 30
0.0
 10
16.0664990901
 20
13.4697208715
 30
0.0
 10
16.0678978082
 20
13.4688376561
 30
0.0
 10
16.0688635838
 20
13.4682828919
 30
0.0
 10
16.0693561127
 20
13.4680129966
 30
0.0
  0
SPLINE
  5
33F
100
AcDbEntity
  8
LAYER_FEATURE
100
AcDbSpline
 62
7
  6
CONTINUOUS
 70
0
 71
3
 72
21
 73
17
 74
0
 42
0.0000001
 43
0.0000001
 44
0.0000000001
 40
0.0
 40
0.0
 40
0.0
 40
0.0
 40
0.0630082386
 40
0.1268034338
 40
0.2559642425
 40
0.3860522086
 40
0.4509868344
 40
0.5155930443
 40
0.5796873585
 40
0.6430909963
 40
0.7056316154
 40
0.7671447311
 40
0.8274735823
 40
0.8864754711
 40
0.9440288591
 40
1.0
 40
1.0
 40
1.0
 40
1.0
 10
16.1037699895
 20
13.4491549261
 30
0.0
 10
16.10427
 20
13.448880931
 30
0.0
 10
16.1052876458
 20
13.44835
 30
0.0
 10
16.1073822056
 20
13.4473601159
 30
0.0
 10
16.1100959154
 20
13.4462652642
 30
0.0
 10
16.112893636
 20
13.4453734158
 30
0.0
 10
16.1151690147
 20
13.4447865413
 30
0.0
 10
16.1168814319
 20
13.4444131993
 30
0.0
 10
16.1185932279
 20
13.4441080786
 30
0.0
 10
16.1202971167
 20
13.4438724432
 30
0.0
 10
16.1219858274
 20
13.443707313
 30
0.0
 10
16.1236521499
 20
13.4436134178
 30
0.0
 10
16.1252889671
 20
13.4435911073
 30
0.0
 10
16.1268893912
 20
13.443640523
 30
0.0
 10
16.1284464508
 20
13.4437614814
 30
0.0
 10
16.1294660246
 20
13.4438913057
 30
0.0
 10
16.1299665824
 20
13.4439685489
 30
0.0
  0
SPLINE
  5
340
100
AcDbEntity
  8
LAYER_FEATURE
100
AcDbSpline
 62
7
  6
CONTINUOUS
 70
0
 71
3
 72
22
 73
18
 74
0
 42
0.0000001
 43
0.0000001
 44
0.0000000001
 40
0.0
 40
0.0
 40
0.0
 40
0.0
 40
0.0620400142
 40
0.1251050406
 40
0.188977036
 40
0.253465183
 40
0.3834311531
 40
0.4485083084
 40
0.5133556823
 40
0.577761929
 40
0.6415202866
 40
0.704430873
 40
0.7663024812
 40
0.8269527374
 40
0.8862155357
 40
0.9439494442
 40
1.0
 40
1.0
 40
1.0
 40
1.0
 10
16.1779149841
 20
13.4432892566
 30
0.0
 10
16.1775167222
 20
13.443531288
 30
0.0
 10
16.1767024585
 20
13.4440012196
 30
0.0
 10
16.1754430853
 20
13.4446571986
 30
0.0
 10
16.1741405567
 20
13.4452674853
 30
0.0
 10
16.1723506318
 20
13.4460180546
 30
0.0
 10
16.1705079507
 20
13.4466624034
 30
0.0
 10
16.1686295193
 20
13.4471956481
 30
0.0
 10
16.1672099472
 20
13.4475377679
 30
0.0
 10
16.1657874186
 20
13.4478201352
 30
0.0
 10
16.1643688191
 20
13.4480414199
 30
0.0
 10
16.1629610525
 20
13.4482005303
 30
0.0
 10
16.1615709679
 20
13.4482966678
 30
0.0
 10
16.1602053331
 20
13.4483294161
 30
0.0
 10
16.1588706966
 20
13.4482985706
 30
0.0
 10
16.1575736826
 20
13.4482042526
 30
0.0
 10
16.1567251058
 20
13.4480977694
 30
0.0
 10
16.156308985
 20
13.4480335561
 30
0.0
  0
SPLINE
  5
341
100
AcDbEntity
  8
LAYER_FEATURE
100
AcDbSpline
 62
7
  6
CONTINUOUS
 70
0
 71
3
 72
19
 73
15
 74
0
 42
0.0000001
 43
0.0000001
 44
0.0000000001
 40
0.0
 40
0.0
 40
0.0
 40
0.0
 40
0.0588540998
 40
0.118989314
 40
0.1802388564
 40
0.2424546659
 40
0.3690917444
 40
0.4975189069
 40
0.6262704336
 40
0.7538695121
 40
0.8167953607
 40
0.8788997889
 40
0.9400269401
 40
1.0
 40
1.0
 40
1.0
 40
1.0
 10
16.2763437017
 20
13.3359442814
 30
0.0
 10
16.2767754999
 20
13.3356235301
 30
0.0
 10
16.2776636884
 20
13.3349952606
 30
0.0
 10
16.2790493241
 20
13.3341035618
 30
0.0
 10
16.2804978691
 20
13.3332555412
 30
0.0
 10
16.2825163715
 20
13.3321818052
 30
0.0
 10
16.285155957
 20
13.3309736119
 30
0.0
 10
16.2884500731
 20
13.329758475
 30
0.0
 10
16.2918340534
 20
13.3287899016
 30
0.0
 10
16.2946947981
 20
13.3281990831
 30
0.0
 10
16.296979857
 20
13.3278647112
 30
0.0
 10
16.2986722516
 20
13.3276854091
 30
0.0
 10
16.3003435983
 20
13.3275772426
 30
0.0
 10
16.3014505251
 20
13.3275525469
 30
0.0
 10
16.3019986469
 20
13.3275525469
 30
0.0
  0
SPLINE
  5
342
100
AcDbEntity
  8
LAYER_FEATURE
100
AcDbSpline
 62
7
  6
CONTINUOUS
 70
0
 71
3
 72
19
 73
15
 74
0
 42
0.0000001
 43
0.0000001
 44
0.0000000001
 40
0.0
 40
0.0
 40
0.0
 40
0.0
 40
0.0576758948
 40
0.1168726617
 40
0.1774142795
 40
0.2391420783
 40
0.3653928389
 40
0.494085749
 40
0.6235570889
 40
0.7521126925
 40
0.8155376184
 40
0.8781178843
 40
0.939673271
 40
1.0
 40
1.0
 40
1.0
 40
1.0
 10
16.3519686353
 20
13.320206925
 30
0.0
 10
16.3516327981
 20
13.3204842021
 30
0.0
 10
16.3509373788
 20
13.321028256
 30
0.0
 10
16.3498426983
 20
13.3218013169
 30
0.0
 10
16.3486872691
 20
13.3225388451
 30
0.0
 10
16.347061368
 20
13.3234768793
 30
0.0
 10
16.3449139451
 20
13.3245357328
 30
0.0
 10
16.3422114553
 20
13.3256034882
 30
0.0
 10
16.3394158346
 20
13.3264574684
 30
0.0
 10
16.3370424135
 20
13.3269796779
 30
0.0
 10
16.3351426985
 20
13.3272757747
 30
0.0
 10
16.333734913
 20
13.3274346861
 30
0.0
 10
16.3323449204
 20
13.3275306045
 30
0.0
 10
16.3314244623
 20
13.3275525469
 30
0.0
 10
16.3309689356
 20
13.3275525469
 30
0.0
  0
SPLINE
  5
343
100
AcDbEntity
  8
LAYER_FEATURE
100
AcDbSpline
 62
7
  6
CONTINUOUS
 70
0
 71
3
 72
21
 73
17
 74
0
 42
0.0000001
 43
0.0000001
 44
0.0000000001
 40
0.0
 40
0.0
 40
0.0
 40
0.0
 40
0.0549271947
 40
0.1115339739
 40
0.1697020489
 40
0.2293225712
 40
0.2902636052
 40
0.3523773946
 40
0.4155066149
 40
0.4794844385
 40
0.5441360868
 40
0.6092804981
 40
0.7402835186
 40
0.871010685
 40
0.9358243585
 40
1.0
 40
1.0
 40
1.0
 40
1.0
 10
16.4183270102
 20
13.2087880148
 30
0.0
 10
16.4186708808
 20
13.2084343016
 30
0.0
 10
16.4193893598
 20
13.2077354757
 30
0.0
 10
16.4205357985
 20
13.2067302357
 30
0.0
 10
16.4217629668
 20
13.205755964
 30
0.0
 10
16.4230654971
 20
13.2048168772
 30
0.0
 10
16.424437883
 20
13.2039168825
 30
0.0
 10
16.4258742952
 20
13.2030598631
 30
0.0
 10
16.4273685882
 20
13.2022494551
 30
0.0
 10
16.4289143791
 20
13.2014891035
 30
0.0
 10
16.4305051095
 20
13.200782072
 30
0.0
 10
16.4326807092
 20
13.1999129487
 30
0.0
 10
16.4354669554
 20
13.1989788347
 30
0.0
 10
16.4383122331
 20
13.1982556633
 30
0.0
 10
16.4406025018
 20
13.1978109986
 30
0.0
 10
16.4417477927
 20
13.1976342418
 30
0.0
 10
16.4423190634
 20
13.1975576819
 30
0.0
  0
SPLINE
  5
344
100
AcDbEntity
  8
LAYER_FEATURE
100
AcDbSpline
 62
7
  6
CONTINUOUS
 70
0
 71
3
 72
21
 73
17
 74
0
 42
0.0000001
 43
0.0000001
 44
0.0000000001
 40
0.0
 40
0.0
 40
0.0
 40
0.0
 40
0.0536001823
 40
0.1090971347
 40
0.1663788754
 40
0.2253386775
 40
0.2858396823
 40
0.3477238268
 40
0.4108190942
 40
0.47494024
 40
0.5398909774
 40
0.6054660904
 40
0.7376166121
 40
0.8696899602
 40
0.9351828156
 40
1.0
 40
1.0
 40
1.0
 40
1.0
 10
16.4921267102
 20
13.1838667693
 30
0.0
 10
16.4918688092
 20
13.1841672623
 30
0.0
 10
16.4913240635
 20
13.1847621089
 30
0.0
 10
16.490441668
 20
13.1856187297
 30
0.0
 10
16.4894835904
 20
13.1864514669
 30
0.0
 10
16.4884546141
 20
13.1872562177
 30
0.0
 10
16.487359697
 20
13.1880291762
 30
0.0
 10
16.486204132
 20
13.1887665451
 30
0.0
 10
16.484993553
 20
13.1894647632
 30
0.0
 10
16.4837338522
 20
13.19012045
 30
0.0
 10
16.4824311175
 20
13.1907303987
 30
0.0
 10
16.4806408651
 20
13.1914805741
 30
0.0
 10
16.4783380719
 20
13.1922850902
 30
0.0
 10
16.4759791852
 20
13.1929038959
 30
0.0
 10
16.4740773043
 20
13.1932808836
 30
0.0
 10
16.4731257151
 20
13.1934290679
 30
0.0
 10
16.4726510975
 20
13.1934926747
 30
0.0
  0
SPLINE
  5
345
100
AcDbEntity
  8
LAYER_FEATURE
100
AcDbSpline
 62
7
  6
CONTINUOUS
 70
0
 71
3
 72
20
 73
16
 74
0
 42
0.0000001
 43
0.0000001
 44
0.0000000001
 40
0.0
 40
0.0
 40
0.0
 40
0.0
 40
0.0514212598
 40
0.1047687962
 40
0.1600009083
 40
0.2170730859
 40
0.2759085805
 40
0.3364065572
 40
0.3984483548
 40
0.4618984892
 40
0.526606918
 40
0.592410644
 40
0.7265804657
 40
0.8629580114
 40
1.0
 40
1.0
 40
1.0
 40
1.0
 10
16.523514563
 20
13.0732434651
 30
0.0
 10
16.5237543744
 20
13.0728725072
 30
0.0
 10
16.5242697271
 20
13.0721337047
 30
0.0
 10
16.5251271021
 20
13.0710584
 30
0.0
 10
16.526079541
 20
13.0700000691
 30
0.0
 10
16.5271228431
 20
13.068963289
 30
0.0
 10
16.5282525896
 20
13.0679523441
 30
0.0
 10
16.5294639992
 20
13.0669715697
 30
0.0
 10
16.5307518895
 20
13.0660251124
 30
0.0
 10
16.5321107624
 20
13.0651169866
 30
0.0
 10
16.5335348691
 20
13.0642510713
 30
0.0
 10
16.535525169
 20
13.0631507175
 30
0.0
 10
16.5381364329
 20
13.0619063
 30
0.0
 10
16.541405625
 20
13.0606442192
 30
0.0
 10
16.5436563264
 20
13.0599635732
 30
0.0
 10
16.5447951563
 20
13.0596653533
 30
0.0
  0
SPLINE
  5
346
100
AcDbEntity
  8
LAYER_FEATURE
100
AcDbSpline
 62
7
  6
CONTINUOUS
 70
0
 71
3
 72
20
 73
16
 74
0
 42
0.0000001
 43
0.0000001
 44
0.0000000001
 40
0.0
 40
0.0
 40
0.0
 40
0.0
 40
0.0500814066
 40
0.1022381616
 40
0.1564592686
 40
0.2127228924
 40
0.2709646798
 40
0.331087946
 40
0.3929711692
 40
0.4564700077
 40
0.5214205023
 40
0.5876412338
 40
0.7230754565
 40
0.8611204996
 40
1.0
 40
1.0
 40
1.0
 40
1.0
 10
16.5922636284
 20
13.0402275087
 30
0.0
 10
16.5920959521
 20
13.0405376336
 30
0.0
 10
16.5917276174
 20
13.0411569393
 30
0.0
 10
16.5910958869
 20
13.0420602185
 30
0.0
 10
16.5903767855
 20
13.0429522212
 30
0.0
 10
16.5895739509
 20
13.0438285588
 30
0.0
 10
16.5886912677
 20
13.0446851258
 30
0.0
 10
16.5877329865
 20
13.0455177463
 30
0.0
 10
16.586703781
 20
13.0463224192
 30
0.0
 10
16.585608657
 20
13.0470952616
 30
0.0
 10
16.5844528901
 20
13.0478325146
 30
0.0
 10
16.58282655
 20
13.048770213
 30
0.0
 10
16.5806786425
 20
13.0498285366
 30
0.0
 10
16.5779759518
 20
13.0508955999
 30
0.0
 10
16.5761090437
 20
13.0514653369
 30
0.0
 10
16.5751632805
 20
13.0517129994
 30
0.0
  0
SPLINE
  5
347
100
AcDbEntity
  8
LAYER_FEATURE
100
AcDbSpline
 62
7
  6
CONTINUOUS
 70
0
 71
3
 72
11
 73
7
 74
0
 42
0.0000001
 43
0.0000001
 44
0.0000000001
 40
0.0
 40
0.0
 40
0.0
 40
0.0
 40
0.2414614503
 40
0.4895471043
 40
0.7428920028
 40
1.0
 40
1.0
 40
1.0
 40
1.0
 10
16.5961859814
 20
12.9245801243
 30
0.0
 10
16.5968406801
 20
12.9241182665
 30
0.0
 10
16.5981995351
 20
12.9232258312
 30
0.0
 10
16.6003406439
 20
12.9220014542
 30
0.0
 10
16.6025964235
 20
12.92088189
 30
0.0
 10
16.6041548182
 20
12.9202156988
 30
0.0
 10
16.6049482288
 20
12.9199021177
 30
0.0
  0
SPLINE
  5
348
100
AcDbEntity
  8
LAYER_FEATURE
100
AcDbSpline
 62
7
  6
CONTINUOUS
 70
0
 71
3
 72
23
 73
19
 74
0
 42
0.0000001
 43
0.0000001
 44
0.0000000001
 40
0.0
 40
0.0
 40
0.0
 40
0.0
 40
0.0477204776
 40
0.0973390745
 40
0.1490022137
 40
0.2028267839
 40
0.2588697713
 40
0.3171392501
 40
0.3776025385
 40
0.4401898482
 40
0.5047990773
 40
0.5712986495
 40
0.6395338301
 40
0.7093289061
 40
0.7804862688
 40
0.8527985915
 40
0.9260569686
 40
1.0
 40
1.0
 40
1.0
 40
1.0
 10
16.6480029262
 20
12.8955668681
 30
0.0
 10
16.647933542
 20
12.8958717105
 30
0.0
 10
16.6477597177
 20
12.8964865412
 30
0.0
 10
16.6474065264
 20
12.8973979297
 30
0.0
 10
16.6469578755
 20
12.8983110375
 30
0.0
 10
16.6464161647
 20
12.899221343
 30
0.0
 10
16.6457841049
 20
12.9001246326
 30
0.0
 10
16.6450647536
 20
12.9010165517
 30
0.0
 10
16.6442616515
 20
12.9018928521
 30
0.0
 10
16.6433787102
 20
12.9027493443
 30
0.0
 10
16.6424201892
 20
12.9035818743
 30
0.0
 10
16.6413907684
 20
12.9043864573
 30
0.0
 10
16.6402954281
 20
12.9051591905
 30
0.0
 10
16.6391394869
 20
12.9058963045
 30
0.0
 10
16.6379285941
 20
12.9065942652
 30
0.0
 10
16.6366685406
 20
12.9072496852
 30
0.0
 10
16.6353655668
 20
12.9078592967
 30
0.0
 10
16.6344757338
 20
12.9082319118
 30
0.0
 10
16.6340252103
 20
12.908409973
 30
0.0
  0
SPLINE
  5
349
100
AcDbEntity
  8
LAYER_FEATURE
100
AcDbSpline
 62
7
  6
CONTINUOUS
 70
0
 71
3
 72
22
 73
18
 74
0
 42
0.0000001
 43
0.0000001
 44
0.0000000001
 40
0.0
 40
0.0
 40
0.0
 40
0.0
 40
0.0477029573
 40
0.0965556026
 40
0.1469087321
 40
0.1990803256
 40
0.3096903539
 40
0.368531569
 40
0.4297965608
 40
0.4934958014
 40
0.5595924579
 40
0.6280106909
 40
0.6986392523
 40
0.7713314786
 40
0.8459196694
 40
0.9222240758
 40
1.0
 40
1.0
 40
1.0
 40
1.0
 10
16.6569085286
 20
12.7562072116
 30
0.0
 10
16.6569397973
 20
12.7564914171
 30
0.0
 10
16.6569684085
 20
12.7570710204
 30
0.0
 10
16.6569106612
 20
12.757951391
 30
0.0
 10
16.656753072
 20
12.7588466971
 30
0.0
 10
16.6564046619
 20
12.7600775939
 30
0.0
 10
16.6558602116
 20
12.7612981091
 30
0.0
 10
16.6551523293
 20
12.7624869064
 30
0.0
 10
16.6545199153
 20
12.7633902851
 30
0.0
 10
16.6538002997
 20
12.7642821195
 30
0.0
 10
16.652996935
 20
12.7651583798
 30
0.0
 10
16.6521137346
 20
12.766014796
 30
0.0
 10
16.6511549741
 20
12.7668472368
 30
0.0
 10
16.6501253501
 20
12.7676517212
 30
0.0
 10
16.6490297649
 20
12.7684243705
 30
0.0
 10
16.6478736404
 20
12.7691613452
 30
0.0
 10
16.6470731527
 20
12.7696226036
 30
0.0
 10
16.646664338
 20
12.7698466254
 30
0.0
  0
SPLINE
  5
34A
100
AcDbEntity
  8
LAYER_FEATURE
100
AcDbSpline
 62
7
  6
CONTINUOUS
 70
0
 71
3
 72
80
 73
76
 74
0
 42
0.0000001
 43
0.0000001
 44
0.0000000001
 40
0.0
 40
0.0
 40
0.0
 40
0.0
 40
0.017178625
 40
0.0345301896
 40
0.0520439856
 40
0.0697095611
 40
0.0875157513
 40
0.105451206
 40
0.1235042502
 40
0.1416629551
 40
0.159915164
 40
0.1782485184
 40
0.1966504877
 40
0.2151083967
 40
0.2336094524
 40
0.2521407721
 40
0.2706894106
 40
0.2892423869
 40
0.3077867108
 40
0.3263094099
 40
0.3447975567
 40
0.3632382956
 40
0.3816188701
 40
0.3999266497
 40
0.4181491573
 40
0.4362740982
 40
0.4542893881
 40
0.4721831821
 40
0.4899439035
 40
0.5075602738
 40
0.5250213437
 40
0.5423165259
 40
0.5594356272
 40
0.5763688815
 40
0.5931069843
 40
0.6096411291
 40
0.6259630453
 40
0.6420650388
 40
0.6579400309
 40
0.673581601
 40
0.6889840307
 40
0.7041423508
 40
0.7190523912
 40
0.7337108317
 40
0.7481152531
 40
0.7622641923
 40
0.7761571984
 40
0.7897948916
 40
0.8031790229
 40
0.8163125314
 40
0.8291996012
 40
0.8418457167
 40
0.8542577138
 40
0.8603787793
 40
0.8664445248
 40
0.8784144197
 40
0.8901792221
 40
0.8959889949
 40
0.9017523402
 40
0.9131461931
 40
0.9243770779
 40
0.9299370835
 40
0.935462781
 40
0.9409564793
 40
0.9464205592
 40
0.9518574755
 40
0.9572697442
 40
0.9626599452
 40
0.9680307112
 40
0.9733847242
 40
0.9787247102
 40
0.9840534294
 40
0.9893736733
 40
0.9946882542
 40
1.0
 40
1.0
 40
1.0
 40
1.0
 10
15.1567229552
 20
13.9391143273
 30
0.0
 10
15.1708433509
 20
13.9391143273
 30
0.0
 10
15.1992272005
 20
13.9388036263
 30
0.0
 10
15.2419867755
 20
13.9374230993
 30
0.0
 10
15.2851079299
 20
13.9351270375
 30
0.0
 10
15.328545342
 20
13.9319179173
 30
0.0
 10
15.3722540309
 20
13.9277990239
 30
0.0
 10
15.4161884247
 20
13.9227746689
 30
0.0
 10
15.4603028214
 20
13.9168500724
 30
0.0
 10
15.5045513003
 20
13.910031409
 30
0.0
 10
15.5488878052
 20
13.9023257784
 30
0.0
 10
15.5932661869
 20
13.8937412011
 30
0.0
 10
15.6376402508
 20
13.8842866114
 30
0.0
 10
15.6819638048
 20
13.8739718462
 30
0.0
 10
15.7261907097
 20
13.8628076456
 30
0.0
 10
15.7702749268
 20
13.8508056347
 30
0.0
 10
15.8141705653
 20
13.8379783083
 30
0.0
 10
15.8578319299
 20
13.8243390188
 30
0.0
 10
15.9012135685
 20
13.8099019615
 30
0.0
 10
15.9442703195
 20
13.7946821622
 30
0.0
 10
15.986957363
 20
13.7786954694
 30
0.0
 10
16.0292302636
 20
13.7619585266
 30
0.0
 10
16.0710450174
 20
13.7444887566
 30
0.0
 10
16.1123580971
 20
13.726304343
 30
0.0
 10
16.1531264965
 20
13.7074242099
 30
0.0
 10
16.19330778
 20
13.6878680096
 30
0.0
 10
16.2328601268
 20
13.6676561004
 30
0.0
 10
16.2717423708
 20
13.6468095191
 30
0.0
 10
16.3099140438
 20
13.62534996
 30
0.0
 10
16.3473354168
 20
13.6032997527
 30
0.0
 10
16.3839675423
 20
13.580681837
 30
0.0
 10
16.419772301
 20
13.5575197487
 30
0.0
 10
16.4547124366
 20
13.5338375854
 30
0.0
 10
16.4887515932
 20
13.5096599809
 30
0.0
 10
16.5218543518
 20
13.4850120796
 30
0.0
 10
16.5539862668
 20
13.4599195088
 30
0.0
 10
16.5851139056
 20
13.4344083544
 30
0.0
 10
16.6152048873
 20
13.4085051377
 30
0.0
 10
16.644227908
 20
13.3822367778
 30
0.0
 10
16.6721527728
 20
13.3556305657
 30
0.0
 10
16.6989504256
 20
13.3287141352
 30
0.0
 10
16.7245929776
 20
13.301515431
 30
0.0
 10
16.7490537444
 20
13.2740626869
 30
0.0
 10
16.7723072687
 20
13.2463843915
 30
0.0
 10
16.7943293387
 20
13.2185092545
 30
0.0
 10
16.815097011
 20
13.1904661796
 30
0.0
 10
16.8345886316
 20
13.1622842326
 30
0.0
 10
16.8527838551
 20
13.1339926148
 30
0.0
 10
16.8696636794
 20
13.1056206293
 30
0.0
 10
16.8852104321
 20
13.0771976869
 30
0.0
 10
16.899407844
 20
13.0487531248
 30
0.0
 10
16.9122408459
 20
13.0203167496
 30
0.0
 10
16.9218308857
 20
12.9965415559
 30
0.0
 10
16.9287971694
 20
12.9775584639
 30
0.0
 10
16.9352374788
 20
12.9587743408
 30
0.0
 10
16.9424257839
 20
12.9353487627
 30
0.0
 10
16.9484962512
 20
12.911825427
 30
0.0
 10
16.9526334027
 20
12.8930920414
 30
0.0
 10
16.9562658463
 20
12.8745649708
 30
0.0
 10
16.9599284988
 20
12.8515099888
 30
0.0
 10
16.9624222072
 20
12.8284668046
 30
0.0
 10
16.9636930283
 20
12.8101654836
 30
0.0
 10
16.9642849188
 20
12.7965488918
 30
0.0
 10
16.9645185255
 20
12.7830003529
 30
0.0
 10
16.9643937361
 20
12.7695233081
 30
0.0
 10
16.9639106446
 20
12.756121304
 30
0.0
 10
16.9630692948
 20
12.7427978368
 30
0.0
 10
16.9618699471
 20
12.7295563905
 30
0.0
 10
16.9603128969
 20
12.7164004259
 30
0.0
 10
16.9583985115
 20
12.7033333902
 30
0.0
 10
16.9561273496
 20
12.6903586898
 30
0.0
 10
16.9534999244
 20
12.6774797426
 30
0.0
 10
16.9505169759
 20
12.6646998717
 30
0.0
 10
16.947179287
 20
12.6520225591
 30
0.0
 10
16.944717924
 20
12.643640534
 30
0.0
 10
16.9434288402
 20
12.6394690506
 30
0.0
  0
SPLINE
  5
34B
100
AcDbEntity
  8
LAYER_FEATURE
100
AcDbSpline
 62
7
  6
CONTINUOUS
 70
0
 71
3
 72
28
 73
24
 74
0
 42
0.0000001
 43
0.0000001
 44
0.0000000001
 40
0.0
 40
0.0
 40
0.0
 40
0.0
 40
0.0696894171
 40
0.1381380473
 40
0.2053812452
 40
0.2714663202
 40
0.3364452313
 40
0.4003773948
 40
0.4633294358
 40
0.5253748187
 40
0.5865938857
 40
0.6470734889
 40
0.7069065559
 40
0.7366137012
 40
0.7661965788
 40
0.7956682558
 40
0.8250420417
 40
0.8543314943
 40
0.8835503566
 40
0.9127125388
 40
0.9418320957
 40
0.9709231754
 40
1.0
 40
1.0
 40
1.0
 40
1.0
 10
16.2074515241
 20
12.2601637399
 30
0.0
 10
16.2103782138
 20
12.2541997733
 30
0.0
 10
16.2159637516
 20
12.2422705459
 30
0.0
 10
16.2235829371
 20
12.2242301193
 30
0.0
 10
16.2303594654
 20
12.2062226439
 30
0.0
 10
16.2362865861
 20
12.188265776
 30
0.0
 10
16.241358519
 20
12.1703764158
 30
0.0
 10
16.2455702386
 20
12.1525717074
 30
0.0
 10
16.248917537
 20
12.1348686627
 30
0.0
 10
16.2513969811
 20
12.1172842537
 30
0.0
 10
16.2530060045
 20
12.0998352828
 30
0.0
 10
16.2537428996
 20
12.0825388539
 30
0.0
 10
16.2536290875
 20
12.0682313661
 30
0.0
 10
16.2530989014
 20
12.0568868939
 30
0.0
 10
16.2524842977
 20
12.0484467372
 30
0.0
 10
16.2516519522
 20
12.0400572425
 30
0.0
 10
16.2506020122
 20
12.0317203609
 30
0.0
 10
16.2493347725
 20
12.0234381086
 30
0.0
 10
16.2478505263
 20
12.0152124684
 30
0.0
 10
16.2461495922
 20
12.0070454309
 30
0.0
 10
16.2442324232
 20
11.9989389274
 30
0.0
 10
16.2420994717
 20
11.9908949876
 30
0.0
 10
16.2405337952
 20
11.9855747382
 30
0.0
 10
16.2397154155
 20
11.9829264605
 30
0.0
  0
SPLINE
  5
34C
100
AcDbEntity
  8
LAYER_FEATURE
100
AcDbSpline
 62
7
  6
CONTINUOUS
 70
0
 71
3
 72
72
 73
68
 74
0
 42
0.0000001
 43
0.0000001
 44
0.0000000001
 40
0.0
 40
0.0
 40
0.0
 40
0.0
 40
0.0149069646
 40
0.0300594473
 40
0.045457714
 40
0.0611018742
 40
0.0931047812
 40
0.1094592879
 40
0.1260350057
 40
0.1428211508
 40
0.1598053345
 40
0.1769737258
 40
0.1943111933
 40
0.2118014369
 40
0.229427119
 40
0.2471700129
 40
0.265011136
 40
0.2829308758
 40
0.3009091206
 40
0.318925397
 40
0.336958997
 40
0.3549891021
 40
0.3729949154
 40
0.3909557938
 40
0.4088513721
 40
0.42666169
 40
0.4443673312
 40
0.461949553
 40
0.4793904135
 40
0.4966729055
 40
0.513781105
 40
0.5307003036
 40
0.5474171403
 40
0.5639197443
 40
0.5801978921
 40
0.5962431398
 40
0.6120489563
 40
0.6276108647
 40
0.642926592
 40
0.6579961824
 40
0.672822104
 40
0.6874093492
 40
0.701765527
 40
0.7159008966
 40
0.7298283736
 40
0.7435635028
 40
0.75712439
 40
0.770531554
 40
0.7838077253
 40
0.7969775893
 40
0.8100674727
 40
0.8231049616
 40
0.8361184802
 40
0.8491368405
 40
0.8621887759
 40
0.875302478
 40
0.8885051546
 40
0.9018226225
 40
0.9152789479
 40
0.9288961278
 40
0.9357721006
 40
0.9426954934
 40
0.9566911688
 40
0.9708991436
 40
0.9780875323
 40
0.9853336765
 40
1.0
 40
1.0
 40
1.0
 40
1.0
 10
14.7902059303
 20
12.3768155221
 30
0.0
 10
14.7909917
 20
12.3793582738
 30
0.0
 10
14.792712683
 20
12.3844444905
 30
0.0
 10
14.7957033937
 20
12.3919924894
 30
0.0
 10
14.7991174557
 20
12.3995038038
 30
0.0
 10
14.8042605918
 20
12.4095194742
 30
0.0
 10
14.8101876149
 20
12.4193101478
 30
0.0
 10
14.8168236927
 20
12.4288186076
 30
0.0
 10
14.8222096542
 20
12.4358773519
 30
0.0
 10
14.8279545586
 20
12.4427934453
 30
0.0
 10
14.8340447687
 20
12.4495506196
 30
0.0
 10
14.8404655667
 20
12.456132569
 30
0.0
 10
14.8472015234
 20
12.4625235102
 30
0.0
 10
14.8542364403
 20
12.4687080764
 30
0.0
 10
14.8615533849
 20
12.4746714244
 30
0.0
 10
14.8691347547
 20
12.4803992305
 30
0.0
 10
14.8769623197
 20
12.4858777277
 30
0.0
 10
14.8850172626
 20
12.4910937365
 30
0.0
 10
14.8932802024
 20
12.4960347319
 30
0.0
 10
14.9017312654
 20
12.5006888401
 30
0.0
 10
14.9103501312
 20
12.5050448674
 30
0.0
 10
14.9191160798
 20
12.509092325
 30
0.0
 10
14.9280080248
 20
12.5128214926
 30
0.0
 10
14.9370045837
 20
12.5162234052
 30
0.0
 10
14.9460841267
 20
12.5192898735
 30
0.0
 10
14.9552248276
 20
12.5220135033
 30
0.0
 10
14.964404706
 20
12.5243877522
 30
0.0
 10
14.9736016931
 20
12.5264069068
 30
0.0
 10
14.9827936823
 20
12.5280660947
 30
0.0
 10
14.9919585815
 20
12.5293612951
 30
0.0
 10
15.0010743608
 20
12.5302893902
 30
0.0
 10
15.0101191138
 20
12.5308481306
 30
0.0
 10
15.0190711053
 20
12.5310361391
 30
0.0
 10
15.0279088226
 20
12.5308529122
 30
0.0
 10
15.0366110286
 20
12.5302988651
 30
0.0
 10
15.0451568129
 20
12.5293752859
 30
0.0
 10
15.0535256352
 20
12.5280843315
 30
0.0
 10
15.0616973726
 20
12.5264290201
 30
0.0
 10
15.0696523756
 20
12.5244132709
 30
0.0
 10
15.0773715061
 20
12.5220418483
 30
0.0
 10
15.0848361744
 20
12.5193203521
 30
0.0
 10
15.0920283786
 20
12.5162552048
 30
0.0
 10
15.098930766
 20
12.512853686
 30
0.0
 10
15.1055266546
 20
12.5091238721
 30
0.0
 10
15.1118000654
 20
12.5050746247
 30
0.0
 10
15.1177357573
 20
12.5007155763
 30
0.0
 10
15.123319298
 20
12.496057158
 30
0.0
 10
15.1285370747
 20
12.4911105387
 30
0.0
 10
15.1333763274
 20
12.485887608
 30
0.0
 10
15.1378251867
 20
12.480400956
 30
0.0
 10
15.1418727583
 20
12.4746638812
 30
0.0
 10
15.1455091221
 20
12.4686903191
 30
0.0
 10
15.1487253646
 20
12.4624948079
 30
0.0
 10
15.1515136086
 20
12.4560924487
 30
0.0
 10
15.1538670933
 20
12.4494988808
 30
0.0
 10
15.1557801426
 20
12.4427301974
 30
0.0
 10
15.1572481769
 20
12.4358029163
 30
0.0
 10
15.1582677174
 20
12.4287338645
 30
0.0
 10
15.1588364427
 20
12.421540396
 30
0.0
 10
15.158933358
 20
12.4154758269
 30
0.0
 10
15.1587871006
 20
12.410582605
 30
0.0
 10
15.1584888805
 20
12.4056285503
 30
0.0
 10
15.1578309058
 20
12.3993879032
 30
0.0
 10
15.1568049755
 20
12.3931494336
 30
0.0
 10
15.1557640757
 20
12.3881422436
 30
0.0
 10
15.1545662741
 20
12.3830862215
 30
0.0
 10
15.1535086227
 20
12.3793172265
 30
0.0
 10
15.1527355376
 20
12.3768155221
 30
0.0
  0
SPLINE
  5
34D
100
AcDbEntity
  8
LAYER_FEATURE
100
AcDbSpline
 62
7
  6
CONTINUOUS
 70
0
 71
3
 72
28
 73
24
 74
0
 42
0.0000001
 43
0.0000001
 44
0.0000000001
 40
0.0
 40
0.0
 40
0.0
 40
0.0
 40
0.0706138688
 40
0.140143218
 40
0.2085427107
 40
0.2757815332
 40
0.3418400827
 40
0.3744277754
 40
0.4067195729
 40
0.4704161333
 40
0.5329605308
 40
0.5638163059
 40
0.5944004091
 40
0.6547767288
 40
0.7141693867
 40
0.772666574
 40
0.830371707
 40
0.858968174
 40
0.8874118106
 40
0.9157192353
 40
0.943907744
 40
0.9719952083
 40
1.0
 40
1.0
 40
1.0
 40
1.0
 10
15.0460271093
 20
12.5389307315
 30
0.0
 10
15.050161163
 20
12.5389307315
 30
0.0
 10
15.0583672066
 20
12.5387397769
 30
0.0
 10
15.0705496392
 20
12.5378664122
 30
0.0
 10
15.0824778249
 20
12.5364107174
 30
0.0
 10
15.0941149669
 20
12.5343770974
 30
0.0
 10
15.1035838716
 20
12.5321958017
 30
0.0
 10
15.1109765397
 20
12.5301647752
 30
0.0
 10
15.1181767234
 20
12.5279665041
 30
0.0
 10
15.1269344011
 20
12.5248766349
 30
0.0
 10
15.1354155595
 20
12.5213032563
 30
0.0
 10
15.1419672844
 20
12.5181763361
 30
0.0
 10
15.1483046327
 20
12.5149032869
 30
0.0
 10
15.1559293805
 20
12.5104916457
 30
0.0
 10
15.1646035501
 20
12.5046742628
 30
0.0
 10
15.1727367063
 20
12.4983735841
 30
0.0
 10
15.1790623119
 20
12.4927182569
 30
0.0
 10
15.183820828
 20
12.4879747765
 30
0.0
 10
15.1872293345
 20
12.4843196335
 30
0.0
 10
15.19048512
 20
12.4805594213
 30
0.0
 10
15.193585772
 20
12.4766969362
 30
0.0
 10
15.1965288702
 20
12.4727352232
 30
0.0
 10
15.1983868262
 20
12.4700263398
 30
0.0
 10
15.1992883379
 20
12.4686569151
 30
0.0
  0
SPLINE
  5
34E
100
AcDbEntity
  8
LAYER_FEATURE
100
AcDbSpline
 62
7
  6
CONTINUOUS
 70
0
 71
3
 72
37
 73
33
 74
0
 42
0.0000001
 43
0.0000001
 44
0.0000000001
 40
0.0
 40
0.0
 40
0.0
 40
0.0
 40
0.0272320291
 40
0.0549120075
 40
0.0830414253
 40
0.1116199289
 40
0.1700822989
 40
0.1999584494
 40
0.230238706
 40
0.2609033564
 40
0.2919297822
 40
0.3232927246
 40
0.3549645335
 40
0.3869154233
 40
0.4191137308
 40
0.4515261623
 40
0.4841180367
 40
0.5168535254
 40
0.5496958915
 40
0.5826077332
 40
0.6155512192
 40
0.6484883221
 40
0.6813810518
 40
0.7141916921
 40
0.7468830403
 40
0.7794186394
 40
0.8117630236
 40
0.8438819415
 40
0.8757425985
 40
0.9073140581
 40
0.9385667823
 40
1.0
 40
1.0
 40
1.0
 40
1.0
 10
14.7598977893
 20
12.3462323117
 30
0.0
 10
14.7608800096
 20
12.349410778
 30
0.0
 10
14.7630312228
 20
12.3557685412
 30
0.0
 10
14.7667696292
 20
12.3652035343
 30
0.0
 10
14.7710371907
 20
12.3745926563
 30
0.0
 10
14.7774661247
 20
12.3871122509
 30
0.0
 10
14.7848748827
 20
12.3993506039
 30
0.0
 10
14.7931699927
 20
12.4112361687
 30
0.0
 10
14.7999024524
 20
12.420059593
 30
0.0
 10
14.8070835741
 20
12.4287047158
 30
0.0
 10
14.8146963292
 20
12.4371511895
 30
0.0
 10
14.8227223299
 20
12.4453786241
 30
0.0
 10
14.8311422851
 20
12.453367292
 30
0.0
 10
14.8399359275
 20
12.4610980036
 30
0.0
 10
14.8490821046
 20
12.4685521927
 30
0.0
 10
14.8585588177
 20
12.4757119495
 30
0.0
 10
14.8683432767
 20
12.4825600673
 30
0.0
 10
14.8784119528
 20
12.4890800822
 30
0.0
 10
14.8887406272
 20
12.4952563274
 30
0.0
 10
14.8993044586
 20
12.5010739581
 30
0.0
 10
14.9100780431
 20
12.5065189875
 30
0.0
 10
14.9210354738
 20
12.5115783207
 30
0.0
 10
14.9321504042
 20
12.5162397837
 30
0.0
 10
14.9433961061
 20
12.5204921659
 30
0.0
 10
14.954745537
 20
12.5243252416
 30
0.0
 10
14.9661714122
 20
12.5277297887
 30
0.0
 10
14.9776462527
 20
12.5306976086
 30
0.0
 10
14.9891425087
 20
12.5332215483
 30
0.0
 10
15.0006324197
 20
12.5352955215
 30
0.0
 10
15.0120888316
 20
12.536914532
 30
0.0
 10
15.0271929086
 20
12.5384523958
 30
0.0
 10
15.0385221878
 20
12.5389307315
 30
0.0
 10
15.0460271093
 20
12.5389307315
 30
0.0
  0
SPLINE
  5
34F
100
AcDbEntity
  8
LAYER_FEATURE
100
AcDbSpline
 62
7
  6
CONTINUOUS
 70
0
 71
3
 72
72
 73
68
 74
0
 42
0.0000001
 43
0.0000001
 44
0.0000000001
 40
0.0
 40
0.0
 40
0.0
 40
0.0
 40
0.0146663235
 40
0.0219124677
 40
0.0291008564
 40
0.0433088312
 40
0.0573045066
 40
0.0642278994
 40
0.0711038722
 40
0.0847210521
 40
0.0981773775
 40
0.1114948454
 40
0.124697522
 40
0.1378112241
 40
0.1508631595
 40
0.1638815198
 40
0.1768950384
 40
0.1899325273
 40
0.2030224107
 40
0.2161922747
 40
0.229468446
 40
0.24287561
 40
0.2564364972
 40
0.2701716264
 40
0.2840991034
 40
0.298234473
 40
0.3125906508
 40
0.327177896
 40
0.3420038176
 40
0.357073408
 40
0.3723891353
 40
0.3879510437
 40
0.4037568602
 40
0.4198021079
 40
0.4360802557
 40
0.4525828597
 40
0.4692996964
 40
0.486218895
 40
0.5033270945
 40
0.5206095865
 40
0.538050447
 40
0.5556326688
 40
0.57333831
 40
0.5911486279
 40
0.6090442062
 40
0.6270050846
 40
0.6450108979
 40
0.663041003
 40
0.681074603
 40
0.6990908794
 40
0.7170691242
 40
0.734988864
 40
0.7528299871
 40
0.770572881
 40
0.7881985631
 40
0.8056888067
 40
0.8230262742
 40
0.8401946655
 40
0.8571788492
 40
0.8739649943
 40
0.8905407121
 40
0.9068952188
 40
0.9388981258
 40
0.954542286
 40
0.9699405527
 40
0.9850930354
 40
1.0
 40
1.0
 40
1.0
 40
1.0
 10
14.7902059303
 20
12.3768155221
 30
0.0
 10
14.7894328452
 20
12.3743138178
 30
0.0
 10
14.7883751938
 20
12.3705448228
 30
0.0
 10
14.7871773922
 20
12.3654888006
 30
0.0
 10
14.7861364924
 20
12.3604816107
 30
0.0
 10
14.7851105621
 20
12.3542431411
 30
0.0
 10
14.7844525873
 20
12.348002494
 30
0.0
 10
14.7841543673
 20
12.3430484393
 30
0.0
 10
14.7840081099
 20
12.3381552174
 30
0.0
 10
14.7841050252
 20
12.3320906483
 30
0.0
 10
14.7846737505
 20
12.3248971798
 30
0.0
 10
14.785693291
 20
12.317828128
 30
0.0
 10
14.7871613253
 20
12.3109008469
 30
0.0
 10
14.7890743746
 20
12.3041321635
 30
0.0
 10
14.7914278593
 20
12.2975385955
 30
0.0
 10
14.7942161033
 20
12.2911362364
 30
0.0
 10
14.7974323458
 20
12.2849407252
 30
0.0
 10
14.8010687096
 20
12.2789671631
 30
0.0
 10
14.8051162812
 20
12.2732300883
 30
0.0
 10
14.8095651405
 20
12.2677434363
 30
0.0
 10
14.8144043932
 20
12.2625205056
 30
0.0
 10
14.8196221699
 20
12.2575738863
 30
0.0
 10
14.8252057106
 20
12.252915468
 30
0.0
 10
14.8311414025
 20
12.2485564196
 30
0.0
 10
14.8374148133
 20
12.2445071722
 30
0.0
 10
14.8440107019
 20
12.2407773583
 30
0.0
 10
14.8509130893
 20
12.2373758394
 30
0.0
 10
14.8581052935
 20
12.2343106922
 30
0.0
 10
14.8655699618
 20
12.231589196
 30
0.0
 10
14.8732890923
 20
12.2292177734
 30
0.0
 10
14.8812440953
 20
12.2272020242
 30
0.0
 10
14.8894158327
 20
12.2255467128
 30
0.0
 10
14.897784655
 20
12.2242557584
 30
0.0
 10
14.9063304393
 20
12.2233321792
 30
0.0
 10
14.9150326453
 20
12.2227781321
 30
0.0
 10
14.9238703626
 20
12.2225949052
 30
0.0
 10
14.9328223541
 20
12.2227829137
 30
0.0
 10
14.9418671071
 20
12.2233416541
 30
0.0
 10
14.9509828864
 20
12.2242697492
 30
0.0
 10
14.9601477856
 20
12.2255649496
 30
0.0
 10
14.9693397748
 20
12.2272241375
 30
0.0
 10
14.9785367619
 20
12.2292432921
 30
0.0
 10
14.9877166402
 20
12.231617541
 30
0.0
 10
14.9968573412
 20
12.2343411708
 30
0.0
 10
15.0059368842
 20
12.2374076391
 30
0.0
 10
15.0149334431
 20
12.2408095517
 30
0.0
 10
15.0238253881
 20
12.2445387193
 30
0.0
 10
15.0325913367
 20
12.2485861769
 30
0.0
 10
15.0412102025
 20
12.2529422042
 30
0.0
 10
15.0496612655
 20
12.2575963124
 30
0.0
 10
15.0579242053
 20
12.2625373078
 30
0.0
 10
15.0659791482
 20
12.2677533166
 30
0.0
 10
15.0738067132
 20
12.2732318138
 30
0.0
 10
15.081388083
 20
12.2789596199
 30
0.0
 10
15.0887050276
 20
12.2849229679
 30
0.0
 10
15.0957399445
 20
12.2911075341
 30
0.0
 10
15.1024759012
 20
12.2974984753
 30
0.0
 10
15.1088966992
 20
12.3040804247
 30
0.0
 10
15.1149869093
 20
12.310837599
 30
0.0
 10
15.1207318137
 20
12.3177536924
 30
0.0
 10
15.1261177752
 20
12.3248124367
 30
0.0
 10
15.132753853
 20
12.3343208965
 30
0.0
 10
15.1386808761
 20
12.3441115701
 30
0.0
 10
15.1438240122
 20
12.3541272405
 30
0.0
 10
15.1472380742
 20
12.3616385549
 30
0.0
 10
15.1502287849
 20
12.3691865538
 30
0.0
 10
15.1519497679
 20
12.3742727705
 30
0.0
 10
15.1527355376
 20
12.3768155221
 30
0.0
  0
SPLINE
  5
350
100
AcDbEntity
  8
LAYER_CUT_FEAT
100
AcDbSpline
 62
7
  6
CONTINUOUS
 70
0
 71
3
 72
28
 73
24
 74
0
 42
0.0000001
 43
0.0000001
 44
0.0000000001
 40
0.0
 40
0.0
 40
0.0
 40
0.0
 40
0.0696894171
 40
0.1381380473
 40
0.2053812452
 40
0.2714663202
 40
0.3364452313
 40
0.4003773948
 40
0.4633294358
 40
0.5253748187
 40
0.5865938857
 40
0.6470734889
 40
0.7069065559
 40
0.7366137012
 40
0.7661965789
 40
0.7956682558
 40
0.8250420417
 40
0.8543314943
 40
0.8835503566
 40
0.9127125388
 40
0.9418320957
 40
0.9709231754
 40
1.0
 40
1.0
 40
1.0
 40
1.0
 10
16.1947430421
 20
12.2190390771
 30
0.0
 10
16.1976697318
 20
12.2130751106
 30
0.0
 10
16.2032552696
 20
12.2011458832
 30
0.0
 10
16.2108744551
 20
12.1831054566
 30
0.0
 10
16.2176509835
 20
12.1650979811
 30
0.0
 10
16.2235781041
 20
12.1471411132
 30
0.0
 10
16.2286500371
 20
12.129251753
 30
0.0
 10
16.2328617566
 20
12.1114470446
 30
0.0
 10
16.236209055
 20
12.0937439999
 30
0.0
 10
16.2386884991
 20
12.076159591
 30
0.0
 10
16.2402975225
 20
12.0587106201
 30
0.0
 10
16.2410344176
 20
12.0414141912
 30
0.0
 10
16.2409206055
 20
12.0271067033
 30
0.0
 10
16.2403904194
 20
12.0157622311
 30
0.0
 10
16.2397758158
 20
12.0073220744
 30
0.0
 10
16.2389434702
 20
11.9989325797
 30
0.0
 10
16.2378935303
 20
11.9905956981
 30
0.0
 10
16.2366262906
 20
11.9823134459
 30
0.0
 10
16.2351420443
 20
11.9740878056
 30
0.0
 10
16.2334411103
 20
11.9659207682
 30
0.0
 10
16.2315239412
 20
11.9578142646
 30
0.0
 10
16.2293909897
 20
11.9497703249
 30
0.0
 10
16.2278253132
 20
11.9444500754
 30
0.0
 10
16.2270069335
 20
11.9418017978
 30
0.0
  0
SPLINE
  5
351
100
AcDbEntity
  8
02___PRT_ALL_AXES
100
AcDbSpline
 62
7
  6
CONTINUOUS
 70
0
 71
3
 72
35
 73
31
 74
0
 42
0.0000001
 43
0.0000001
 44
0.0000000001
 40
0.0
 40
0.0
 40
0.0
 40
0.0
 40
0.0666440823
 40
0.1326261961
 40
0.1979617068
 40
0.2626702652
 40
0.2948015378
 40
0.3267853017
 40
0.3586249218
 40
0.3903238428
 40
0.4218855836
 40
0.4533136638
 40
0.4846116191
 40
0.5157829254
 40
0.5468310553
 40
0.5777594024
 40
0.6085713299
 40
0.6392701093
 40
0.6698589795
 40
0.7003411051
 40
0.7307196396
 40
0.7609977056
 40
0.7911784533
 40
0.8212650635
 40
0.8512607935
 40
0.8811690047
 40
0.9109932044
 40
0.9407370936
 40
0.9704046136
 40
1.0
 40
1.0
 40
1.0
 40
1.0
 10
15.0310190495
 20
12.5695139419
 30
0.0
 10
15.0356219949
 20
12.5695139419
 30
0.0
 10
15.0447850748
 20
12.5692197257
 30
0.0
 10
15.0584019924
 20
12.5678830968
 30
0.0
 10
15.071767954
 20
12.5656628179
 30
0.0
 10
15.0826774173
 20
12.5630824298
 30
0.0
 10
15.0912208589
 20
12.5605921831
 30
0.0
 10
15.0975173992
 20
12.5585201044
 30
0.0
 10
15.1037107735
 20
12.5562428027
 30
0.0
 10
15.1097948303
 20
12.5537639534
 30
0.0
 10
15.1157634395
 20
12.5510874946
 30
0.0
 10
15.1216106523
 20
12.5482175958
 30
0.0
 10
15.1273306724
 20
12.5451586713
 30
0.0
 10
15.1329178412
 20
12.5419153035
 30
0.0
 10
15.1383666741
 20
12.5384923048
 30
0.0
 10
15.143671806
 20
12.5348946049
 30
0.0
 10
15.1488280504
 20
12.5311273428
 30
0.0
 10
15.1538303207
 20
12.5271957392
 30
0.0
 10
15.1586737069
 20
12.5231052012
 30
0.0
 10
15.1633533817
 20
12.5188611944
 30
0.0
 10
15.1678646885
 20
12.5144693475
 30
0.0
 10
15.1722030399
 20
12.509935334
 30
0.0
 10
15.1763640117
 20
12.5052649708
 30
0.0
 10
15.1803432374
 20
12.5004641128
 30
0.0
 10
15.1841365093
 20
12.4955387458
 30
0.0
 10
15.1877396683
 20
12.4904948888
 30
0.0
 10
15.1911487127
 20
12.4853386926
 30
0.0
 10
15.1943596995
 20
12.4800763091
 30
0.0
 10
15.1973687958
 20
12.4747141335
 30
0.0
 10
15.1992400769
 20
12.4710725534
 30
0.0
 10
15.2001405804
 20
12.4692375157
 30
0.0
  0
ENDSEC
  0
SECTION
  2
OBJECTS
  0
DICTIONARY
  5
C
100
AcDbDictionary
280
0
281
1
  3
ACAD_GROUP
350
D
  3
ACAD_MLINESTYLE
350
17
  3
ACAD_LAYOUT
350
1A
  3
ACAD_PLOTSETTINGS
350
19
  3
ACAD_PLOTSTYLENAME
350
E
  0
DICTIONARY
  5
D
102
{ACAD_REACTORS
330
C
102
}
100
AcDbDictionary
280
0
281
1
  0
ACDBDICTIONARYWDFLT
  5
E
102
{ACAD_REACTORS
330
C
102
}
100
AcDbDictionary
281
1
  3
Normal
350
F
100
AcDbDictionaryWithDefault
340
F
  0
DICTIONARY
  5
17
102
{ACAD_REACTORS
330
C
102
}
100
AcDbDictionary
280
0
281
1
  3
Standard
350
18
  0
DICTIONARY
  5
19
102
{ACAD_REACTORS
330
C
102
}
100
AcDbDictionary
281
1
  0
DICTIONARY
  5
1A
102
{ACAD_REACTORS
330
C
102
}
100
AcDbDictionary
281
1
  3
Model
350
352
  3
Layout1
350
353
  0
ACDBPLACEHOLDER
  5
F
102
{ACAD_REACTORS
330
E
102
}
  0
MLINESTYLE
  5
18
102
{ACAD_REACTORS
330
17
102
}
100
AcDbMlineStyle
  2
STANDARD
 70
0
  3

 62
256
 51
90.0
 52
90.0
 71
2
 49
0.5
 62
256
  6
BYLAYER
 49
-0.5
 62
256
  6
BYLAYER
  0
LAYOUT
  5
352
102
{ACAD_REACTORS
330
1A
102
}
100
AcDbPlotSettings
  1

  2
none_device
  4
ANSI_C_(22.00_x_17.00_Inches)
  6

 40
0.0
 41
0.0
 42
0.0
 43
0.0
 44
558.8
 45
431.8
 46
0.0
 47
0.0
 48
0.0
 49
0.0
140
0.0
141
0.0
142
1.0
143
1.0
 70
1024
 72
0
 73
0
 74
0
  7

 75
0
147
1.0
148
0.0
149
0.0
100
AcDbLayout
  1
Model
 70
0
 71
0
 10
0.0
 20
0.0
 11
22.0
 21
17.0
 12
0.0
 22
0.0
 32
0.0
 14
0.0
 24
0.0
 34
0.0
 15
0.0
 25
0.0
 35
0.0
146
0.0
 13
0.0
 23
0.0
 33
0.0
 16
1.0
 26
0.0
 36
0.0
 17
0.0
 27
1.0
 37
0.0
 76
0
330
222
345
0
346
0
  0
LAYOUT
  5
353
102
{ACAD_REACTORS
330
1A
102
}
100
AcDbPlotSettings
  1

  2
none_device
  4
ANSI_C_(22.00_x_17.00_Inches)
  6

 40
0.0
 41
0.0
 42
0.0
 43
0.0
 44
558.8
 45
431.8
 46
0.0
 47
0.0
 48
0.0
 49
0.0
140
0.0
141
0.0
142
1.0
143
1.0
 70
0
 72
0
 73
0
 74
0
  7

 75
0
147
1.0
148
0.0
149
0.0
100
AcDbLayout
  1
Layout1
 70
0
 71
1
 10
0.0
 20
0.0
 11
22.0
 21
17.0
 12
0.0
 22
0.0
 32
0.0
 14
0.0
 24
0.0
 34
0.0
 15
0.0
 25
0.0
 35
0.0
146
0.0
 13
0.0
 23
0.0
 33
0.0
 16
1.0
 26
0.0
 36
0.0
 17
0.0
 27
1.0
 37
0.0
 76
0
330
223
345
0
346
0
  0
ENDSEC
  0
EOF