999
DXF file: _cgs_temp_output.dxf
999
Pro/ENGINEER 2016360 by Parametric Technology Corporation
  0
SECTION
  2
HEADER
  9
$ACADVER
  1
AC1021
  9
$DWGCODEPAGE
  3
ANSI_1252
  9
$EXTMAX
 10
22.0
 20
17.0
 30
0.0
  9
$EXTMIN
 10
0.0
 20
0.0
 30
0.0
  9
$LIMMIN
 10
0.0
 20
0.0
  9
$LIMMAX
 10
22.0
 20
17.0
  9
$VIEWCTR
 10
11.0
 20
8.5
  9
$VIEWSIZE
 40
17.0
  9
$CLAYER
  8
0
  9
$LTSCALE
 40
1.21
  9
$CELTYPE
  6
BYLAYER
  9
$DIMSCALE
 40
1.0
  9
$DIMASZ
 40
0.1875
  9
$DIMEXO
 40
0.0625
  9
$DIMDLI
 40
0.836
  9
$DIMEXE
 40
0.125
  9
$DIMCEN
 40
0.198
  9
$DIMLFAC
 40
1.0
  9
$DIMBLK
  1
_CLOSED
  9
$DIMALT
 70
0
  9
$DIMALTF
 40
25.4
  9
$DIMTXT
 40
0.15625
  9
$DIMTOL
 70
0
  9
$DIMLIM
 70
0
  9
$DIMTFAC
 40
1.0
  9
$DIMGAP
 40
0.09
  9
$DIMDSEP
 70
46
  9
$AUNITS
 70
0
  9
$PDMODE
 70
3
  9
$PDSIZE
 40
0.3125
  9
$HANDSEED
  5
348
  9
$TILEMODE
 70
1
  9
$MEASUREMENT
 70
0
  9
$INSUNITS
 70
1
  0
ENDSEC
  0
SECTION
  2
CLASSES
  0
CLASS
  1
ACDBDICTIONARYWDFLT
  2
AcDbDictionaryWithDefault
  3
AutoCAD 2000
 90
0
 91
1
280
0
281
0
  0
CLASS
  1
ACDBPLACEHOLDER
  2
AcDbPlaceHolder
  3
AutoCAD 2000
 90
0
 91
1
280
0
281
0
  0
CLASS
  1
LAYOUT
  2
AcDbLayout
  3
AutoCAD 2000
 90
0
 91
0
280
0
281
0
  0
ENDSEC
  0
SECTION
  2
TABLES
  0
TABLE
  2
VPORT
  5
8
100
AcDbSymbolTable
 70
2
  0
VPORT
  5
1F4
100
AcDbSymbolTableRecord
100
AcDbViewportTableRecord
  2
*ACTIVE
 70
0
 10
0.0
 20
0.0
 11
1.0
 21
1.0
 12
11.0
 22
8.5
 13
0.0
 23
0.0
 14
1.0
 24
1.0
 15
0.0
 25
0.0
 16
0.0
 26
0.0
 36
1.0
 17
0.0
 27
0.0
 37
0.0
 40
17.0
 41
1.2941176471
 42
50.0
 43
0.0
 44
0.0
 50
0.0
 51
0.0
 71
0
 72
100
 73
1
 74
1
 75
0
 76
0
 77
0
 78
0
  0
ENDTAB
  0
TABLE
  2
LTYPE
  5
5
100
AcDbSymbolTable
 70
6
  0
LTYPE
  5
14
100
AcDbSymbolTableRecord
100
AcDbLinetypeTableRecord
  2
BYBLOCK
 70
0
  3

 72
65
 73
0
 40
0.0
  0
LTYPE
  5
15
100
AcDbSymbolTableRecord
100
AcDbLinetypeTableRecord
  2
BYLAYER
 70
0
  3

 72
65
 73
0
 40
0.0
  0
LTYPE
  5
16
100
AcDbSymbolTableRecord
100
AcDbLinetypeTableRecord
  2
CONTINUOUS
 70
64
  3
Solid line
 72
65
 73
0
 40
0.0
  0
LTYPE
  5
1F5
100
AcDbSymbolTableRecord
100
AcDbLinetypeTableRecord
  2
CENTER
 70
64
  3
____ _ ____ _ ____ _ ____ _ ____ _ ____ _ ____
 72
65
 73
4
 40
0.6
 49
0.375
 74
0
 49
-0.075
 74
0
 49
0.075
 74
0
 49
-0.075
 74
0
  0
LTYPE
  5
1F6
100
AcDbSymbolTableRecord
100
AcDbLinetypeTableRecord
  2
HIDDEN
 70
64
  3
- - - - - - - - - - - - - - - - - - - -
 72
65
 73
2
 40
0.2
 49
0.1
 74
0
 49
-0.1
 74
0
  0
LTYPE
  5
1F7
100
AcDbSymbolTableRecord
100
AcDbLinetypeTableRecord
  2
PHANTOM
 70
64
  3
_____ _ _ _____ _ _ _____ _ _ _____
 72
65
 73
6
 40
0.8
 49
0.45
 74
0
 49
-0.05
 74
0
 49
0.1
 74
0
 49
-0.05
 74
0
 49
0.1
 74
0
 49
-0.05
 74
0
  0
LTYPE
  5
1F8
100
AcDbSymbolTableRecord
100
AcDbLinetypeTableRecord
  2
DOT
 70
64
  3
. . . . . . . . . . . . . . . . . . . .
 72
65
 73
2
 40
0.2
 49
0.1
 74
0
 49
-0.1
 74
0
  0
LTYPE
  5
1F9
100
AcDbSymbolTableRecord
100
AcDbLinetypeTableRecord
  2
DASHED
 70
64
  3
- - - - - - - - - - - - - - - - - - - -
 72
65
 73
2
 40
0.2
 49
0.1
 74
0
 49
-0.1
 74
0
  0
ENDTAB
  0
TABLE
  2
LAYER
  5
2
100
AcDbSymbolTable
 70
36
  0
LAYER
  5
10
100
AcDbSymbolTableRecord
100
AcDbLayerTableRecord
  2
0
 70
0
 62
7
  6
CONTINUOUS
370
-3
390
F
  0
LAYER
  5
1FA
100
AcDbSymbolTableRecord
100
AcDbLayerTableRecord
  2
DEFAULT_1
 70
0
 62
7
  6
CENTER
370
-3
390
F
  0
LAYER
  5
1FB
100
AcDbSymbolTableRecord
100
AcDbLayerTableRecord
  2
DEFAULT_2
 70
0
 62
8
  6
HIDDEN
370
-3
390
F
  0
LAYER
  5
1FC
100
AcDbSymbolTableRecord
100
AcDbLayerTableRecord
  2
DEFAULT_3
 70
0
 62
7
  6
PHANTOM
370
-3
390
F
  0
LAYER
  5
1FD
100
AcDbSymbolTableRecord
100
AcDbLayerTableRecord
  2
01_ALL_DTM_PLN
 70
0
 62
7
  6
CONTINUOUS
370
-3
390
F
  0
LAYER
  5
1FE
100
AcDbSymbolTableRecord
100
AcDbLayerTableRecord
  2
01__ASM_ALL_DTM_PLN
 70
0
 62
7
  6
CONTINUOUS
370
-3
390
F
  0
LAYER
  5
1FF
100
AcDbSymbolTableRecord
100
AcDbLayerTableRecord
  2
01__ASM_DEF_DTM_PLN
 70
0
 62
7
  6
CONTINUOUS
370
-3
390
F
  0
LAYER
  5
200
100
AcDbSymbolTableRecord
100
AcDbLayerTableRecord
  2
01___PRT_ALL_DTM_PLN
 70
0
 62
7
  6
CONTINUOUS
370
-3
390
F
  0
LAYER
  5
201
100
AcDbSymbolTableRecord
100
AcDbLayerTableRecord
  2
01___PRT_DEF_DTM_PLN
 70
0
 62
7
  6
CONTINUOUS
370
-3
390
F
  0
LAYER
  5
202
100
AcDbSymbolTableRecord
100
AcDbLayerTableRecord
  2
02_ALL_AXES
 70
0
 62
7
  6
CONTINUOUS
370
-3
390
F
  0
LAYER
  5
203
100
AcDbSymbolTableRecord
100
AcDbLayerTableRecord
  2
02__ASM_ALL_AXES
 70
0
 62
7
  6
CONTINUOUS
370
-3
390
F
  0
LAYER
  5
204
100
AcDbSymbolTableRecord
100
AcDbLayerTableRecord
  2
02___PRT_ALL_AXES
 70
0
 62
7
  6
CONTINUOUS
370
-3
390
F
  0
LAYER
  5
205
100
AcDbSymbolTableRecord
100
AcDbLayerTableRecord
  2
03_ALL_CURVES
 70
0
 62
7
  6
CONTINUOUS
370
-3
390
F
  0
LAYER
  5
206
100
AcDbSymbolTableRecord
100
AcDbLayerTableRecord
  2
03__ASM_ALL_CURVES
 70
0
 62
7
  6
CONTINUOUS
370
-3
390
F
  0
LAYER
  5
207
100
AcDbSymbolTableRecord
100
AcDbLayerTableRecord
  2
03___PRT_ALL_CURVES
 70
0
 62
7
  6
CONTINUOUS
370
-3
390
F
  0
LAYER
  5
208
100
AcDbSymbolTableRecord
100
AcDbLayerTableRecord
  2
04_ALL_DTM_PNT
 70
0
 62
7
  6
CONTINUOUS
370
-3
390
F
  0
LAYER
  5
209
100
AcDbSymbolTableRecord
100
AcDbLayerTableRecord
  2
04__ASM_ALL_DTM_PNT
 70
0
 62
7
  6
CONTINUOUS
370
-3
390
F
  0
LAYER
  5
20A
100
AcDbSymbolTableRecord
100
AcDbLayerTableRecord
  2
04___PRT_ALL_DTM_PNT
 70
0
 62
7
  6
CONTINUOUS
370
-3
390
F
  0
LAYER
  5
20B
100
AcDbSymbolTableRecord
100
AcDbLayerTableRecord
  2
05_ALL_DTM_CSYS
 70
0
 62
7
  6
CONTINUOUS
370
-3
390
F
  0
LAYER
  5
20C
100
AcDbSymbolTableRecord
100
AcDbLayerTableRecord
  2
05__ASM_ALL_DTM_CSYS
 70
0
 62
7
  6
CONTINUOUS
370
-3
390
F
  0
LAYER
  5
20D
100
AcDbSymbolTableRecord
100
AcDbLayerTableRecord
  2
05__ASM_DEF_DTM_CSYS
 70
0
 62
7
  6
CONTINUOUS
370
-3
390
F
  0
LAYER
  5
20E
100
AcDbSymbolTableRecord
100
AcDbLayerTableRecord
  2
05___PRT_ALL_DTM_CSYS
 70
0
 62
7
  6
CONTINUOUS
370
-3
390
F
  0
LAYER
  5
20F
100
AcDbSymbolTableRecord
100
AcDbLayerTableRecord
  2
05___PRT_DEF_DTM_CSYS
 70
0
 62
7
  6
CONTINUOUS
370
-3
390
F
  0
LAYER
  5
210
100
AcDbSymbolTableRecord
100
AcDbLayerTableRecord
  2
06_ALL_SURFS
 70
0
 62
7
  6
CONTINUOUS
370
-3
390
F
  0
LAYER
  5
211
100
AcDbSymbolTableRecord
100
AcDbLayerTableRecord
  2
06__ASM_ALL_SURFS
 70
0
 62
7
  6
CONTINUOUS
370
-3
390
F
  0
LAYER
  5
212
100
AcDbSymbolTableRecord
100
AcDbLayerTableRecord
  2
06___PRT_ALL_SURFS
 70
0
 62
7
  6
CONTINUOUS
370
-3
390
F
  0
LAYER
  5
213
100
AcDbSymbolTableRecord
100
AcDbLayerTableRecord
  2
07__ASM_ALL_SKELETONS
 70
0
 62
7
  6
CONTINUOUS
370
-3
390
F
  0
LAYER
  5
214
100
AcDbSymbolTableRecord
100
AcDbLayerTableRecord
  2
LAYER_AXIS
 70
0
 62
7
  6
CONTINUOUS
370
-3
390
F
  0
LAYER
  5
215
100
AcDbSymbolTableRecord
100
AcDbLayerTableRecord
  2
LAYER_CHAMFER_FEAT
 70
0
 62
7
  6
CONTINUOUS
370
-3
390
F
  0
LAYER
  5
216
100
AcDbSymbolTableRecord
100
AcDbLayerTableRecord
  2
LAYER_CUT_FEAT
 70
0
 62
7
  6
CONTINUOUS
370
-3
390
F
  0
LAYER
  5
217
100
AcDbSymbolTableRecord
100
AcDbLayerTableRecord
  2
LAYER_DATUM
 70
0
 62
7
  6
CONTINUOUS
370
-3
390
F
  0
LAYER
  5
218
100
AcDbSymbolTableRecord
100
AcDbLayerTableRecord
  2
LAYER_DIM
 70
0
 62
7
  6
CONTINUOUS
370
-3
390
F
  0
LAYER
  5
219
100
AcDbSymbolTableRecord
100
AcDbLayerTableRecord
  2
LAYER_FEATURE
 70
0
 62
7
  6
CONTINUOUS
370
-3
390
F
  0
LAYER
  5
21A
100
AcDbSymbolTableRecord
100
AcDbLayerTableRecord
  2
LAYER_GEOM_FEAT
 70
0
 62
7
  6
CONTINUOUS
370
-3
390
F
  0
LAYER
  5
21B
100
AcDbSymbolTableRecord
100
AcDbLayerTableRecord
  2
LAYER_NOGEOM_FEAT
 70
0
 62
7
  6
CONTINUOUS
370
-3
390
F
  0
LAYER
  5
21C
100
AcDbSymbolTableRecord
100
AcDbLayerTableRecord
  2
LAYER_PARAMETER_DIM
 70
0
 62
7
  6
CONTINUOUS
370
-3
390
F
  0
LAYER
  5
21D
100
AcDbSymbolTableRecord
100
AcDbLayerTableRecord
  2
LAYER_PROTRUSION_FEAT
 70
0
 62
7
  6
CONTINUOUS
370
-3
390
F
  0
LAYER
  5
21E
100
AcDbSymbolTableRecord
100
AcDbLayerTableRecord
  2
LAYER_QUILT
 70
0
 62
7
  6
CONTINUOUS
370
-3
390
F
  0
LAYER
  5
21F
100
AcDbSymbolTableRecord
100
AcDbLayerTableRecord
  2
LAYER_ROUND_FEAT
 70
0
 62
7
  6
CONTINUOUS
370
-3
390
F
  0
ENDTAB
  0
TABLE
  2
STYLE
  5
3
100
AcDbSymbolTable
 70
1
  0
STYLE
  5
11
100
AcDbSymbolTableRecord
100
AcDbTextStyleTableRecord
  2
STANDARD
 70
0
 40
0.0
 41
0.8
 50
0.0
 71
0
 42
0.2
  3
txt
  4

  0
STYLE
  5
220
100
AcDbSymbolTableRecord
100
AcDbTextStyleTableRecord
  2
TEXTSTYLE_1
 70
0
 40
0.0
 41
0.8
 50
0.0
 71
0
 42
0.2
  3
gdt
  4

  0
ENDTAB
  0
TABLE
  2
VIEW
  5
6
100
AcDbSymbolTable
 70
0
  0
ENDTAB
  0
TABLE
  2
UCS
  5
7
100
AcDbSymbolTable
 70
0
  0
ENDTAB
  0
TABLE
  2
APPID
  5
9
100
AcDbSymbolTable
 70
1
  0
APPID
  5
221
100
AcDbSymbolTableRecord
100
AcDbRegAppTableRecord
  2
ACAD
 70
0
  0
ENDTAB
  0
TABLE
  2
BLOCK_RECORD
  5
1
100
AcDbSymbolTable
 70
0
  0
BLOCK_RECORD
  5
222
100
AcDbSymbolTableRecord
100
AcDbBlockTableRecord
  2
*Model_Space
  0
BLOCK_RECORD
  5
223
100
AcDbSymbolTableRecord
100
AcDbBlockTableRecord
  2
*Paper_Space
  0
ENDTAB
  0
TABLE
  2
DIMSTYLE
  5
A
100
AcDbSymbolTable
 70
1
100
AcDbDimStyleTable
 71
0
  0
DIMSTYLE
105
224
100
AcDbSymbolTableRecord
100
AcDbDimStyleTableRecord
  2
STANDARD
 70
0
  3

  4

 40
1.0
 41
0.1875
 42
0.0625
 43
0.38
 44
0.125
 45
0.0
 46
0.0
 47
0.0001
 48
0.0001
140
0.15625
141
0.09
142
0.0
143
25.4
144
1.0
145
0.0
146
1.0
147
0.09
 71
0.0
 72
0.0
 73
1
 74
1
 75
0
 76
0
 77
0
 78
4
 79
1
170
0
171
3
172
0
173
0
174
0
175
0
176
0
177
0
178
0
270
2
179
4
271
4
272
4
273
2
274
2
275
0
280
0
281
0
282
0
283
1
284
4
285
0
286
0
287
3
288
0
340
11
278
46
  0
ENDTAB
  0
ENDSEC
  0
SECTION
  2
BLOCKS
  0
BLOCK
  5
20
100
AcDbEntity
  8
0
100
AcDbBlockBegin
  2
*Model_Space
 70
0
 10
0.0
 20
0.0
 30
0.0
  3
*Model_Space
  1

  0
ENDBLK
  5
21
100
AcDbEntity
  8
0
100
AcDbBlockEnd
  0
BLOCK
  5
1C
100
AcDbEntity
  8
0
100
AcDbBlockBegin
  2
*Paper_Space
 70
0
 10
0.0
 20
0.0
 30
0.0
  3
*Paper_Space
  1

  0
ENDBLK
  5
1D
100
AcDbEntity
  8
0
100
AcDbBlockEnd
  0
ENDSEC
  0
SECTION
  2
ENTITIES
  0
MTEXT
  5
225
100
AcDbEntity
  8
0
100
AcDbMText
 62
7
  6
CONTINUOUS
  7
STANDARD
 71
1
 72
1
 10
15.9560215477
 20
0.9479130325
 30
0.0
 11
1.0
 21
0.0
 31
0.0
 44
0.9
  1
SCALE: 1:1.000
 40
0.3
 41
3.36
  0
LINE
  5
226
100
AcDbEntity
  8
0
100
AcDbLine
 62
7
  6
CONTINUOUS
 10
0.0
 20
0.0
 11
0.0
 21
17.0
  0
LINE
  5
227
100
AcDbEntity
  8
0
100
AcDbLine
 62
7
  6
CONTINUOUS
 10
0.0
 20
0.0
 11
22.0
 21
0.0
  0
LINE
  5
228
100
AcDbEntity
  8
0
100
AcDbLine
 62
7
  6
CONTINUOUS
 10
0.0
 20
17.0
 11
22.0
 21
17.0
  0
LINE
  5
229
100
AcDbEntity
  8
0
100
AcDbLine
 62
7
  6
CONTINUOUS
 10
22.0
 20
0.0
 11
22.0
 21
17.0
  0
LINE
  5
22A
100
AcDbEntity
  8
LAYER_FEATURE
100
AcDbLine
 62
7
  6
CONTINUOUS
 10
6.0647672762
 20
6.1141198968
 11
6.0606212908
 21
6.1099739114
  0
LINE
  5
22B
100
AcDbEntity
  8
LAYER_FEATURE
100
AcDbLine
 62
7
  6
CONTINUOUS
 10
6.7243672762
 20
5.4545198968
 11
6.7202212908
 21
5.4503739114
  0
LINE
  5
22C
100
AcDbEntity
  8
LAYER_FEATURE
100
AcDbLine
 62
7
  6
CONTINUOUS
 10
6.1959672762
 20
6.1141198968
 11
6.2001132615
 21
6.1099739114
  0
LINE
  5
22D
100
AcDbEntity
  8
LAYER_FEATURE
100
AcDbLine
 62
7
  6
CONTINUOUS
 10
6.7243672762
 20
5.5857198968
 11
6.7202212908
 21
5.5898658821
  0
LINE
  5
22E
100
AcDbEntity
  8
LAYER_FEATURE
100
AcDbLine
 62
7
  6
CONTINUOUS
 10
6.7243672762
 20
5.5857198968
 11
6.7243672762
 21
5.4545198968
  0
LINE
  5
22F
100
AcDbEntity
  8
LAYER_FEATURE
100
AcDbLine
 62
7
  6
CONTINUOUS
 10
6.0647672762
 20
6.1141198968
 11
6.1959672762
 21
6.1141198968
  0
LINE
  5
230
100
AcDbEntity
  8
LAYER_FEATURE
100
AcDbLine
 62
7
  6
CONTINUOUS
 10
5.0708720839
 20
12.4900477814
 11
5.0708720839
 21
12.5300477814
  0
LINE
  5
231
100
AcDbEntity
  8
LAYER_FEATURE
100
AcDbLine
 62
7
  6
CONTINUOUS
 10
5.0708720839
 20
13.0130477814
 11
5.0708720839
 21
13.0530477814
  0
LINE
  5
232
100
AcDbEntity
  8
0
100
AcDbLine
 62
7
  6
CONTINUOUS
 10
5.1918235156
 20
12.9865477814
 11
5.1918235156
 21
12.5565477814
  0
LINE
  5
233
100
AcDbEntity
  8
0
100
AcDbLine
 62
7
  6
CONTINUOUS
 10
5.2276792754
 20
12.9865477814
 11
5.2276792754
 21
12.5565477814
  0
LINE
  5
234
100
AcDbEntity
  8
0
100
AcDbLine
 62
7
  6
CONTINUOUS
 10
5.3046127833
 20
12.9865477814
 11
5.3046127833
 21
12.5565477814
  0
LINE
  5
235
100
AcDbEntity
  8
0
100
AcDbLine
 62
7
  6
CONTINUOUS
 10
5.4187662719
 20
12.9865477814
 11
5.4187662719
 21
12.5565477814
  0
LINE
  5
236
100
AcDbEntity
  8
02___PRT_ALL_AXES
100
AcDbLine
 62
7
  6
CONTINUOUS
 10
5.4768720839
 20
12.1470477814
 11
5.4768720839
 21
12.4900477814
  0
LINE
  5
237
100
AcDbEntity
  8
0
100
AcDbLine
 62
7
  6
CONTINUOUS
 10
5.5644156087
 20
12.9865477814
 11
5.5644156087
 21
12.5565477814
  0
LINE
  5
238
100
AcDbEntity
  8
02___PRT_ALL_AXES
100
AcDbLine
 62
7
  6
CONTINUOUS
 10
5.4768720839
 20
12.1470477814
 11
6.6648720839
 21
12.1470477814
  0
LINE
  5
239
100
AcDbEntity
  8
0
100
AcDbLine
 62
7
  6
CONTINUOUS
 10
5.7342573277
 20
12.9865477814
 11
5.7342573277
 21
12.5565477814
  0
LINE
  5
23A
100
AcDbEntity
  8
LAYER_CUT_FEAT
100
AcDbLine
 62
7
  6
CONTINUOUS
 10
6.0472007228
 20
12.2775477814
 11
6.0945434449
 21
12.2775477814
  0
LINE
  5
23B
100
AcDbEntity
  8
LAYER_FEATURE
100
AcDbLine
 62
7
  6
CONTINUOUS
 10
5.0708720839
 20
12.5300477814
 11
5.1226310572
 21
12.548335952
  0
LINE
  5
23C
100
AcDbEntity
  8
LAYER_CUT_FEAT
100
AcDbLine
 62
7
  6
CONTINUOUS
 10
6.0945434449
 20
12.3595477814
 11
6.0472007228
 21
12.3595477814
  0
LINE
  5
23D
100
AcDbEntity
  8
LAYER_CUT_FEAT
100
AcDbLine
 62
7
  6
CONTINUOUS
 10
6.0235293618
 20
12.3185477814
 11
6.0472007228
 21
12.2775477814
  0
LINE
  5
23E
100
AcDbEntity
  8
LAYER_FEATURE
100
AcDbLine
 62
7
  6
CONTINUOUS
 10
5.0708720839
 20
12.4900477814
 11
7.0708720839
 21
12.4900477814
  0
LINE
  5
23F
100
AcDbEntity
  8
LAYER_FEATURE
100
AcDbLine
 62
7
  6
CONTINUOUS
 10
5.0708720839
 20
12.5300477814
 11
7.0708720839
 21
12.5300477814
  0
LINE
  5
240
100
AcDbEntity
  8
LAYER_CUT_FEAT
100
AcDbLine
 62
7
  6
CONTINUOUS
 10
6.1182148059
 20
12.3185477814
 11
6.0945434449
 21
12.3595477814
  0
LINE
  5
241
100
AcDbEntity
  8
LAYER_FEATURE
100
AcDbLine
 62
7
  6
CONTINUOUS
 10
7.0191131105
 20
12.9947596108
 11
7.0708720839
 21
13.0130477814
  0
LINE
  5
242
100
AcDbEntity
  8
LAYER_FEATURE
100
AcDbLine
 62
7
  6
CONTINUOUS
 10
6.9712228983
 20
12.5565477814
 11
5.1705212694
 21
12.5565477814
  0
LINE
  5
243
100
AcDbEntity
  8
LAYER_FEATURE
100
AcDbLine
 62
7
  6
CONTINUOUS
 10
5.1226310572
 20
12.9947596108
 11
5.0708720839
 21
13.0130477814
  0
LINE
  5
244
100
AcDbEntity
  8
LAYER_CUT_FEAT
100
AcDbLine
 62
7
  6
CONTINUOUS
 10
6.0472007228
 20
12.3595477814
 11
6.0235293618
 21
12.3185477814
  0
LINE
  5
245
100
AcDbEntity
  8
LAYER_CUT_FEAT
100
AcDbLine
 62
7
  6
CONTINUOUS
 10
6.0945434449
 20
12.2775477814
 11
6.1182148059
 21
12.3185477814
  0
LINE
  5
246
100
AcDbEntity
  8
LAYER_FEATURE
100
AcDbLine
 62
7
  6
CONTINUOUS
 10
7.0708720839
 20
12.5300477814
 11
7.0191131105
 21
12.548335952
  0
LINE
  5
247
100
AcDbEntity
  8
LAYER_FEATURE
100
AcDbLine
 62
7
  6
CONTINUOUS
 10
6.6630380208
 20
12.3859818444
 11
6.6648720839
 21
12.3841477814
  0
LINE
  5
248
100
AcDbEntity
  8
LAYER_CUT_FEAT
100
AcDbLine
 62
7
  6
CONTINUOUS
 10
6.40748684
 20
12.9865477814
 11
6.40748684
 21
12.5565477814
  0
LINE
  5
249
100
AcDbEntity
  8
LAYER_FEATURE
100
AcDbLine
 62
7
  6
CONTINUOUS
 10
6.9712228983
 20
12.9865477814
 11
5.1705212694
 21
12.9865477814
  0
LINE
  5
24A
100
AcDbEntity
  8
LAYER_FEATURE
100
AcDbLine
 62
7
  6
CONTINUOUS
 10
5.0708720839
 20
13.0130477814
 11
7.0708720839
 21
13.0130477814
  0
LINE
  5
24B
100
AcDbEntity
  8
LAYER_CUT_FEAT
100
AcDbLine
 62
7
  6
CONTINUOUS
 10
6.577328559
 20
12.9865477814
 11
6.577328559
 21
12.5565477814
  0
LINE
  5
24C
100
AcDbEntity
  8
LAYER_FEATURE
100
AcDbLine
 62
7
  6
CONTINUOUS
 10
5.0708720839
 20
13.0530477814
 11
7.0708720839
 21
13.0530477814
  0
LINE
  5
24D
100
AcDbEntity
  8
02___PRT_ALL_AXES
100
AcDbLine
 62
7
  6
CONTINUOUS
 10
6.6648720839
 20
12.1470477814
 11
6.6648720839
 21
12.2365477814
  0
LINE
  5
24E
100
AcDbEntity
  8
LAYER_FEATURE
100
AcDbLine
 62
7
  6
CONTINUOUS
 10
6.6648720839
 20
12.2529478461
 11
6.6648720839
 21
12.3841477167
  0
LINE
  5
24F
100
AcDbEntity
  8
02___PRT_ALL_AXES
100
AcDbLine
 62
7
  6
CONTINUOUS
 10
6.6648720839
 20
12.4005477814
 11
6.6648720839
 21
12.4900477814
  0
LINE
  5
250
100
AcDbEntity
  8
LAYER_CUT_FEAT
100
AcDbLine
 62
7
  6
CONTINUOUS
 10
6.7229778958
 20
12.9865477814
 11
6.7229778958
 21
12.5565477814
  0
LINE
  5
251
100
AcDbEntity
  8
LAYER_FEATURE
100
AcDbLine
 62
7
  6
CONTINUOUS
 10
6.6630380204
 20
12.2511137179
 11
6.6648720839
 21
12.2529477814
  0
LINE
  5
252
100
AcDbEntity
  8
LAYER_CUT_FEAT
100
AcDbLine
 62
7
  6
CONTINUOUS
 10
6.8371313844
 20
12.9865477814
 11
6.8371313844
 21
12.5565477814
  0
LINE
  5
253
100
AcDbEntity
  8
LAYER_CUT_FEAT
100
AcDbLine
 62
7
  6
CONTINUOUS
 10
6.9140648923
 20
12.9865477814
 11
6.9140648923
 21
12.5565477814
  0
LINE
  5
254
100
AcDbEntity
  8
LAYER_CUT_FEAT
100
AcDbLine
 62
7
  6
CONTINUOUS
 10
6.9499206522
 20
12.9865477814
 11
6.9499206522
 21
12.5565477814
  0
LINE
  5
255
100
AcDbEntity
  8
LAYER_FEATURE
100
AcDbLine
 62
7
  6
CONTINUOUS
 10
7.0708720839
 20
12.4900477814
 11
7.0708720839
 21
12.5300477814
  0
LINE
  5
256
100
AcDbEntity
  8
LAYER_FEATURE
100
AcDbLine
 62
7
  6
CONTINUOUS
 10
7.0708720839
 20
13.0130477814
 11
7.0708720839
 21
13.0530477814
  0
LINE
  5
257
100
AcDbEntity
  8
LAYER_FEATURE
100
AcDbLine
 62
7
  6
CONTINUOUS
 10
16.0133552569
 20
4.4606247044
 11
15.9733552569
 21
4.4606247044
  0
LINE
  5
258
100
AcDbEntity
  8
LAYER_FEATURE
100
AcDbLine
 62
7
  6
CONTINUOUS
 10
15.4903552569
 20
4.4606247044
 11
15.4503552569
 21
4.4606247044
  0
LINE
  5
259
100
AcDbEntity
  8
LAYER_CUT_FEAT
100
AcDbLine
 62
7
  6
CONTINUOUS
 10
15.9468552569
 20
4.5815761361
 11
15.5168552569
 21
4.5815761361
  0
LINE
  5
25A
100
AcDbEntity
  8
LAYER_CUT_FEAT
100
AcDbLine
 62
7
  6
CONTINUOUS
 10
15.9468552569
 20
4.617431896
 11
15.5168552569
 21
4.617431896
  0
LINE
  5
25B
100
AcDbEntity
  8
LAYER_CUT_FEAT
100
AcDbLine
 62
7
  6
CONTINUOUS
 10
15.9468552569
 20
4.6943654039
 11
15.5168552569
 21
4.6943654039
  0
LINE
  5
25C
100
AcDbEntity
  8
LAYER_FEATURE
100
AcDbLine
 62
7
  6
CONTINUOUS
 10
15.2114224127
 20
6.0527918602
 11
15.2132552569
 21
6.0546247044
  0
LINE
  5
25D
100
AcDbEntity
  8
LAYER_CUT_FEAT
100
AcDbLine
 62
7
  6
CONTINUOUS
 10
15.9468552569
 20
4.8085188925
 11
15.5168552569
 21
4.8085188925
  0
LINE
  5
25E
100
AcDbEntity
  8
02___PRT_ALL_AXES
100
AcDbLine
 62
7
  6
CONTINUOUS
 10
15.4503552569
 20
4.8666247044
 11
15.1073552569
 21
4.8666247044
  0
LINE
  5
25F
100
AcDbEntity
  8
LAYER_CUT_FEAT
100
AcDbLine
 62
7
  6
CONTINUOUS
 10
15.9468552569
 20
4.9541682293
 11
15.5168552569
 21
4.9541682293
  0
LINE
  5
260
100
AcDbEntity
  8
02___PRT_ALL_AXES
100
AcDbLine
 62
7
  6
CONTINUOUS
 10
15.1073552569
 20
6.0546247044
 11
15.1073552569
 21
4.8666247044
  0
LINE
  5
261
100
AcDbEntity
  8
LAYER_CUT_FEAT
100
AcDbLine
 62
7
  6
CONTINUOUS
 10
15.2378552569
 20
5.4842960655
 11
15.2378552569
 21
5.4369533434
  0
LINE
  5
262
100
AcDbEntity
  8
LAYER_CUT_FEAT
100
AcDbLine
 62
7
  6
CONTINUOUS
 10
15.9468552569
 20
5.1240099483
 11
15.5168552569
 21
5.1240099483
  0
LINE
  5
263
100
AcDbEntity
  8
LAYER_CUT_FEAT
100
AcDbLine
 62
7
  6
CONTINUOUS
 10
15.3198552569
 20
5.4369533434
 11
15.3198552569
 21
5.4842960655
  0
LINE
  5
264
100
AcDbEntity
  8
LAYER_CUT_FEAT
100
AcDbLine
 62
7
  6
CONTINUOUS
 10
15.2788552569
 20
5.5079674265
 11
15.2378552569
 21
5.4842960655
  0
LINE
  5
265
100
AcDbEntity
  8
LAYER_CUT_FEAT
100
AcDbLine
 62
7
  6
CONTINUOUS
 10
15.2378552569
 20
5.4369533434
 11
15.2788552569
 21
5.4132819824
  0
LINE
  5
266
100
AcDbEntity
  8
LAYER_FEATURE
100
AcDbLine
 62
7
  6
CONTINUOUS
 10
15.4503552569
 20
6.4606247044
 11
15.4503552569
 21
4.4606247044
  0
LINE
  5
267
100
AcDbEntity
  8
LAYER_FEATURE
100
AcDbLine
 62
7
  6
CONTINUOUS
 10
15.4903552569
 20
6.4606247044
 11
15.4903552569
 21
4.4606247044
  0
LINE
  5
268
100
AcDbEntity
  8
LAYER_CUT_FEAT
100
AcDbLine
 62
7
  6
CONTINUOUS
 10
15.2788552569
 20
5.4132819824
 11
15.3198552569
 21
5.4369533434
  0
LINE
  5
269
100
AcDbEntity
  8
LAYER_CUT_FEAT
100
AcDbLine
 62
7
  6
CONTINUOUS
 10
15.3198552569
 20
5.4842960655
 11
15.2788552569
 21
5.5079674265
  0
LINE
  5
26A
100
AcDbEntity
  8
LAYER_FEATURE
100
AcDbLine
 62
7
  6
CONTINUOUS
 10
15.5168552569
 20
4.5602738314
 11
15.5168552569
 21
6.3609755775
  0
LINE
  5
26B
100
AcDbEntity
  8
LAYER_FEATURE
100
AcDbLine
 62
7
  6
CONTINUOUS
 10
15.9733552569
 20
6.4606247044
 11
15.9550670863
 21
6.4088657311
  0
LINE
  5
26C
100
AcDbEntity
  8
LAYER_FEATURE
100
AcDbLine
 62
7
  6
CONTINUOUS
 10
15.9733552569
 20
4.4606247044
 11
15.9550670863
 21
4.5123836778
  0
LINE
  5
26D
100
AcDbEntity
  8
LAYER_FEATURE
100
AcDbLine
 62
7
  6
CONTINUOUS
 10
15.5086434275
 20
4.5123836778
 11
15.4903552569
 21
4.4606247044
  0
LINE
  5
26E
100
AcDbEntity
  8
LAYER_FEATURE
100
AcDbLine
 62
7
  6
CONTINUOUS
 10
15.3462881011
 20
6.0527918603
 11
15.3444552569
 21
6.0546247044
  0
LINE
  5
26F
100
AcDbEntity
  8
LAYER_FEATURE
100
AcDbLine
 62
7
  6
CONTINUOUS
 10
15.5086434275
 20
6.4088657311
 11
15.4903552569
 21
6.4606247044
  0
LINE
  5
270
100
AcDbEntity
  8
LAYER_CUT_FEAT
100
AcDbLine
 62
7
  6
CONTINUOUS
 10
15.9468552569
 20
5.7972394606
 11
15.5168552569
 21
5.7972394606
  0
LINE
  5
271
100
AcDbEntity
  8
LAYER_FEATURE
100
AcDbLine
 62
7
  6
CONTINUOUS
 10
15.9468552569
 20
4.5602738314
 11
15.9468552569
 21
6.3609755775
  0
LINE
  5
272
100
AcDbEntity
  8
LAYER_FEATURE
100
AcDbLine
 62
7
  6
CONTINUOUS
 10
15.9733552569
 20
6.4606247044
 11
15.9733552569
 21
4.4606247044
  0
LINE
  5
273
100
AcDbEntity
  8
LAYER_FEATURE
100
AcDbLine
 62
7
  6
CONTINUOUS
 10
16.0133552569
 20
6.4606247044
 11
16.0133552569
 21
4.4606247044
  0
LINE
  5
274
100
AcDbEntity
  8
LAYER_CUT_FEAT
100
AcDbLine
 62
7
  6
CONTINUOUS
 10
15.9468552569
 20
5.9670811796
 11
15.5168552569
 21
5.9670811796
  0
LINE
  5
275
100
AcDbEntity
  8
02___PRT_ALL_AXES
100
AcDbLine
 62
7
  6
CONTINUOUS
 10
15.4503552569
 20
6.0546247044
 11
15.3608552569
 21
6.0546247044
  0
LINE
  5
276
100
AcDbEntity
  8
02___PRT_ALL_AXES
100
AcDbLine
 62
7
  6
CONTINUOUS
 10
15.1968552569
 20
6.0546247044
 11
15.1073552569
 21
6.0546247044
  0
LINE
  5
277
100
AcDbEntity
  8
LAYER_FEATURE
100
AcDbLine
 62
7
  6
CONTINUOUS
 10
15.2132552569
 20
6.0546247044
 11
15.3444552569
 21
6.0546247044
  0
LINE
  5
278
100
AcDbEntity
  8
LAYER_CUT_FEAT
100
AcDbLine
 62
7
  6
CONTINUOUS
 10
15.9468552569
 20
6.1127305164
 11
15.5168552569
 21
6.1127305164
  0
LINE
  5
279
100
AcDbEntity
  8
LAYER_CUT_FEAT
100
AcDbLine
 62
7
  6
CONTINUOUS
 10
15.9468552569
 20
6.226884005
 11
15.5168552569
 21
6.226884005
  0
LINE
  5
27A
100
AcDbEntity
  8
LAYER_CUT_FEAT
100
AcDbLine
 62
7
  6
CONTINUOUS
 10
15.9468552569
 20
6.3038175129
 11
15.5168552569
 21
6.3038175129
  0
LINE
  5
27B
100
AcDbEntity
  8
0
100
AcDbLine
 62
7
  6
CONTINUOUS
 10
15.9468552569
 20
6.3396732728
 11
15.5168552569
 21
6.3396732728
  0
LINE
  5
27C
100
AcDbEntity
  8
LAYER_FEATURE
100
AcDbLine
 62
7
  6
CONTINUOUS
 10
16.0133552569
 20
6.4606247044
 11
15.9733552569
 21
6.4606247044
  0
LINE
  5
27D
100
AcDbEntity
  8
LAYER_FEATURE
100
AcDbLine
 62
7
  6
CONTINUOUS
 10
15.4903552569
 20
6.4606247044
 11
15.4503552569
 21
6.4606247044
  0
LINE
  5
27E
100
AcDbEntity
  8
LAYER_FEATURE
100
AcDbLine
 62
7
  6
CONTINUOUS
 10
14.4475499542
 20
12.5936995808
 11
14.4572326071
 21
12.6250326572
  0
LINE
  5
27F
100
AcDbEntity
  8
LAYER_FEATURE
100
AcDbLine
 62
7
  6
CONTINUOUS
 10
14.5741506413
 20
13.0033795545
 11
14.5838332943
 21
13.0347126309
  0
LINE
  5
280
100
AcDbEntity
  8
0
100
AcDbLine
 62
7
  6
CONTINUOUS
 10
14.6855851443
 20
12.9613597486
 11
14.6507090397
 21
12.8485006328
  0
LINE
  5
281
100
AcDbEntity
  8
LAYER_FEATURE
100
AcDbLine
 62
7
  6
CONTINUOUS
 10
14.6857147832
 20
12.9617438933
 11
14.6855851978
 21
12.961359732
  0
LINE
  5
282
100
AcDbEntity
  8
0
100
AcDbLine
 62
7
  6
CONTINUOUS
 10
14.7436280705
 20
13.0573382335
 11
14.6845981856
 21
12.8663174559
  0
LINE
  5
283
100
AcDbEntity
  8
0
100
AcDbLine
 62
7
  6
CONTINUOUS
 10
14.8396100077
 20
13.1351204864
 11
14.7670010912
 21
12.9001579462
  0
LINE
  5
284
100
AcDbEntity
  8
LAYER_CUT_FEAT
100
AcDbLine
 62
7
  6
CONTINUOUS
 10
14.7222334469
 20
12.5088159615
 11
14.7286482045
 21
12.5295741246
  0
LINE
  5
285
100
AcDbEntity
  8
0
100
AcDbLine
 62
7
  6
CONTINUOUS
 10
14.9687180208
 20
13.1908061803
 11
14.8886924311
 21
12.9318432774
  0
LINE
  5
286
100
AcDbEntity
  8
02___PRT_ALL_AXES
100
AcDbLine
 62
7
  6
CONTINUOUS
 10
14.752422068
 20
12.2051480179
 11
14.8354508169
 21
12.4738291479
  0
LINE
  5
287
100
AcDbEntity
  8
0
100
AcDbLine
 62
7
  6
CONTINUOUS
 10
15.1244780947
 20
13.221603002
 11
15.0404375027
 21
12.9496475464
  0
LINE
  5
288
100
AcDbEntity
  8
0
100
AcDbLine
 62
7
  6
CONTINUOUS
 10
15.2990797691
 20
13.2259666702
 11
15.2129984841
 21
12.9474075298
  0
LINE
  5
289
100
AcDbEntity
  8
LAYER_FEATURE
100
AcDbLine
 62
7
  6
CONTINUOUS
 10
15.4758625577
 20
13.1922995709
 11
15.4847518027
 21
13.2057479268
  0
LINE
  5
28A
100
AcDbEntity
  8
LAYER_FEATURE
100
AcDbLine
 62
7
  6
CONTINUOUS
 10
15.6583058865
 20
13.1495316576
 11
15.6725478637
 21
13.1603167987
  0
LINE
  5
28B
100
AcDbEntity
  8
LAYER_FEATURE
100
AcDbLine
 62
7
  6
CONTINUOUS
 10
15.8339722722
 20
13.0835892307
 11
15.8528528293
 21
13.0911703449
  0
LINE
  5
28C
100
AcDbEntity
  8
LAYER_CUT_FEAT
100
AcDbLine
 62
7
  6
CONTINUOUS
 10
15.9230081667
 20
12.1346829363
 11
15.8973230058
 21
12.1346829363
  0
LINE
  5
28D
100
AcDbEntity
  8
LAYER_CUT_FEAT
100
AcDbLine
 62
7
  6
CONTINUOUS
 10
15.9257121298
 20
12.1815136936
 11
15.8934307343
 21
12.1815136936
  0
LINE
  5
28E
100
AcDbEntity
  8
LAYER_CUT_FEAT
100
AcDbLine
 62
7
  6
CONTINUOUS
 10
15.1366560205
 20
12.5333479654
 11
15.1524164622
 21
12.5012315621
  0
LINE
  5
28F
100
AcDbEntity
  8
LAYER_CUT_FEAT
100
AcDbLine
 62
7
  6
CONTINUOUS
 10
15.1366560205
 20
12.5333479654
 11
15.1485340686
 21
12.5012315621
  0
LINE
  5
290
100
AcDbEntity
  8
LAYER_CUT_FEAT
100
AcDbLine
 62
7
  6
CONTINUOUS
 10
15.1683835071
 20
12.5654643687
 11
15.1366560205
 21
12.5333479654
  0
LINE
  5
291
100
AcDbEntity
  8
LAYER_CUT_FEAT
100
AcDbLine
 62
7
  6
CONTINUOUS
 10
15.1933969402
 20
12.5144923513
 11
15.1802967338
 21
12.5012315621
  0
LINE
  5
292
100
AcDbEntity
  8
LAYER_CUT_FEAT
100
AcDbLine
 62
7
  6
CONTINUOUS
 10
15.1921396033
 20
12.5012315621
 11
15.2238670898
 21
12.5333479654
  0
LINE
  5
293
100
AcDbEntity
  8
LAYER_CUT_FEAT
100
AcDbLine
 62
7
  6
CONTINUOUS
 10
15.1683835071
 20
12.5654643687
 11
15.1933969402
 21
12.5144923513
  0
LINE
  5
294
100
AcDbEntity
  8
LAYER_CUT_FEAT
100
AcDbLine
 62
7
  6
CONTINUOUS
 10
15.2238670898
 20
12.5333479654
 11
15.2119890418
 21
12.5654643687
  0
LINE
  5
295
100
AcDbEntity
  8
LAYER_CUT_FEAT
100
AcDbLine
 62
7
  6
CONTINUOUS
 10
15.1485340686
 20
12.5012315621
 11
15.1921396033
 21
12.5012315621
  0
LINE
  5
296
100
AcDbEntity
  8
LAYER_CUT_FEAT
100
AcDbLine
 62
7
  6
CONTINUOUS
 10
15.2052398096
 20
12.5144923513
 11
15.1933969402
 21
12.5144923513
  0
LINE
  5
297
100
AcDbEntity
  8
LAYER_CUT_FEAT
100
AcDbLine
 62
7
  6
CONTINUOUS
 10
15.2119890418
 20
12.5654643687
 11
15.1683835071
 21
12.5654643687
  0
LINE
  5
298
100
AcDbEntity
  8
LAYER_FEATURE
100
AcDbLine
 62
7
  6
CONTINUOUS
 10
15.9069620157
 20
12.2384221913
 11
15.9193672637
 21
12.2235600819
  0
LINE
  5
299
100
AcDbEntity
  8
LAYER_CUT_FEAT
100
AcDbLine
 62
7
  6
CONTINUOUS
 10
15.891421179
 20
12.146709595
 11
15.9058626913
 21
12.117280887
  0
LINE
  5
29A
100
AcDbEntity
  8
LAYER_CUT_FEAT
100
AcDbLine
 62
7
  6
CONTINUOUS
 10
15.9257121298
 20
12.1815136936
 11
15.9112706175
 21
12.2109424016
  0
LINE
  5
29B
100
AcDbEntity
  8
LAYER_FEATURE
100
AcDbLine
 62
7
  6
CONTINUOUS
 10
15.9466593638
 20
13.043612282
 11
15.9429112266
 21
13.0283593294
  0
LINE
  5
29C
100
AcDbEntity
  8
LAYER_CUT_FEAT
100
AcDbLine
 62
7
  6
CONTINUOUS
 10
15.8941251421
 20
12.1935403523
 11
15.891421179
 21
12.146709595
  0
LINE
  5
29D
100
AcDbEntity
  8
LAYER_FEATURE
100
AcDbLine
 62
7
  6
CONTINUOUS
 10
15.9940530687
 20
12.9977789186
 11
16.0166254557
 21
13.0017758572
  0
LINE
  5
29E
100
AcDbEntity
  8
LAYER_FEATURE
100
AcDbLine
 62
7
  6
CONTINUOUS
 10
16.1305211563
 20
12.8964036088
 11
16.1556534996
 21
12.8966159485
  0
LINE
  5
29F
100
AcDbEntity
  8
LAYER_FEATURE
100
AcDbLine
 62
7
  6
CONTINUOUS
 10
16.2365334554
 20
12.7845466825
 11
16.2629655143
 21
12.7809637758
  0
LINE
  5
2A0
100
AcDbEntity
  8
LAYER_FEATURE
100
AcDbLine
 62
7
  6
CONTINUOUS
 10
14.7211159754
 20
13.0017758572
 11
14.7262200568
 21
13.0010058803
  0
LINE
  5
2A1
100
AcDbEntity
  8
LAYER_FEATURE
100
AcDbLine
 62
7
  6
CONTINUOUS
 10
16.3067740666
 20
12.6678171132
 11
16.3331804272
 21
12.660618622
  0
LINE
  5
2A2
100
AcDbEntity
  8
LAYER_FEATURE
100
AcDbLine
 62
7
  6
CONTINUOUS
 10
14.797151716
 20
13.0911703449
 11
14.8234728141
 21
13.0835892307
  0
LINE
  5
2A3
100
AcDbEntity
  8
LAYER_FEATURE
100
AcDbLine
 62
7
  6
CONTINUOUS
 10
16.3492482182
 20
12.5472592015
 11
16.3627773696
 21
12.5416150955
  0
LINE
  5
2A4
100
AcDbEntity
  8
LAYER_FEATURE
100
AcDbLine
 62
7
  6
CONTINUOUS
 10
14.9095923795
 20
13.1603167987
 11
14.9344195137
 21
13.1495316576
  0
LINE
  5
2A5
100
AcDbEntity
  8
LAYER_FEATURE
100
AcDbLine
 62
7
  6
CONTINUOUS
 10
15.0527997214
 20
13.2057479268
 11
15.0748879556
 21
13.1922995709
  0
LINE
  5
2A6
100
AcDbEntity
  8
LAYER_FEATURE
100
AcDbLine
 62
7
  6
CONTINUOUS
 10
15.2195927277
 20
13.2251856227
 11
15.2378344655
 21
13.2097484086
  0
LINE
  5
2A7
100
AcDbEntity
  8
LAYER_FEATURE
100
AcDbLine
 62
7
  6
CONTINUOUS
 10
15.4016077005
 20
13.2176551991
 11
15.4150882251
 21
13.2010032132
  0
LINE
  5
2A8
100
AcDbEntity
  8
LAYER_FEATURE
100
AcDbLine
 62
7
  6
CONTINUOUS
 10
15.5897176491
 20
13.1835342629
 11
15.5977609907
 21
13.1665025053
  0
LINE
  5
2A9
100
AcDbEntity
  8
LAYER_FEATURE
100
AcDbLine
 62
7
  6
CONTINUOUS
 10
15.7744899552
 20
13.1245337804
 11
15.776692787
 21
13.1079762945
  0
LINE
  5
2AA
100
AcDbEntity
  8
LAYER_CUT_FEAT
100
AcDbLine
 62
7
  6
CONTINUOUS
 10
15.9230081667
 20
12.1346829363
 11
15.9257121298
 21
12.1815136936
  0
LINE
  5
2AB
100
AcDbEntity
  8
LAYER_CUT_FEAT
100
AcDbLine
 62
7
  6
CONTINUOUS
 10
16.0987775232
 20
12.9471878747
 11
16.0137003937
 21
12.6718781826
  0
LINE
  5
2AC
100
AcDbEntity
  8
LAYER_CUT_FEAT
100
AcDbLine
 62
7
  6
CONTINUOUS
 10
15.9112706175
 20
12.2109424016
 11
15.8941251421
 21
12.1935403523
  0
LINE
  5
2AD
100
AcDbEntity
  8
02___PRT_ALL_AXES
100
AcDbLine
 62
7
  6
CONTINUOUS
 10
15.887462031
 20
11.8543941406
 11
15.9704907799
 21
12.1230752706
  0
LINE
  5
2AE
100
AcDbEntity
  8
LAYER_CUT_FEAT
100
AcDbLine
 62
7
  6
CONTINUOUS
 10
16.2233050291
 20
12.8378259198
 11
16.1413235876
 21
12.5725338777
  0
LINE
  5
2AF
100
AcDbEntity
  8
LAYER_FEATURE
100
AcDbLine
 62
7
  6
CONTINUOUS
 10
15.9069620157
 20
12.0898010973
 11
15.9193672637
 21
12.1046632067
  0
LINE
  5
2B0
100
AcDbEntity
  8
LAYER_CUT_FEAT
100
AcDbLine
 62
7
  6
CONTINUOUS
 10
15.9058626913
 20
12.117280887
 11
15.9230081667
 21
12.1346829363
  0
LINE
  5
2B1
100
AcDbEntity
  8
LAYER_CUT_FEAT
100
AcDbLine
 62
7
  6
CONTINUOUS
 10
16.08370815
 20
12.0880884571
 11
16.0901229075
 21
12.1088466202
  0
LINE
  5
2B2
100
AcDbEntity
  8
LAYER_FEATURE
100
AcDbLine
 62
7
  6
CONTINUOUS
 10
15.262095834
 20
13.2011346587
 11
15.2799834165
 21
13.2011346587
  0
LINE
  5
2B3
100
AcDbEntity
  8
LAYER_FEATURE
100
AcDbLine
 62
7
  6
CONTINUOUS
 10
15.437377656
 20
13.1895967494
 11
15.4561349966
 21
13.1869104643
  0
LINE
  5
2B4
100
AcDbEntity
  8
LAYER_FEATURE
100
AcDbLine
 62
7
  6
CONTINUOUS
 10
15.6169607988
 20
13.1528752953
 11
15.6356473263
 21
13.1476374267
  0
LINE
  5
2B5
100
AcDbEntity
  8
LAYER_FEATURE
100
AcDbLine
 62
7
  6
CONTINUOUS
 10
15.7918402138
 20
13.0928116636
 11
15.8095189076
 21
13.08528486
  0
LINE
  5
2B6
100
AcDbEntity
  8
LAYER_FEATURE
100
AcDbLine
 62
7
  6
CONTINUOUS
 10
15.9532467169
 20
13.0124176954
 11
15.9690310935
 21
13.0029793822
  0
LINE
  5
2B7
100
AcDbEntity
  8
LAYER_FEATURE
100
AcDbLine
 62
7
  6
CONTINUOUS
 10
16.0930867121
 20
12.91572468
 11
16.106185277
 21
12.9048481337
  0
LINE
  5
2B8
100
AcDbEntity
  8
LAYER_CUT_FEAT
100
AcDbLine
 62
7
  6
CONTINUOUS
 10
16.3138739866
 20
12.7205643598
 11
16.2377092364
 21
12.4740951378
  0
LINE
  5
2B9
100
AcDbEntity
  8
LAYER_FEATURE
100
AcDbLine
 62
7
  6
CONTINUOUS
 10
15.0999046954
 20
13.1869104643
 11
15.1145093385
 21
13.189344095
  0
LINE
  5
2BA
100
AcDbEntity
  8
LAYER_FEATURE
100
AcDbLine
 62
7
  6
CONTINUOUS
 10
16.2113488156
 20
12.7991355986
 11
16.2141039744
 21
12.7958118251
  0
LINE
  5
2BB
100
AcDbEntity
  8
LAYER_CUT_FEAT
100
AcDbLine
 62
7
  6
CONTINUOUS
 10
16.3659428899
 20
12.6012831792
 11
16.3003261502
 21
12.3889473317
  0
LINE
  5
2BC
100
AcDbEntity
  8
LAYER_CUT_FEAT
100
AcDbLine
 62
7
  6
CONTINUOUS
 10
16.3769007869
 20
12.4859636344
 11
16.3305306886
 21
12.3359099412
  0
LINE
  5
2BD
100
AcDbEntity
  8
LAYER_CUT_FEAT
100
AcDbLine
 62
7
  6
CONTINUOUS
 10
16.3607283117
 20
12.4133882913
 11
16.3344204309
 21
12.3282559577
  0
LINE
  5
2BE
100
AcDbEntity
  8
LAYER_FEATURE
100
AcDbLine
 62
7
  6
CONTINUOUS
 10
16.3583916427
 20
12.0032048378
 11
16.3680742956
 21
12.0345379142
  0
LINE
  5
2BF
100
AcDbEntity
  8
LAYER_FEATURE
100
AcDbLine
 62
7
  6
CONTINUOUS
 10
16.4849923298
 20
12.4128848115
 11
16.4946749828
 21
12.4442178879
  0
CIRCLE
  5
2C0
100
AcDbEntity
  8
LAYER_FEATURE
100
AcDbCircle
 62
7
  6
CONTINUOUS
 10
6.1303672762
 20
5.5201198968
 40
1.0
  0
CIRCLE
  5
2C1
100
AcDbEntity
  8
LAYER_FEATURE
100
AcDbCircle
 62
7
  6
CONTINUOUS
 10
6.1303672762
 20
5.5201198968
 40
0.925
  0
CIRCLE
  5
2C2
100
AcDbEntity
  8
LAYER_CUT_FEAT
100
AcDbCircle
 62
7
  6
CONTINUOUS
 10
6.1303672762
 20
5.5201198968
 40
0.7125
  0
CIRCLE
  5
2C3
100
AcDbEntity
  8
02___PRT_ALL_AXES
100
AcDbCircle
 62
7
  6
CONTINUOUS
 10
6.1303672762
 20
5.5201198968
 40
0.594
  0
CIRCLE
  5
2C4
100
AcDbEntity
  8
LAYER_CHAMFER_FEAT
100
AcDbCircle
 62
7
  6
CONTINUOUS
 10
6.1303672762
 20
5.5201198968
 40
0.14375
  0
CIRCLE
  5
2C5
100
AcDbEntity
  8
LAYER_CHAMFER_FEAT
100
AcDbCircle
 62
7
  6
CONTINUOUS
 10
6.1303672762
 20
5.5201198968
 40
0.125
  0
ARC
  5
2C6
100
AcDbEntity
  8
LAYER_FEATURE
100
AcDbCircle
 62
7
  6
CONTINUOUS
 10
6.9712229569
 20
12.4127977814
 40
0.14375
100
AcDbArc
 50
70.5399875647
 51
90.0
  0
ARC
  5
2C7
100
AcDbEntity
  8
LAYER_FEATURE
100
AcDbCircle
 62
7
  6
CONTINUOUS
 10
5.1705212108
 20
12.4127977814
 40
0.14375
100
AcDbArc
 50
90.0
 51
109.4600124353
  0
ARC
  5
2C8
100
AcDbEntity
  8
LAYER_FEATURE
100
AcDbCircle
 62
7
  6
CONTINUOUS
 10
6.9712229569
 20
13.1302977814
 40
0.14375
100
AcDbArc
 50
270.0
 51
289.4600124353
  0
ARC
  5
2C9
100
AcDbEntity
  8
LAYER_FEATURE
100
AcDbCircle
 62
7
  6
CONTINUOUS
 10
5.1705212108
 20
13.1302977814
 40
0.14375
100
AcDbArc
 50
250.5399875647
 51
270.0
  0
CIRCLE
  5
2CA
100
AcDbEntity
  8
02___PRT_ALL_AXES
100
AcDbCircle
 62
7
  6
CONTINUOUS
 10
6.0708720839
 20
12.3185477814
 40
0.082
  0
CIRCLE
  5
2CB
100
AcDbEntity
  8
LAYER_FEATURE
100
AcDbCircle
 62
7
  6
CONTINUOUS
 10
6.0708720839
 20
12.3185477814
 40
0.0656
  0
ARC
  5
2CC
100
AcDbEntity
  8
LAYER_FEATURE
100
AcDbCircle
 62
7
  6
CONTINUOUS
 10
15.3731052569
 20
4.5602738314
 40
0.14375
100
AcDbArc
 50
340.5399875647
 51
360.0
  0
ARC
  5
2CD
100
AcDbEntity
  8
LAYER_FEATURE
100
AcDbCircle
 62
7
  6
CONTINUOUS
 10
15.3731052569
 20
6.3609755775
 40
0.14375
100
AcDbArc
 50
0.0
 51
19.4600124353
  0
ARC
  5
2CE
100
AcDbEntity
  8
LAYER_FEATURE
100
AcDbCircle
 62
7
  6
CONTINUOUS
 10
16.0906052569
 20
4.5602738314
 40
0.14375
100
AcDbArc
 50
180.0
 51
199.4600124353
  0
ARC
  5
2CF
100
AcDbEntity
  8
LAYER_FEATURE
100
AcDbCircle
 62
7
  6
CONTINUOUS
 10
16.0906052569
 20
6.3609755775
 40
0.14375
100
AcDbArc
 50
160.5399875647
 51
180.0
  0
CIRCLE
  5
2D0
100
AcDbEntity
  8
02___PRT_ALL_AXES
100
AcDbCircle
 62
7
  6
CONTINUOUS
 10
15.2788552569
 20
5.4606247044
 40
0.082
  0
CIRCLE
  5
2D1
100
AcDbEntity
  8
LAYER_FEATURE
100
AcDbCircle
 62
7
  6
CONTINUOUS
 10
15.2788552569
 20
5.4606247044
 40
0.0656
  0
ARC
  5
2D2
100
AcDbEntity
  8
LAYER_FEATURE
100
AcDbCircle
 62
7
  6
CONTINUOUS
 10
15.2194520534
 20
11.704203485
 40
1.5337031612
100
AcDbArc
 50
69.4560234634
 51
71.8604846252
  0
ARC
  5
2D3
100
AcDbEntity
  8
LAYER_FEATURE
100
AcDbCircle
 62
7
  6
CONTINUOUS
 10
15.2274476994
 20
11.7391397725
 40
1.4978780793
100
AcDbArc
 50
76.8284869412
 51
79.27338837
  0
ARC
  5
2D4
100
AcDbEntity
  8
LAYER_FEATURE
100
AcDbCircle
 62
7
  6
CONTINUOUS
 10
15.26549216
 20
11.8094718778
 40
1.4187438151
100
AcDbArc
 50
61.8507168103
 51
64.381064456
  0
ARC
  5
2D5
100
AcDbEntity
  8
LAYER_FEATURE
100
AcDbCircle
 62
7
  6
CONTINUOUS
 10
15.7083308946
 20
13.0831476143
 40
1.4063054093
100
AcDbArc
 50
267.9578827444
 51
269.9870346747
  0
ARC
  5
2D6
100
AcDbEntity
  8
LAYER_FEATURE
100
AcDbCircle
 62
7
  6
CONTINUOUS
 10
15.249914681
 20
11.9074449909
 40
1.3279760777
100
AcDbArc
 50
84.4836354479
 51
87.1311381611
  0
ARC
  5
2D7
100
AcDbEntity
  8
LAYER_FEATURE
100
AcDbCircle
 62
7
  6
CONTINUOUS
 10
15.3892850459
 20
12.0148694896
 40
1.1787362054
100
AcDbArc
 50
53.4460364757
 51
56.3125766495
  0
ARC
  5
2D8
100
AcDbEntity
  8
LAYER_FEATURE
100
AcDbCircle
 62
7
  6
CONTINUOUS
 10
15.2489500055
 20
12.1723351547
 40
1.0628594922
100
AcDbArc
 50
92.980688844
 51
96.0520014981
  0
ARC
  5
2D9
100
AcDbEntity
  8
LAYER_FEATURE
100
AcDbCircle
 62
7
  6
CONTINUOUS
 10
15.5729441706
 20
12.2351489517
 40
0.8916394629
100
AcDbArc
 50
43.5361564684
 51
46.9891198061
  0
ARC
  5
2DA
100
AcDbEntity
  8
LAYER_FEATURE
100
AcDbCircle
 62
7
  6
CONTINUOUS
 10
15.2014680813
 20
12.4557403848
 40
0.7751528938
100
AcDbArc
 50
103.05951975
 51
106.8503612203
  0
ARC
  5
2DB
100
AcDbEntity
  8
LAYER_FEATURE
100
AcDbCircle
 62
7
  6
CONTINUOUS
 10
15.7799353384
 20
12.4070810731
 40
0.6221272878
100
AcDbArc
 50
31.1373303821
 51
35.5269181958
  0
ARC
  5
2DC
100
AcDbEntity
  8
LAYER_FEATURE
100
AcDbCircle
 62
7
  6
CONTINUOUS
 10
15.1109663689
 20
12.6897440712
 40
0.5237422039
100
AcDbArc
 50
115.6981419768
 51
120.6393250607
  0
ARC
  5
2DD
100
AcDbEntity
  8
LAYER_FEATURE
100
AcDbCircle
 62
7
  6
CONTINUOUS
 10
15.9590251423
 20
12.4963949772
 40
0.4214774315
100
AcDbArc
 50
15.095234163
 51
20.7863210819
  0
ARC
  5
2DE
100
AcDbEntity
  8
LAYER_FEATURE
100
AcDbCircle
 62
7
  6
CONTINUOUS
 10
15.0182680009
 20
12.8180534788
 40
0.3649694147
100
AcDbArc
 50
132.1265553419
 51
138.3910947517
  0
ARC
  5
2DF
100
AcDbEntity
  8
LAYER_FEATURE
100
AcDbCircle
 62
7
  6
CONTINUOUS
 10
16.0669354095
 20
12.5151447402
 40
0.3115076223
100
AcDbArc
 50
354.9290399321
 51
1.8915584755
  0
ARC
  5
2E0
100
AcDbEntity
  8
LAYER_FEATURE
100
AcDbCircle
 62
7
  6
CONTINUOUS
 10
14.9608346781
 20
12.8608568968
 40
0.2930343711
100
AcDbArc
 50
152.6096416697
 51
159.8619155888
  0
ARC
  5
2E1
100
AcDbEntity
  8
LAYER_FEATURE
100
AcDbCircle
 62
7
  6
CONTINUOUS
 10
14.8350446737
 20
13.1237659204
 40
0.0418099789
100
AcDbArc
 50
253.9323182085
 51
254.21154999
  0
ARC
  5
2E2
100
AcDbEntity
  8
LAYER_FEATURE
100
AcDbCircle
 62
7
  6
CONTINUOUS
 10
16.3692812798
 20
12.4883130536
 40
0.0079734982
100
AcDbArc
 50
342.8632364479
 51
354.9468755976
  0
SPLINE
  5
2E3
100
AcDbEntity
  8
02___PRT_ALL_AXES
100
AcDbSpline
 62
7
  6
CONTINUOUS
 70
0
 71
3
 72
19
 73
15
 74
0
 42
0.0000001
 43
0.0000001
 44
0.0000000001
 40
0.0
 40
0.0
 40
0.0
 40
0.0
 40
0.038331675
 40
0.147006167
 40
0.2227367242
 40
0.3090396745
 40
0.4026498705
 40
0.4999999992
 40
0.597350128
 40
0.6909603241
 40
0.7772632745
 40
0.8529938323
 40
0.9616683254
 40
1.0
 40
1.0
 40
1.0
 40
1.0
 10
6.6648720839
 20
12.2365477814
 30
0.0
 10
6.6645846146
 20
12.238630096
 30
0.0
 10
6.6635225976
 20
12.2466217802
 30
0.0
 10
6.6621506213
 20
12.2587613221
 30
0.0
 10
6.66085353
 20
12.2735510187
 30
0.0
 10
6.6599397383
 20
12.2875420031
 30
0.0
 10
6.6593275481
 20
12.3027364261
 30
0.0
 10
6.659112218
 20
12.3185477812
 30
0.0
 10
6.6593275481
 20
12.3343591364
 30
0.0
 10
6.6599397383
 20
12.3495535594
 30
0.0
 10
6.66085353
 20
12.3635445438
 30
0.0
 10
6.6621506213
 20
12.3783342405
 30
0.0
 10
6.6635225976
 20
12.3904737825
 30
0.0
 10
6.6645846146
 20
12.3984654668
 30
0.0
 10
6.6648720839
 20
12.4005477814
 30
0.0
  0
SPLINE
  5
2E4
100
AcDbEntity
  8
02___PRT_ALL_AXES
100
AcDbSpline
 62
7
  6
CONTINUOUS
 70
0
 71
3
 72
19
 73
15
 74
0
 42
0.0000001
 43
0.0000001
 44
0.0000000001
 40
0.0
 40
0.0
 40
0.0
 40
0.0
 40
0.0383316851
 40
0.1470061232
 40
0.2227367267
 40
0.3090396772
 40
0.4026498698
 40
0.5000000006
 40
0.597350131
 40
0.6909603235
 40
0.777263274
 40
0.8529938777
 40
0.9616683153
 40
1.0
 40
1.0
 40
1.0
 40
1.0
 10
15.3608552569
 20
6.0546247044
 30
0.0
 10
15.3587729418
 20
6.0543372349
 30
0.0
 10
15.35078126
 20
6.0532752176
 30
0.0
 10
15.3386417179
 20
6.0519032416
 30
0.0
 10
15.3238520217
 20
6.050606151
 30
0.0
 10
15.3098610349
 20
6.0496923606
 30
0.0
 10
15.2946666121
 20
6.0490801656
 30
0.0
 10
15.2788552569
 20
6.0488648402
 30
0.0
 10
15.2630439016
 20
6.0490801656
 30
0.0
 10
15.2478494789
 20
6.0496923606
 30
0.0
 10
15.2338584921
 20
6.050606151
 30
0.0
 10
15.2190687958
 20
6.0519032416
 30
0.0
 10
15.2069292538
 20
6.0532752176
 30
0.0
 10
15.198937572
 20
6.0543372349
 30
0.0
 10
15.1968552569
 20
6.0546247044
 30
0.0
  0
SPLINE
  5
2E5
100
AcDbEntity
  8
02___PRT_ALL_AXES
100
AcDbSpline
 62
7
  6
CONTINUOUS
 70
0
 71
3
 72
42
 73
38
 74
0
 42
0.0000001
 43
0.0000001
 44
0.0000000001
 40
0.0
 40
0.0
 40
0.0
 40
0.0
 40
0.0279698058
 40
0.0577946708
 40
0.0893400719
 40
0.1224520172
 40
0.1569620076
 40
0.1926903879
 40
0.2294495572
 40
0.2670466632
 40
0.3052858421
 40
0.3439702092
 40
0.3829033702
 40
0.421890992
 40
0.4607421264
 40
0.4992703823
 40
0.5372952976
 40
0.5746437684
 40
0.6111515963
 40
0.6466652539
 40
0.6810437948
 40
0.7141609704
 40
0.7459075
 40
0.7761935736
 40
0.8049515807
 40
0.8321392686
 40
0.85774339
 40
0.8817841759
 40
0.9043206335
 40
0.9254567846
 40
0.9453480672
 40
0.9548972197
 40
0.9642197239
 40
0.9733510749
 40
0.9823301135
 40
0.9911984532
 40
1.0
 40
1.0
 40
1.0
 40
1.0
 10
15.8887172159
 20
12.0998788377
 30
0.0
 10
15.8880496142
 20
12.1012392669
 30
0.0
 10
15.8867423481
 20
12.1040861538
 30
0.0
 10
15.8849148111
 20
12.1085696956
 30
0.0
 10
15.8831676288
 20
12.1133826321
 30
0.0
 10
15.8815140565
 20
12.1184958336
 30
0.0
 10
15.8799676065
 20
12.1238785877
 30
0.0
 10
15.8785419904
 20
12.1294986425
 30
0.0
 10
15.8772509055
 20
12.1353225405
 30
0.0
 10
15.8761078659
 20
12.1413158393
 30
0.0
 10
15.8751260136
 20
12.147443325
 30
0.0
 10
15.8743179267
 20
12.1536691771
 30
0.0
 10
15.873695419
 20
12.1599571184
 30
0.0
 10
15.873269329
 20
12.1662705429
 30
0.0
 10
15.8730493002
 20
12.1725726399
 30
0.0
 10
15.8730435543
 20
12.1788265212
 30
0.0
 10
15.8732586633
 20
12.1849953684
 30
0.0
 10
15.873699323
 20
12.1910426134
 30
0.0
 10
15.8743681475
 20
12.1969321529
 30
0.0
 10
15.8752654857
 20
12.202628597
 30
0.0
 10
15.8763892843
 20
12.2080975507
 30
0.0
 10
15.8777349984
 20
12.2133059125
 30
0.0
 10
15.8792955704
 20
12.2182221796
 30
0.0
 10
15.8810614762
 20
12.2228167372
 30
0.0
 10
15.8830208493
 20
12.227062118
 30
0.0
 10
15.8851596688
 20
12.2309332019
 30
0.0
 10
15.887462042
 20
12.2344073578
 30
0.0
 10
15.8899104374
 20
12.2374644413
 30
0.0
 10
15.8924862736
 20
12.2400868128
 30
0.0
 10
15.895169282
 20
12.2422587263
 30
0.0
 10
15.8975098308
 20
12.2437016348
 30
0.0
 10
15.899407768
 20
12.2446047096
 30
0.0
 10
15.9008240228
 20
12.2451531066
 30
0.0
 10
15.9022491384
 20
12.2455806391
 30
0.0
 10
15.903680155
 20
12.2458866748
 30
0.0
 10
15.9051138635
 20
12.246070575
 30
0.0
 10
15.9060717105
 20
12.246111645
 30
0.0
 10
15.9065485794
 20
12.2461116442
 30
0.0
  0
SPLINE
  5
2E6
100
AcDbEntity
  8
02___PRT_ALL_AXES
100
AcDbSpline
 62
7
  6
CONTINUOUS
 70
0
 71
3
 72
23
 73
19
 74
0
 42
0.0000001
 43
0.0000001
 44
0.0000000001
 40
0.0
 40
0.0
 40
0.0
 40
0.0
 40
0.0739087395
 40
0.1463032518
 40
0.2170849192
 40
0.2861853725
 40
0.3535580641
 40
0.4191869924
 40
0.4830871907
 40
0.5453074982
 40
0.6059322956
 40
0.6650822431
 40
0.7229142221
 40
0.7796198226
 40
0.8354221855
 40
0.890571155
 40
0.9453365647
 40
1.0
 40
1.0
 40
1.0
 40
1.0
 10
15.1604121167
 20
12.4691151589
 30
0.0
 10
15.1588931412
 20
12.4691151589
 30
0.0
 10
15.1558857913
 20
12.4691838174
 30
0.0
 10
15.1514337234
 20
12.4694995315
 30
0.0
 10
15.1471009631
 20
12.4700262437
 30
0.0
 10
15.1429034845
 20
12.4707626084
 30
0.0
 10
15.1388563097
 20
12.4717068557
 30
0.0
 10
15.1349737943
 20
12.4728566564
 30
0.0
 10
15.1312694711
 20
12.474209219
 30
0.0
 10
15.1277560723
 20
12.4757612577
 30
0.0
 10
15.1244455175
 20
12.4775089992
 30
0.0
 10
15.1213489222
 20
12.4794481693
 30
0.0
 10
15.1184766135
 20
12.4815739619
 30
0.0
 10
15.1158381278
 20
12.4838810045
 30
0.0
 10
15.1134422214
 20
12.4863632695
 30
0.0
 10
15.1112967736
 20
12.4890141629
 30
0.0
 10
15.1094089867
 20
12.4918259636
 30
0.0
 10
15.1083267928
 20
12.4938015627
 30
0.0
 10
15.1078318647
 20
12.4948101137
 30
0.0
  0
SPLINE
  5
2E7
100
AcDbEntity
  8
LAYER_CUT_FEAT
100
AcDbSpline
 62
7
  6
CONTINUOUS
 70
0
 71
3
 72
22
 73
18
 74
0
 42
0.0000001
 43
0.0000001
 44
0.0000000001
 40
0.0
 40
0.0
 40
0.0
 40
0.0
 40
0.1381197804
 40
0.2053664349
 40
0.2714549095
 40
0.3364371394
 40
0.400372579
 40
0.4633278449
 40
0.5253764087
 40
0.5865986111
 40
0.6470813103
 40
0.7069174443
 40
0.7662055009
 40
0.8250488566
 40
0.8835549595
 40
0.9418344164
 40
1.0
 40
1.0
 40
1.0
 40
1.0
 10
14.7467148402
 20
12.2984522093
 30
0.0
 10
14.7423137248
 20
12.3074207395
 30
0.0
 10
14.736249334
 20
12.3210018098
 30
0.0
 10
14.729332706
 20
12.3393817447
 30
0.0
 10
14.7248351762
 20
12.353007428
 30
0.0
 10
14.7209866943
 20
12.3665815544
 30
0.0
 10
14.7177908946
 20
12.3800915354
 30
0.0
 10
14.7152510141
 20
12.3935243494
 30
0.0
 10
14.7133696434
 20
12.4068671635
 30
0.0
 10
14.7121487374
 20
12.4201071571
 30
0.0
 10
14.7115896081
 20
12.4332315914
 30
0.0
 10
14.7116929428
 20
12.4462278013
 30
0.0
 10
14.7124587953
 20
12.4590832224
 30
0.0
 10
14.7138865162
 20
12.4717853545
 30
0.0
 10
14.7159748511
 20
12.4843219809
 30
0.0
 10
14.7187217054
 20
12.4966804362
 30
0.0
 10
14.7209913135
 20
12.5047963885
 30
0.0
 10
14.7222334516
 20
12.50881596
 30
0.0
  0
SPLINE
  5
2E8
100
AcDbEntity
  8
LAYER_CHAMFER_FEAT
100
AcDbSpline
 62
7
  6
CONTINUOUS
 70
0
 71
3
 72
21
 73
17
 74
0
 42
0.0000001
 43
0.0000001
 44
0.0000000001
 40
0.0
 40
0.0
 40
0.0
 40
0.0
 40
0.1460175704
 40
0.2163589312
 40
0.2849315326
 40
0.4168797924
 40
0.480422
 40
0.5424372241
 40
0.6030310451
 40
0.6623275976
 40
0.7204697622
 40
0.7776179961
 40
0.8339489518
 40
0.8896535328
 40
0.9449338542
 40
1.0
 40
1.0
 40
1.0
 40
1.0
 10
15.2465993081
 20
12.1166891653
 30
0.0
 10
15.243959452
 20
12.1158759809
 30
0.0
 10
15.2400929878
 20
12.1145128593
 30
0.0
 10
15.2351436055
 20
12.1123738274
 30
0.0
 10
15.2305414071
 20
12.1101178377
 30
0.0
 10
15.2262224231
 20
12.1075855726
 30
0.0
 10
15.22224164
 20
12.1047740218
 30
0.0
 10
15.2194874699
 20
12.1025760886
 30
0.0
 10
15.2169330931
 20
12.1002669115
 30
0.0
 10
15.2145834105
 20
12.0978506882
 30
0.0
 10
15.2124430363
 20
12.0953320075
 30
0.0
 10
15.2105162059
 20
12.0927156158
 30
0.0
 10
15.2088068053
 20
12.0900065067
 30
0.0
 10
15.2073182082
 20
12.0872098651
 30
0.0
 10
15.2060535301
 20
12.0843313336
 30
0.0
 10
15.2053607531
 20
12.0823596459
 30
0.0
 10
15.2050531945
 20
12.0813643781
 30
0.0
  0
SPLINE
  5
2E9
100
AcDbEntity
  8
LAYER_CHAMFER_FEAT
100
AcDbSpline
 62
7
  6
CONTINUOUS
 70
0
 71
3
 72
21
 73
17
 74
0
 42
0.0000001
 43
0.0000001
 44
0.0000000001
 40
0.0
 40
0.0
 40
0.0
 40
0.0
 40
0.146046939
 40
0.2164003108
 40
0.2849829745
 40
0.3518294519
 40
0.4169910862
 40
0.542498663
 40
0.6030909956
 40
0.6623838773
 40
0.7205202209
 40
0.7776608042
 40
0.8339825345
 40
0.8896766228
 40
0.9449456204
 40
1.0
 40
1.0
 40
1.0
 40
1.0
 10
15.4294868639
 20
12.0602179012
 30
0.0
 10
15.4312119865
 20
12.0580551069
 30
0.0
 10
15.4336415289
 20
12.0547449268
 30
0.0
 10
15.4365287935
 20
12.050181779
 30
0.0
 10
15.4384538952
 20
12.0467903695
 30
0.0
 10
15.4401616348
 20
12.0433939289
 30
0.0
 10
15.4421195609
 20
12.0389243637
 30
0.0
 10
15.4436671049
 20
12.0344095049
 30
0.0
 10
15.4447584763
 20
12.0298883871
 30
0.0
 10
15.4453377462
 20
12.0265637191
 30
0.0
 10
15.4456858096
 20
12.0232726799
 30
0.0
 10
15.4458019421
 20
12.0200214668
 30
0.0
 10
15.4456857159
 20
12.0168164489
 30
0.0
 10
15.4453372496
 20
12.0136638275
 30
0.0
 10
15.4447572124
 20
12.0105700347
 30
0.0
 10
15.4442162982
 20
12.0085489331
 30
0.0
 10
15.4439083917
 20
12.0075525395
 30
0.0
  0
SPLINE
  5
2EA
100
AcDbEntity
  8
LAYER_FEATURE
100
AcDbSpline
 62
7
  6
CONTINUOUS
 70
0
 71
3
 72
33
 73
29
 74
0
 42
0.0000001
 43
0.0000001
 44
0.0000000001
 40
0.0
 40
0.0
 40
0.0
 40
0.0
 40
0.0202795796
 40
0.0417780496
 40
0.0645065155
 40
0.0884597917
 40
0.113619069
 40
0.1399539228
 40
0.1674237088
 40
0.1959790261
 40
0.2255629498
 40
0.2561118167
 40
0.2875560182
 40
0.3198208943
 40
0.3528272993
 40
0.3864920843
 40
0.4554434056
 40
0.5259572813
 40
0.5972808724
 40
0.6686461656
 40
0.7392843681
 40
0.8084403396
 40
0.8422362834
 40
0.8753924269
 40
0.907824675
 40
0.9394523909
 40
0.9702027636
 40
1.0
 40
1.0
 40
1.0
 40
1.0
 10
15.9193672626
 20
12.2235600758
 30
0.0
 10
15.919815754
 20
12.2230227632
 30
0.0
 10
15.9206987387
 20
12.221881212
 30
0.0
 10
15.9219460098
 20
12.220035642
 30
0.0
 10
15.9231506728
 20
12.2180129846
 30
0.0
 10
15.9243089506
 20
12.2158196818
 30
0.0
 10
15.9254172842
 20
12.2134625509
 30
0.0
 10
15.9264721861
 20
12.2109489872
 30
0.0
 10
15.927470345
 20
12.2082868951
 30
0.0
 10
15.9284086121
 20
12.2054846703
 30
0.0
 10
15.9292840044
 20
12.2025511578
 30
0.0
 10
15.9300937369
 20
12.1994956351
 30
0.0
 10
15.9308352455
 20
12.1963277794
 30
0.0
 10
15.9315061617
 20
12.1930576335
 30
0.0
 10
15.9321043519
 20
12.1896955464
 30
0.0
 10
15.9328079635
 20
12.185067693
 30
0.0
 10
15.9334893991
 20
12.1791291307
 30
0.0
 10
15.9339874918
 20
12.1718690543
 30
0.0
 10
15.9341658787
 20
12.1645107453
 30
0.0
 10
15.9340222991
 20
12.1571473877
 30
0.0
 10
15.9335585568
 20
12.1498722286
 30
0.0
 10
15.9329054326
 20
12.1439145338
 30
0.0
 10
15.9322240464
 20
12.1392664246
 30
0.0
 10
15.9316418527
 20
12.1358858355
 30
0.0
 10
15.9309865098
 20
12.1325949231
 30
0.0
 10
15.9302600833
 20
12.1294040192
 30
0.0
 10
15.9294648942
 20
12.126323387
 30
0.0
 10
15.9288810236
 20
12.124316554
 30
0.0
 10
15.9285774009
 20
12.1233340304
 30
0.0
  0
SPLINE
  5
2EB
100
AcDbEntity
  8
LAYER_FEATURE
100
AcDbSpline
 62
7
  6
CONTINUOUS
 70
0
 71
3
 72
15
 73
11
 74
0
 42
0.0000001
 43
0.0000001
 44
0.0000000001
 40
0.0
 40
0.0
 40
0.0
 40
0.0
 40
0.1030414464
 40
0.2124414996
 40
0.3282548413
 40
0.4504495494
 40
0.5789185432
 40
0.7134880734
 40
0.8539471161
 40
1.0
 40
1.0
 40
1.0
 40
1.0
 10
15.9193672631
 20
12.1046632102
 30
0.0
 10
15.9198282505
 20
12.1052155021
 30
0.0
 10
15.9207353985
 20
12.1063907659
 30
0.0
 10
15.922014554
 20
12.1082939483
 30
0.0
 10
15.9232485645
 20
12.1103835132
 30
0.0
 10
15.9244333262
 20
12.1126524677
 30
0.0
 10
15.9255649829
 20
12.1150933596
 30
0.0
 10
15.9266398437
 20
12.1176981743
 30
0.0
 10
15.9276542561
 20
12.1204581649
 30
0.0
 10
15.9282763399
 20
12.1223597969
 30
0.0
 10
15.9285774009
 20
12.1233340304
 30
0.0
  0
SPLINE
  5
2EC
100
AcDbEntity
  8
02___PRT_ALL_AXES
100
AcDbSpline
 62
7
  6
CONTINUOUS
 70
0
 71
3
 72
24
 73
20
 74
0
 42
0.0000001
 43
0.0000001
 44
0.0000000001
 40
0.0
 40
0.0
 40
0.0
 40
0.0
 40
0.0428513981
 40
0.086523538
 40
0.1316311473
 40
0.1787226399
 40
0.203169518
 40
0.2282811445
 40
0.2806662142
 40
0.3361994236
 40
0.3951187887
 40
0.4575987825
 40
0.5237625514
 40
0.5936867791
 40
0.6674100341
 40
0.7449360069
 40
0.8262451487
 40
0.911295627
 40
1.0
 40
1.0
 40
1.0
 40
1.0
 10
15.9065485794
 20
12.0821116443
 30
0.0
 10
15.9061725718
 20
12.0821116452
 30
0.0
 10
15.9054125092
 20
12.0821607336
 30
0.0
 10
15.904275618
 20
12.0823796866
 30
0.0
 10
15.9031374708
 20
12.0827433709
 30
0.0
 10
15.9022007502
 20
12.0831607907
 30
0.0
 10
15.901453414
 20
12.0835622225
 30
0.0
 10
15.9006859355
 20
12.084022317
 30
0.0
 10
15.8997264154
 20
12.0846897448
 30
0.0
 10
15.8985933153
 20
12.0856187211
 30
0.0
 10
15.8974635283
 20
12.0866852237
 30
0.0
 10
15.8963381184
 20
12.0878873715
 30
0.0
 10
15.8952182358
 20
12.0892231908
 30
0.0
 10
15.8941051403
 20
12.0906904273
 30
0.0
 10
15.8930002394
 20
12.0922865932
 30
0.0
 10
15.8919050073
 20
12.0940089547
 30
0.0
 10
15.8908210168
 20
12.0958545956
 30
0.0
 10
15.8897500167
 20
12.0978201975
 30
0.0
 10
15.8890601136
 20
12.0991800856
 30
0.0
 10
15.8887172159
 20
12.0998788377
 30
0.0
  0
SPLINE
  5
2ED
100
AcDbEntity
  8
LAYER_FEATURE
100
AcDbSpline
 62
7
  6
CONTINUOUS
 70
0
 71
3
 72
43
 73
39
 74
0
 42
0.0000001
 43
0.0000001
 44
0.0000000001
 40
0.0
 40
0.0
 40
0.0
 40
0.0
 40
0.0122317196
 40
0.0244712495
 40
0.0367263751
 40
0.0490048326
 40
0.0613142864
 40
0.0736623022
 40
0.0985009046
 40
0.123581293
 40
0.1489584451
 40
0.1746839854
 40
0.2008057747
 40
0.2273676051
 40
0.2544089946
 40
0.2819650744
 40
0.3100665536
 40
0.3243311302
 40
0.338741556
 40
0.3680084866
 40
0.3978869822
 40
0.4283908477
 40
0.4595300345
 40
0.4913108271
 40
0.5237360346
 40
0.5568051847
 40
0.5905147147
 40
0.6248581587
 40
0.6598263285
 40
0.6954074875
 40
0.7315875172
 40
0.7683500753
 40
0.8056767483
 40
0.8435471956
 40
0.8819392872
 40
0.9208292348
 40
0.9601917171
 40
1.0
 40
1.0
 40
1.0
 40
1.0
 10
14.4475499596
 20
12.5936995791
 30
0.0
 10
14.4465552303
 20
12.5904806288
 30
0.0
 10
14.4446643046
 20
12.5840095438
 30
0.0
 10
14.4421271524
 20
12.5742152785
 30
0.0
 10
14.4398895583
 20
12.5643349634
 30
0.0
 10
14.4379522661
 20
12.5543718439
 30
0.0
 10
14.4363158797
 20
12.5443288939
 30
0.0
 10
14.4345324853
 20
12.5308109486
 30
0.0
 10
14.4330610189
 20
12.5137119171
 30
0.0
 10
14.4325105279
 20
12.4929678161
 30
0.0
 10
14.4331718471
 20
12.4719825487
 30
0.0
 10
14.4350438453
 20
12.4507830816
 30
0.0
 10
14.438123741
 20
12.4293959014
 30
0.0
 10
14.4424072679
 20
12.4078478302
 30
0.0
 10
14.4478887005
 20
12.3861656727
 30
0.0
 10
14.4545607349
 20
12.364376667
 30
0.0
 10
14.4610731091
 20
12.3462435142
 30
0.0
 10
14.4668591885
 20
12.3317133892
 30
0.0
 10
14.4730952183
 20
12.3170211484
 30
0.0
 10
14.4816275994
 20
12.2986373879
 30
0.0
 10
14.4929616518
 20
12.2766912143
 30
0.0
 10
14.5054291199
 20
12.2547734005
 30
0.0
 10
14.5190142241
 20
12.2329113668
 30
0.0
 10
14.5336999951
 20
12.2111320925
 30
0.0
 10
14.549468073
 20
12.1894625679
 30
0.0
 10
14.5662987856
 20
12.16792963
 30
0.0
 10
14.5841711516
 20
12.1465599667
 30
0.0
 10
14.603062907
 20
12.1253800741
 30
0.0
 10
14.6229505288
 20
12.1044162258
 30
0.0
 10
14.6438092616
 20
12.0836944392
 30
0.0
 10
14.6656131452
 20
12.0632404419
 30
0.0
 10
14.6883350452
 20
12.0430796381
 30
0.0
 10
14.7119466848
 20
12.0232370776
 30
0.0
 10
14.7364186847
 20
12.0037374199
 30
0.0
 10
14.7617205779
 20
11.984604916
 30
0.0
 10
14.787820926
 20
11.9658633255
 30
0.0
 10
14.8146870573
 20
11.9475360823
 30
0.0
 10
14.8329877885
 20
11.9356730406
 30
0.0
 10
14.8422564014
 20
11.9298145204
 30
0.0
  0
SPLINE
  5
2EE
100
AcDbEntity
  8
LAYER_FEATURE
100
AcDbSpline
 62
7
  6
CONTINUOUS
 70
0
 71
3
 72
21
 73
17
 74
0
 42
0.0000001
 43
0.0000001
 44
0.0000000001
 40
0.0
 40
0.0
 40
0.0
 40
0.0
 40
0.0600983254
 40
0.1202566345
 40
0.1805346097
 40
0.2409913582
 40
0.301685103
 40
0.3626729444
 40
0.424010584
 40
0.4857520994
 40
0.5479497526
 40
0.6106537547
 40
0.6739121815
 40
0.7377707399
 40
0.867441231
 40
1.0
 40
1.0
 40
1.0
 40
1.0
 10
14.5741506467
 20
13.0033795528
 30
0.0
 10
14.5729066895
 20
12.9993540996
 30
0.0
 10
14.5705726234
 20
12.9912503037
 30
0.0
 10
14.5675401187
 20
12.9789592731
 30
0.0
 10
14.5649767661
 20
12.9665360673
 30
0.0
 10
14.5628839464
 20
12.9539870183
 30
0.0
 10
14.5612626011
 20
12.9413182395
 30
0.0
 10
14.560113536
 20
12.9285359678
 30
0.0
 10
14.559437281
 20
12.9156464747
 30
0.0
 10
14.559234117
 20
12.9026560865
 30
0.0
 10
14.5595041515
 20
12.8895711608
 30
0.0
 10
14.5602471525
 20
12.8763981382
 30
0.0
 10
14.5614628118
 20
12.8631433301
 30
0.0
 10
14.5637242282
 20
12.84528041
 30
0.0
 10
14.5677504714
 20
12.8227589521
 30
0.0
 10
14.5721551092
 20
12.8048960196
 30
0.0
 10
14.5746549291
 20
12.795945333
 30
0.0
  0
SPLINE
  5
2EF
100
AcDbEntity
  8
LAYER_FEATURE
100
AcDbSpline
 62
7
  6
CONTINUOUS
 70
0
 71
3
 72
39
 73
35
 74
0
 42
0.0000001
 43
0.0000001
 44
0.0000000001
 40
0.0
 40
0.0
 40
0.0
 40
0.0
 40
0.024803497
 40
0.0496643328
 40
0.0746391937
 40
0.0997834843
 40
0.1251507429
 40
0.1507921181
 40
0.1767559212
 40
0.2030872611
 40
0.2298277628
 40
0.2570153678
 40
0.2846842095
 40
0.3128645565
 40
0.3415828104
 40
0.3708615552
 40
0.4007196437
 40
0.4311723107
 40
0.4622313077
 40
0.4939050511
 40
0.5261987783
 40
0.5591147058
 40
0.592652193
 40
0.6268079018
 40
0.6615759528
 40
0.6969480765
 40
0.7329137578
 40
0.7694603755
 40
0.8065733383
 40
0.8442361881
 40
0.8824308305
 40
0.9211372955
 40
0.9603347955
 40
1.0
 40
1.0
 40
1.0
 40
1.0
 10
16.3583916373
 20
12.0032048395
 30
0.0
 10
16.3564967505
 20
11.9970729741
 30
0.0
 10
16.3523406496
 20
11.9849035845
 30
0.0
 10
16.3450343173
 20
11.9670145517
 30
0.0
 10
16.3366609575
 20
11.9495010348
 30
0.0
 10
16.3272306253
 20
11.9323839626
 30
0.0
 10
16.3167542814
 20
11.9156826752
 30
0.0
 10
16.3052441849
 20
11.8994162399
 30
0.0
 10
16.2927137379
 20
11.8836030695
 30
0.0
 10
16.2791774816
 20
11.8682610099
 30
0.0
 10
16.2646510568
 20
11.8534073042
 30
0.0
 10
16.2491511787
 20
11.8390585946
 30
0.0
 10
16.2326956125
 20
11.8252309164
 30
0.0
 10
16.2153031523
 20
11.8119396945
 30
0.0
 10
16.1969936058
 20
11.7991997328
 30
0.0
 10
16.1777877725
 20
11.787025211
 30
0.0
 10
16.1577074241
 20
11.7754296768
 30
0.0
 10
16.1367752864
 20
11.7644260358
 30
0.0
 10
16.1150150197
 20
11.7540265403
 30
0.0
 10
16.0924511975
 20
11.7442427775
 30
0.0
 10
16.0691092849
 20
11.7350856579
 30
0.0
 10
16.0450156162
 20
11.7265653977
 30
0.0
 10
16.0201973667
 20
11.7186915105
 30
0.0
 10
15.9946825239
 20
11.7114727963
 30
0.0
 10
15.9684998591
 20
11.7049173296
 30
0.0
 10
15.9416788962
 20
11.699032449
 30
0.0
 10
15.9142498804
 20
11.6938247477
 30
0.0
 10
15.8862437449
 20
11.6893000637
 30
0.0
 10
15.8576920835
 20
11.6854634716
 30
0.0
 10
15.8286270882
 20
11.6823192652
 30
0.0
 10
15.7990816017
 20
11.6798709916
 30
0.0
 10
15.7690888214
 20
11.6781213597
 30
0.0
 10
15.7386828978
 20
11.6770723844
 30
0.0
 10
15.7182761448
 20
11.676842241
 30
0.0
 10
15.7080126651
 20
11.676842241
 30
0.0
  0
SPLINE
  5
2F0
100
AcDbEntity
  8
LAYER_FEATURE
100
AcDbSpline
 62
7
  6
CONTINUOUS
 70
0
 71
3
 72
21
 73
17
 74
0
 42
0.0000001
 43
0.0000001
 44
0.0000000001
 40
0.0
 40
0.0
 40
0.0
 40
0.0
 40
0.0600983905
 40
0.120256763
 40
0.1805348
 40
0.2409916007
 40
0.3016853977
 40
0.3626732748
 40
0.4240109485
 40
0.4857524813
 40
0.5479501405
 40
0.6106541395
 40
0.6739125375
 40
0.7377710667
 40
0.8674414308
 40
1.0
 40
1.0
 40
1.0
 40
1.0
 10
16.4849923244
 20
12.4128848132
 30
0.0
 10
16.4837483859
 20
12.4088594205
 30
0.0
 10
16.481103632
 20
12.4008517673
 30
0.0
 10
16.4766732911
 20
12.3889928984
 30
0.0
 10
16.4717810063
 20
12.377289587
 30
0.0
 10
16.4664292727
 20
12.3657478126
 30
0.0
 10
16.4606206931
 20
12.3543731868
 30
0.0
 10
16.4543581872
 20
12.3431712784
 30
0.0
 10
16.4476447993
 20
12.3321475962
 30
0.0
 10
16.4404839045
 20
12.3213074989
 30
0.0
 10
16.432878986
 20
12.3106563048
 30
0.0
 10
16.4248338597
 20
12.3001992088
 30
0.0
 10
16.4163523695
 20
12.2899412231
 30
0.0
 10
16.4044077389
 20
12.2764685541
 30
0.0
 10
16.3883778773
 20
12.2601451904
 30
0.0
 10
16.3746637244
 20
12.2478816083
 30
0.0
 10
16.3675501843
 20
12.2419017758
 30
0.0
  0
SPLINE
  5
2F1
100
AcDbEntity
  8
LAYER_CUT_FEAT
100
AcDbSpline
 62
7
  6
CONTINUOUS
 70
0
 71
3
 72
23
 73
19
 74
0
 42
0.0000001
 43
0.0000001
 44
0.0000000001
 40
0.0
 40
0.0
 40
0.0
 40
0.0
 40
0.0568156013
 40
0.1137863086
 40
0.1710651454
 40
0.228801058
 40
0.2871370867
 40
0.3462087645
 40
0.4061427841
 40
0.4670559603
 40
0.5290544791
 40
0.5922334187
 40
0.6566765129
 40
0.7224561222
 40
0.7896333715
 40
0.8582584176
 40
0.928370824
 40
1.0
 40
1.0
 40
1.0
 40
1.0
 10
16.0837081453
 20
12.0880884586
 30
0.0
 10
16.082240555
 20
12.0833393212
 30
0.0
 10
16.0789964438
 20
12.0739192611
 30
0.0
 10
16.0732281561
 20
12.0600988837
 30
0.0
 10
16.0665626436
 20
12.0465978109
 30
0.0
 10
16.0590094175
 20
12.0334351403
 30
0.0
 10
16.0505789126
 20
12.0206284499
 30
0.0
 10
16.0412828349
 20
12.0081950028
 30
0.0
 10
16.031134016
 20
11.996151394
 30
0.0
 10
16.0201463983
 20
11.9845136347
 30
0.0
 10
16.0083349937
 20
11.973297123
 30
0.0
 10
15.9957158567
 20
11.9625166482
 30
0.0
 10
15.9823060618
 20
11.9521863878
 30
0.0
 10
15.9681236734
 20
11.9423199011
 30
0.0
 10
15.9531877635
 20
11.9329301394
 30
0.0
 10
15.9375182575
 20
11.9240293729
 30
0.0
 10
15.9211364432
 20
11.9156294219
 30
0.0
 10
15.9098756288
 20
11.9104264553
 30
0.0
 10
15.9041367848
 20
11.9079089552
 30
0.0
  0
SPLINE
  5
2F2
100
AcDbEntity
  8
LAYER_CUT_FEAT
100
AcDbSpline
 62
7
  6
CONTINUOUS
 70
0
 71
3
 72
9
 73
5
 74
0
 42
0.0000001
 43
0.0000001
 44
0.0000000001
 40
0.0
 40
0.0
 40
0.0
 40
0.0
 40
0.2550001939
 40
1.0
 40
1.0
 40
1.0
 40
1.0
 10
14.7688984546
 20
12.2586562211
 30
0.0
 10
14.7668468203
 20
12.2619419367
 30
0.0
 10
14.7589563491
 20
12.2749229651
 30
0.0
 10
14.7517005104
 20
12.2882924816
 30
0.0
 10
14.7467148402
 20
12.2984522093
 30
0.0
  0
SPLINE
  5
2F3
100
AcDbEntity
  8
02___PRT_ALL_AXES
100
AcDbSpline
 62
7
  6
CONTINUOUS
 70
0
 71
3
 72
38
 73
34
 74
0
 42
0.0000001
 43
0.0000001
 44
0.0000000001
 40
0.0
 40
0.0
 40
0.0
 40
0.0
 40
0.0265587862
 40
0.0531086605
 40
0.0797187676
 40
0.1064589816
 40
0.1333985199
 40
0.1606044578
 40
0.1881401472
 40
0.2160637351
 40
0.2444267
 40
0.2732726425
 40
0.3026362421
 40
0.3325424832
 40
0.3630061846
 40
0.3940316871
 40
0.4577038242
 40
0.490337251
 40
0.5234476482
 40
0.5569900703
 40
0.5909111345
 40
0.6251496746
 40
0.6596374652
 40
0.6942999618
 40
0.7290571828
 40
0.763824642
 40
0.7985144113
 40
0.8330363615
 40
0.8672994279
 40
0.9012132846
 40
0.9346896293
 40
0.9676447384
 40
1.0
 40
1.0
 40
1.0
 40
1.0
 10
15.2550598477
 20
12.5670591138
 30
0.0
 10
15.2556835286
 20
12.5657881929
 30
0.0
 10
15.2568190775
 20
12.5631902062
 30
0.0
 10
15.2581705295
 20
12.5591558474
 30
0.0
 10
15.2591611606
 20
12.5550077997
 30
0.0
 10
15.2597846206
 20
12.5507680659
 30
0.0
 10
15.260036662
 20
12.5464584062
 30
0.0
 10
15.2599149359
 20
12.5421008148
 30
0.0
 10
15.2594191377
 20
12.5377171803
 30
0.0
 10
15.2585510337
 20
12.5333291646
 30
0.0
 10
15.2573144745
 20
12.528958019
 30
0.0
 10
15.25571538
 20
12.5246244371
 30
0.0
 10
15.2537616696
 20
12.5203483896
 30
0.0
 10
15.2514632544
 20
12.5161490845
 30
0.0
 10
15.2488316609
 20
12.5120445571
 30
0.0
 10
15.2448635616
 20
12.5066764338
 30
0.0
 10
15.240309991
 20
12.501616033
 30
0.0
 10
15.2352667861
 20
12.4969055364
 30
0.0
 10
15.231200815
 20
12.4935131312
 30
0.0
 10
15.2269036465
 20
12.4903035993
 30
0.0
 10
15.2223959805
 20
12.4872876742
 30
0.0
 10
15.2176997586
 20
12.4844755813
 30
0.0
 10
15.2128375997
 20
12.4818765591
 30
0.0
 10
15.2078328453
 20
12.4794990415
 30
0.0
 10
15.2027094415
 20
12.4773506525
 30
0.0
 10
15.1974918618
 20
12.4754382375
 30
0.0
 10
15.1922050083
 20
12.4737678732
 30
0.0
 10
15.1868741089
 20
12.4723448715
 30
0.0
 10
15.1815245846
 20
12.4711737682
 30
0.0
 10
15.176181947
 20
12.470258324
 30
0.0
 10
15.1708715382
 20
12.469601482
 30
0.0
 10
15.1656187168
 20
12.4692054
 30
0.0
 10
15.1621367993
 20
12.4691151589
 30
0.0
 10
15.1604121167
 20
12.4691151589
 30
0.0
  0
SPLINE
  5
2F4
100
AcDbEntity
  8
02___PRT_ALL_AXES
100
AcDbSpline
 62
7
  6
CONTINUOUS
 70
0
 71
3
 72
56
 73
52
 74
0
 42
0.0000001
 43
0.0000001
 44
0.0000000001
 40
0.0
 40
0.0
 40
0.0
 40
0.0
 40
0.0106256372
 40
0.0212739184
 40
0.0319672499
 40
0.0427275708
 40
0.0535761374
 40
0.0645333304
 40
0.0756184859
 40
0.0868497563
 40
0.0982439996
 40
0.1098166981
 40
0.1215819041
 40
0.1335522104
 40
0.1457387415
 40
0.1581511645
 40
0.1707977132
 40
0.1836852246
 40
0.1968191838
 40
0.210203775
 40
0.2238419369
 40
0.2377354194
 40
0.2518848433
 40
0.2662897587
 40
0.2809487025
 40
0.2958592551
 40
0.3110180955
 40
0.3264210532
 40
0.3420631596
 40
0.3579386965
 40
0.3740412429
 40
0.3903637196
 40
0.4068984314
 40
0.423637108
 40
0.4405709432
 40
0.4576906323
 40
0.4924461504
 40
0.5278226276
 40
0.5637311966
 40
0.6000782075
 40
0.6367661816
 40
0.6736947281
 40
0.7107614342
 40
0.7478627378
 40
0.7848947906
 40
0.821754318
 40
0.8583394846
 40
0.8945507717
 40
0.9302918757
 40
0.9654706407
 40
1.0
 40
1.0
 40
1.0
 40
1.0
 10
14.7524220688
 20
12.2051480177
 30
0.0
 10
14.7513415118
 20
12.2016513315
 30
0.0
 10
14.7493751889
 20
12.1945878482
 30
0.0
 10
14.7470228251
 20
12.1838258038
 30
0.0
 10
14.7452684775
 20
12.1729029817
 30
0.0
 10
14.7441140635
 20
12.161831411
 30
0.0
 10
14.7435606639
 20
12.1506226996
 30
0.0
 10
14.7436087469
 20
12.1392887222
 30
0.0
 10
14.7442581173
 20
12.1278414112
 30
0.0
 10
14.7455079428
 20
12.1162927936
 30
0.0
 10
14.7473567585
 20
12.1046549647
 30
0.0
 10
14.7498024777
 20
12.092940081
 30
0.0
 10
14.7528423993
 20
12.0811603507
 30
0.0
 10
14.7564732154
 20
12.0693280255
 30
0.0
 10
14.7606910169
 20
12.0574553925
 30
0.0
 10
14.7654912999
 20
12.0455547664
 30
0.0
 10
14.7708689708
 20
12.0336384807
 30
0.0
 10
14.7768183515
 20
12.0217188791
 30
0.0
 10
14.7833331839
 20
12.0098083059
 30
0.0
 10
14.790406635
 20
11.9979190951
 30
0.0
 10
14.7980313021
 20
11.9860635602
 30
0.0
 10
14.8061992184
 20
11.9742539822
 30
0.0
 10
14.8149018605
 20
11.9625025978
 30
0.0
 10
14.8241301559
 20
11.9508215877
 30
0.0
 10
14.8338744904
 20
11.939223064
 30
0.0
 10
14.8441247179
 20
11.9277190576
 30
0.0
 10
14.8548701688
 20
11.9163215058
 30
0.0
 10
14.8660996604
 20
11.9050422389
 30
0.0
 10
14.8778015076
 20
11.8938929686
 30
0.0
 10
14.8899635354
 20
11.8828852749
 30
0.0
 10
14.9025730907
 20
11.8720305939
 30
0.0
 10
14.9156170538
 20
11.8613402069
 30
0.0
 10
14.9290818587
 20
11.8508252217
 30
0.0
 10
14.9429534786
 20
11.8404965866
 30
0.0
 10
14.9572175489
 20
11.8303649804
 30
0.0
 10
14.9768373281
 20
11.8170668875
 30
0.0
 10
15.002254695
 20
11.8010139047
 30
0.0
 10
15.0339226672
 20
11.7827969555
 30
0.0
 10
15.0667789447
 20
11.7656059063
 30
0.0
 10
15.1006867089
 20
11.7495123397
 30
0.0
 10
15.1355052767
 20
11.7345830073
 30
0.0
 10
15.1710900074
 20
11.7208799319
 30
0.0
 10
15.2072930951
 20
11.7084600272
 30
0.0
 10
15.2439641423
 20
11.6973748895
 30
0.0
 10
15.2809508093
 20
11.6876705709
 30
0.0
 10
15.3180994438
 20
11.6793873834
 30
0.0
 10
15.3552557611
 20
11.6725597314
 30
0.0
 10
15.3922653848
 20
11.6672159754
 30
0.0
 10
15.4289749117
 20
11.663378313
 30
0.0
 10
15.465231051
 20
11.6610627006
 30
0.0
 10
15.4892438075
 20
11.6605347581
 30
0.0
 10
15.5011369183
 20
11.6605347581
 30
0.0
  0
SPLINE
  5
2F5
100
AcDbEntity
  8
02___PRT_ALL_AXES
100
AcDbSpline
 62
7
  6
CONTINUOUS
 70
0
 71
3
 72
39
 73
35
 74
0
 42
0.0000001
 43
0.0000001
 44
0.0000000001
 40
0.0
 40
0.0
 40
0.0
 40
0.0
 40
0.0248034971
 40
0.049664333
 40
0.0746391943
 40
0.0997834852
 40
0.1251507434
 40
0.1507921176
 40
0.17675592
 40
0.2030872601
 40
0.2298277627
 40
0.2570153687
 40
0.2846842107
 40
0.3128645568
 40
0.3415828097
 40
0.3708615539
 40
0.4007196423
 40
0.4311723098
 40
0.4622313079
 40
0.4939050525
 40
0.5261987792
 40
0.5591147052
 40
0.5926521908
 40
0.6268078993
 40
0.6615759518
 40
0.6969480772
 40
0.7329137591
 40
0.7694603759
 40
0.8065733341
 40
0.8442361959
 40
0.8824307952
 40
0.9211373865
 40
0.960334618
 40
1.0
 40
1.0
 40
1.0
 40
1.0
 10
15.8874620302
 20
11.8543941409
 30
0.0
 10
15.8863364666
 20
11.850751813
 30
0.0
 10
15.8838677451
 20
11.8435231948
 30
0.0
 10
15.8795277824
 20
11.8328971096
 30
0.0
 10
15.8745540046
 20
11.8224940814
 30
0.0
 10
15.8689523854
 20
11.8123265414
 30
0.0
 10
15.8627294381
 20
11.8024059764
 30
0.0
 10
15.8558924429
 20
11.7927437126
 30
0.0
 10
15.8484493588
 20
11.7833506885
 30
0.0
 10
15.8404088221
 20
11.7742375053
 30
0.0
 10
15.8317801245
 20
11.7654144048
 30
0.0
 10
15.8225731956
 20
11.7568912722
 30
0.0
 10
15.8127985888
 20
11.7486776318
 30
0.0
 10
15.8024674683
 20
11.7407826452
 30
0.0
 10
15.7915915985
 20
11.7332151073
 30
0.0
 10
15.780183334
 20
11.7259834409
 30
0.0
 10
15.7682556071
 20
11.7190956934
 30
0.0
 10
15.755821917
 20
11.7125595309
 30
0.0
 10
15.7428963176
 20
11.7063822312
 30
0.0
 10
15.7294934063
 20
11.7005706774
 30
0.0
 10
15.7156283105
 20
11.6951313481
 30
0.0
 10
15.7013166722
 20
11.6900703124
 30
0.0
 10
15.6865746329
 20
11.6853932222
 30
0.0
 10
15.6714188164
 20
11.6811053055
 30
0.0
 10
15.6558663127
 20
11.6772113594
 30
0.0
 10
15.6399346597
 20
11.6737157418
 30
0.0
 10
15.623641824
 20
11.6706223679
 30
0.0
 10
15.6070061803
 20
11.6679347049
 30
0.0
 10
15.5900464927
 20
11.6656557666
 30
0.0
 10
15.5727818906
 20
11.6637881105
 30
0.0
 10
15.5552318574
 20
11.6623338301
 30
0.0
 10
15.5374161737
 20
11.6612945597
 30
0.0
 10
15.51935505
 20
11.6606714589
 30
0.0
 10
15.5072334525
 20
11.6605347581
 30
0.0
 10
15.5011369183
 20
11.6605347581
 30
0.0
  0
SPLINE
  5
2F6
100
AcDbEntity
  8
LAYER_CHAMFER_FEAT
100
AcDbSpline
 62
7
  6
CONTINUOUS
 70
0
 71
3
 72
11
 73
7
 74
0
 42
0.0000001
 43
0.0000001
 44
0.0000000001
 40
0.0
 40
0.0
 40
0.0
 40
0.0
 40
0.2617773449
 40
0.5161275395
 40
0.762384425
 40
1.0
 40
1.0
 40
1.0
 40
1.0
 10
15.2760922812
 20
12.1191275122
 30
0.0
 10
15.272795166
 20
12.1191275122
 30
0.0
 10
15.2662930725
 20
12.1189638377
 30
0.0
 10
15.2567158944
 20
12.1182059109
 30
0.0
 10
15.2474988633
 20
12.1169432097
 30
0.0
 10
15.241517952
 20
12.1157471866
 30
0.0
 10
15.2386046385
 20
12.1150620402
 30
0.0
  0
SPLINE
  5
2F7
100
AcDbEntity
  8
LAYER_CHAMFER_FEAT
100
AcDbSpline
 62
7
  6
CONTINUOUS
 70
0
 71
3
 72
23
 73
19
 74
0
 42
0.0000001
 43
0.0000001
 44
0.0000000001
 40
0.0
 40
0.0
 40
0.0
 40
0.0
 40
0.0614590506
 40
0.1243125127
 40
0.1883141459
 40
0.2531994683
 40
0.318692965
 40
0.3845108487
 40
0.4503651286
 40
0.5159673462
 40
0.581032323
 40
0.645281953
 40
0.7084491062
 40
0.7702816944
 40
0.8305469407
 40
0.8890359703
 40
0.9455688198
 40
1.0
 40
1.0
 40
1.0
 40
1.0
 10
15.2760922812
 20
12.1191275122
 30
0.0
 10
15.2797031
 20
12.1191275122
 30
0.0
 10
15.2870079749
 20
12.1189261322
 30
0.0
 10
15.2980413698
 20
12.118048703
 30
0.0
 10
15.309217223
 20
12.1165979141
 30
0.0
 10
15.3204626213
 20
12.1145831529
 30
0.0
 10
15.3317046485
 20
12.1120175198
 30
0.0
 10
15.3428702697
 20
12.1089176658
 30
0.0
 10
15.3538869683
 20
12.105303734
 30
0.0
 10
15.3646831831
 20
12.1011992001
 30
0.0
 10
15.3751887969
 20
12.0966307215
 30
0.0
 10
15.3853355965
 20
12.0916279524
 30
0.0
 10
15.3950577252
 20
12.0862233523
 30
0.0
 10
15.4042921363
 20
12.0804519445
 30
0.0
 10
15.4129789396
 20
12.0743511193
 30
0.0
 10
15.421062002
 20
12.0679601363
 30
0.0
 10
15.4284885317
 20
12.0613206508
 30
0.0
 10
15.4330603906
 20
12.0566647673
 30
0.0
 10
15.4352176189
 20
12.0543040347
 30
0.0
  0
SPLINE
  5
2F8
100
AcDbEntity
  8
LAYER_FEATURE
100
AcDbSpline
 62
7
  6
CONTINUOUS
 70
0
 71
3
 72
39
 73
35
 74
0
 42
0.0000001
 43
0.0000001
 44
0.0000000001
 40
0.0
 40
0.0
 40
0.0
 40
0.0
 40
0.0396652045
 40
0.0788627045
 40
0.1175691695
 40
0.1557638119
 40
0.1934266617
 40
0.2305396245
 40
0.2670862422
 40
0.3030519235
 40
0.3384240472
 40
0.3731920982
 40
0.407347807
 40
0.4408852942
 40
0.4738012217
 40
0.5060949489
 40
0.5377686923
 40
0.5688276893
 40
0.5992803563
 40
0.6291384448
 40
0.6584171896
 40
0.6871354435
 40
0.7153157905
 40
0.7429846322
 40
0.7701722372
 40
0.7969127389
 40
0.8232440788
 40
0.8492078819
 40
0.8748492571
 40
0.9002165157
 40
0.9253608063
 40
0.9503356672
 40
0.975196503
 40
1.0
 40
1.0
 40
1.0
 40
1.0
 10
15.1076115847
 20
12.9513952539
 30
0.0
 10
15.097348105
 20
12.9513952539
 30
0.0
 10
15.0769413521
 20
12.9511651106
 30
0.0
 10
15.0465354284
 20
12.9501161352
 30
0.0
 10
15.0165426481
 20
12.9483665033
 30
0.0
 10
14.9869971616
 20
12.9459182297
 30
0.0
 10
14.9579321663
 20
12.9427740233
 30
0.0
 10
14.9293805049
 20
12.9389374313
 30
0.0
 10
14.9013743694
 20
12.9344127473
 30
0.0
 10
14.8739453536
 20
12.929205046
 30
0.0
 10
14.8471243907
 20
12.9233201654
 30
0.0
 10
14.8209417259
 20
12.9167646987
 30
0.0
 10
14.7954268831
 20
12.9095459844
 30
0.0
 10
14.7706086336
 20
12.9016720973
 30
0.0
 10
14.7465149649
 20
12.893151837
 30
0.0
 10
14.7231730523
 20
12.8839947175
 30
0.0
 10
14.7006092301
 20
12.8742109547
 30
0.0
 10
14.6788489634
 20
12.8638114592
 30
0.0
 10
14.6579168257
 20
12.8528078182
 30
0.0
 10
14.6378364773
 20
12.841212284
 30
0.0
 10
14.618630644
 20
12.8290377622
 30
0.0
 10
14.6003210975
 20
12.8162978004
 30
0.0
 10
14.5829286373
 20
12.8030065785
 30
0.0
 10
14.5664730711
 20
12.7891789003
 30
0.0
 10
14.550973193
 20
12.7748301908
 30
0.0
 10
14.5364467682
 20
12.7599764851
 30
0.0
 10
14.5229105119
 20
12.7446344255
 30
0.0
 10
14.5103800649
 20
12.7288212551
 30
0.0
 10
14.4988699684
 20
12.7125548197
 30
0.0
 10
14.4883936245
 20
12.6958535324
 30
0.0
 10
14.4789632923
 20
12.6787364602
 30
0.0
 10
14.4705899325
 20
12.6612229432
 30
0.0
 10
14.4632836002
 20
12.6433339105
 30
0.0
 10
14.4591274993
 20
12.6311645209
 30
0.0
 10
14.4572326125
 20
12.6250326555
 30
0.0
  0
SPLINE
  5
2F9
100
AcDbEntity
  8
LAYER_FEATURE
100
AcDbSpline
 62
7
  6
CONTINUOUS
 70
0
 71
3
 72
39
 73
35
 74
0
 42
0.0000001
 43
0.0000001
 44
0.0000000001
 40
0.0
 40
0.0
 40
0.0
 40
0.0
 40
0.0396652045
 40
0.0788627045
 40
0.1175691695
 40
0.1557638119
 40
0.1934266617
 40
0.2305396245
 40
0.2670862422
 40
0.3030519235
 40
0.3384240472
 40
0.3731920982
 40
0.407347807
 40
0.4408852942
 40
0.4738012217
 40
0.5060949489
 40
0.5377686923
 40
0.5688276893
 40
0.5992803563
 40
0.6291384448
 40
0.6584171896
 40
0.6871354435
 40
0.7153157905
 40
0.7429846322
 40
0.7701722372
 40
0.7969127389
 40
0.8232440788
 40
0.8492078819
 40
0.8748492571
 40
0.9002165157
 40
0.9253608063
 40
0.9503356672
 40
0.975196503
 40
1.0
 40
1.0
 40
1.0
 40
1.0
 10
15.2342122719
 20
13.3610752277
 30
0.0
 10
15.2239487922
 20
13.3610752277
 30
0.0
 10
15.2035420392
 20
13.3608450843
 30
0.0
 10
15.1731361155
 20
13.359796109
 30
0.0
 10
15.1431433352
 20
13.3580464771
 30
0.0
 10
15.1135978488
 20
13.3555982035
 30
0.0
 10
15.0845328534
 20
13.3524539971
 30
0.0
 10
15.055981192
 20
13.348617405
 30
0.0
 10
15.0279750565
 20
13.344092721
 30
0.0
 10
15.0005460408
 20
13.3388850197
 30
0.0
 10
14.9737250778
 20
13.3330001391
 30
0.0
 10
14.947542413
 20
13.3264446724
 30
0.0
 10
14.9220275703
 20
13.3192259582
 30
0.0
 10
14.8972093207
 20
13.311352071
 30
0.0
 10
14.873115652
 20
13.3028318108
 30
0.0
 10
14.8497737395
 20
13.2936746912
 30
0.0
 10
14.8272099173
 20
13.2838909284
 30
0.0
 10
14.8054496505
 20
13.2734914329
 30
0.0
 10
14.7845175129
 20
13.2624877919
 30
0.0
 10
14.7644371645
 20
13.2508922577
 30
0.0
 10
14.7452313311
 20
13.2387177359
 30
0.0
 10
14.7269217847
 20
13.2259777742
 30
0.0
 10
14.7095293245
 20
13.2126865523
 30
0.0
 10
14.6930737582
 20
13.1988588741
 30
0.0
 10
14.6775738801
 20
13.1845101645
 30
0.0
 10
14.6630474553
 20
13.1696564588
 30
0.0
 10
14.649511199
 20
13.1543143992
 30
0.0
 10
14.6369807521
 20
13.1385012288
 30
0.0
 10
14.6254706555
 20
13.1222347935
 30
0.0
 10
14.6149943117
 20
13.1055335061
 30
0.0
 10
14.6055639794
 20
13.0884164339
 30
0.0
 10
14.5971906197
 20
13.070902917
 30
0.0
 10
14.5898842874
 20
13.0530138842
 30
0.0
 10
14.5857281865
 20
13.0408444946
 30
0.0
 10
14.5838332997
 20
13.0347126292
 30
0.0
  0
SPLINE
  5
2FA
100
AcDbEntity
  8
LAYER_FEATURE
100
AcDbSpline
 62
7
  6
CONTINUOUS
 70
0
 71
3
 72
68
 73
64
 74
0
 42
0.0000001
 43
0.0000001
 44
0.0000000001
 40
0.0
 40
0.0
 40
0.0
 40
0.0
 40
0.0171788537
 40
0.0345306493
 40
0.0520446784
 40
0.069710489
 40
0.0875169164
 40
0.1054526098
 40
0.1235058943
 40
0.141664841
 40
0.1599172928
 40
0.1782508912
 40
0.1966531056
 40
0.2151112603
 40
0.2521425355
 40
0.2892430599
 40
0.3263089876
 40
0.3447973805
 40
0.363238365
 40
0.3816191842
 40
0.3999272074
 40
0.4181499576
 40
0.4362751398
 40
0.4542906695
 40
0.4721847017
 40
0.4899456595
 40
0.5075622643
 40
0.5250235667
 40
0.5423189792
 40
0.5594383084
 40
0.5763717881
 40
0.5931101137
 40
0.6096444786
 40
0.6259666121
 40
0.6420688199
 40
0.6579440233
 40
0.6735858016
 40
0.6889884364
 40
0.7041469583
 40
0.7190571972
 40
0.7337158328
 40
0.7481204459
 40
0.7622695735
 40
0.7761627646
 40
0.7898006393
 40
0.8031849488
 40
0.8163186321
 40
0.8292058734
 40
0.8418521573
 40
0.8542643197
 40
0.8664505941
 40
0.8784206484
 40
0.8901856074
 40
0.9017580635
 40
0.9131520681
 40
0.9243831024
 40
0.9354680247
 40
0.9464249873
 40
0.9572733262
 40
0.9680334213
 40
0.9787265285
 40
0.989374586
 40
1.0
 40
1.0
 40
1.0
 40
1.0
 10
15.1076115847
 20
12.9513952539
 30
0.0
 10
15.1175730632
 20
12.9513952539
 30
0.0
 10
15.137596943
 20
12.9511760645
 30
0.0
 10
15.167762428
 20
12.9502021478
 30
0.0
 10
15.1981829955
 20
12.9485823511
 30
0.0
 10
15.2288266724
 20
12.9463184215
 30
0.0
 10
15.2596617263
 20
12.9434126765
 30
0.0
 10
15.2906560075
 20
12.9398681581
 30
0.0
 10
15.3217772755
 20
12.9356885485
 30
0.0
 10
15.352993132
 20
12.9308782042
 30
0.0
 10
15.384271096
 20
12.9254421322
 30
0.0
 10
15.4155785723
 20
12.9193859967
 30
0.0
 10
15.4468831165
 20
12.9127160786
 30
0.0
 10
15.4886174005
 20
12.9030038391
 30
0.0
 10
15.5405627445
 20
12.8893747188
 30
0.0
 10
15.6022977991
 20
12.8707130941
 30
0.0
 10
15.6531308244
 20
12.8532742496
 30
0.0
 10
15.6933148053
 20
12.8382250142
 30
0.0
 10
15.7231370402
 20
12.8264176087
 30
0.0
 10
15.7526359626
 20
12.8140932662
 30
0.0
 10
15.7817809982
 20
12.801264753
 30
0.0
 10
15.8105417723
 20
12.7879454358
 30
0.0
 10
15.8388883572
 20
12.7741491744
 30
0.0
 10
15.8667912472
 20
12.759890332
 30
0.0
 10
15.8942214018
 20
12.745183749
 30
0.0
 10
15.9211502716
 20
12.7300447302
 30
0.0
 10
15.9475498293
 20
12.7144890284
 30
0.0
 10
15.9733925986
 20
12.6985328269
 30
0.0
 10
15.9986516876
 20
12.6821927293
 30
0.0
 10
16.0233008133
 20
12.6654857358
 30
0.0
 10
16.0473143276
 20
12.6484292247
 30
0.0
 10
16.0706672437
 20
12.6310409345
 30
0.0
 10
16.0933352614
 20
12.6133389445
 30
0.0
 10
16.1152947949
 20
12.5953416575
 30
0.0
 10
16.1365230007
 20
12.5770677833
 30
0.0
 10
16.1569977948
 20
12.5585363125
 30
0.0
 10
16.1766978758
 20
12.539766498
 30
0.0
 10
16.1956027455
 20
12.5207778344
 30
0.0
 10
16.2136927293
 20
12.501590036
 30
0.0
 10
16.2309490022
 20
12.4822230208
 30
0.0
 10
16.2473536049
 20
12.4626968865
 30
0.0
 10
16.2628894567
 20
12.4430318869
 30
0.0
 10
16.277540372
 20
12.4232484124
 30
0.0
 10
16.2912910742
 20
12.4033669686
 30
0.0
 10
16.304127211
 20
12.3834081545
 30
0.0
 10
16.3160353751
 20
12.3633926476
 30
0.0
 10
16.3270031063
 20
12.3433411776
 30
0.0
 10
16.3370189013
 20
12.3232745089
 30
0.0
 10
16.346072223
 20
12.3032134226
 30
0.0
 10
16.3541535074
 20
12.2831786984
 30
0.0
 10
16.361254179
 20
12.2631911001
 30
0.0
 10
16.367366661
 20
12.2432713608
 30
0.0
 10
16.3724843749
 20
12.2234401652
 30
0.0
 10
16.3766017511
 20
12.2037181389
 30
0.0
 10
16.3797142395
 20
12.1841258343
 30
0.0
 10
16.3818183207
 20
12.1646837169
 30
0.0
 10
16.3829115326
 20
12.1454121499
 30
0.0
 10
16.3829924779
 20
12.1263313804
 30
0.0
 10
16.3820608302
 20
12.1074614959
 30
0.0
 10
16.3801173771
 20
12.0888224873
 30
0.0
 10
16.377163932
 20
12.0704338972
 30
0.0
 10
16.3732037215
 20
12.0523159777
 30
0.0
 10
16.3698934083
 20
12.0404245934
 30
0.0
 10
16.3680742902
 20
12.0345379159
 30
0.0
  0
SPLINE
  5
2FB
100
AcDbEntity
  8
LAYER_FEATURE
100
AcDbSpline
 62
7
  6
CONTINUOUS
 70
0
 71
3
 72
68
 73
64
 74
0
 42
0.0000001
 43
0.0000001
 44
0.0000000001
 40
0.0
 40
0.0
 40
0.0
 40
0.0
 40
0.0171788537
 40
0.0345306493
 40
0.0520446784
 40
0.069710489
 40
0.0875169164
 40
0.1054526098
 40
0.1235058943
 40
0.141664841
 40
0.1599172928
 40
0.1782508912
 40
0.1966531056
 40
0.2151112603
 40
0.2521425355
 40
0.2892430599
 40
0.3263089876
 40
0.3447973805
 40
0.363238365
 40
0.3816191842
 40
0.3999272074
 40
0.4181499576
 40
0.4362751398
 40
0.4542906695
 40
0.4721847017
 40
0.4899456595
 40
0.5075622643
 40
0.5250235667
 40
0.5423189792
 40
0.5594383084
 40
0.5763717881
 40
0.5931101137
 40
0.6096444786
 40
0.6259666121
 40
0.6420688199
 40
0.6579440233
 40
0.6735858016
 40
0.6889884364
 40
0.7041469583
 40
0.7190571972
 40
0.7337158328
 40
0.7481204459
 40
0.7622695735
 40
0.7761627646
 40
0.7898006393
 40
0.8031849488
 40
0.8163186321
 40
0.8292058734
 40
0.8418521573
 40
0.8542643197
 40
0.8664505941
 40
0.8784206484
 40
0.8901856074
 40
0.9017580635
 40
0.9131520681
 40
0.9243831024
 40
0.9354680247
 40
0.9464249873
 40
0.9572733262
 40
0.9680334213
 40
0.9787265285
 40
0.989374586
 40
1.0
 40
1.0
 40
1.0
 40
1.0
 10
15.2342122719
 20
13.3610752277
 30
0.0
 10
15.2441737503
 20
13.3610752277
 30
0.0
 10
15.2641976302
 20
13.3608560383
 30
0.0
 10
15.2943631151
 20
13.3598821215
 30
0.0
 10
15.3247836826
 20
13.3582623248
 30
0.0
 10
15.3554273596
 20
13.3559983952
 30
0.0
 10
15.3862624135
 20
13.3530926503
 30
0.0
 10
15.4172566947
 20
13.3495481318
 30
0.0
 10
15.4483779627
 20
13.3453685222
 30
0.0
 10
15.4795938191
 20
13.3405581779
 30
0.0
 10
15.5108717831
 20
13.335122106
 30
0.0
 10
15.5421792595
 20
13.3290659704
 30
0.0
 10
15.5734838037
 20
13.3223960523
 30
0.0
 10
15.6152180876
 20
13.3126838128
 30
0.0
 10
15.6671634317
 20
13.2990546925
 30
0.0
 10
15.7288984862
 20
13.2803930679
 30
0.0
 10
15.7797315116
 20
13.2629542234
 30
0.0
 10
15.8199154925
 20
13.2479049879
 30
0.0
 10
15.8497377273
 20
13.2360975824
 30
0.0
 10
15.8792366498
 20
13.2237732399
 30
0.0
 10
15.9083816854
 20
13.2109447267
 30
0.0
 10
15.9371424594
 20
13.1976254096
 30
0.0
 10
15.9654890443
 20
13.1838291481
 30
0.0
 10
15.9933919344
 20
13.1695703057
 30
0.0
 10
16.0208220889
 20
13.1548637227
 30
0.0
 10
16.0477509587
 20
13.139724704
 30
0.0
 10
16.0741505164
 20
13.1241690022
 30
0.0
 10
16.0999932857
 20
13.1082128006
 30
0.0
 10
16.1252523747
 20
13.0918727031
 30
0.0
 10
16.1499015004
 20
13.0751657096
 30
0.0
 10
16.1739150148
 20
13.0581091984
 30
0.0
 10
16.1972679309
 20
13.0407209083
 30
0.0
 10
16.2199359485
 20
13.0230189183
 30
0.0
 10
16.2418954821
 20
13.0050216312
 30
0.0
 10
16.2631236878
 20
12.986747757
 30
0.0
 10
16.283598482
 20
12.9682162862
 30
0.0
 10
16.3032985629
 20
12.9494464717
 30
0.0
 10
16.3222034326
 20
12.9304578082
 30
0.0
 10
16.3402934164
 20
12.9112700098
 30
0.0
 10
16.3575496893
 20
12.8919029946
 30
0.0
 10
16.373954292
 20
12.8723768602
 30
0.0
 10
16.3894901439
 20
12.8527118606
 30
0.0
 10
16.4041410591
 20
12.8329283862
 30
0.0
 10
16.4178917613
 20
12.8130469423
 30
0.0
 10
16.4307278982
 20
12.7930881282
 30
0.0
 10
16.4426360622
 20
12.7730726213
 30
0.0
 10
16.4536037934
 20
12.7530211513
 30
0.0
 10
16.4636195884
 20
12.7329544826
 30
0.0
 10
16.4726729101
 20
12.7128933963
 30
0.0
 10
16.4807541945
 20
12.6928586721
 30
0.0
 10
16.4878548661
 20
12.6728710739
 30
0.0
 10
16.4939673482
 20
12.6529513345
 30
0.0
 10
16.4990850621
 20
12.6331201389
 30
0.0
 10
16.5032024382
 20
12.6133981126
 30
0.0
 10
16.5063149267
 20
12.593805808
 30
0.0
 10
16.5084190079
 20
12.5743636907
 30
0.0
 10
16.5095122197
 20
12.5550921237
 30
0.0
 10
16.5095931651
 20
12.5360113541
 30
0.0
 10
16.5086615173
 20
12.5171414697
 30
0.0
 10
16.5067180642
 20
12.498502461
 30
0.0
 10
16.5037646191
 20
12.480113871
 30
0.0
 10
16.4998044087
 20
12.4619959514
 30
0.0
 10
16.4964940955
 20
12.4501045672
 30
0.0
 10
16.4946749773
 20
12.4442178896
 30
0.0
  0
SPLINE
  5
2FC
100
AcDbEntity
  8
LAYER_CUT_FEAT
100
AcDbSpline
 62
7
  6
CONTINUOUS
 70
0
 71
3
 72
78
 73
74
 74
0
 42
0.0000001
 43
0.0000001
 44
0.0000000001
 40
0.0
 40
0.0
 40
0.0
 40
0.0
 40
0.0053541098
 40
0.0107129091
 40
0.0160810664
 40
0.0214632111
 40
0.0268639112
 40
0.0322876585
 40
0.0377388457
 40
0.0432217569
 40
0.0487405439
 40
0.0542992227
 40
0.0599016502
 40
0.0655515264
 40
0.0770061088
 40
0.0886904833
 40
0.1006276343
 40
0.1128374476
 40
0.119050525
 40
0.1253378045
 40
0.1381402471
 40
0.1512566577
 40
0.1646949955
 40
0.1784605391
 40
0.1925560405
 40
0.2069818852
 40
0.2217362497
 40
0.2368152568
 40
0.2522131245
 40
0.2679223083
 40
0.2839336364
 40
0.3002364373
 40
0.3168186609
 40
0.333666992
 40
0.3507669589
 40
0.3681030357
 40
0.3856587396
 40
0.4034167245
 40
0.4213588699
 40
0.4394663669
 40
0.4577198016
 40
0.4760992358
 40
0.4945842851
 40
0.5131541964
 40
0.5317879233
 40
0.5504642006
 40
0.5691616178
 40
0.5878586929
 40
0.6065339449
 40
0.6251659668
 40
0.6437334994
 40
0.6622155043
 40
0.680591239
 40
0.6988403323
 40
0.7169428613
 40
0.73487943
 40
0.7526312504
 40
0.7701802253
 40
0.7875090345
 40
0.8046012243
 40
0.8214413009
 40
0.8380148277
 40
0.8543085282
 40
0.8703103943
 40
0.8860098005
 40
0.9013976246
 40
0.9164663761
 40
0.9312103318
 40
0.9456256761
 40
0.9597106576
 40
0.9734657236
 40
0.9868937291
 40
1.0
 40
1.0
 40
1.0
 40
1.0
 10
14.7222334516
 20
12.50881596
 30
0.0
 10
14.7230636521
 20
12.5115024974
 30
0.0
 10
14.7248220538
 20
12.5168484189
 30
0.0
 10
14.7277493309
 20
12.5247722439
 30
0.0
 10
14.7309655261
 20
12.5325992977
 30
0.0
 10
14.7344692482
 20
12.5403260541
 30
0.0
 10
14.7382589438
 20
12.5479492488
 30
0.0
 10
14.7423330179
 20
12.5554655693
 30
0.0
 10
14.7466896549
 20
12.5628718202
 30
0.0
 10
14.751327019
 20
12.5701647896
 30
0.0
 10
14.7562430546
 20
12.5773413929
 30
0.0
 10
14.7614356682
 20
12.5843985006
 30
0.0
 10
14.7669026393
 20
12.5913332053
 30
0.0
 10
14.7745890375
 20
12.6004531571
 30
0.0
 10
14.7848886725
 20
12.6115368329
 30
0.0
 10
14.7982475387
 20
12.6242369908
 30
0.0
 10
14.8126393898
 20
12.6363772884
 30
0.0
 10
14.8253981275
 20
12.6459546151
 30
0.0
 10
14.8360843994
 20
12.6533199862
 30
0.0
 10
14.8472229922
 20
12.660569491
 30
0.0
 10
14.8617550451
 20
12.6692397719
 30
0.0
 10
14.8800125669
 20
12.6789465016
 30
0.0
 10
14.8991625123
 20
12.6880018575
 30
0.0
 10
14.9191718589
 20
12.6963904826
 30
0.0
 10
14.9400065642
 20
12.7040983785
 30
0.0
 10
14.9616310868
 20
12.7111125946
 30
0.0
 10
14.9840085832
 20
12.7174213462
 30
0.0
 10
15.0071009221
 20
12.7230140133
 30
0.0
 10
15.0308687551
 20
12.7278811697
 30
0.0
 10
15.0552715772
 20
12.732014602
 30
0.0
 10
15.0802677936
 20
12.7354073282
 30
0.0
 10
15.1058147892
 20
12.7380536137
 30
0.0
 10
15.1318690004
 20
12.7399489835
 30
0.0
 10
15.1583859891
 20
12.741090234
 30
0.0
 10
15.1853205187
 20
12.7414754398
 30
0.0
 10
15.2126266316
 20
12.7411039599
 30
0.0
 10
15.2402577282
 20
12.73997644
 30
0.0
 10
15.268166647
 20
12.7380948129
 30
0.0
 10
15.2963057461
 20
12.7354622965
 30
0.0
 10
15.3246269846
 20
12.732083389
 30
0.0
 10
15.3530820062
 20
12.7279638623
 30
0.0
 10
15.3816222218
 20
12.723110752
 30
0.0
 10
15.4101988933
 20
12.7175323467
 30
0.0
 10
15.4387632176
 20
12.7112381734
 30
0.0
 10
15.4672664105
 20
12.7042389818
 30
0.0
 10
15.4956597908
 20
12.6965467259
 30
0.0
 10
15.5238948635
 20
12.6881745438
 30
0.0
 10
15.5519234038
 20
12.6791367349
 30
0.0
 10
15.5796975394
 20
12.6694487357
 30
0.0
 10
15.6071698334
 20
12.6591270929
 30
0.0
 10
15.634293365
 20
12.6481894352
 30
0.0
 10
15.6610218109
 20
12.6366544427
 30
0.0
 10
15.6873095242
 20
12.6245418145
 30
0.0
 10
15.7131116132
 20
12.6118722345
 30
0.0
 10
15.7383840182
 20
12.5986673357
 30
0.0
 10
15.7630835871
 20
12.5849496626
 30
0.0
 10
15.7871681493
 20
12.5707426312
 30
0.0
 10
15.810596588
 20
12.5560704889
 30
0.0
 10
15.8333289104
 20
12.5409582712
 30
0.0
 10
15.8553263159
 20
12.5254317582
 30
0.0
 10
15.8765512619
 20
12.5095174287
 30
0.0
 10
15.8969675278
 20
12.4932424135
 30
0.0
 10
15.9165402752
 20
12.4766344468
 30
0.0
 10
15.9352361067
 20
12.4597218176
 30
0.0
 10
15.9530231208
 20
12.4425333182
 30
0.0
 10
15.9698709632
 20
12.4250981937
 30
0.0
 10
15.9857508766
 20
12.4074460883
 30
0.0
 10
16.0006357405
 20
12.3896069981
 30
0.0
 10
16.0145001272
 20
12.3716111975
 30
0.0
 10
16.0273202875
 20
12.3534892665
 30
0.0
 10
16.0390743464
 20
12.3352717497
 30
0.0
 10
16.0497417902
 20
12.3169901424
 30
0.0
 10
16.0561944163
 20
12.3046314693
 30
0.0
 10
16.0592267567
 20
12.2984522093
 30
0.0
  0
SPLINE
  5
2FD
100
AcDbEntity
  8
LAYER_CHAMFER_FEAT
100
AcDbSpline
 62
7
  6
CONTINUOUS
 70
0
 71
3
 72
59
 73
55
 74
0
 42
0.0000001
 43
0.0000001
 44
0.0000000001
 40
0.0
 40
0.0
 40
0.0
 40
0.0
 40
0.0157589914
 40
0.0311494645
 40
0.0461677345
 40
0.0608129013
 40
0.0750869982
 40
0.0889952712
 40
0.1157425704
 40
0.1286200866
 40
0.141188902
 40
0.1534730717
 40
0.1655006887
 40
0.1773037706
 40
0.1889179785
 40
0.2003822659
 40
0.2117383345
 40
0.2230299326
 40
0.2343020741
 40
0.245600158
 40
0.2569690732
 40
0.2684523235
 40
0.2800912435
 40
0.2919243579
 40
0.3039868298
 40
0.3163101049
 40
0.3289217233
 40
0.3418451697
 40
0.3550999048
 40
0.3687014948
 40
0.3826616898
 40
0.3969886435
 40
0.4116871601
 40
0.4267588387
 40
0.4422023351
 40
0.4580136144
 40
0.4741860833
 40
0.4907108369
 40
0.5075768755
 40
0.5247712098
 40
0.5422790787
 40
0.5600841244
 40
0.5781684791
 40
0.6150933306
 40
0.6528906254
 40
0.6913779498
 40
0.7303613635
 40
0.7696389275
 40
0.8090040487
 40
0.8482487585
 40
0.8871669826
 40
0.9255578537
 40
0.9632286783
 40
1.0
 40
1.0
 40
1.0
 40
1.0
 10
15.2386046385
 20
12.1150620402
 30
0.0
 10
15.2369486912
 20
12.1146725984
 30
0.0
 10
15.2336898417
 20
12.1138400941
 30
0.0
 10
15.2289139276
 20
12.112411493
 30
0.0
 10
15.2243165256
 20
12.1108203056
 30
0.0
 10
15.2199068094
 20
12.1090696916
 30
0.0
 10
15.2156931224
 20
12.107162826
 30
0.0
 10
15.2104173336
 20
12.1044529449
 30
0.0
 10
15.2054841413
 20
12.1014166223
 30
0.0
 10
15.2009614274
 20
12.0980521941
 30
0.0
 10
15.1978452964
 20
12.0954253518
 30
0.0
 10
15.1949691709
 20
12.0926686245
 30
0.0
 10
15.1923387282
 20
12.0897872439
 30
0.0
 10
15.1899593434
 20
12.0867868564
 30
0.0
 10
15.1878359272
 20
12.0836733195
 30
0.0
 10
15.1859728884
 20
12.0804528048
 30
0.0
 10
15.1843740856
 20
12.0771317667
 30
0.0
 10
15.1830428856
 20
12.0737168922
 30
0.0
 10
15.1819820438
 20
12.0702151259
 30
0.0
 10
15.1811936915
 20
12.0666336162
 30
0.0
 10
15.1806794127
 20
12.0629796614
 30
0.0
 10
15.1804401391
 20
12.0592606986
 30
0.0
 10
15.180476185
 20
12.055484249
 30
0.0
 10
15.1807873449
 20
12.0516578964
 30
0.0
 10
15.1813728051
 20
12.0477892689
 30
0.0
 10
15.1822311999
 20
12.0438860163
 30
0.0
 10
15.183360695
 20
12.0399558224
 30
0.0
 10
15.1847588979
 20
12.0360063802
 30
0.0
 10
15.1864229095
 20
12.0320453876
 30
0.0
 10
15.188349383
 20
12.028080571
 30
0.0
 10
15.1905344382
 20
12.0241196395
 30
0.0
 10
15.192973709
 20
12.0201702887
 30
0.0
 10
15.1956623884
 20
12.0162402198
 30
0.0
 10
15.1985951554
 20
12.0123370782
 30
0.0
 10
15.2017662239
 20
12.0084684614
 30
0.0
 10
15.2051693806
 20
12.0046419343
 30
0.0
 10
15.2087979284
 20
12.0008649589
 30
0.0
 10
15.2126447357
 20
11.9971449075
 30
0.0
 10
15.2167022705
 20
11.9934890758
 30
0.0
 10
15.2209625619
 20
11.9899046059
 30
0.0
 10
15.2254172335
 20
11.9863985198
 30
0.0
 10
15.2300575975
 20
11.9829776699
 30
0.0
 10
15.2365246064
 20
11.9785084687
 30
0.0
 10
15.2450177262
 20
11.9731837598
 30
0.0
 10
15.2557249818
 20
11.9672810525
 30
0.0
 10
15.2669347393
 20
11.9618671762
 30
0.0
 10
15.2785590872
 20
11.9569845687
 30
0.0
 10
15.2905071989
 20
11.9526713742
 30
0.0
 10
15.3026855853
 20
11.9489613618
 30
0.0
 10
15.3149989783
 20
11.945883535
 30
0.0
 10
15.3273510138
 20
11.9434619711
 30
0.0
 10
15.3396452359
 20
11.9417156414
 30
0.0
 10
15.3517850228
 20
11.9406581556
 30
0.0
 10
15.3598224893
 20
11.9404146463
 30
0.0
 10
15.3637918178
 20
11.9404146463
 30
0.0
  0
SPLINE
  5
2FE
100
AcDbEntity
  8
02___PRT_ALL_AXES
100
AcDbSpline
 62
7
  6
CONTINUOUS
 70
0
 71
3
 72
56
 73
52
 74
0
 42
0.0000001
 43
0.0000001
 44
0.0000000001
 40
0.0
 40
0.0
 40
0.0
 40
0.0
 40
0.0345293593
 40
0.0697081243
 40
0.1054492283
 40
0.1416605154
 40
0.178245682
 40
0.2151052094
 40
0.2521372622
 40
0.2892385658
 40
0.3263052719
 40
0.3632338184
 40
0.3999217925
 40
0.4362688034
 40
0.4721773724
 40
0.5075538496
 40
0.5423093677
 40
0.5594290568
 40
0.576362892
 40
0.5931015686
 40
0.6096362804
 40
0.6259587571
 40
0.6420613035
 40
0.6579368404
 40
0.6735789468
 40
0.6889819045
 40
0.7041407449
 40
0.7190512975
 40
0.7337102413
 40
0.7481151567
 40
0.7622645806
 40
0.7761580631
 40
0.789796225
 40
0.8031808162
 40
0.8163147754
 40
0.8292022868
 40
0.8418488355
 40
0.8542612585
 40
0.8664477896
 40
0.8784180959
 40
0.8901833019
 40
0.9017560004
 40
0.9131502437
 40
0.9243815141
 40
0.9354666696
 40
0.9464238626
 40
0.9572724292
 40
0.9680327501
 40
0.9787260816
 40
0.9893743628
 40
1.0
 40
1.0
 40
1.0
 40
1.0
 10
15.1387471807
 20
12.3990074004
 30
0.0
 10
15.1506402915
 20
12.3990074004
 30
0.0
 10
15.174653048
 20
12.3984794579
 30
0.0
 10
15.2109091873
 20
12.3961638456
 30
0.0
 10
15.2476187142
 20
12.3923261832
 30
0.0
 10
15.2846283379
 20
12.3869824272
 30
0.0
 10
15.3217846552
 20
12.3801547752
 30
0.0
 10
15.3589332897
 20
12.3718715877
 30
0.0
 10
15.3959199567
 20
12.3621672691
 30
0.0
 10
15.4325910039
 20
12.3510821313
 30
0.0
 10
15.4687940916
 20
12.3386622267
 30
0.0
 10
15.5043788223
 20
12.3249591512
 30
0.0
 10
15.5391973902
 20
12.3100298189
 30
0.0
 10
15.5731051543
 20
12.2939362523
 30
0.0
 10
15.6059614318
 20
12.2767452031
 30
0.0
 10
15.637629404
 20
12.2585282539
 30
0.0
 10
15.6630467709
 20
12.2424752711
 30
0.0
 10
15.6826665502
 20
12.2291771782
 30
0.0
 10
15.6969306205
 20
12.219045572
 30
0.0
 10
15.7108022403
 20
12.2087169369
 30
0.0
 10
15.7242670453
 20
12.1982019517
 30
0.0
 10
15.7373110083
 20
12.1875115647
 30
0.0
 10
15.7499205636
 20
12.1766568837
 30
0.0
 10
15.7620825914
 20
12.16564919
 30
0.0
 10
15.7737844387
 20
12.1544999197
 30
0.0
 10
15.7850139302
 20
12.1432206528
 30
0.0
 10
15.7957593811
 20
12.1318231009
 30
0.0
 10
15.8060096086
 20
12.1203190945
 30
0.0
 10
15.8157539432
 20
12.1087205709
 30
0.0
 10
15.8249822385
 20
12.0970395608
 30
0.0
 10
15.8336848806
 20
12.0852881764
 30
0.0
 10
15.8418527969
 20
12.0734785983
 30
0.0
 10
15.849477464
 20
12.0616230635
 30
0.0
 10
15.8565509151
 20
12.0497338527
 30
0.0
 10
15.8630657475
 20
12.0378232794
 30
0.0
 10
15.8690151282
 20
12.0259036779
 30
0.0
 10
15.8743927992
 20
12.0139873922
 30
0.0
 10
15.8791930821
 20
12.0020867661
 30
0.0
 10
15.8834108836
 20
11.9902141331
 30
0.0
 10
15.8870416997
 20
11.9783818079
 30
0.0
 10
15.8900816213
 20
11.9666020776
 30
0.0
 10
15.8925273405
 20
11.9548871939
 30
0.0
 10
15.8943761563
 20
11.9432493649
 30
0.0
 10
15.8956259817
 20
11.9317007473
 30
0.0
 10
15.8962753521
 20
11.9202534363
 30
0.0
 10
15.8963234351
 20
11.9089194589
 30
0.0
 10
15.8957700355
 20
11.8977107476
 30
0.0
 10
15.8946156216
 20
11.8866391768
 30
0.0
 10
15.8928612739
 20
11.8757163547
 30
0.0
 10
15.8905089101
 20
11.8649543103
 30
0.0
 10
15.8885425872
 20
11.8578908271
 30
0.0
 10
15.8874620302
 20
11.8543941409
 30
0.0
  0
SPLINE
  5
2FF
100
AcDbEntity
  8
LAYER_CHAMFER_FEAT
100
AcDbSpline
 62
7
  6
CONTINUOUS
 70
0
 71
3
 72
41
 73
37
 74
0
 42
0.0000001
 43
0.0000001
 44
0.0000000001
 40
0.0
 40
0.0
 40
0.0
 40
0.0
 40
0.0357356909
 40
0.0703751109
 40
0.103908812
 40
0.1363418897
 40
0.1676954307
 40
0.1829811116
 40
0.1980128765
 40
0.2273415241
 40
0.2557632288
 40
0.2833751326
 40
0.3102943928
 40
0.3366569659
 40
0.3626151852
 40
0.3883340571
 40
0.4139864217
 40
0.4397473416
 40
0.465788262
 40
0.4922715401
 40
0.5193458574
 40
0.5471428176
 40
0.5757748268
 40
0.590436317
 40
0.6053394773
 40
0.6358981849
 40
0.6675088689
 40
0.7002057049
 40
0.7340057975
 40
0.7689106089
 40
0.8049074148
 40
0.8419706216
 40
0.8800633918
 40
0.9191378518
 40
0.9591388717
 40
1.0
 40
1.0
 40
1.0
 40
1.0
 10
15.4352176189
 20
12.0543040347
 30
0.0
 10
15.4367070673
 20
12.0526740777
 30
0.0
 10
15.4395612326
 20
12.0493906434
 30
0.0
 10
15.4435097064
 20
12.0443242487
 30
0.0
 10
15.4470470317
 20
12.0392082808
 30
0.0
 10
15.4501611038
 20
12.0340598678
 30
0.0
 10
15.4524136651
 20
12.0297199195
 30
0.0
 10
15.4539883797
 20
12.0262492703
 30
0.0
 10
15.4553891189
 20
12.0228397989
 30
0.0
 10
15.4568660388
 20
12.0185872107
 30
0.0
 10
15.4581956762
 20
12.0134772812
 30
0.0
 10
15.459063118
 20
12.0084192303
 30
0.0
 10
15.4594646973
 20
12.0034302059
 30
0.0
 10
15.4593983751
 20
11.9985271962
 30
0.0
 10
15.4588637749
 20
11.9937272217
 30
0.0
 10
15.4578623252
 20
11.9890471686
 30
0.0
 10
15.4563973432
 20
11.9845036339
 30
0.0
 10
15.4544740527
 20
11.9801127119
 30
0.0
 10
15.4520995052
 20
11.9758897893
 30
0.0
 10
15.4492824507
 20
11.9718494069
 30
0.0
 10
15.4460331064
 20
11.9680051475
 30
0.0
 10
15.4423632294
 20
11.9643697934
 30
0.0
 10
15.4389916779
 20
11.9615464051
 30
0.0
 10
15.4361042691
 20
11.9594021945
 30
0.0
 10
15.4330392218
 20
11.9573018805
 30
0.0
 10
15.428963733
 20
11.9548301144
 30
0.0
 10
15.4237514716
 20
11.9521397659
 30
0.0
 10
15.4181941649
 20
11.9497089976
 30
0.0
 10
15.4123104702
 20
11.947545727
 30
0.0
 10
15.4061198535
 20
11.9456568757
 30
0.0
 10
15.399642855
 20
11.9440485573
 30
0.0
 10
15.3929009311
 20
11.942725973
 30
0.0
 10
15.3859164715
 20
11.9416934502
 30
0.0
 10
15.3787125568
 20
11.9409543115
 30
0.0
 10
15.3713133107
 20
11.9405110319
 30
0.0
 10
15.3663164906
 20
11.9404146463
 30
0.0
 10
15.3637918178
 20
11.9404146463
 30
0.0
  0
SPLINE
  5
300
100
AcDbEntity
  8
LAYER_FEATURE
100
AcDbSpline
 62
7
  6
CONTINUOUS
 70
0
 71
3
 72
15
 73
11
 74
0
 42
0.0000001
 43
0.0000001
 44
0.0000000001
 40
0.0
 40
0.0
 40
0.0
 40
0.0
 40
0.1190298365
 40
0.2390408923
 40
0.3604491065
 40
0.4836328918
 40
0.6089258512
 40
0.7366085821
 40
0.8669110969
 40
1.0
 40
1.0
 40
1.0
 40
1.0
 10
15.1098755995
 20
12.491188431
 30
0.0
 10
15.1094323924
 20
12.4924007231
 30
0.0
 10
15.1086516357
 20
12.4948768103
 30
0.0
 10
15.1078102438
 20
12.4986988156
 30
0.0
 10
15.1072981666
 20
12.5026242716
 30
0.0
 10
15.107117503
 20
12.5066359047
 30
0.0
 10
15.10726874
 20
12.5107166182
 30
0.0
 10
15.1077509744
 20
12.5148490889
 30
0.0
 10
15.1085618593
 20
12.5190155078
 30
0.0
 10
15.1093111314
 20
12.5217746731
 30
0.0
 10
15.1097372403
 20
12.523153562
 30
0.0
  0
SPLINE
  5
301
100
AcDbEntity
  8
02___PRT_ALL_AXES
100
AcDbSpline
 62
7
  6
CONTINUOUS
 70
0
 71
3
 72
35
 73
31
 74
0
 42
0.0000001
 43
0.0000001
 44
0.0000000001
 40
0.0
 40
0.0
 40
0.0
 40
0.0
 40
0.0237362974
 40
0.0477085812
 40
0.0720551887
 40
0.0968995823
 40
0.1223466948
 40
0.1484806791
 40
0.1753639322
 40
0.2030372841
 40
0.2315209552
 40
0.2608161846
 40
0.2909071831
 40
0.3217633043
 40
0.3533413295
 40
0.3855876269
 40
0.4184403551
 40
0.4518313405
 40
0.4856879553
 40
0.519934624
 40
0.5544942682
 40
0.5892894671
 40
0.659259484
 40
0.7292743625
 40
0.7987892739
 40
0.8673237684
 40
0.901108723
 40
0.934505638
 40
0.9674792812
 40
1.0
 40
1.0
 40
1.0
 40
1.0
 10
15.1078318647
 20
12.4948101137
 30
0.0
 10
15.1072789003
 20
12.4959369295
 30
0.0
 10
15.1062806282
 20
12.4982592507
 30
0.0
 10
15.1051273221
 20
12.5018968679
 30
0.0
 10
15.104316987
 20
12.5056859474
 30
0.0
 10
15.1038522219
 20
12.509610809
 30
0.0
 10
15.1037338235
 20
12.513655506
 30
0.0
 10
15.1039612043
 20
12.517803108
 30
0.0
 10
15.1045323493
 20
12.5220359117
 30
0.0
 10
15.1054438695
 20
12.5263353999
 30
0.0
 10
15.1066910158
 20
12.5306823011
 30
0.0
 10
15.1082676965
 20
12.5350566579
 30
0.0
 10
15.1101665022
 20
12.5394379318
 30
0.0
 10
15.1123787439
 20
12.5438051299
 30
0.0
 10
15.114894503
 20
12.5481369449
 30
0.0
 10
15.117702694
 20
12.5524119061
 30
0.0
 10
15.1207911324
 20
12.5566085252
 30
0.0
 10
15.1241466021
 20
12.56070544
 30
0.0
 10
15.1277549354
 20
12.564681558
 30
0.0
 10
15.1316010152
 20
12.5685161376
 30
0.0
 10
15.1356690371
 20
12.5721890848
 30
0.0
 10
15.1413760628
 20
12.5768523883
 30
0.0
 10
15.1489599179
 20
12.5821639995
 30
0.0
 10
15.1586407715
 20
12.5875889312
 30
0.0
 10
15.1687614641
 20
12.5919554629
 30
0.0
 10
15.1774641588
 20
12.5946396569
 30
0.0
 10
15.1844815367
 20
12.596159663
 30
0.0
 10
15.1897178013
 20
12.5969761606
 30
0.0
 10
15.194926992
 20
12.5974691059
 30
0.0
 10
15.1983912881
 20
12.597580772
 30
0.0
 10
15.2001109937
 20
12.597580772
 30
0.0
  0
SPLINE
  5
302
100
AcDbEntity
  8
LAYER_FEATURE
100
AcDbSpline
 62
7
  6
CONTINUOUS
 70
0
 71
3
 72
17
 73
13
 74
0
 42
0.0000001
 43
0.0000001
 44
0.0000000001
 40
0.0
 40
0.0
 40
0.0
 40
0.0
 40
0.0547348564
 40
0.1096968096
 40
0.1651024599
 40
0.2211699557
 40
0.3360077609
 40
0.4556907873
 40
0.5813148783
 40
0.7136494568
 40
0.8531524436
 40
1.0
 40
1.0
 40
1.0
 40
1.0
 10
16.3607283046
 20
12.4133882935
 30
0.0
 10
16.3607892656
 20
12.4135855784
 30
0.0
 10
16.3608959101
 20
12.4139859593
 30
0.0
 10
16.3610086256
 20
12.4145991364
 30
0.0
 10
16.3610740177
 20
12.415224253
 30
0.0
 10
16.3610981942
 20
12.4160783656
 30
0.0
 10
16.3610063026
 20
12.4171749119
 30
0.0
 10
16.3607071558
 20
12.4185041143
 30
0.0
 10
16.3602218532
 20
12.419847186
 30
0.0
 10
16.3595550102
 20
12.4211933961
 30
0.0
 10
16.3587125698
 20
12.4225322668
 30
0.0
 10
16.358055078
 20
12.4233914096
 30
0.0
 10
16.3577008993
 20
12.4238173889
 30
0.0
  0
SPLINE
  5
303
100
AcDbEntity
  8
LAYER_FEATURE
100
AcDbSpline
 62
7
  6
CONTINUOUS
 70
0
 71
3
 72
13
 73
9
 74
0
 42
0.0000001
 43
0.0000001
 44
0.0000000001
 40
0.0
 40
0.0
 40
0.0
 40
0.0
 40
0.1204538105
 40
0.2413688405
 40
0.3631961385
 40
0.4863674802
 40
0.7382245908
 40
1.0
 40
1.0
 40
1.0
 40
1.0
 10
16.3659428875
 20
12.60128318
 30
0.0
 10
16.3660014255
 20
12.6014726151
 30
0.0
 10
16.3661044026
 20
12.6018568079
 30
0.0
 10
16.3662153265
 20
12.602444807
 30
0.0
 10
16.3662826454
 20
12.6030439215
 30
0.0
 10
16.3663143994
 20
12.6038617847
 30
0.0
 10
16.3662417557
 20
12.6049110561
 30
0.0
 10
16.3660709968
 20
12.6057417598
 30
0.0
 10
16.3659591984
 20
12.6061579002
 30
0.0
  0
SPLINE
  5
304
100
AcDbEntity
  8
LAYER_FEATURE
100
AcDbSpline
 62
7
  6
CONTINUOUS
 70
0
 71
3
 72
15
 73
11
 74
0
 42
0.0000001
 43
0.0000001
 44
0.0000000001
 40
0.0
 40
0.0
 40
0.0
 40
0.0
 40
0.1141962162
 40
0.2295694238
 40
0.3472377191
 40
0.468211288
 40
0.5933568329
 40
0.7233714615
 40
0.8588044014
 40
1.0
 40
1.0
 40
1.0
 40
1.0
 10
16.3138739856
 20
12.7205643601
 30
0.0
 10
16.3139705429
 20
12.7208768085
 30
0.0
 10
16.3141254814
 20
12.7215177862
 30
0.0
 10
16.3142382139
 20
12.7225081404
 30
0.0
 10
16.3142314698
 20
12.7235242833
 30
0.0
 10
16.3141055212
 20
12.7245605766
 30
0.0
 10
16.3138613614
 20
12.7256116599
 30
0.0
 10
16.3135005623
 20
12.7266722493
 30
0.0
 10
16.3130252089
 20
12.7277369231
 30
0.0
 10
16.3126417739
 20
12.7284312988
 30
0.0
 10
16.312432973
 20
12.7287775628
 30
0.0
  0
SPLINE
  5
305
100
AcDbEntity
  8
LAYER_FEATURE
100
AcDbSpline
 62
7
  6
CONTINUOUS
 70
0
 71
3
 72
18
 73
14
 74
0
 42
0.0000001
 43
0.0000001
 44
0.0000000001
 40
0.0
 40
0.0
 40
0.0
 40
0.0
 40
0.0535988412
 40
0.1074674526
 40
0.1618688249
 40
0.2170535151
 40
0.2732535809
 40
0.3306796092
 40
0.449851342
 40
0.5758175444
 40
0.7093208666
 40
0.8507103544
 40
1.0
 40
1.0
 40
1.0
 40
1.0
 10
16.2233050244
 20
12.8378259212
 30
0.0
 10
16.2233722504
 20
12.8380434663
 30
0.0
 10
16.2234881401
 20
12.8384857502
 30
0.0
 10
16.2236043983
 20
12.8391643097
 30
0.0
 10
16.2236630803
 20
12.8398570414
 30
0.0
 10
16.2236640079
 20
12.8405621024
 30
0.0
 10
16.2236072661
 20
12.8412777534
 30
0.0
 10
16.2234531055
 20
12.8422554653
 30
0.0
 10
16.2231109729
 20
12.8434992992
 30
0.0
 10
16.2224812334
 20
12.8449837979
 30
0.0
 10
16.2216344188
 20
12.84646535
 30
0.0
 10
16.2205794862
 20
12.8479297532
 30
0.0
 10
16.2197657391
 20
12.8488610834
 30
0.0
 10
16.2193291409
 20
12.8493210789
 30
0.0
  0
LINE
  5
306
100
AcDbEntity
  8
LAYER_FEATURE
100
AcDbLine
 62
7
  6
CONTINUOUS
 10
16.089982387
 20
12.9187844459
 11
16.0930867121
 21
12.91572468
  0
SPLINE
  5
307
100
AcDbEntity
  8
LAYER_FEATURE
100
AcDbSpline
 62
7
  6
CONTINUOUS
 70
0
 71
3
 72
20
 73
16
 74
0
 42
0.0000001
 43
0.0000001
 44
0.0000000001
 40
0.0
 40
0.0
 40
0.0
 40
0.0
 40
0.0503925933
 40
0.1012009371
 40
0.1528231761
 40
0.2056273952
 40
0.2599386193
 40
0.3160323656
 40
0.374131683
 40
0.434406348
 40
0.496974964
 40
0.5619086831
 40
0.6988791648
 40
0.8451551704
 40
1.0
 40
1.0
 40
1.0
 40
1.0
 10
16.0987775226
 20
12.9471878749
 30
0.0
 10
16.0988637512
 20
12.9474669231
 30
0.0
 10
16.0990057425
 20
12.9480374964
 30
0.0
 10
16.0991235445
 20
12.9489170665
 30
0.0
 10
16.0991462158
 20
12.9498182076
 30
0.0
 10
16.0990737658
 20
12.9507369405
 30
0.0
 10
16.0989066992
 20
12.9516694714
 30
0.0
 10
16.0986458931
 20
12.9526119818
 30
0.0
 10
16.0982925559
 20
12.9535606811
 30
0.0
 10
16.0978482513
 20
12.954511778
 30
0.0
 10
16.097314871
 20
12.9554615387
 30
0.0
 10
16.096472953
 20
12.9567436919
 30
0.0
 10
16.0952021428
 20
12.9583183173
 30
0.0
 10
16.0933946091
 20
12.9601075396
 30
0.0
 10
16.0920370672
 20
12.9612091548
 30
0.0
 10
16.091316317
 20
12.9617438933
 30
0.0
  0
SPLINE
  5
308
100
AcDbEntity
  8
02___PRT_ALL_AXES
100
AcDbSpline
 62
7
  6
CONTINUOUS
 70
0
 71
3
 72
39
 73
35
 74
0
 42
0.0000001
 43
0.0000001
 44
0.0000000001
 40
0.0
 40
0.0
 40
0.0
 40
0.0
 40
0.0248034973
 40
0.0496643335
 40
0.0746391947
 40
0.0997834851
 40
0.1251507427
 40
0.1507921168
 40
0.1767559198
 40
0.2030872608
 40
0.2298277638
 40
0.2570153696
 40
0.284684211
 40
0.312864556
 40
0.3415828085
 40
0.3708615539
 40
0.4007196437
 40
0.4311723119
 40
0.4622313094
 40
0.493905052
 40
0.5261987774
 40
0.5591147045
 40
0.5926521923
 40
0.6268079021
 40
0.6615759537
 40
0.6969480775
 40
0.7329137579
 40
0.7694603751
 40
0.8065733377
 40
0.8442361876
 40
0.8824308336
 40
0.9211372865
 40
0.9603348127
 40
1.0
 40
1.0
 40
1.0
 40
1.0
 10
14.8354508171
 20
12.4738291479
 30
0.0
 10
14.8365763799
 20
12.477471476
 30
0.0
 10
14.8390451048
 20
12.4847000932
 30
0.0
 10
14.8433850689
 20
12.4953261777
 30
0.0
 10
14.8483588467
 20
12.5057292059
 30
0.0
 10
14.8539604644
 20
12.5158967463
 30
0.0
 10
14.8601834102
 20
12.5258173121
 30
0.0
 10
14.8670204046
 20
12.5354795764
 30
0.0
 10
14.87446349
 20
12.5448725997
 30
0.0
 10
14.8825040278
 20
12.5539857823
 30
0.0
 10
14.891132726
 20
12.5628088823
 30
0.0
 10
14.9003396547
 20
12.571332015
 30
0.0
 10
14.9101142607
 20
12.5795456558
 30
0.0
 10
14.92044538
 20
12.5874406433
 30
0.0
 10
14.9313212492
 20
12.5950081818
 30
0.0
 10
14.9427295147
 20
12.6022398473
 30
0.0
 10
14.9546572427
 20
12.6091275937
 30
0.0
 10
14.9670909335
 20
12.6156637555
 30
0.0
 10
14.9800165322
 20
12.6218410554
 30
0.0
 10
14.9934194421
 20
12.6276526109
 30
0.0
 10
15.007284537
 20
12.6330919415
 30
0.0
 10
15.0215961759
 20
12.6381529764
 30
0.0
 10
15.0363382165
 20
12.6428300648
 30
0.0
 10
15.0514940336
 20
12.6471179804
 30
0.0
 10
15.0670465369
 20
12.6510119272
 30
0.0
 10
15.0829781889
 20
12.6545075461
 30
0.0
 10
15.0992710239
 20
12.6576009212
 30
0.0
 10
15.115906668
 20
12.6602885843
 30
0.0
 10
15.1328663548
 20
12.6625675198
 30
0.0
 10
15.1501309627
 20
12.6644351782
 30
0.0
 10
15.1676809803
 20
12.665889452
 30
0.0
 10
15.1854966945
 20
12.6669287343
 30
0.0
 10
15.2035578127
 20
12.6675518248
 30
0.0
 10
15.2156794254
 20
12.6676885304
 30
0.0
 10
15.2217759297
 20
12.6676885304
 30
0.0
  0
SPLINE
  5
309
100
AcDbEntity
  8
LAYER_CHAMFER_FEAT
100
AcDbSpline
 62
7
  6
CONTINUOUS
 70
0
 71
3
 72
42
 73
38
 74
0
 42
0.0000001
 43
0.0000001
 44
0.0000000001
 40
0.0
 40
0.0
 40
0.0
 40
0.0
 40
0.0106262449
 40
0.0212751356
 40
0.0319690782
 40
0.0427300144
 40
0.0535792026
 40
0.0645370193
 40
0.0868474333
 40
0.1098090037
 40
0.133539819
 40
0.158134743
 40
0.183665404
 40
0.2101811335
 40
0.2377104756
 40
0.2662629724
 40
0.2958310291
 40
0.3263917376
 40
0.3579085954
 40
0.390333096
 40
0.4236061875
 40
0.4576596078
 40
0.4924171132
 40
0.5277956148
 40
0.5637062395
 40
0.6000553311
 40
0.6367454047
 40
0.6736760633
 40
0.7107448883
 40
0.747848313
 40
0.7848824803
 40
0.8217441211
 40
0.8583313605
 40
0.8945447747
 40
0.9302877874
 40
0.9654688271
 40
1.0
 40
1.0
 40
1.0
 40
1.0
 10
15.2050531945
 20
12.0813643781
 30
0.0
 10
15.204825806
 20
12.0806285431
 30
0.0
 10
15.2044120052
 20
12.079142123
 30
0.0
 10
15.2039169926
 20
12.0768773808
 30
0.0
 10
15.2035478038
 20
12.0745788057
 30
0.0
 10
15.2033048731
 20
12.0722489406
 30
0.0
 10
15.2031884274
 20
12.069890162
 30
0.0
 10
15.2032019424
 20
12.0666913754
 30
0.0
 10
15.2035420474
 20
12.0626223008
 30
0.0
 10
15.204453609
 20
12.0576972328
 30
0.0
 10
15.2058660886
 20
12.0527199251
 30
0.0
 10
15.20777273
 20
12.0477113146
 30
0.0
 10
15.2101649004
 20
12.0426917602
 30
0.0
 10
15.2130321768
 20
12.0376817249
 30
0.0
 10
15.2163623426
 20
12.0327015822
 30
0.0
 10
15.2201413979
 20
12.0277716293
 30
0.0
 10
15.2243535749
 20
12.0229120086
 30
0.0
 10
15.2289813683
 20
12.0181426338
 30
0.0
 10
15.2340055823
 20
12.0134831021
 30
0.0
 10
15.239405392
 20
12.0089526064
 30
0.0
 10
15.245158418
 20
12.0045698459
 30
0.0
 10
15.2512408118
 20
12.0003529404
 30
0.0
 10
15.2576273508
 20
11.9963193474
 30
0.0
 10
15.264291541
 20
11.9924857828
 30
0.0
 10
15.2712057261
 20
11.9888681467
 30
0.0
 10
15.278341203
 20
11.9854814519
 30
0.0
 10
15.2856683421
 20
11.9823397591
 30
0.0
 10
15.2931567118
 20
11.979456116
 30
0.0
 10
15.3007752064
 20
11.9768425004
 30
0.0
 10
15.3084921772
 20
11.9745097702
 30
0.0
 10
15.3162755665
 20
11.9724676151
 30
0.0
 10
15.3240930387
 20
11.9707245211
 30
0.0
 10
15.3319121312
 20
11.9692877218
 30
0.0
 10
15.3397003449
 20
11.9681631992
 30
0.0
 10
15.3474254258
 20
11.9673555998
 30
0.0
 10
15.3550550826
 20
11.9668683155
 30
0.0
 10
15.3601082792
 20
11.9667572128
 30
0.0
 10
15.3626110264
 20
11.9667572128
 30
0.0
  0
SPLINE
  5
30A
100
AcDbEntity
  8
LAYER_CHAMFER_FEAT
100
AcDbSpline
 62
7
  6
CONTINUOUS
 70
0
 71
3
 72
27
 73
23
 74
0
 42
0.0000001
 43
0.0000001
 44
0.0000000001
 40
0.0
 40
0.0
 40
0.0
 40
0.0
 40
0.0248063952
 40
0.0496701434
 40
0.074647917
 40
0.099795159
 40
0.1251653699
 40
0.150809759
 40
0.1767765796
 40
0.2031110182
 40
0.2570287964
 40
0.3128695384
 40
0.3708599427
 40
0.4311658584
 40
0.4938953698
 40
0.5591032371
 40
0.6267959449
 40
0.6969367449
 40
0.7694507392
 40
0.8442289274
 40
0.9211336396
 40
1.0
 40
1.0
 40
1.0
 40
1.0
 10
15.4439083917
 20
12.0075525395
 30
0.0
 10
15.4436715322
 20
12.0067860561
 30
0.0
 10
15.4431520305
 20
12.0052648782
 30
0.0
 10
15.4422387202
 20
12.0030287572
 30
0.0
 10
15.4411920692
 20
12.000839558
 30
0.0
 10
15.4400132587
 20
11.9986999357
 30
0.0
 10
15.4387037323
 20
11.9966122608
 30
0.0
 10
15.4372649618
 20
11.9945789761
 30
0.0
 10
15.4356986385
 20
11.9926022904
 30
0.0
 10
15.4334250724
 20
11.9900253936
 30
0.0
 10
15.4302604031
 20
11.9869550753
 30
0.0
 10
15.4260163782
 20
11.9835637877
 30
0.0
 10
15.421315346
 20
11.9804502104
 30
0.0
 10
15.4161791474
 20
11.9776278992
 30
0.0
 10
15.4106309858
 20
11.9751087446
 30
0.0
 10
15.4046958448
 20
11.9729035258
 30
0.0
 10
15.3984003303
 20
11.9710217116
 30
0.0
 10
15.3917726318
 20
11.9694714404
 30
0.0
 10
15.3848424491
 20
11.9682594656
 30
0.0
 10
15.3776407773
 20
11.9673910731
 30
0.0
 10
15.3702001332
 20
11.9668700875
 30
0.0
 10
15.3651615888
 20
11.9667572128
 30
0.0
 10
15.3626110264
 20
11.9667572128
 30
0.0
  0
SPLINE
  5
30B
100
AcDbEntity
  8
LAYER_FEATURE
100
AcDbSpline
 62
7
  6
CONTINUOUS
 70
0
 71
3
 72
10
 73
6
 74
0
 42
0.0000001
 43
0.0000001
 44
0.0000000001
 40
0.0
 40
0.0
 40
0.0
 40
0.0
 40
0.2721074332
 40
0.5288534951
 40
1.0
 40
1.0
 40
1.0
 40
1.0
 10
15.9069620153
 20
12.0898010997
 30
0.0
 10
15.9064613235
 20
12.0892012511
 30
0.0
 10
15.9054487234
 20
12.088066952
 30
0.0
 10
15.9033772581
 20
12.0860770011
 30
0.0
 10
15.9016867212
 20
12.0848190017
 30
0.0
 10
15.9005173524
 20
12.0841386448
 30
0.0
  0
SPLINE
  5
30C
100
AcDbEntity
  8
02___PRT_ALL_AXES
100
AcDbSpline
 62
7
  6
CONTINUOUS
 70
0
 71
3
 72
39
 73
35
 74
0
 42
0.0000001
 43
0.0000001
 44
0.0000000001
 40
0.0
 40
0.0
 40
0.0
 40
0.0
 40
0.039665382
 40
0.0788626135
 40
0.1175692048
 40
0.1557638041
 40
0.1934266659
 40
0.2305396241
 40
0.2670862409
 40
0.3030519228
 40
0.3384240482
 40
0.3731921007
 40
0.4073478092
 40
0.4408852948
 40
0.4738012208
 40
0.5060949475
 40
0.5377686921
 40
0.5688276902
 40
0.5992803577
 40
0.6291384461
 40
0.6584171903
 40
0.6871354432
 40
0.7153157893
 40
0.7429846313
 40
0.7701722373
 40
0.7969127399
 40
0.82324408
 40
0.8492078824
 40
0.8748492566
 40
0.9002165148
 40
0.9253608057
 40
0.950335667
 40
0.9751965029
 40
1.0
 40
1.0
 40
1.0
 40
1.0
 10
15.1387471807
 20
12.3990074004
 30
0.0
 10
15.1326506465
 20
12.3990074004
 30
0.0
 10
15.120529049
 20
12.3988706997
 30
0.0
 10
15.1024679253
 20
12.3982475989
 30
0.0
 10
15.0846522416
 20
12.3972083284
 30
0.0
 10
15.0671022084
 20
12.395754048
 30
0.0
 10
15.0498376063
 20
12.393886392
 30
0.0
 10
15.0328779187
 20
12.3916074537
 30
0.0
 10
15.0162422751
 20
12.3889197906
 30
0.0
 10
14.9999494393
 20
12.3858264168
 30
0.0
 10
14.9840177864
 20
12.3823307992
 30
0.0
 10
14.9684652827
 20
12.378436853
 30
0.0
 10
14.9533094662
 20
12.3741489364
 30
0.0
 10
14.9385674268
 20
12.3694718462
 30
0.0
 10
14.9242557885
 20
12.3644108105
 30
0.0
 10
14.9103906927
 20
12.3589714811
 30
0.0
 10
14.8969877814
 20
12.3531599273
 30
0.0
 10
14.884062182
 20
12.3469826277
 30
0.0
 10
14.8716284919
 20
12.3404464652
 30
0.0
 10
14.859700765
 20
12.3335587177
 30
0.0
 10
14.8482925005
 20
12.3263270513
 30
0.0
 10
14.8374166307
 20
12.3187595134
 30
0.0
 10
14.8270855103
 20
12.3108645268
 30
0.0
 10
14.8173109034
 20
12.3026508864
 30
0.0
 10
14.8081039745
 20
12.2941277537
 30
0.0
 10
14.7994752769
 20
12.2853046533
 30
0.0
 10
14.7914347403
 20
12.2761914701
 30
0.0
 10
14.7839916562
 20
12.266798446
 30
0.0
 10
14.7771546609
 20
12.2571361822
 30
0.0
 10
14.7709317136
 20
12.2472156172
 30
0.0
 10
14.7653300944
 20
12.2370480772
 30
0.0
 10
14.7603563167
 20
12.2266450489
 30
0.0
 10
14.7560163539
 20
12.2160189638
 30
0.0
 10
14.7535476324
 20
12.2087903455
 30
0.0
 10
14.7524220688
 20
12.2051480177
 30
0.0
  0
SPLINE
  5
30D
100
AcDbEntity
  8
LAYER_FEATURE
100
AcDbSpline
 62
7
  6
CONTINUOUS
 70
0
 71
3
 72
37
 73
33
 74
0
 42
0.0000001
 43
0.0000001
 44
0.0000000001
 40
0.0
 40
0.0
 40
0.0
 40
0.0
 40
0.0938201899
 40
0.1387506489
 40
0.1822969378
 40
0.224423867
 40
0.2650999622
 40
0.3043002713
 40
0.3420093124
 40
0.3782201997
 40
0.4129364704
 40
0.4461729348
 40
0.4779578336
 40
0.5083341008
 40
0.5373615268
 40
0.5651186796
 40
0.5917047988
 40
0.6172415996
 40
0.6418739329
 40
0.6657699275
 40
0.6891187658
 40
0.712127226
 40
0.735013593
 40
0.7580005357
 40
0.7813071824
 40
0.8051415515
 40
0.8296949511
 40
0.881571107
 40
0.9092101022
 40
0.9381108628
 40
0.9683535553
 40
1.0
 40
1.0
 40
1.0
 40
1.0
 10
15.888555908
 20
12.2048892582
 30
0.0
 10
15.8889863404
 20
12.2062821382
 30
0.0
 10
15.8896713764
 20
12.2083277858
 30
0.0
 10
15.8906801836
 20
12.2109750729
 30
0.0
 10
15.8914570288
 20
12.2128502904
 30
0.0
 10
15.8922636529
 20
12.2146406331
 30
0.0
 10
15.8930986551
 20
12.2163430545
 30
0.0
 10
15.8939606249
 20
12.2179545741
 30
0.0
 10
15.8948480445
 20
12.2194724194
 30
0.0
 10
15.8957594253
 20
12.2208939637
 30
0.0
 10
15.8966931949
 20
12.2222167703
 30
0.0
 10
15.8976477995
 20
12.2234385462
 30
0.0
 10
15.8986216282
 20
12.2245571915
 30
0.0
 10
15.8996130819
 20
12.225570757
 30
0.0
 10
15.9006205342
 20
12.226477466
 30
0.0
 10
15.9016423512
 20
12.2272756922
 30
0.0
 10
15.9026768858
 20
12.2279639443
 30
0.0
 10
15.9037224428
 20
12.2285408859
 30
0.0
 10
15.904777289
 20
12.2290052751
 30
0.0
 10
15.9058395745
 20
12.2293560696
 30
0.0
 10
15.9069073566
 20
12.2295923352
 30
0.0
 10
15.9079785414
 20
12.2297134657
 30
0.0
 10
15.9090509479
 20
12.2297190457
 30
0.0
 10
15.9101223541
 20
12.2296091204
 30
0.0
 10
15.9111905407
 20
12.2293839582
 30
0.0
 10
15.9122534994
 20
12.2290442129
 30
0.0
 10
15.9136868564
 20
12.2284285638
 30
0.0
 10
15.915078818
 20
12.2275878255
 30
0.0
 10
15.9164143403
 20
12.2265595887
 30
0.0
 10
15.9174233823
 20
12.2256632222
 30
0.0
 10
15.9184164068
 20
12.2246599845
 30
0.0
 10
15.9190521466
 20
12.2239375987
 30
0.0
 10
15.9193672626
 20
12.2235600758
 30
0.0
  0
SPLINE
  5
30E
100
AcDbEntity
  8
LAYER_FEATURE
100
AcDbSpline
 62
7
  6
CONTINUOUS
 70
0
 71
3
 72
11
 73
7
 74
0
 42
0.0000001
 43
0.0000001
 44
0.0000000001
 40
0.0
 40
0.0
 40
0.0
 40
0.0
 40
0.2266060221
 40
0.4675683403
 40
0.724891535
 40
1.0
 40
1.0
 40
1.0
 40
1.0
 10
15.8995157165
 20
12.2446242255
 30
0.0
 10
15.9001758911
 20
12.2442968588
 30
0.0
 10
15.9014934569
 20
12.2435286919
 30
0.0
 10
15.9033808263
 20
12.2421091319
 30
0.0
 10
15.9052280776
 20
12.2403968677
 30
0.0
 10
15.9063887507
 20
12.2391089866
 30
0.0
 10
15.9069620156
 20
12.2384221906
 30
0.0
  0
SPLINE
  5
30F
100
AcDbEntity
  8
LAYER_FEATURE
100
AcDbSpline
 62
7
  6
CONTINUOUS
 70
0
 71
3
 72
53
 73
49
 74
0
 42
0.0000001
 43
0.0000001
 44
0.0000000001
 40
0.0
 40
0.0
 40
0.0
 40
0.0
 40
0.0357017213
 40
0.0730196377
 40
0.1117596317
 40
0.1517098412
 40
0.1926450431
 40
0.2343291296
 40
0.2765181182
 40
0.3189627753
 40
0.3614112507
 40
0.4036116546
 40
0.4453146393
 40
0.4862760135
 40
0.5262594273
 40
0.5650391797
 40
0.6024032204
 40
0.6381564512
 40
0.6721244831
 40
0.6883928692
 40
0.7041613734
 40
0.7194162327
 40
0.7341459699
 40
0.7483417483
 40
0.761997653
 40
0.7751110208
 40
0.7876829512
 40
0.7997186421
 40
0.8112281562
 40
0.8222267934
 40
0.8327360886
 40
0.8427842036
 40
0.8524069964
 40
0.861648253
 40
0.8705603987
 40
0.879204105
 40
0.8876479241
 40
0.8959666874
 40
0.90423957
 40
0.9125473584
 40
0.9209695766
 40
0.929581853
 40
0.9384536024
 40
0.9571982823
 40
0.9671861416
 40
0.9776306918
 40
0.9885612103
 40
1.0
 40
1.0
 40
1.0
 40
1.0
 10
15.888555908
 20
12.2048892582
 30
0.0
 10
15.888101919
 20
12.2034201496
 30
0.0
 10
15.8872476453
 20
12.2003920924
 30
0.0
 10
15.8861447811
 20
12.1957053507
 30
0.0
 10
15.8851976528
 20
12.1907982077
 30
0.0
 10
15.8844129668
 20
12.1857049396
 30
0.0
 10
15.8837962313
 20
12.1804609928
 30
0.0
 10
15.8833517962
 20
12.1751029404
 30
0.0
 10
15.8830827911
 20
12.1696681641
 30
0.0
 10
15.8829911127
 20
12.164194598
 30
0.0
 10
15.8830774069
 20
12.1587204528
 30
0.0
 10
15.8833410656
 20
12.1532839438
 30
0.0
 10
15.8837802305
 20
12.1479230165
 30
0.0
 10
15.8843918068
 20
12.1426750761
 30
0.0
 10
15.8851714868
 20
12.1375767134
 30
0.0
 10
15.8861137811
 20
12.1326634549
 30
0.0
 10
15.8872120665
 20
12.1279694459
 30
0.0
 10
15.8884586279
 20
12.1235273904
 30
0.0
 10
15.8896300187
 20
12.1200121057
 30
0.0
 10
15.8906382974
 20
12.1173537742
 30
0.0
 10
15.8914149658
 20
12.1154705025
 30
0.0
 10
15.892221588
 20
12.1136722361
 30
0.0
 10
15.8930567858
 20
12.1119620958
 30
0.0
 10
15.8939191043
 20
12.110343051
 30
0.0
 10
15.8948070557
 20
12.1088179079
 30
0.0
 10
15.8957191214
 20
12.1073893105
 30
0.0
 10
15.8966537334
 20
12.1060597238
 30
0.0
 10
15.897609327
 20
12.1048314584
 30
0.0
 10
15.8985842766
 20
12.1037066275
 30
0.0
 10
15.899576992
 20
12.1026872123
 30
0.0
 10
15.9005858112
 20
12.1017749812
 30
0.0
 10
15.9016091278
 20
12.1009716118
 30
0.0
 10
15.9026452439
 20
12.1002785577
 30
0.0
 10
15.9036925036
 20
12.0996972348
 30
0.0
 10
15.9047491179
 20
12.0992288129
 30
0.0
 10
15.9058132753
 20
12.0988744465
 30
0.0
 10
15.9068829852
 20
12.0986349648
 30
0.0
 10
15.9079561734
 20
12.0985111151
 30
0.0
 10
15.9090306308
 20
12.0985031825
 30
0.0
 10
15.9101041222
 20
12.0986112744
 30
0.0
 10
15.9111744282
 20
12.0988349804
 30
0.0
 10
15.9122394968
 20
12.0991737859
 30
0.0
 10
15.9136757458
 20
12.0997886934
 30
0.0
 10
15.9150705275
 20
12.1006296838
 30
0.0
 10
15.9164086475
 20
12.1016589211
 30
0.0
 10
15.9174196898
 20
12.102556473
 30
0.0
 10
15.9184146279
 20
12.1035613329
 30
0.0
 10
15.9190515671
 20
12.1042849866
 30
0.0
 10
15.9193672631
 20
12.1046632102
 30
0.0
  0
SPLINE
  5
310
100
AcDbEntity
  8
02___PRT_ALL_AXES
100
AcDbSpline
 62
7
  6
CONTINUOUS
 70
0
 71
3
 72
22
 73
18
 74
0
 42
0.0000001
 43
0.0000001
 44
0.0000000001
 40
0.0
 40
0.0
 40
0.0
 40
0.0
 40
0.0521968198
 40
0.104577581
 40
0.1574617393
 40
0.2111585953
 40
0.2659610405
 40
0.3221402545
 40
0.3799420098
 40
0.4395846192
 40
0.5012574979
 40
0.5651220942
 40
0.6998786069
 40
0.7710141503
 40
0.8447249066
 40
0.921053064
 40
1.0
 40
1.0
 40
1.0
 40
1.0
 10
15.9065485794
 20
12.2461116442
 30
0.0
 10
15.907065043
 20
12.2461116434
 30
0.0
 10
15.9081004364
 20
12.2460635507
 30
0.0
 10
15.9096454385
 20
12.2458468349
 30
0.0
 10
15.9111785785
 20
12.2454859151
 30
0.0
 10
15.9126958192
 20
12.2449815203
 30
0.0
 10
15.9141934638
 20
12.2443346213
 30
0.0
 10
15.91566788
 20
12.2435464375
 30
0.0
 10
15.9171156324
 20
12.2426184737
 30
0.0
 10
15.9185333435
 20
12.2415523845
 30
0.0
 10
15.9199179307
 20
12.2403500983
 30
0.0
 10
15.9217482028
 20
12.2385359962
 30
0.0
 10
15.9234639936
 20
12.2364821548
 30
0.0
 10
15.9250651602
 20
12.234225178
 30
0.0
 10
15.9262409224
 20
12.2323782774
 30
0.0
 10
15.927367219
 20
12.2304115264
 30
0.0
 10
15.9280719657
 20
12.2290457084
 30
0.0
 10
15.9284160929
 20
12.2283444509
 30
0.0
  0
SPLINE
  5
311
100
AcDbEntity
  8
LAYER_FEATURE
100
AcDbSpline
 62
7
  6
CONTINUOUS
 70
0
 71
3
 72
39
 73
35
 74
0
 42
0.0000001
 43
0.0000001
 44
0.0000000001
 40
0.0
 40
0.0
 40
0.0
 40
0.0
 40
0.0396652045
 40
0.0788627045
 40
0.1175691695
 40
0.1557638119
 40
0.1934266617
 40
0.2305396245
 40
0.2670862422
 40
0.3030519235
 40
0.3384240472
 40
0.3731920982
 40
0.407347807
 40
0.4408852942
 40
0.4738012217
 40
0.5060949489
 40
0.5377686923
 40
0.5688276893
 40
0.5992803563
 40
0.6291384448
 40
0.6584171896
 40
0.6871354435
 40
0.7153157905
 40
0.7429846322
 40
0.7701722372
 40
0.7969127389
 40
0.8232440788
 40
0.8492078819
 40
0.8748492571
 40
0.9002165157
 40
0.9253608063
 40
0.9503356672
 40
0.975196503
 40
1.0
 40
1.0
 40
1.0
 40
1.0
 10
15.0979289318
 20
12.9200621776
 30
0.0
 10
15.0876654521
 20
12.9200621776
 30
0.0
 10
15.0672586991
 20
12.9198320342
 30
0.0
 10
15.0368527755
 20
12.9187830588
 30
0.0
 10
15.0068599951
 20
12.9170334269
 30
0.0
 10
14.9773145087
 20
12.9145851534
 30
0.0
 10
14.9482495133
 20
12.911440947
 30
0.0
 10
14.919697852
 20
12.9076043549
 30
0.0
 10
14.8916917164
 20
12.9030796709
 30
0.0
 10
14.8642627007
 20
12.8978719696
 30
0.0
 10
14.8374417378
 20
12.891987089
 30
0.0
 10
14.8112590729
 20
12.8854316223
 30
0.0
 10
14.7857442302
 20
12.8782129081
 30
0.0
 10
14.7609259806
 20
12.8703390209
 30
0.0
 10
14.736832312
 20
12.8618187606
 30
0.0
 10
14.7134903994
 20
12.8526616411
 30
0.0
 10
14.6909265772
 20
12.8428778783
 30
0.0
 10
14.6691663105
 20
12.8324783828
 30
0.0
 10
14.6482341728
 20
12.8214747418
 30
0.0
 10
14.6281538244
 20
12.8098792076
 30
0.0
 10
14.608947991
 20
12.7977046858
 30
0.0
 10
14.5906384446
 20
12.7849647241
 30
0.0
 10
14.5732459844
 20
12.7716735021
 30
0.0
 10
14.5567904181
 20
12.7578458239
 30
0.0
 10
14.5412905401
 20
12.7434971144
 30
0.0
 10
14.5267641152
 20
12.7286434087
 30
0.0
 10
14.513227859
 20
12.7133013491
 30
0.0
 10
14.500697412
 20
12.6974881787
 30
0.0
 10
14.4891873155
 20
12.6812217433
 30
0.0
 10
14.4787109716
 20
12.664520456
 30
0.0
 10
14.4692806394
 20
12.6474033838
 30
0.0
 10
14.4609072796
 20
12.6298898669
 30
0.0
 10
14.4536009473
 20
12.6120008341
 30
0.0
 10
14.4494448464
 20
12.5998314445
 30
0.0
 10
14.4475499596
 20
12.5936995791
 30
0.0
  0
SPLINE
  5
312
100
AcDbEntity
  8
02___PRT_ALL_AXES
100
AcDbSpline
 62
7
  6
CONTINUOUS
 70
0
 71
3
 72
56
 73
52
 74
0
 42
0.0000001
 43
0.0000001
 44
0.0000000001
 40
0.0
 40
0.0
 40
0.0
 40
0.0
 40
0.0345294132
 40
0.0697081291
 40
0.1054492283
 40
0.1416605161
 40
0.1782456822
 40
0.2151052099
 40
0.2521372626
 40
0.2892385663
 40
0.3263052722
 40
0.3632338187
 40
0.3999217931
 40
0.4362688034
 40
0.4721773729
 40
0.5075538498
 40
0.5423093677
 40
0.5594290573
 40
0.5763628928
 40
0.5931015688
 40
0.60963628
 40
0.6259587567
 40
0.6420613039
 40
0.6579368415
 40
0.6735789474
 40
0.6889819041
 40
0.7041407441
 40
0.7190512973
 40
0.7337102421
 40
0.7481151576
 40
0.7622645807
 40
0.7761580625
 40
0.7897962244
 40
0.8031808165
 40
0.8163147763
 40
0.8292022871
 40
0.8418488351
 40
0.854261258
 40
0.8664477897
 40
0.8784180964
 40
0.8901833021
 40
0.9017560001
 40
0.9131502433
 40
0.924381514
 40
0.93546667
 40
0.9464238628
 40
0.9572724291
 40
0.9680327498
 40
0.9787260815
 40
0.9893743628
 40
1.0
 40
1.0
 40
1.0
 40
1.0
 10
15.2217759297
 20
12.6676885304
 30
0.0
 10
15.233669059
 20
12.6676885304
 30
0.0
 10
15.2576818172
 20
12.6671605885
 30
0.0
 10
15.2939379562
 20
12.6648449725
 30
0.0
 10
15.3306474649
 20
12.6610073135
 30
0.0
 10
15.3676570863
 20
12.6556635537
 30
0.0
 10
15.4048134046
 20
12.6488359066
 30
0.0
 10
15.4419620384
 20
12.6405527164
 30
0.0
 10
15.4789487049
 20
12.6308483963
 30
0.0
 10
15.5156197535
 20
12.6197632634
 30
0.0
 10
15.5518228396
 20
12.6073433542
 30
0.0
 10
15.5874075706
 20
12.5936402801
 30
0.0
 10
15.6222261392
 20
12.5787109498
 30
0.0
 10
15.6561339017
 20
12.5626173797
 30
0.0
 10
15.6889901807
 20
12.5454263339
 30
0.0
 10
15.7206581518
 20
12.5272093829
 30
0.0
 10
15.7460755183
 20
12.5111563996
 30
0.0
 10
15.7656952988
 20
12.4978583082
 30
0.0
 10
15.7799593696
 20
12.4877267026
 30
0.0
 10
15.793830988
 20
12.4773980662
 30
0.0
 10
15.8072957919
 20
12.4668830804
 30
0.0
 10
15.8203397552
 20
12.4561926936
 30
0.0
 10
15.8329493119
 20
12.4453380135
 30
0.0
 10
15.845111341
 20
12.4343303209
 30
0.0
 10
15.8568131872
 20
12.4231810498
 30
0.0
 10
15.8680426768
 20
12.4119017819
 30
0.0
 10
15.8787881269
 20
12.4005042298
 30
0.0
 10
15.8890383557
 20
12.389000224
 30
0.0
 10
15.8987826924
 20
12.3774017014
 30
0.0
 10
15.9080109879
 20
12.3657206914
 30
0.0
 10
15.916713628
 20
12.3539693061
 30
0.0
 10
15.9248815427
 20
12.3421597277
 30
0.0
 10
15.9325062101
 20
12.330304193
 30
0.0
 10
15.9395796632
 20
12.3184149829
 30
0.0
 10
15.9460944971
 20
12.30650441
 30
0.0
 10
15.9520438761
 20
12.2945848079
 30
0.0
 10
15.9574215454
 20
12.282668522
 30
0.0
 10
15.9622218282
 20
12.2707678959
 30
0.0
 10
15.9664396311
 20
12.2588952632
 30
0.0
 10
15.9700704491
 20
12.2470629383
 30
0.0
 10
15.9731103693
 20
12.2352832078
 30
0.0
 10
15.9755560867
 20
12.223568324
 30
0.0
 10
15.9774049021
 20
12.2119304952
 30
0.0
 10
15.9786547291
 20
12.2003818776
 30
0.0
 10
15.9793041019
 20
12.1889345665
 30
0.0
 10
15.9793521839
 20
12.1776005891
 30
0.0
 10
15.9787987814
 20
12.1663918781
 30
0.0
 10
15.9776443668
 20
12.1553203077
 30
0.0
 10
15.9758900203
 20
12.1443974854
 30
0.0
 10
15.97353766
 20
12.1336354401
 30
0.0
 10
15.971571336
 20
12.1265719572
 30
0.0
 10
15.9704907798
 20
12.1230752707
 30
0.0
  0
SPLINE
  5
313
100
AcDbEntity
  8
LAYER_FEATURE
100
AcDbSpline
 62
7
  6
CONTINUOUS
 70
0
 71
3
 72
39
 73
35
 74
0
 42
0.0000001
 43
0.0000001
 44
0.0000000001
 40
0.0
 40
0.0
 40
0.0
 40
0.0
 40
0.0396652045
 40
0.0788627045
 40
0.1175691695
 40
0.1557638119
 40
0.1934266617
 40
0.2305396245
 40
0.2670862422
 40
0.3030519235
 40
0.3384240472
 40
0.3731920982
 40
0.407347807
 40
0.4408852942
 40
0.4738012217
 40
0.5060949489
 40
0.5377686923
 40
0.5688276893
 40
0.5992803563
 40
0.6291384448
 40
0.6584171896
 40
0.6871354435
 40
0.7153157905
 40
0.7429846322
 40
0.7701722372
 40
0.7969127389
 40
0.8232440788
 40
0.8492078819
 40
0.8748492571
 40
0.9002165157
 40
0.9253608063
 40
0.9503356672
 40
0.975196503
 40
1.0
 40
1.0
 40
1.0
 40
1.0
 10
15.2245296189
 20
13.3297421513
 30
0.0
 10
15.2142661392
 20
13.3297421513
 30
0.0
 10
15.1938593863
 20
13.3295120079
 30
0.0
 10
15.1634534626
 20
13.3284630326
 30
0.0
 10
15.1334606823
 20
13.3267134007
 30
0.0
 10
15.1039151959
 20
13.3242651271
 30
0.0
 10
15.0748502005
 20
13.3211209207
 30
0.0
 10
15.0462985391
 20
13.3172843286
 30
0.0
 10
15.0182924036
 20
13.3127596446
 30
0.0
 10
14.9908633878
 20
13.3075519433
 30
0.0
 10
14.9640424249
 20
13.3016670627
 30
0.0
 10
14.9378597601
 20
13.295111596
 30
0.0
 10
14.9123449173
 20
13.2878928818
 30
0.0
 10
14.8875266678
 20
13.2800189946
 30
0.0
 10
14.8634329991
 20
13.2714987344
 30
0.0
 10
14.8400910865
 20
13.2623416148
 30
0.0
 10
14.8175272643
 20
13.252557852
 30
0.0
 10
14.7957669976
 20
13.2421583565
 30
0.0
 10
14.77483486
 20
13.2311547155
 30
0.0
 10
14.7547545115
 20
13.2195591814
 30
0.0
 10
14.7355486782
 20
13.2073846595
 30
0.0
 10
14.7172391317
 20
13.1946446978
 30
0.0
 10
14.6998466715
 20
13.1813534759
 30
0.0
 10
14.6833911053
 20
13.1675257977
 30
0.0
 10
14.6678912272
 20
13.1531770881
 30
0.0
 10
14.6533648024
 20
13.1383233824
 30
0.0
 10
14.6398285461
 20
13.1229813228
 30
0.0
 10
14.6272980991
 20
13.1071681524
 30
0.0
 10
14.6157880026
 20
13.0909017171
 30
0.0
 10
14.6053116588
 20
13.0742004297
 30
0.0
 10
14.5958813265
 20
13.0570833576
 30
0.0
 10
14.5875079667
 20
13.0395698406
 30
0.0
 10
14.5802016344
 20
13.0216808078
 30
0.0
 10
14.5760455336
 20
13.0095114183
 30
0.0
 10
14.5741506467
 20
13.0033795528
 30
0.0
  0
SPLINE
  5
314
100
AcDbEntity
  8
LAYER_FEATURE
100
AcDbSpline
 62
7
  6
CONTINUOUS
 70
0
 71
3
 72
84
 73
80
 74
0
 42
0.0000001
 43
0.0000001
 44
0.0000000001
 40
0.0
 40
0.0
 40
0.0
 40
0.0
 40
0.01821465
 40
0.0366868692
 40
0.0553933003
 40
0.0743092253
 40
0.0934090397
 40
0.112666258
 40
0.1320536852
 40
0.1515435424
 40
0.1711075975
 40
0.1907172937
 40
0.2103438756
 40
0.2299585143
 40
0.2495324325
 40
0.2690370304
 40
0.2884440115
 40
0.3077255103
 40
0.3268542216
 40
0.3458035327
 40
0.3645476585
 40
0.3830617821
 40
0.4013221993
 40
0.4193064696
 40
0.4369935731
 40
0.4543640772
 40
0.4714003118
 40
0.4880865567
 40
0.5044092399
 40
0.5203571493
 40
0.5359216572
 40
0.5510969605
 40
0.5658803331
 40
0.5802723908
 40
0.5942773642
 40
0.6079033689
 40
0.6211626673
 40
0.6340719035
 40
0.6466522928
 40
0.6589297389
 40
0.664965186
 40
0.6709367688
 40
0.676849027
 40
0.6827067685
 40
0.6885150606
 40
0.6942792062
 40
0.7000047324
 40
0.7056973612
 40
0.7113629877
 40
0.7170076515
 40
0.7226375045
 40
0.7282587807
 40
0.7338777609
 40
0.7395007388
 40
0.7451339859
 40
0.7507837173
 40
0.7564560576
 40
0.7621570106
 40
0.7678924263
 40
0.7736679779
 40
0.7794891322
 40
0.7853611314
 40
0.791288974
 40
0.7972773953
 40
0.8033308632
 40
0.8094535578
 40
0.8219201996
 40
0.8347067859
 40
0.8478362336
 40
0.8613268358
 40
0.875192428
 40
0.8894426093
 40
0.9040829951
 40
0.9191154877
 40
0.9345385493
 40
0.9503474694
 40
0.9665346225
 40
0.9830897127
 40
1.0
 40
1.0
 40
1.0
 40
1.0
 10
15.1272218294
 20
12.894199593
 30
0.0
 10
15.1405994523
 20
12.894199593
 30
0.0
 10
15.1675456178
 20
12.8937714872
 30
0.0
 10
15.2081907099
 20
12.8918801459
 30
0.0
 10
15.2492751229
 20
12.8887390301
 30
0.0
 10
15.2907087692
 20
12.8843549718
 30
0.0
 10
15.3324013692
 20
12.8787375603
 30
0.0
 10
15.374261937
 20
12.8718990464
 30
0.0
 10
15.4161991434
 20
12.8638543532
 30
0.0
 10
15.4581214746
 20
12.8546210368
 30
0.0
 10
15.4999374464
 20
12.8442192488
 30
0.0
 10
15.5415558017
 20
12.8326716902
 30
0.0
 10
15.5828857121
 20
12.8200035621
 30
0.0
 10
15.6238369777
 20
12.8062425109
 30
0.0
 10
15.6643202248
 20
12.7914185667
 30
0.0
 10
15.7042471041
 20
12.7755640813
 30
0.0
 10
15.7435304852
 20
12.7587136557
 30
0.0
 10
15.7820846467
 20
12.7409040599
 30
0.0
 10
15.8198254642
 20
12.7221741522
 30
0.0
 10
15.8566705951
 20
12.702564792
 30
0.0
 10
15.8925396584
 20
12.6821187485
 30
0.0
 10
15.9273544129
 20
12.6608806067
 30
0.0
 10
15.96103893
 20
12.6388966683
 30
0.0
 10
15.9935197558
 20
12.616214843
 30
0.0
 10
16.0247260713
 20
12.59288454
 30
0.0
 10
16.0545898442
 20
12.5689565555
 30
0.0
 10
16.0830459749
 20
12.5444829559
 30
0.0
 10
16.110032435
 20
12.5195169581
 30
0.0
 10
16.1354904007
 20
12.4941128104
 30
0.0
 10
16.1593643673
 20
12.4683256624
 30
0.0
 10
16.1816022574
 20
12.442211439
 30
0.0
 10
16.2021555182
 20
12.4158267138
 30
0.0
 10
16.2209792057
 20
12.3892285839
 30
0.0
 10
16.2380320573
 20
12.3624745445
 30
0.0
 10
16.2532765569
 20
12.3356223874
 30
0.0
 10
16.2666789817
 20
12.3087300571
 30
0.0
 10
16.2782094233
 20
12.2818556845
 30
0.0
 10
16.2878418826
 20
12.2550570683
 30
0.0
 10
16.2955540993
 20
12.2283932208
 30
0.0
 10
16.3003932673
 20
12.2062059406
 30
0.0
 10
16.3032693329
 20
12.1886005892
 30
0.0
 10
16.3049256368
 20
12.1755415324
 30
0.0
 10
16.306092232
 20
12.1625607404
 30
0.0
 10
16.3067684534
 20
12.1496651581
 30
0.0
 10
16.3069539168
 20
12.1368619123
 30
0.0
 10
16.3066484208
 20
12.1241580254
 30
0.0
 10
16.3058521466
 20
12.1115604904
 30
0.0
 10
16.3045654567
 20
12.0990762449
 30
0.0
 10
16.3027890398
 20
12.086712172
 30
0.0
 10
16.3005238651
 20
12.0744750884
 30
0.0
 10
16.2977711197
 20
12.0623717578
 30
0.0
 10
16.2945323658
 20
12.0504088498
 30
0.0
 10
16.2908093281
 20
12.038592985
 30
0.0
 10
16.2866041062
 20
12.0269306738
 30
0.0
 10
16.2819190104
 20
12.0154283561
 30
0.0
 10
16.2767566322
 20
12.0040923789
 30
0.0
 10
16.2711198729
 20
11.9929289687
 30
0.0
 10
16.2650118164
 20
11.9819442929
 30
0.0
 10
16.2584359093
 20
11.9711443565
 30
0.0
 10
16.2513957632
 20
11.9605351091
 30
0.0
 10
16.2438953067
 20
11.9501223481
 30
0.0
 10
16.2359387018
 20
11.9399117677
 30
0.0
 10
16.2275303218
 20
11.9299089575
 30
0.0
 10
16.2186748869
 20
11.9201193678
 30
0.0
 10
16.2093771145
 20
11.9105482657
 30
0.0
 10
16.1963200442
 20
11.8980108417
 30
0.0
 10
16.1788876925
 20
11.8829114662
 30
0.0
 10
16.156416201
 20
11.8658608744
 30
0.0
 10
16.1323152308
 20
11.8498051614
 30
0.0
 10
16.1066385347
 20
11.8347790532
 30
0.0
 10
16.0794422101
 20
11.8208142332
 30
0.0
 10
16.0507857327
 20
11.807940408
 30
0.0
 10
16.0207315731
 20
11.7961849446
 30
0.0
 10
15.9893451888
 20
11.7855729058
 30
0.0
 10
15.9566948758
 20
11.7761269622
 30
0.0
 10
15.9228517143
 20
11.767867345
 30
0.0
 10
15.8878891899
 20
11.7608117597
 30
0.0
 10
15.8518839768
 20
11.754975438
 30
0.0
 10
15.8274877937
 20
11.7519369497
 30
0.0
 10
15.8151384296
 20
11.7506175804
 30
0.0
  0
SPLINE
  5
315
100
AcDbEntity
  8
LAYER_FEATURE
100
AcDbSpline
 62
7
  6
CONTINUOUS
 70
0
 71
3
 72
71
 73
67
 74
0
 42
0.0000001
 43
0.0000001
 44
0.0000000001
 40
0.0
 40
0.0
 40
0.0
 40
0.0
 40
0.0202058182
 40
0.0401909356
 40
0.0599446766
 40
0.0794579614
 40
0.0987217646
 40
0.1177278752
 40
0.1364687534
 40
0.1549375841
 40
0.173128342
 40
0.1910358314
 40
0.2086557464
 40
0.2259847205
 40
0.2430203804
 40
0.2597614053
 40
0.2762075897
 40
0.292359905
 40
0.3082205568
 40
0.3237930463
 40
0.3390822317
 40
0.3540943905
 40
0.3688372675
 40
0.3833201203
 40
0.3975537579
 40
0.4115505696
 40
0.4253245353
 40
0.438891215
 40
0.4522677203
 40
0.4654726615
 40
0.4785260692
 40
0.4914492801
 40
0.5042647972
 40
0.5169961203
 40
0.5296675508
 40
0.5423039713
 40
0.5549306085
 40
0.5675727858
 40
0.5802556734
 40
0.5930040412
 40
0.6058420266
 40
0.6187929195
 40
0.6318789728
 40
0.6451212364
 40
0.6585394243
 40
0.6721518129
 40
0.6859751667
 40
0.7000246884
 40
0.7143139928
 40
0.7288551074
 40
0.743658488
 40
0.7587330467
 40
0.7740861876
 40
0.7897238575
 40
0.8056506024
 40
0.8218696265
 40
0.8383828493
 40
0.8551909649
 40
0.8722935085
 40
0.8896889173
 40
0.9073745896
 40
0.9253469372
 40
0.9436014444
 40
0.9621327244
 40
0.9809345699
 40
1.0
 40
1.0
 40
1.0
 40
1.0
 10
15.1272218294
 20
12.894199593
 30
0.0
 10
15.1183833793
 20
12.894199593
 30
0.0
 10
15.1008024143
 20
12.8940149914
 30
0.0
 10
15.074592846
 20
12.8931743628
 30
0.0
 10
15.0487104862
 20
12.8917722299
 30
0.0
 10
15.0231809412
 20
12.889810023
 30
0.0
 10
14.9980289999
 20
12.8872896016
 30
0.0
 10
14.9732793023
 20
12.8842134332
 30
0.0
 10
14.9489560191
 20
12.8805845139
 30
0.0
 10
14.9250829172
 20
12.8764063705
 30
0.0
 10
14.9016833244
 20
12.871683063
 30
0.0
 10
14.878780103
 20
12.8664191725
 30
0.0
 10
14.8563956253
 20
12.8606198182
 30
0.0
 10
14.8345517562
 20
12.8542906308
 30
0.0
 10
14.8132698346
 20
12.847437749
 30
0.0
 10
14.792570655
 20
12.8400678081
 30
0.0
 10
14.7724744415
 20
12.8321879482
 30
0.0
 10
14.7530008295
 20
12.8238058037
 30
0.0
 10
14.7341688551
 20
12.8149294837
 30
0.0
 10
14.7159969398
 20
12.8055675668
 30
0.0
 10
14.6985028738
 20
12.795729093
 30
0.0
 10
14.6817037901
 20
12.7854235738
 30
0.0
 10
14.6656161624
 20
12.7746609638
 30
0.0
 10
14.6502557938
 20
12.7634516577
 30
0.0
 10
14.6356378073
 20
12.7518064791
 30
0.0
 10
14.6217766201
 20
12.7397366907
 30
0.0
 10
14.6086859331
 20
12.727253984
 30
0.0
 10
14.5963787288
 20
12.714370465
 30
0.0
 10
14.5848672572
 20
12.7010986535
 30
0.0
 10
14.5741630181
 20
12.6874514798
 30
0.0
 10
14.5642767252
 20
12.6734422931
 30
0.0
 10
14.5552183083
 20
12.6590848379
 30
0.0
 10
14.5469968914
 20
12.6443932482
 30
0.0
 10
14.5396207769
 20
12.6293820333
 30
0.0
 10
14.5330974027
 20
12.614066073
 30
0.0
 10
14.5274333296
 20
12.5984605906
 30
0.0
 10
14.5226342373
 20
12.5825811239
 30
0.0
 10
14.5187049107
 20
12.5664435003
 30
0.0
 10
14.5156492265
 20
12.5500638098
 30
0.0
 10
14.5134701284
 20
12.5334583778
 30
0.0
 10
14.5121696568
 20
12.5166437293
 30
0.0
 10
14.5117489495
 20
12.4996365628
 30
0.0
 10
14.5122082563
 20
12.482453728
 30
0.0
 10
14.5135469242
 20
12.4651122044
 30
0.0
 10
14.5157634219
 20
12.4476290812
 30
0.0
 10
14.5188553628
 20
12.4300215422
 30
0.0
 10
14.5228195146
 20
12.4123068529
 30
0.0
 10
14.5276518028
 20
12.3945023509
 30
0.0
 10
14.5333473034
 20
12.3766254283
 30
0.0
 10
14.5399002762
 20
12.3586935264
 30
0.0
 10
14.5473041675
 20
12.3407241228
 30
0.0
 10
14.5555516197
 20
12.3227347234
 30
0.0
 10
14.5646344567
 20
12.3047428417
 30
0.0
 10
14.5745437031
 20
12.28676599
 30
0.0
 10
14.585269599
 20
12.2688216666
 30
0.0
 10
14.5968016065
 20
12.2509273423
 30
0.0
 10
14.6091284104
 20
12.2331004435
 30
0.0
 10
14.6222379174
 20
12.2153583286
 30
0.0
 10
14.6361172843
 20
12.1977182825
 30
0.0
 10
14.6507529262
 20
12.1801974964
 30
0.0
 10
14.6661305286
 20
12.1628130564
 30
0.0
 10
14.6822350479
 20
12.1455819111
 30
0.0
 10
14.6990507207
 20
12.1285208748
 30
0.0
 10
14.7165611412
 20
12.1116465658
 30
0.0
 10
14.7347490549
 20
12.0949755707
 30
0.0
 10
14.7472293145
 20
12.0840820298
 30
0.0
 10
14.753576115
 20
12.0786720954
 30
0.0
  0
SPLINE
  5
316
100
AcDbEntity
  8
LAYER_FEATURE
100
AcDbSpline
 62
7
  6
CONTINUOUS
 70
0
 71
3
 72
68
 73
64
 74
0
 42
0.0000001
 43
0.0000001
 44
0.0000000001
 40
0.0
 40
0.0
 40
0.0
 40
0.0
 40
0.0171788537
 40
0.0345306493
 40
0.0520446784
 40
0.069710489
 40
0.0875169164
 40
0.1054526098
 40
0.1235058943
 40
0.141664841
 40
0.1599172928
 40
0.1782508912
 40
0.1966531056
 40
0.2151112603
 40
0.2521425355
 40
0.2892430599
 40
0.3263089876
 40
0.3447973805
 40
0.363238365
 40
0.3816191842
 40
0.3999272074
 40
0.4181499576
 40
0.4362751398
 40
0.4542906695
 40
0.4721847017
 40
0.4899456595
 40
0.5075622643
 40
0.5250235667
 40
0.5423189792
 40
0.5594383084
 40
0.5763717881
 40
0.5931101137
 40
0.6096444786
 40
0.6259666121
 40
0.6420688199
 40
0.6579440233
 40
0.6735858016
 40
0.6889884364
 40
0.7041469583
 40
0.7190571972
 40
0.7337158328
 40
0.7481204459
 40
0.7622695735
 40
0.7761627646
 40
0.7898006393
 40
0.8031849488
 40
0.8163186321
 40
0.8292058734
 40
0.8418521573
 40
0.8542643197
 40
0.8664505941
 40
0.8784206484
 40
0.8901856074
 40
0.9017580635
 40
0.9131520681
 40
0.9243831024
 40
0.9354680247
 40
0.9464249873
 40
0.9572733262
 40
0.9680334213
 40
0.9787265285
 40
0.989374586
 40
1.0
 40
1.0
 40
1.0
 40
1.0
 10
15.0979289318
 20
12.9200621776
 30
0.0
 10
15.1078904102
 20
12.9200621776
 30
0.0
 10
15.1279142901
 20
12.9198429881
 30
0.0
 10
15.1580797751
 20
12.9188690714
 30
0.0
 10
15.1885003425
 20
12.9172492747
 30
0.0
 10
15.2191440195
 20
12.9149853451
 30
0.0
 10
15.2499790734
 20
12.9120796002
 30
0.0
 10
15.2809733546
 20
12.9085350817
 30
0.0
 10
15.3120946226
 20
12.9043554721
 30
0.0
 10
15.343310479
 20
12.8995451278
 30
0.0
 10
15.374588443
 20
12.8941090559
 30
0.0
 10
15.4058959194
 20
12.8880529203
 30
0.0
 10
15.4372004636
 20
12.8813830022
 30
0.0
 10
15.4789347476
 20
12.8716707627
 30
0.0
 10
15.5308800916
 20
12.8580416424
 30
0.0
 10
15.5926151462
 20
12.8393800177
 30
0.0
 10
15.6434481715
 20
12.8219411732
 30
0.0
 10
15.6836321524
 20
12.8068919378
 30
0.0
 10
15.7134543873
 20
12.7950845323
 30
0.0
 10
15.7429533097
 20
12.7827601898
 30
0.0
 10
15.7720983453
 20
12.7699316766
 30
0.0
 10
15.8008591194
 20
12.7566123594
 30
0.0
 10
15.8292057043
 20
12.742816098
 30
0.0
 10
15.8571085943
 20
12.7285572556
 30
0.0
 10
15.8845387488
 20
12.7138506726
 30
0.0
 10
15.9114676186
 20
12.6987116538
 30
0.0
 10
15.9378671764
 20
12.6831559521
 30
0.0
 10
15.9637099457
 20
12.6671997505
 30
0.0
 10
15.9889690346
 20
12.6508596529
 30
0.0
 10
16.0136181603
 20
12.6341526594
 30
0.0
 10
16.0376316747
 20
12.6170961483
 30
0.0
 10
16.0609845908
 20
12.5997078581
 30
0.0
 10
16.0836526085
 20
12.5820058682
 30
0.0
 10
16.105612142
 20
12.5640085811
 30
0.0
 10
16.1268403477
 20
12.5457347069
 30
0.0
 10
16.1473151419
 20
12.5272032361
 30
0.0
 10
16.1670152229
 20
12.5084334216
 30
0.0
 10
16.1859200926
 20
12.4894447581
 30
0.0
 10
16.2040100763
 20
12.4702569597
 30
0.0
 10
16.2212663493
 20
12.4508899445
 30
0.0
 10
16.237670952
 20
12.4313638101
 30
0.0
 10
16.2532068038
 20
12.4116988105
 30
0.0
 10
16.267857719
 20
12.3919153361
 30
0.0
 10
16.2816084212
 20
12.3720338922
 30
0.0
 10
16.2944445581
 20
12.3520750781
 30
0.0
 10
16.3063527222
 20
12.3320595712
 30
0.0
 10
16.3173204533
 20
12.3120081012
 30
0.0
 10
16.3273362483
 20
12.2919414325
 30
0.0
 10
16.33638957
 20
12.2718803462
 30
0.0
 10
16.3444708544
 20
12.251845622
 30
0.0
 10
16.3515715261
 20
12.2318580238
 30
0.0
 10
16.3576840081
 20
12.2119382844
 30
0.0
 10
16.362801722
 20
12.1921070888
 30
0.0
 10
16.3669190982
 20
12.1723850625
 30
0.0
 10
16.3700315866
 20
12.1527927579
 30
0.0
 10
16.3721356678
 20
12.1333506405
 30
0.0
 10
16.3732288796
 20
12.1140790735
 30
0.0
 10
16.373309825
 20
12.094998304
 30
0.0
 10
16.3723781772
 20
12.0761284195
 30
0.0
 10
16.3704347241
 20
12.0574894109
 30
0.0
 10
16.3674812791
 20
12.0391008209
 30
0.0
 10
16.3635210686
 20
12.0209829013
 30
0.0
 10
16.3602107554
 20
12.009091517
 30
0.0
 10
16.3583916373
 20
12.0032048395
 30
0.0
  0
SPLINE
  5
317
100
AcDbEntity
  8
LAYER_CUT_FEAT
100
AcDbSpline
 62
7
  6
CONTINUOUS
 70
0
 71
3
 72
22
 73
18
 74
0
 42
0.0000001
 43
0.0000001
 44
0.0000000001
 40
0.0
 40
0.0
 40
0.0
 40
0.0
 40
0.1381197804
 40
0.2053664349
 40
0.2714549095
 40
0.3364371394
 40
0.400372579
 40
0.4633278449
 40
0.5253764087
 40
0.5865986111
 40
0.6470813103
 40
0.7069174443
 40
0.7662055009
 40
0.8250488566
 40
0.8835549595
 40
0.9418344164
 40
1.0
 40
1.0
 40
1.0
 40
1.0
 10
16.0592267567
 20
12.2984522093
 30
0.0
 10
16.063627872
 20
12.2894836791
 30
0.0
 10
16.0696922629
 20
12.2759026088
 30
0.0
 10
16.0766088909
 20
12.2575226739
 30
0.0
 10
16.0811064207
 20
12.2438969906
 30
0.0
 10
16.0849549026
 20
12.2303228642
 30
0.0
 10
16.0881507022
 20
12.2168128832
 30
0.0
 10
16.0906905827
 20
12.2033800692
 30
0.0
 10
16.0925719534
 20
12.1900372551
 30
0.0
 10
16.0937928595
 20
12.1767972615
 30
0.0
 10
16.0943519887
 20
12.1636728272
 30
0.0
 10
16.0942486541
 20
12.1506766173
 30
0.0
 10
16.0934828016
 20
12.1378211962
 30
0.0
 10
16.0920550807
 20
12.125119064
 30
0.0
 10
16.0899667457
 20
12.1125824377
 30
0.0
 10
16.0872198914
 20
12.1002239824
 30
0.0
 10
16.0849502834
 20
12.0921080301
 30
0.0
 10
16.0837081453
 20
12.0880884586
 30
0.0
  0
SPLINE
  5
318
100
AcDbEntity
  8
LAYER_FEATURE
100
AcDbSpline
 62
7
  6
CONTINUOUS
 70
0
 71
3
 72
21
 73
17
 74
0
 42
0.0000001
 43
0.0000001
 44
0.0000000001
 40
0.0
 40
0.0
 40
0.0
 40
0.0
 40
0.1544521141
 40
0.2294675947
 40
0.3026659015
 40
0.3738240566
 40
0.4427517247
 40
0.5092922143
 40
0.5733291362
 40
0.634792646
 40
0.6936663301
 40
0.8037744122
 40
0.8554266715
 40
0.9051021148
 40
0.9531538399
 40
1.0
 40
1.0
 40
1.0
 40
1.0
 10
14.7211159754
 20
13.0017758572
 30
0.0
 10
14.7199644587
 20
13.0019495694
 30
0.0
 10
14.7182405697
 20
13.0021319324
 30
0.0
 10
14.7159590272
 20
13.0022057148
 30
0.0
 10
14.7143044821
 20
13.0021754678
 30
0.0
 10
14.7126996803
 20
13.0020603251
 30
0.0
 10
14.7111536673
 20
13.0018609259
 30
0.0
 10
14.7096751878
 20
13.0015783536
 30
0.0
 10
14.7082726793
 20
13.0012141988
 30
0.0
 10
14.7069537769
 20
13.0007702949
 30
0.0
 10
14.7053534897
 20
13.000091015
 30
0.0
 10
14.7039035116
 20
12.9992527684
 30
0.0
 10
14.7026590888
 20
12.99825227
 30
0.0
 10
14.7018613616
 20
12.9974536363
 30
0.0
 10
14.7011849176
 20
12.9965956653
 30
0.0
 10
14.7008139516
 20
12.995981142
 30
0.0
 10
14.7006515656
 20
12.9956674699
 30
0.0
  0
SPLINE
  5
319
100
AcDbEntity
  8
LAYER_FEATURE
100
AcDbSpline
 62
7
  6
CONTINUOUS
 70
0
 71
3
 72
11
 73
7
 74
0
 42
0.0000001
 43
0.0000001
 44
0.0000000001
 40
0.0
 40
0.0
 40
0.0
 40
0.0
 40
0.2567338984
 40
0.5077954472
 40
0.7548977338
 40
1.0
 40
1.0
 40
1.0
 40
1.0
 10
14.7453822345
 20
13.0604086565
 30
0.0
 10
14.7451800545
 20
13.0601805703
 30
0.0
 10
14.744801742
 20
13.0597096576
 30
0.0
 10
14.7443147418
 20
13.0589553716
 30
0.0
 10
14.7439177598
 20
13.0581654178
 30
0.0
 10
14.7437139915
 20
13.0576162451
 30
0.0
 10
14.7436280747
 20
13.0573382322
 30
0.0
  0
SPLINE
  5
31A
100
AcDbEntity
  8
LAYER_FEATURE
100
AcDbSpline
 62
7
  6
CONTINUOUS
 70
0
 71
3
 72
22
 73
18
 74
0
 42
0.0000001
 43
0.0000001
 44
0.0000000001
 40
0.0
 40
0.0
 40
0.0
 40
0.0
 40
0.146075553
 40
0.2182439399
 40
0.289464678
 40
0.3594786391
 40
0.4280447282
 40
0.4949396527
 40
0.5599627945
 40
0.622940454
 40
0.6837305279
 40
0.7422277662
 40
0.7983696484
 40
0.8521433683
 40
0.9035901056
 40
0.9528194851
 40
1.0
 40
1.0
 40
1.0
 40
1.0
 10
14.797151716
 20
13.0911703449
 30
0.0
 10
14.7959946457
 20
13.0915036092
 30
0.0
 10
14.7942431867
 20
13.0919275385
 30
0.0
 10
14.7918913774
 20
13.0923336803
 30
0.0
 10
14.7901455171
 20
13.0925544108
 30
0.0
 10
14.7884208941
 20
13.0926911592
 30
0.0
 10
14.7867272564
 20
13.0927431577
 30
0.0
 10
14.785074242
 20
13.0927101002
 30
0.0
 10
14.7834712282
 20
13.0925921658
 30
0.0
 10
14.781927303
 20
13.0923900037
 30
0.0
 10
14.7804512066
 20
13.0921047244
 30
0.0
 10
14.7790512886
 20
13.0917378864
 30
0.0
 10
14.7777354523
 20
13.0912914809
 30
0.0
 10
14.776511164
 20
13.0907679138
 30
0.0
 10
14.7753852916
 20
13.0901699566
 30
0.0
 10
14.7743644778
 20
13.0895008732
 30
0.0
 10
14.7737454958
 20
13.0889996822
 30
0.0
 10
14.7734573073
 20
13.0887385319
 30
0.0
  0
SPLINE
  5
31B
100
AcDbEntity
  8
LAYER_FEATURE
100
AcDbSpline
 62
7
  6
CONTINUOUS
 70
0
 71
3
 72
14
 73
10
 74
0
 42
0.0000001
 43
0.0000001
 44
0.0000000001
 40
0.0
 40
0.0
 40
0.0
 40
0.0
 40
0.2702244727
 40
0.3989364112
 40
0.5239395488
 40
0.6458274038
 40
0.7652814175
 40
0.8830655491
 40
1.0
 40
1.0
 40
1.0
 40
1.0
 10
14.8440505466
 20
13.1403679054
 30
0.0
 10
14.8435057963
 20
13.1400448936
 30
0.0
 10
14.8427327603
 20
13.1395099554
 30
0.0
 10
14.8418187521
 20
13.1386881564
 30
0.0
 10
14.8412179793
 20
13.1380429885
 30
0.0
 10
14.8406934774
 20
13.137361585
 30
0.0
 10
14.8402472213
 20
13.1366462698
 30
0.0
 10
14.839881037
 20
13.1358997911
 30
0.0
 10
14.8396909203
 20
13.1353823252
 30
0.0
 10
14.8396100087
 20
13.1351204861
 30
0.0
  0
SPLINE
  5
31C
100
AcDbEntity
  8
LAYER_FEATURE
100
AcDbSpline
 62
7
  6
CONTINUOUS
 70
0
 71
3
 72
20
 73
16
 74
0
 42
0.0000001
 43
0.0000001
 44
0.0000000001
 40
0.0
 40
0.0
 40
0.0
 40
0.0
 40
0.1363554902
 40
0.2732573494
 40
0.4086126533
 40
0.4750895187
 40
0.540432241
 40
0.6044156266
 40
0.666831894
 40
0.7274943822
 40
0.7862416338
 40
0.8429424934
 40
0.8974983165
 40
0.9498565812
 40
1.0
 40
1.0
 40
1.0
 40
1.0
 10
14.9095923795
 20
13.1603167987
 30
0.0
 10
14.9084884604
 20
13.1607963516
 30
0.0
 10
14.906232217
 20
13.1616593142
 30
0.0
 10
14.9027611701
 20
13.1626542524
 30
0.0
 10
14.8998221411
 20
13.1632268395
 30
0.0
 10
14.897481337
 20
13.1635192092
 30
0.0
 10
14.8957575451
 20
13.163653171
 30
0.0
 10
14.8940651039
 20
13.1637023685
 30
0.0
 10
14.8924135862
 20
13.1636665109
 30
0.0
 10
14.8908123787
 20
13.1635457877
 30
0.0
 10
14.8892705489
 20
13.1633408634
 30
0.0
 10
14.8877968497
 20
13.1630528616
 30
0.0
 10
14.8863995431
 20
13.1626833644
 30
0.0
 10
14.8850866929
 20
13.1622344009
 30
0.0
 10
14.8842546739
 20
13.1618759725
 30
0.0
 10
14.8838561084
 20
13.1616835013
 30
0.0
  0
SPLINE
  5
31D
100
AcDbEntity
  8
LAYER_FEATURE
100
AcDbSpline
 62
7
  6
CONTINUOUS
 70
0
 71
3
 72
15
 73
11
 74
0
 42
0.0000001
 43
0.0000001
 44
0.0000000001
 40
0.0
 40
0.0
 40
0.0
 40
0.0
 40
0.1301948038
 40
0.2611492184
 40
0.391700202
 40
0.5206862685
 40
0.6469919777
 40
0.7695758547
 40
0.8875061323
 40
1.0
 40
1.0
 40
1.0
 40
1.0
 10
14.9344195137
 20
13.1495316576
 30
0.0
 10
14.9352606567
 20
13.1491662572
 30
0.0
 10
14.9369732732
 20
13.1484904415
 30
0.0
 10
14.9396028526
 20
13.1476487713
 30
0.0
 10
14.9422740155
 20
13.1469840424
 30
0.0
 10
14.9449514444
 20
13.1465050971
 30
0.0
 10
14.9475998864
 20
13.1462182214
 30
0.0
 10
14.9501846135
 20
13.1461272299
 30
0.0
 10
14.9526714462
 20
13.1462333025
 30
0.0
 10
14.9542839441
 20
13.1464399223
 30
0.0
 10
14.9550641457
 20
13.1465784138
 30
0.0
  0
SPLINE
  5
31E
100
AcDbEntity
  8
LAYER_FEATURE
100
AcDbSpline
 62
7
  6
CONTINUOUS
 70
0
 71
3
 72
18
 73
14
 74
0
 42
0.0000001
 43
0.0000001
 44
0.0000000001
 40
0.0
 40
0.0
 40
0.0
 40
0.0
 40
0.1461960175
 40
0.2852104947
 40
0.4172488584
 40
0.4808175416
 40
0.54284574
 40
0.6626610956
 40
0.7778228251
 40
0.8341107493
 40
0.8897653368
 40
0.9449909772
 40
1.0
 40
1.0
 40
1.0
 40
1.0
 10
14.9767720784
 20
13.1976121493
 30
0.0
 10
14.9762602999
 20
13.1974567796
 30
0.0
 10
14.9752734123
 20
13.1971132904
 30
0.0
 10
14.9738813283
 20
13.196481818
 30
0.0
 10
14.972820812
 20
13.1958651944
 30
0.0
 10
14.9720487186
 20
13.1953237559
 30
0.0
 10
14.971344857
 20
13.1947656964
 30
0.0
 10
14.9705564026
 20
13.1940135206
 30
0.0
 10
14.9698891621
 20
13.1931778621
 30
0.0
 10
14.9694443605
 20
13.1924753541
 30
0.0
 10
14.9691561045
 20
13.1919353028
 30
0.0
 10
14.9689113668
 20
13.191379345
 30
0.0
 10
14.9687774426
 20
13.1909984523
 30
0.0
 10
14.9687180251
 20
13.190806179
 30
0.0
  0
SPLINE
  5
31F
100
AcDbEntity
  8
LAYER_FEATURE
100
AcDbSpline
 62
7
  6
CONTINUOUS
 70
0
 71
3
 72
18
 73
14
 74
0
 42
0.0000001
 43
0.0000001
 44
0.0000000001
 40
0.0
 40
0.0
 40
0.0
 40
0.0
 40
0.1264939939
 40
0.2564253455
 40
0.3878538294
 40
0.5187668218
 40
0.6471760053
 40
0.7098675471
 40
0.7712470799
 40
0.8311162531
 40
0.8892948408
 40
0.9456335759
 40
1.0
 40
1.0
 40
1.0
 40
1.0
 10
15.0527997214
 20
13.2057479268
 30
0.0
 10
15.0518063395
 20
13.2063527445
 30
0.0
 10
15.049731052
 20
13.2074801193
 30
0.0
 10
15.0464530573
 20
13.2088950971
 30
0.0
 10
15.0430259722
 20
13.2100335895
 30
0.0
 10
15.0395274853
 20
13.2108696958
 30
0.0
 10
15.0365940798
 20
13.2113024614
 30
0.0
 10
15.0342786655
 20
13.21147879
 30
0.0
 10
15.0325873865
 20
13.211525179
 30
0.0
 10
15.0309374012
 20
13.2114865105
 30
0.0
 10
15.0293379753
 20
13.2113630042
 30
0.0
 10
15.0277983171
 20
13.2111553223
 30
0.0
 10
15.0267989716
 20
13.2109578685
 30
0.0
 10
15.0263121121
 20
13.2108446128
 30
0.0
  0
SPLINE
  5
320
100
AcDbEntity
  8
LAYER_FEATURE
100
AcDbSpline
 62
7
  6
CONTINUOUS
 70
0
 71
3
 72
17
 73
13
 74
0
 42
0.0000001
 43
0.0000001
 44
0.0000000001
 40
0.0
 40
0.0
 40
0.0
 40
0.0
 40
0.1252835233
 40
0.2538707882
 40
0.3840816601
 40
0.5141649008
 40
0.6423755495
 40
0.7670451992
 40
0.8275868964
 40
0.8866899114
 40
0.9442085305
 40
1.0
 40
1.0
 40
1.0
 40
1.0
 10
15.0748879556
 20
13.1922995709
 30
0.0
 10
15.0758183492
 20
13.1917331034
 30
0.0
 10
15.0777576021
 20
13.1906718376
 30
0.0
 10
15.0808156503
 20
13.1893213075
 30
0.0
 10
15.0840132277
 20
13.1882109792
 30
0.0
 10
15.0872867514
 20
13.1873629945
 30
0.0
 10
15.0905712588
 20
13.1867941717
 30
0.0
 10
15.0932901652
 20
13.186559779
 30
0.0
 10
15.0954147357
 20
13.1865248231
 30
0.0
 10
15.0969549601
 20
13.1865736577
 30
0.0
 10
15.0984495475
 20
13.1866970505
 30
0.0
 10
15.0994262155
 20
13.1868307333
 30
0.0
 10
15.0999046954
 20
13.1869104643
 30
0.0
  0
SPLINE
  5
321
100
AcDbEntity
  8
LAYER_FEATURE
100
AcDbSpline
 62
7
  6
CONTINUOUS
 70
0
 71
3
 72
19
 73
15
 74
0
 42
0.0000001
 43
0.0000001
 44
0.0000000001
 40
0.0
 40
0.0
 40
0.0
 40
0.0
 40
0.1529273796
 40
0.297371563
 40
0.4329483432
 40
0.4974398593
 40
0.5597765046
 40
0.6782997465
 40
0.7348740216
 40
0.7898957863
 40
0.8436167469
 40
0.8963248007
 40
0.9483387602
 40
1.0
 40
1.0
 40
1.0
 40
1.0
 10
15.136891618
 20
13.2292709229
 30
0.0
 10
15.1361098293
 20
13.2291877169
 30
0.0
 10
15.134595334
 20
13.2289611898
 30
0.0
 10
15.1324326946
 20
13.2284197258
 30
0.0
 10
15.1307675016
 20
13.2278031966
 30
0.0
 10
15.129551834
 20
13.2272161621
 30
0.0
 10
15.1284546808
 20
13.2265925876
 30
0.0
 10
15.1274583937
 20
13.2258774016
 30
0.0
 10
15.1265895288
 20
13.2250727152
 30
0.0
 10
15.1260175651
 20
13.2244425037
 30
0.0
 10
15.1255174734
 20
13.2237785494
 30
0.0
 10
15.1250910416
 20
13.2230829985
 30
0.0
 10
15.1247398709
 20
13.2223583649
 30
0.0
 10
15.1245565103
 20
13.2218567539
 30
0.0
 10
15.1244780947
 20
13.221603002
 30
0.0
  0
SPLINE
  5
322
100
AcDbEntity
  8
LAYER_FEATURE
100
AcDbSpline
 62
7
  6
CONTINUOUS
 70
0
 71
3
 72
19
 73
15
 74
0
 42
0.0000001
 43
0.0000001
 44
0.0000000001
 40
0.0
 40
0.0
 40
0.0
 40
0.0
 40
0.0576563084
 40
0.1169786645
 40
0.1777817944
 40
0.2398730184
 40
0.3670115112
 40
0.496574206
 40
0.6265919776
 40
0.7550748909
 40
0.8181529265
 40
0.8801376293
 40
0.9408212888
 40
1.0
 40
1.0
 40
1.0
 40
1.0
 10
15.2195927277
 20
13.2251856227
 30
0.0
 10
15.219183726
 20
13.2255317436
 30
0.0
 10
15.2183334707
 20
13.2262101596
 30
0.0
 10
15.2169882637
 20
13.2271704912
 30
0.0
 10
15.2155613563
 20
13.228083622
 30
0.0
 10
15.2135452119
 20
13.2292401417
 30
0.0
 10
15.2108742029
 20
13.2305319547
 30
0.0
 10
15.2075097827
 20
13.2318077266
 30
0.0
 10
15.2040361129
 20
13.2327928039
 30
0.0
 10
15.2010969604
 20
13.2333565527
 30
0.0
 10
15.1987573538
 20
13.2336415699
 30
0.0
 10
15.1970353024
 20
13.2337699715
 30
0.0
 10
15.1953453093
 20
13.2338135542
 30
0.0
 10
15.1942311724
 20
13.2337855323
 30
0.0
 10
15.1936819794
 20
13.233756723
 30
0.0
  0
SPLINE
  5
323
100
AcDbEntity
  8
LAYER_FEATURE
100
AcDbSpline
 62
7
  6
CONTINUOUS
 70
0
 71
3
 72
15
 73
11
 74
0
 42
0.0000001
 43
0.0000001
 44
0.0000000001
 40
0.0
 40
0.0
 40
0.0
 40
0.0
 40
0.1163412652
 40
0.2383032884
 40
0.3644712321
 40
0.4932406897
 40
0.6229007279
 40
0.7517044464
 40
0.877938247
 40
1.0
 40
1.0
 40
1.0
 40
1.0
 10
15.2378344655
 20
13.2097484086
 30
0.0
 10
15.2386108489
 20
13.209091388
 30
0.0
 10
15.2402754871
 20
13.2078317499
 30
0.0
 10
15.2429910618
 20
13.2061571878
 30
0.0
 10
15.245940136
 20
13.2046785436
 30
0.0
 10
15.2490640826
 20
13.2034252756
 30
0.0
 10
15.2523011503
 20
13.2024221312
 30
0.0
 10
15.2555872822
 20
13.2016889752
 30
0.0
 10
15.2588570519
 20
13.2012403418
 30
0.0
 10
15.2610287466
 20
13.2011346587
 30
0.0
 10
15.262095834
 20
13.2011346587
 30
0.0
  0
SPLINE
  5
324
100
AcDbEntity
  8
LAYER_FEATURE
100
AcDbSpline
 62
7
  6
CONTINUOUS
 70
0
 71
3
 72
15
 73
11
 74
0
 42
0.0000001
 43
0.0000001
 44
0.0000000001
 40
0.0
 40
0.0
 40
0.0
 40
0.0
 40
0.1440115263
 40
0.2832139773
 40
0.4171258395
 40
0.545390245
 40
0.6677795245
 40
0.7842285909
 40
0.8948575889
 40
1.0
 40
1.0
 40
1.0
 40
1.0
 10
15.2799834165
 20
13.2011346587
 30
0.0
 10
15.2806195504
 20
13.2011346587
 30
0.0
 10
15.2818709532
 20
13.2011710485
 30
0.0
 10
15.2837069652
 20
13.2013402707
 30
0.0
 10
15.2854589067
 20
13.2016220603
 30
0.0
 10
15.2871134162
 20
13.2020143516
 30
0.0
 10
15.288657993
 20
13.2025143252
 30
0.0
 10
15.2900810066
 20
13.2031184801
 30
0.0
 10
15.291371411
 20
13.2038224152
 30
0.0
 10
15.2921557241
 20
13.2043683408
 30
0.0
 10
15.2925198888
 20
13.204656591
 30
0.0
  0
SPLINE
  5
325
100
AcDbEntity
  8
LAYER_FEATURE
100
AcDbSpline
 62
7
  6
CONTINUOUS
 70
0
 71
3
 72
22
 73
18
 74
0
 42
0.0000001
 43
0.0000001
 44
0.0000000001
 40
0.0
 40
0.0
 40
0.0
 40
0.0
 40
0.1566651587
 40
0.2320276948
 40
0.3051462117
 40
0.3758660631
 40
0.4440724522
 40
0.5096921054
 40
0.5726992276
 40
0.633122282
 40
0.6910504531
 40
0.7466401326
 40
0.8001194296
 40
0.8517906966
 40
0.9020279078
 40
0.9512670823
 40
1.0
 40
1.0
 40
1.0
 40
1.0
 10
15.3163801031
 20
13.233756723
 30
0.0
 10
15.3153204493
 20
13.2338095881
 30
0.0
 10
15.3137458262
 20
13.2338171379
 30
0.0
 10
15.3116839966
 20
13.2336678329
 30
0.0
 10
15.3102105154
 20
13.2334809497
 30
0.0
 10
15.3087978083
 20
13.2332186748
 30
0.0
 10
15.3074530639
 20
13.2328823116
 30
0.0
 10
15.3061831828
 20
13.2324735317
 30
0.0
 10
15.3049946668
 20
13.23199434
 30
0.0
 10
15.3038936233
 20
13.2314470681
 30
0.0
 10
15.3028857444
 20
13.2308343558
 30
0.0
 10
15.3019762995
 20
13.2301591592
 30
0.0
 10
15.3011701369
 20
13.2294247386
 30
0.0
 10
15.3004716968
 20
13.228634707
 30
0.0
 10
15.2998849641
 20
13.2277929981
 30
0.0
 10
15.2994134194
 20
13.2269042186
 30
0.0
 10
15.2991772157
 20
13.2262819862
 30
0.0
 10
15.2990797787
 20
13.2259666673
 30
0.0
  0
SPLINE
  5
326
100
AcDbEntity
  8
LAYER_FEATURE
100
AcDbSpline
 62
7
  6
CONTINUOUS
 70
0
 71
3
 72
19
 73
15
 74
0
 42
0.0000001
 43
0.0000001
 44
0.0000000001
 40
0.0
 40
0.0
 40
0.0
 40
0.0
 40
0.0529844657
 40
0.1080457938
 40
0.1650810994
 40
0.223965736
 40
0.284540119
 40
0.3466226963
 40
0.4100109783
 40
0.4744858159
 40
0.6057230616
 40
0.7384043091
 40
0.870497264
 40
1.0
 40
1.0
 40
1.0
 40
1.0
 10
15.4016077005
 20
13.2176551991
 30
0.0
 10
15.4013040391
 20
13.2180303007
 30
0.0
 10
15.4006570444
 20
13.2187730683
 30
0.0
 10
15.3995969424
 20
13.2198407323
 30
0.0
 10
15.3984340042
 20
13.2208779614
 30
0.0
 10
15.3971749554
 20
13.2218788373
 30
0.0
 10
15.3958268817
 20
13.2228377252
 30
0.0
 10
15.3943974705
 20
13.2237491787
 30
0.0
 10
15.3928948112
 20
13.2246080522
 30
0.0
 10
15.3907928976
 20
13.2256827371
 30
0.0
 10
15.3880393101
 20
13.226861898
 30
0.0
 10
15.3846087836
 20
13.2279907057
 30
0.0
 10
15.3811093373
 20
13.2288165219
 30
0.0
 10
15.3787472232
 20
13.229157778
 30
0.0
 10
15.3775730864
 20
13.2292709229
 30
0.0
  0
SPLINE
  5
327
100
AcDbEntity
  8
LAYER_FEATURE
100
AcDbSpline
 62
7
  6
CONTINUOUS
 70
0
 71
3
 72
18
 73
14
 74
0
 42
0.0000001
 43
0.0000001
 44
0.0000000001
 40
0.0
 40
0.0
 40
0.0
 40
0.0
 40
0.0530220807
 40
0.108001743
 40
0.1648472788
 40
0.2234554332
 40
0.283690529
 40
0.3453978701
 40
0.4724935033
 40
0.6032338506
 40
0.7359189059
 40
0.8687682167
 40
1.0
 40
1.0
 40
1.0
 40
1.0
 10
15.4150882251
 20
13.2010032132
 30
0.0
 10
15.4153725572
 20
13.2006519884
 30
0.0
 10
15.4159760393
 20
13.1999559734
 30
0.0
 10
15.4169604276
 20
13.1989524812
 30
0.0
 10
15.4180359566
 20
13.1979750682
 30
0.0
 10
15.4191971278
 20
13.1970286523
 30
0.0
 10
15.4204382292
 20
13.1961178947
 30
0.0
 10
15.4222085269
 20
13.1949458071
 30
0.0
 10
15.4245818608
 20
13.1936020925
 30
0.0
 10
15.4276111099
 20
13.1922143419
 30
0.0
 10
15.4307900657
 20
13.1910627438
 30
0.0
 10
15.4340552724
 20
13.1901702615
 30
0.0
 10
15.4362705087
 20
13.1897553067
 30
0.0
 10
15.437377656
 20
13.1895967494
 30
0.0
  0
SPLINE
  5
328
100
AcDbEntity
  8
LAYER_FEATURE
100
AcDbSpline
 62
7
  6
CONTINUOUS
 70
0
 71
3
 72
21
 73
17
 74
0
 42
0.0000001
 43
0.0000001
 44
0.0000000001
 40
0.0
 40
0.0
 40
0.0
 40
0.0
 40
0.1524775509
 40
0.2266425998
 40
0.2991283232
 40
0.3697390879
 40
0.4383059422
 40
0.5046874153
 40
0.5687731329
 40
0.6304892852
 40
0.6898039094
 40
0.8012479467
 40
0.8536664372
 40
0.9040818548
 40
0.9527556847
 40
1.0
 40
1.0
 40
1.0
 40
1.0
 10
15.4561349966
 20
13.1869104643
 30
0.0
 10
15.4572139622
 20
13.186755943
 30
0.0
 10
15.458828699
 20
13.1865931937
 30
0.0
 10
15.4609664699
 20
13.1865251155
 30
0.0
 10
15.4625200086
 20
13.186549301
 30
0.0
 10
15.4640304861
 20
13.1866481623
 30
0.0
 10
15.4654904088
 20
13.1868212099
 30
0.0
 10
15.4668925072
 20
13.187067605
 30
0.0
 10
15.4682297425
 20
13.1873861331
 30
0.0
 10
15.4694956828
 20
13.1877753593
 30
0.0
 10
15.4710470394
 20
13.1883733111
 30
0.0
 10
15.4724709192
 20
13.1891118992
 30
0.0
 10
15.4737238708
 20
13.1899963534
 30
0.0
 10
15.474545656
 20
13.1907047169
 30
0.0
 10
15.4752638462
 20
13.1914678817
 30
0.0
 10
15.4756763315
 20
13.192017833
 30
0.0
 10
15.4758625577
 20
13.1922995709
 30
0.0
  0
SPLINE
  5
329
100
AcDbEntity
  8
LAYER_FEATURE
100
AcDbSpline
 62
7
  6
CONTINUOUS
 70
0
 71
3
 72
22
 73
18
 74
0
 42
0.0000001
 43
0.0000001
 44
0.0000000001
 40
0.0
 40
0.0
 40
0.0
 40
0.0
 40
0.1523437893
 40
0.2266903104
 40
0.2994649016
 40
0.3704301797
 40
0.4393767116
 40
0.5061235556
 40
0.5705243063
 40
0.6324726723
 40
0.6919086816
 40
0.7488255628
 40
0.8032770964
 40
0.8553854605
 40
0.9053451413
 40
0.9534344833
 40
1.0
 40
1.0
 40
1.0
 40
1.0
 10
15.5062372316
 20
13.2108446128
 30
0.0
 10
15.5050782567
 20
13.2110641064
 30
0.0
 10
15.5033378758
 20
13.2113156209
 30
0.0
 10
15.5010246805
 20
13.2114844522
 30
0.0
 10
15.4993358158
 20
13.2115252501
 30
0.0
 10
15.4976888697
 20
13.2114809842
 30
0.0
 10
15.4960931303
 20
13.211351899
 30
0.0
 10
15.4945576572
 20
13.2111387024
 30
0.0
 10
15.4930911368
 20
13.2108425689
 30
0.0
 10
15.4917018605
 20
13.2104651187
 30
0.0
 10
15.4903976778
 20
13.2100083977
 30
0.0
 10
15.4891859689
 20
13.2094748581
 30
0.0
 10
15.4880736087
 20
13.2088673365
 30
0.0
 10
15.4870670027
 20
13.208189053
 30
0.0
 10
15.4861719535
 20
13.2074435475
 30
0.0
 10
15.4853940325
 20
13.2066349702
 30
0.0
 10
15.4849506166
 20
13.2060487083
 30
0.0
 10
15.4847518027
 20
13.2057479268
 30
0.0
  0
SPLINE
  5
32A
100
AcDbEntity
  8
LAYER_FEATURE
100
AcDbSpline
 62
7
  6
CONTINUOUS
 70
0
 71
3
 72
19
 73
15
 74
0
 42
0.0000001
 43
0.0000001
 44
0.0000000001
 40
0.0
 40
0.0
 40
0.0
 40
0.0
 40
0.1002441789
 40
0.1537706587
 40
0.209536593
 40
0.2674786031
 40
0.3274950462
 40
0.3894488698
 40
0.4531732158
 40
0.5184759559
 40
0.5851437707
 40
0.7216023894
 40
0.8605914439
 40
1.0
 40
1.0
 40
1.0
 40
1.0
 10
15.5897176491
 20
13.1835342629
 30
0.0
 10
15.5893466886
 20
13.184319771
 30
0.0
 10
15.5886617831
 20
13.1854723582
 30
0.0
 10
15.5875647957
 20
13.1869202232
 30
0.0
 10
15.5866096438
 20
13.1880118818
 30
0.0
 10
15.5855460359
 20
13.189078631
 30
0.0
 10
15.5843798397
 20
13.1901147531
 30
0.0
 10
15.5831177242
 20
13.1911143324
 30
0.0
 10
15.5817668515
 20
13.1920717345
 30
0.0
 10
15.5803348702
 20
13.1929815579
 30
0.0
 10
15.578312864
 20
13.1941330475
 30
0.0
 10
15.5756360366
 20
13.1954178898
 30
0.0
 10
15.5722670544
 20
13.1966844421
 30
0.0
 10
15.5699407045
 20
13.1973370077
 30
0.0
 10
15.5687643651
 20
13.1976121493
 30
0.0
  0
SPLINE
  5
32B
100
AcDbEntity
  8
LAYER_FEATURE
100
AcDbSpline
 62
7
  6
CONTINUOUS
 70
0
 71
3
 72
18
 73
14
 74
0
 42
0.0000001
 43
0.0000001
 44
0.0000000001
 40
0.0
 40
0.0
 40
0.0
 40
0.0
 40
0.1007448126
 40
0.1543273335
 40
0.2100323016
 40
0.267811825
 40
0.3275849378
 40
0.3892405105
 40
0.4526409802
 40
0.5839813462
 40
0.7201503959
 40
0.8594356495
 40
1.0
 40
1.0
 40
1.0
 40
1.0
 10
15.5977609907
 20
13.1665025053
 30
0.0
 10
15.5981078461
 20
13.1657680396
 30
0.0
 10
15.5987403838
 20
13.1646886837
 30
0.0
 10
15.599747453
 20
13.1633265505
 30
0.0
 10
15.6006197206
 20
13.1622987207
 30
0.0
 10
15.6015886383
 20
13.1612914031
 30
0.0
 10
15.6026494897
 20
13.1603093582
 30
0.0
 10
15.6037969503
 20
13.1593574856
 30
0.0
 10
15.6054541019
 20
13.1581204752
 30
0.0
 10
15.6077071761
 20
13.156683722
 30
0.0
 10
15.610621538
 20
13.1551707316
 30
0.0
 10
15.6137207012
 20
13.1538785138
 30
0.0
 10
15.6158695652
 20
13.1531811701
 30
0.0
 10
15.6169607988
 20
13.1528752953
 30
0.0
  0
SPLINE
  5
32C
100
AcDbEntity
  8
LAYER_FEATURE
100
AcDbSpline
 62
7
  6
CONTINUOUS
 70
0
 71
3
 72
19
 73
15
 74
0
 42
0.0000001
 43
0.0000001
 44
0.0000000001
 40
0.0
 40
0.0
 40
0.0
 40
0.0
 40
0.1443121663
 40
0.2860588785
 40
0.423423504
 40
0.4899618258
 40
0.5548139487
 40
0.6178213025
 40
0.6788499156
 40
0.7377939967
 40
0.794580458
 40
0.8491733338
 40
0.901577385
 40
1.0
 40
1.0
 40
1.0
 40
1.0
 10
15.6356473263
 20
13.1476374267
 30
0.0
 10
15.6367337715
 20
13.1473328941
 30
0.0
 10
15.638912827
 20
13.1468158723
 30
0.0
 10
15.6421896499
 20
13.1463196438
 30
0.0
 10
15.6448907986
 20
13.1461478098
 30
0.0
 10
15.6469927265
 20
13.1461637589
 30
0.0
 10
15.6485108497
 20
13.1462503359
 30
0.0
 10
15.6499796111
 20
13.146411203
 30
0.0
 10
15.6513917176
 20
13.1466455794
 30
0.0
 10
15.6527401549
 20
13.1469523348
 30
0.0
 10
15.6540181395
 20
13.1473299493
 30
0.0
 10
15.6552195736
 20
13.1477767875
 30
0.0
 10
15.6566798056
 20
13.1484472987
 30
0.0
 10
15.6576924149
 20
13.1490670889
 30
0.0
 10
15.6583058865
 20
13.1495316576
 30
0.0
  0
SPLINE
  5
32D
100
AcDbEntity
  8
LAYER_FEATURE
100
AcDbSpline
 62
7
  6
CONTINUOUS
 70
0
 71
3
 72
19
 73
15
 74
0
 42
0.0000001
 43
0.0000001
 44
0.0000000001
 40
0.0
 40
0.0
 40
0.0
 40
0.0
 40
0.1434262322
 40
0.2850855354
 40
0.4228680145
 40
0.4897136871
 40
0.5548899379
 40
0.6182045024
 40
0.6794921163
 40
0.7386192355
 40
0.7954893179
 40
0.8500492284
 40
0.9022929875
 40
1.0
 40
1.0
 40
1.0
 40
1.0
 10
15.6969427743
 20
13.1616835013
 30
0.0
 10
15.6957947314
 20
13.1620596329
 30
0.0
 10
15.6934792439
 20
13.1627091964
 30
0.0
 10
15.6899750501
 20
13.1633707055
 30
0.0
 10
15.6870669665
 20
13.1636513169
 30
0.0
 10
15.6847941531
 20
13.1637025144
 30
0.0
 10
15.6831487149
 20
13.1636554379
 30
0.0
 10
15.6815548275
 20
13.1635235675
 30
0.0
 10
15.680021492
 20
13.1633076215
 30
0.0
 10
15.6785573721
 20
13.1630087701
 30
0.0
 10
15.6771708364
 20
13.1626287043
 30
0.0
 10
15.6758693914
 20
13.1621692819
 30
0.0
 10
15.6742939141
 20
13.1614706482
 30
0.0
 10
15.6732039584
 20
13.1608136451
 30
0.0
 10
15.6725478637
 20
13.1603167987
 30
0.0
  0
SPLINE
  5
32E
100
AcDbEntity
  8
LAYER_FEATURE
100
AcDbSpline
 62
7
  6
CONTINUOUS
 70
0
 71
3
 72
22
 73
18
 74
0
 42
0.0000001
 43
0.0000001
 44
0.0000000001
 40
0.0
 40
0.0
 40
0.0
 40
0.0
 40
0.0467142948
 40
0.0953018053
 40
0.1460041074
 40
0.1989979104
 40
0.2543840632
 40
0.3122014939
 40
0.3724317702
 40
0.4350066483
 40
0.4998146337
 40
0.566706908
 40
0.6355026008
 40
0.7059935344
 40
0.7779495318
 40
0.851118452
 40
1.0
 40
1.0
 40
1.0
 40
1.0
 10
15.7744899552
 20
13.1245337804
 30
0.0
 10
15.7744404608
 20
13.1249058032
 30
0.0
 10
15.7742942944
 20
13.1256593381
 30
0.0
 10
15.773947109
 20
13.1267818468
 30
0.0
 10
15.7734703812
 20
13.127910635
 30
0.0
 10
15.772867171
 20
13.1290392147
 30
0.0
 10
15.7721410212
 20
13.1301614096
 30
0.0
 10
15.7712961672
 20
13.1312709787
 30
0.0
 10
15.7703374472
 20
13.132361752
 30
0.0
 10
15.7692703266
 20
13.1334276299
 30
0.0
 10
15.7681008685
 20
13.1344626276
 30
0.0
 10
15.7668357119
 20
13.13546091
 30
0.0
 10
15.7654820349
 20
13.1364168333
 30
0.0
 10
15.7640475421
 20
13.1373249749
 30
0.0
 10
15.7625403342
 20
13.1381802041
 30
0.0
 10
15.7604335039
 20
13.1392494196
 30
0.0
 10
15.7587887029
 20
13.139948098
 30
0.0
 10
15.7576686865
 20
13.1403679054
 30
0.0
  0
SPLINE
  5
32F
100
AcDbEntity
  8
LAYER_FEATURE
100
AcDbSpline
 62
7
  6
CONTINUOUS
 70
0
 71
3
 72
22
 73
18
 74
0
 42
0.0000001
 43
0.0000001
 44
0.0000000001
 40
0.0
 40
0.0
 40
0.0
 40
0.0
 40
0.0472800974
 40
0.0963247226
 40
0.147351779
 40
0.2005308387
 40
0.2559647095
 40
0.3137029437
 40
0.3737459189
 40
0.4360501542
 40
0.5005338142
 40
0.567081241
 40
0.6355474623
 40
0.7057629103
 40
0.7775364172
 40
0.8506555831
 40
1.0
 40
1.0
 40
1.0
 40
1.0
 10
15.776692787
 20
13.1079762945
 30
0.0
 10
15.7767391354
 20
13.1076279188
 30
0.0
 10
15.7768731297
 20
13.1069229412
 30
0.0
 10
15.7771867043
 20
13.1058717565
 30
0.0
 10
15.7776144346
 20
13.1048142413
 30
0.0
 10
15.7781538888
 20
13.1037557697
 30
0.0
 10
15.7788022926
 20
13.1027014501
 30
0.0
 10
15.7795563018
 20
13.101656451
 30
0.0
 10
15.7804121056
 20
13.1006258869
 30
0.0
 10
15.781365415
 20
13.0996148315
 30
0.0
 10
15.7824114661
 20
13.0986282815
 30
0.0
 10
15.7835450271
 20
13.0976711226
 30
0.0
 10
15.7847604379
 20
13.0967481042
 30
0.0
 10
15.7860516187
 20
13.0958638333
 30
0.0
 10
15.7874121598
 20
13.0950227046
 30
0.0
 10
15.78932269
 20
13.0939570243
 30
0.0
 10
15.7908188179
 20
13.0932465286
 30
0.0
 10
15.7918402138
 20
13.0928116636
 30
0.0
  0
SPLINE
  5
330
100
AcDbEntity
  8
LAYER_FEATURE
100
AcDbSpline
 62
7
  6
CONTINUOUS
 70
0
 71
3
 72
18
 73
14
 74
0
 42
0.0000001
 43
0.0000001
 44
0.0000000001
 40
0.0
 40
0.0
 40
0.0
 40
0.0
 40
0.1350714892
 40
0.2706103926
 40
0.4047962446
 40
0.5358579748
 40
0.6621563761
 40
0.7230822097
 40
0.7823058184
 40
0.8396978161
 40
0.8951529119
 40
0.948603466
 40
1.0
 40
1.0
 40
1.0
 40
1.0
 10
15.8095189076
 20
13.08528486
 30
0.0
 10
15.8105578096
 20
13.0848425416
 30
0.0
 10
15.8126770379
 20
13.0840426006
 30
0.0
 10
15.8159324234
 20
13.0831060974
 30
0.0
 10
15.8192206713
 20
13.0824436881
 30
0.0
 10
15.8224761981
 20
13.0820686074
 30
0.0
 10
15.8251403807
 20
13.082000808
 30
0.0
 10
15.827198905
 20
13.0821009966
 30
0.0
 10
15.828676339
 20
13.0822496654
 30
0.0
 10
15.8300982603
 20
13.0824719964
 30
0.0
 10
15.8314576889
 20
13.0827669085
 30
0.0
 10
15.8327477052
 20
13.0831329764
 30
0.0
 10
15.8335735592
 20
13.0834291353
 30
0.0
 10
15.8339722722
 20
13.0835892307
 30
0.0
  0
SPLINE
  5
331
100
AcDbEntity
  8
LAYER_FEATURE
100
AcDbSpline
 62
7
  6
CONTINUOUS
 70
0
 71
3
 72
19
 73
15
 74
0
 42
0.0000001
 43
0.0000001
 44
0.0000000001
 40
0.0
 40
0.0
 40
0.0
 40
0.0
 40
0.1335677463
 40
0.2685348249
 40
0.4028370776
 40
0.5344372466
 40
0.5986380453
 40
0.6614639535
 40
0.7227132855
 40
0.7822058251
 40
0.8397875383
 40
0.8953322532
 40
0.9487549601
 40
1.0
 40
1.0
 40
1.0
 40
1.0
 10
15.8789339589
 20
13.0887385319
 30
0.0
 10
15.8778554794
 20
13.0892557901
 30
0.0
 10
15.8756387679
 20
13.0901975085
 30
0.0
 10
15.872204841
 20
13.091316644
 30
0.0
 10
15.8687043198
 20
13.092132131
 30
0.0
 10
15.8657729194
 20
13.0925467913
 30
0.0
 10
15.8634617676
 20
13.0927081858
 30
0.0
 10
15.8617753847
 20
13.0927433675
 30
0.0
 10
15.8601315298
 20
13.0926934973
 30
0.0
 10
15.8585394865
 20
13.0925588381
 30
0.0
 10
15.85700831
 20
13.0923401283
 30
0.0
 10
15.8555465974
 20
13.0920385804
 30
0.0
 10
15.85416277
 20
13.0916558504
 30
0.0
 10
15.8532786847
 20
13.0913413387
 30
0.0
 10
15.8528528293
 20
13.0911703449
 30
0.0
  0
SPLINE
  5
332
100
AcDbEntity
  8
LAYER_FEATURE
100
AcDbSpline
 62
7
  6
CONTINUOUS
 70
0
 71
3
 72
22
 73
18
 74
0
 42
0.0000001
 43
0.0000001
 44
0.0000000001
 40
0.0
 40
0.0
 40
0.0
 40
0.0
 40
0.0475455517
 40
0.0958784443
 40
0.1454878502
 40
0.1968083352
 40
0.2501906269
 40
0.3059041335
 40
0.3641356131
 40
0.4249948618
 40
0.4885218902
 40
0.5546947054
 40
0.6234368638
 40
0.6946244764
 40
0.7680936228
 40
0.8436419675
 40
1.0
 40
1.0
 40
1.0
 40
1.0
 10
15.9466593638
 20
13.043612282
 30
0.0
 10
15.9467424389
 20
13.0439503541
 30
0.0
 10
15.9468648001
 20
13.0446440496
 30
0.0
 10
15.9469129081
 20
13.0457109487
 30
0.0
 10
15.9468266118
 20
13.0468031278
 30
0.0
 10
15.9466068646
 20
13.047913839
 30
0.0
 10
15.9462553389
 20
13.0490367815
 30
0.0
 10
15.945774411
 20
13.0501656221
 30
0.0
 10
15.9451670711
 20
13.0512941014
 30
0.0
 10
15.9444369376
 20
13.0524159745
 30
0.0
 10
15.9435882495
 20
13.0535250237
 30
0.0
 10
15.9426258698
 20
13.0546150742
 30
0.0
 10
15.9415552739
 20
13.0556800308
 30
0.0
 10
15.9403825572
 20
13.0567139036
 30
0.0
 10
15.939114328
 20
13.0577108986
 30
0.0
 10
15.9372850527
 20
13.0589979899
 30
0.0
 10
15.9358229132
 20
13.0598683027
 30
0.0
 10
15.934813599
 20
13.0604086565
 30
0.0
  0
SPLINE
  5
333
100
AcDbEntity
  8
LAYER_FEATURE
100
AcDbSpline
 62
7
  6
CONTINUOUS
 70
0
 71
3
 72
22
 73
18
 74
0
 42
0.0000001
 43
0.0000001
 44
0.0000000001
 40
0.0
 40
0.0
 40
0.0
 40
0.0
 40
0.0483797677
 40
0.0974817931
 40
0.1477447504
 40
0.1995696625
 40
0.2532860764
 40
0.3091556745
 40
0.3673705295
 40
0.428056141
 40
0.4912768237
 40
0.5570413145
 40
0.6253089966
 40
0.6959965347
 40
0.7689826088
 40
0.8441096124
 40
1.0
 40
1.0
 40
1.0
 40
1.0
 10
15.9429112266
 20
13.0283593294
 30
0.0
 10
15.9428333689
 20
13.0280424893
 30
0.0
 10
15.9427161169
 20
13.0273936352
 30
0.0
 10
15.9426590528
 20
13.0263966478
 30
0.0
 10
15.9427200442
 20
13.0253766312
 30
0.0
 10
15.9428984417
 20
13.0243391414
 30
0.0
 10
15.943193055
 20
13.0232893699
 30
0.0
 10
15.9436021061
 20
13.0222325578
 30
0.0
 10
15.9441233309
 20
13.0211738843
 30
0.0
 10
15.9447539861
 20
13.0201185235
 30
0.0
 10
15.9454908376
 20
13.0190716343
 30
0.0
 10
15.946330148
 20
13.0180383433
 30
0.0
 10
15.9472677023
 20
13.0170237241
 30
0.0
 10
15.9482988041
 20
13.0160327973
 30
0.0
 10
15.9494183448
 20
13.0150704437
 30
0.0
 10
15.9510412003
 20
13.0138165787
 30
0.0
 10
15.9523444195
 20
13.0129572267
 30
0.0
 10
15.9532467169
 20
13.0124176954
 30
0.0
  0
SPLINE
  5
334
100
AcDbEntity
  8
LAYER_FEATURE
100
AcDbSpline
 62
7
  6
CONTINUOUS
 70
0
 71
3
 72
17
 73
13
 74
0
 42
0.0000001
 43
0.0000001
 44
0.0000000001
 40
0.0
 40
0.0
 40
0.0
 40
0.0
 40
0.12579214
 40
0.2547483225
 40
0.3851776641
 40
0.5153244067
 40
0.6434452887
 40
0.7678800928
 40
0.8282546374
 40
0.8871605859
 40
0.9444553577
 40
1.0
 40
1.0
 40
1.0
 40
1.0
 10
15.9690310935
 20
13.0029793822
 30
0.0
 10
15.9699686318
 20
13.0024187786
 30
0.0
 10
15.9719202572
 20
13.0013700575
 30
0.0
 10
15.974993028
 20
13.0000396472
 30
0.0
 10
15.9781998528
 20
12.9989515727
 30
0.0
 10
15.9814769668
 20
12.9981275314
 30
0.0
 10
15.9847593361
 20
12.9975838672
 30
0.0
 10
15.9874724495
 20
12.9973711904
 30
0.0
 10
15.9895894529
 20
12.9973539324
 30
0.0
 10
15.991122222
 20
12.9974159026
 30
0.0
 10
15.9926080246
 20
12.9975523508
 30
0.0
 10
15.9935781151
 20
12.9976948176
 30
0.0
 10
15.9940530687
 20
12.9977789186
 30
0.0
  0
SPLINE
  5
335
100
AcDbEntity
  8
LAYER_FEATURE
100
AcDbSpline
 62
7
  6
CONTINUOUS
 70
0
 71
3
 72
18
 73
14
 74
0
 42
0.0000001
 43
0.0000001
 44
0.0000000001
 40
0.0
 40
0.0
 40
0.0
 40
0.0
 40
0.1237614416
 40
0.251702927
 40
0.3819525228
 40
0.5125272309
 40
0.6414298425
 40
0.7046654831
 40
0.7667751695
 40
0.8275475354
 40
0.8867861489
 40
0.944322298
 40
1.0
 40
1.0
 40
1.0
 40
1.0
 10
16.0430849877
 20
12.9956674699
 30
0.0
 10
16.0421325759
 20
12.9963027707
 30
0.0
 10
16.0401281725
 20
12.9974960094
 30
0.0
 10
16.0369343517
 20
12.9990174325
 30
0.0
 10
16.033560161
 20
13.0002749579
 30
0.0
 10
16.0300820744
 20
13.0012399832
 30
0.0
 10
16.0271427843
 20
13.001786069
 30
0.0
 10
16.0248057326
 20
13.0020563768
 30
0.0
 10
16.0230873597
 20
13.002173619
 30
0.0
 10
16.0214022701
 20
13.0022059939
 30
0.0
 10
16.0197599389
 20
13.002153328
 30
0.0
 10
16.018169819
 20
13.0020158814
 30
0.0
 10
16.0171326132
 20
13.0018656606
 30
0.0
 10
16.0166254557
 20
13.0017758572
 30
0.0
  0
SPLINE
  5
336
100
AcDbEntity
  8
LAYER_FEATURE
100
AcDbSpline
 62
7
  6
CONTINUOUS
 70
0
 71
3
 72
15
 73
11
 74
0
 42
0.0000001
 43
0.0000001
 44
0.0000000001
 40
0.0
 40
0.0
 40
0.0
 40
0.0
 40
0.1168265107
 40
0.2391557594
 40
0.3655541501
 40
0.4944056432
 40
0.6239941811
 40
0.7525739731
 40
0.8784387163
 40
1.0
 40
1.0
 40
1.0
 40
1.0
 10
16.106185277
 20
12.9048481337
 30
0.0
 10
16.1069714254
 20
12.9041953462
 30
0.0
 10
16.1086538031
 20
12.9029452656
 30
0.0
 10
16.1113921016
 20
12.9012866744
 30
0.0
 10
16.1143589511
 20
12.8998267303
 30
0.0
 10
16.1174953639
 20
12.8985945247
 30
0.0
 10
16.1207393322
 20
12.8976143951
 30
0.0
 10
16.1240266652
 20
12.89690575
 30
0.0
 10
16.1272919149
 20
12.8964826349
 30
0.0
 10
16.1294579389
 20
12.8963946258
 30
0.0
 10
16.1305211563
 20
12.8964036088
 30
0.0
  0
SPLINE
  5
337
100
AcDbEntity
  8
LAYER_FEATURE
100
AcDbSpline
 62
7
  6
CONTINUOUS
 70
0
 71
3
 72
18
 73
14
 74
0
 42
0.0000001
 43
0.0000001
 44
0.0000000001
 40
0.0
 40
0.0
 40
0.0
 40
0.0
 40
0.0562947577
 40
0.1143904149
 40
0.1741211491
 40
0.2353101604
 40
0.2977543119
 40
0.3612369156
 40
0.4903563265
 40
0.6207641818
 40
0.7504629904
 40
0.8774871073
 40
1.0
 40
1.0
 40
1.0
 40
1.0
 10
16.1811646424
 20
12.887137287
 30
0.0
 10
16.180783279
 20
12.8874934209
 30
0.0
 10
16.1799860673
 20
12.8881935373
 30
0.0
 10
16.1787148938
 20
12.8891891729
 30
0.0
 10
16.1773556212
 20
12.8901421205
 30
0.0
 10
16.1759160955
 20
12.8910469292
 30
0.0
 10
16.1744044092
 20
12.8918985001
 30
0.0
 10
16.172292488
 20
12.8929622849
 30
0.0
 10
16.1695295366
 20
12.8941265694
 30
0.0
 10
16.1660921442
 20
12.8952361149
 30
0.0
 10
16.1625905538
 20
12.8960412501
 30
0.0
 10
16.1591041734
 20
12.896523817
 30
0.0
 10
16.1567890275
 20
12.8966255424
 30
0.0
 10
16.1556534996
 20
12.8966159485
 30
0.0
  0
SPLINE
  5
338
100
AcDbEntity
  8
LAYER_FEATURE
100
AcDbSpline
 62
7
  6
CONTINUOUS
 70
0
 71
3
 72
18
 73
14
 74
0
 42
0.0000001
 43
0.0000001
 44
0.0000000001
 40
0.0
 40
0.0
 40
0.0
 40
0.0
 40
0.0532513612
 40
0.1084438809
 40
0.165480786
 40
0.2242545774
 40
0.2846259671
 40
0.346437273
 40
0.4736350012
 40
0.604325324
 40
0.7368020794
 40
0.8692852964
 40
1.0
 40
1.0
 40
1.0
 40
1.0
 10
16.2141039744
 20
12.7958118251
 30
0.0
 10
16.2143942521
 20
12.7954616394
 30
0.0
 10
16.2150093041
 20
12.7947680425
 30
0.0
 10
16.2160100736
 20
12.7937687861
 30
0.0
 10
16.2171010712
 20
12.7927964719
 30
0.0
 10
16.2182767214
 20
12.7918559928
 30
0.0
 10
16.2195312399
 20
12.7909519831
 30
0.0
 10
16.2213175493
 20
12.789790375
 30
0.0
 10
16.2237076276
 20
12.7884614748
 30
0.0
 10
16.2267524752
 20
12.7870934549
 30
0.0
 10
16.2299415976
 20
12.7859637885
 30
0.0
 10
16.2332113322
 20
12.7850950018
 30
0.0
 10
16.2354270583
 20
12.7846966563
 30
0.0
 10
16.2365334554
 20
12.7845466825
 30
0.0
  0
SPLINE
  5
339
100
AcDbEntity
  8
LAYER_FEATURE
100
AcDbSpline
 62
7
  6
CONTINUOUS
 70
0
 71
3
 72
19
 73
15
 74
0
 42
0.0000001
 43
0.0000001
 44
0.0000000001
 40
0.0
 40
0.0
 40
0.0
 40
0.0
 40
0.0517783854
 40
0.1057080858
 40
0.161717495
 40
0.2197081764
 40
0.2795426184
 40
0.3410574117
 40
0.4040647094
 40
0.4683567866
 40
0.5998529295
 40
0.733652582
 40
0.8677172928
 40
1.0
 40
1.0
 40
1.0
 40
1.0
 10
16.2862490327
 20
12.7685901397
 30
0.0
 10
16.2859783047
 20
12.768969948
 30
0.0
 10
16.2853953865
 20
12.7697241661
 30
0.0
 10
16.2844257496
 20
12.7708126982
 30
0.0
 10
16.2833482026
 20
12.7718758051
 30
0.0
 10
16.2821689921
 20
12.7729074255
 30
0.0
 10
16.2808947493
 20
12.7739017704
 30
0.0
 10
16.2795327384
 20
12.7748532012
 30
0.0
 10
16.2780906635
 20
12.7757563554
 30
0.0
 10
16.2760570915
 20
12.7768977081
 30
0.0
 10
16.2733689983
 20
12.7781685017
 30
0.0
 10
16.2699903237
 20
12.7794167006
 30
0.0
 10
16.2665101877
 20
12.7803717117
 30
0.0
 10
16.2641463201
 20
12.7808037158
 30
0.0
 10
16.2629655143
 20
12.7809637758
 30
0.0
  0
SPLINE
  5
33A
100
AcDbEntity
  8
LAYER_FEATURE
100
AcDbSpline
 62
7
  6
CONTINUOUS
 70
0
 71
3
 72
11
 73
7
 74
0
 42
0.0000001
 43
0.0000001
 44
0.0000000001
 40
0.0
 40
0.0
 40
0.0
 40
0.0
 40
0.246316015
 40
0.4960375387
 40
0.7477498819
 40
1.0
 40
1.0
 40
1.0
 40
1.0
 10
16.2985637378
 20
12.6710277406
 30
0.0
 10
16.2992059762
 20
12.6706910604
 30
0.0
 10
16.3005189882
 20
12.6700498977
 30
0.0
 10
16.3025479501
 20
12.6691933492
 30
0.0
 10
16.3046363159
 20
12.6684408384
 30
0.0
 10
16.3060576042
 20
12.668012424
 30
0.0
 10
16.3067740666
 20
12.6678171132
 30
0.0
  0
SPLINE
  5
33B
100
AcDbEntity
  8
LAYER_FEATURE
100
AcDbSpline
 62
7
  6
CONTINUOUS
 70
0
 71
3
 72
19
 73
15
 74
0
 42
0.0000001
 43
0.0000001
 44
0.0000000001
 40
0.0
 40
0.0
 40
0.0
 40
0.0
 40
0.0984507915
 40
0.1510842101
 40
0.2060165837
 40
0.2632224409
 40
0.3226321081
 40
0.3841351819
 40
0.4475866693
 40
0.5128120169
 40
0.5796116104
 40
0.7169967321
 40
0.857830712
 40
1.0
 40
1.0
 40
1.0
 40
1.0
 10
16.3530687885
 20
12.645970477
 30
0.0
 10
16.3527724967
 20
12.646753393
 30
0.0
 10
16.3521934516
 20
12.6479103544
 30
0.0
 10
16.3512259578
 20
12.6493715852
 30
0.0
 10
16.3503657031
 20
12.6504792289
 30
0.0
 10
16.3493923977
 20
12.651567012
 30
0.0
 10
16.3483114178
 20
12.6526291746
 30
0.0
 10
16.3471289492
 20
12.6536596568
 30
0.0
 10
16.3458517014
 20
12.6546526678
 30
0.0
 10
16.3444869034
 20
12.6556026155
 30
0.0
 10
16.3425428383
 20
12.6568157438
 30
0.0
 10
16.3399439809
 20
12.6581867284
 30
0.0
 10
16.3366421811
 20
12.6595669452
 30
0.0
 10
16.3343467038
 20
12.6603006898
 30
0.0
 10
16.3331804272
 20
12.660618622
 30
0.0
  0
SPLINE
  5
33C
100
AcDbEntity
  8
LAYER_FEATURE
100
AcDbSpline
 62
7
  6
CONTINUOUS
 70
0
 71
3
 72
22
 73
18
 74
0
 42
0.0000001
 43
0.0000001
 44
0.0000000001
 40
0.0
 40
0.0
 40
0.0
 40
0.0
 40
0.0465467062
 40
0.0947421787
 40
0.1448994092
 40
0.1972634389
 40
0.2519975583
 40
0.3091958874
 40
0.368887673
 40
0.4310451343
 40
0.4955906
 40
0.5624030919
 40
0.6313242221
 40
0.7021634883
 40
0.7747040667
 40
0.8487031728
 40
1.0
 40
1.0
 40
1.0
 40
1.0
 10
16.3782732881
 20
12.5254269609
 30
0.0
 10
16.3782615059
 20
12.5257914907
 30
0.0
 10
16.378191162
 20
12.5265326153
 30
0.0
 10
16.377953938
 20
12.5276451773
 30
0.0
 10
16.377585185
 20
12.5287692978
 30
0.0
 10
16.3770874195
 20
12.5298984368
 30
0.0
 10
16.3764636713
 20
12.5310264069
 30
0.0
 10
16.3757176528
 20
12.5321469439
 30
0.0
 10
16.3748536803
 20
12.5332538391
 30
0.0
 10
16.3738767039
 20
12.5343409266
 30
0.0
 10
16.3727922856
 20
12.5354021247
 30
0.0
 10
16.3716065848
 20
12.5364314684
 30
0.0
 10
16.3703263272
 20
12.5374231528
 30
0.0
 10
16.3689587966
 20
12.5383715624
 30
0.0
 10
16.3675117108
 20
12.5392713481
 30
0.0
 10
16.3654725558
 20
12.5404075566
 30
0.0
 10
16.363871475
 20
12.5411586555
 30
0.0
 10
16.3627773696
 20
12.5416150955
 30
0.0
  0
SPLINE
  5
33D
100
AcDbEntity
  8
LAYER_FEATURE
100
AcDbSpline
 62
7
  6
CONTINUOUS
 70
0
 71
3
 72
68
 73
64
 74
0
 42
0.0000001
 43
0.0000001
 44
0.0000000001
 40
0.0
 40
0.0
 40
0.0
 40
0.0
 40
0.0171788537
 40
0.0345306493
 40
0.0520446784
 40
0.069710489
 40
0.0875169164
 40
0.1054526098
 40
0.1235058943
 40
0.141664841
 40
0.1599172928
 40
0.1782508912
 40
0.1966531056
 40
0.2151112603
 40
0.2521425355
 40
0.2892430599
 40
0.3263089876
 40
0.3447973805
 40
0.363238365
 40
0.3816191842
 40
0.3999272074
 40
0.4181499576
 40
0.4362751398
 40
0.4542906695
 40
0.4721847017
 40
0.4899456595
 40
0.5075622643
 40
0.5250235667
 40
0.5423189792
 40
0.5594383084
 40
0.5763717881
 40
0.5931101137
 40
0.6096444786
 40
0.6259666121
 40
0.6420688199
 40
0.6579440233
 40
0.6735858016
 40
0.6889884364
 40
0.7041469583
 40
0.7190571972
 40
0.7337158328
 40
0.7481204459
 40
0.7622695735
 40
0.7761627646
 40
0.7898006393
 40
0.8031849488
 40
0.8163186321
 40
0.8292058734
 40
0.8418521573
 40
0.8542643197
 40
0.8664505941
 40
0.8784206484
 40
0.8901856074
 40
0.9017580635
 40
0.9131520681
 40
0.9243831024
 40
0.9354680247
 40
0.9464249873
 40
0.9572733262
 40
0.9680334213
 40
0.9787265285
 40
0.989374586
 40
1.0
 40
1.0
 40
1.0
 40
1.0
 10
15.2245296189
 20
13.3297421513
 30
0.0
 10
15.2344910974
 20
13.3297421513
 30
0.0
 10
15.2545149772
 20
13.3295229619
 30
0.0
 10
15.2846804622
 20
13.3285490451
 30
0.0
 10
15.3151010297
 20
13.3269292484
 30
0.0
 10
15.3457447066
 20
13.3246653188
 30
0.0
 10
15.3765797605
 20
13.3217595739
 30
0.0
 10
15.4075740418
 20
13.3182150554
 30
0.0
 10
15.4386953097
 20
13.3140354458
 30
0.0
 10
15.4699111662
 20
13.3092251015
 30
0.0
 10
15.5011891302
 20
13.3037890296
 30
0.0
 10
15.5324966065
 20
13.297732894
 30
0.0
 10
15.5638011507
 20
13.2910629759
 30
0.0
 10
15.6055354347
 20
13.2813507364
 30
0.0
 10
15.6574807787
 20
13.2677216161
 30
0.0
 10
15.7192158333
 20
13.2490599915
 30
0.0
 10
15.7700488587
 20
13.231621147
 30
0.0
 10
15.8102328395
 20
13.2165719115
 30
0.0
 10
15.8400550744
 20
13.204764506
 30
0.0
 10
15.8695539968
 20
13.1924401635
 30
0.0
 10
15.8986990324
 20
13.1796116503
 30
0.0
 10
15.9274598065
 20
13.1662923332
 30
0.0
 10
15.9558063914
 20
13.1524960717
 30
0.0
 10
15.9837092814
 20
13.1382372293
 30
0.0
 10
16.011139436
 20
13.1235306463
 30
0.0
 10
16.0380683058
 20
13.1083916276
 30
0.0
 10
16.0644678635
 20
13.0928359258
 30
0.0
 10
16.0903106328
 20
13.0768797243
 30
0.0
 10
16.1155697218
 20
13.0605396267
 30
0.0
 10
16.1402188475
 20
13.0438326332
 30
0.0
 10
16.1642323618
 20
13.026776122
 30
0.0
 10
16.1875852779
 20
13.0093878319
 30
0.0
 10
16.2102532956
 20
12.9916858419
 30
0.0
 10
16.2322128291
 20
12.9736885549
 30
0.0
 10
16.2534410349
 20
12.9554146806
 30
0.0
 10
16.273915829
 20
12.9368832098
 30
0.0
 10
16.29361591
 20
12.9181133953
 30
0.0
 10
16.3125207797
 20
12.8991247318
 30
0.0
 10
16.3306107635
 20
12.8799369334
 30
0.0
 10
16.3478670364
 20
12.8605699182
 30
0.0
 10
16.3642716391
 20
12.8410437838
 30
0.0
 10
16.3798074909
 20
12.8213787842
 30
0.0
 10
16.3944584062
 20
12.8015953098
 30
0.0
 10
16.4082091084
 20
12.7817138659
 30
0.0
 10
16.4210452452
 20
12.7617550518
 30
0.0
 10
16.4329534093
 20
12.7417395449
 30
0.0
 10
16.4439211405
 20
12.7216880749
 30
0.0
 10
16.4539369355
 20
12.7016214062
 30
0.0
 10
16.4629902572
 20
12.68156032
 30
0.0
 10
16.4710715416
 20
12.6615255957
 30
0.0
 10
16.4781722132
 20
12.6415379975
 30
0.0
 10
16.4842846952
 20
12.6216182581
 30
0.0
 10
16.4894024091
 20
12.6017870626
 30
0.0
 10
16.4935197853
 20
12.5820650363
 30
0.0
 10
16.4966322737
 20
12.5624727316
 30
0.0
 10
16.4987363549
 20
12.5430306143
 30
0.0
 10
16.4998295668
 20
12.5237590473
 30
0.0
 10
16.4999105121
 20
12.5046782777
 30
0.0
 10
16.4989788644
 20
12.4858083933
 30
0.0
 10
16.4970354113
 20
12.4671693846
 30
0.0
 10
16.4940819662
 20
12.4487807946
 30
0.0
 10
16.4901217557
 20
12.430662875
 30
0.0
 10
16.4868114425
 20
12.4187714908
 30
0.0
 10
16.4849923244
 20
12.4128848132
 30
0.0
  0
SPLINE
  5
33E
100
AcDbEntity
  8
02___PRT_ALL_AXES
100
AcDbSpline
 62
7
  6
CONTINUOUS
 70
0
 71
3
 72
23
 73
19
 74
0
 42
0.0000001
 43
0.0000001
 44
0.0000000001
 40
0.0
 40
0.0
 40
0.0
 40
0.0
 40
0.0689923546
 40
0.1370405758
 40
0.2041237149
 40
0.2702383774
 40
0.3353880793
 40
0.3995885898
 40
0.4628658073
 40
0.5252560263
 40
0.5868057344
 40
0.6475711983
 40
0.7076182568
 40
0.7670219529
 40
0.8258660879
 40
0.884242788
 40
0.9422518616
 40
1.0
 40
1.0
 40
1.0
 40
1.0
 10
15.2001109937
 20
12.597580772
 30
0.0
 10
15.2016344628
 20
12.597580772
 30
0.0
 10
15.2046613362
 20
12.5974943356
 30
0.0
 10
15.209154023
 20
12.5970999133
 30
0.0
 10
15.2135519825
 20
12.5964434746
 30
0.0
 10
15.2178381144
 20
12.5955283272
 30
0.0
 10
15.2219960042
 20
12.5943589326
 30
0.0
 10
15.2260095642
 20
12.5929410356
 30
0.0
 10
15.2298632501
 20
12.5912814992
 30
0.0
 10
15.2335420792
 20
12.5893882823
 30
0.0
 10
15.2370316933
 20
12.5872703549
 30
0.0
 10
15.2403184011
 20
12.5849376199
 30
0.0
 10
15.2433892119
 20
12.5824008401
 30
0.0
 10
15.2462318775
 20
12.5796715594
 30
0.0
 10
15.248834908
 20
12.5767620682
 30
0.0
 10
15.2511876682
 20
12.5736852135
 30
0.0
 10
15.2532801982
 20
12.5704548053
 30
0.0
 10
15.2544980749
 20
12.5682038799
 30
0.0
 10
15.2550598477
 20
12.5670591138
 30
0.0
  0
SPLINE
  5
33F
100
AcDbEntity
  8
LAYER_FEATURE
100
AcDbSpline
 62
7
  6
CONTINUOUS
 70
0
 71
3
 72
22
 73
18
 74
0
 42
0.0000001
 43
0.0000001
 44
0.0000000001
 40
0.0
 40
0.0
 40
0.0
 40
0.0
 40
0.1381197804
 40
0.2053664349
 40
0.2714549095
 40
0.3364371394
 40
0.400372579
 40
0.4633278449
 40
0.5253764087
 40
0.5865986111
 40
0.6470813103
 40
0.7069174443
 40
0.7662055009
 40
0.8250488566
 40
0.8835549595
 40
0.9418344164
 40
1.0
 40
1.0
 40
1.0
 40
1.0
 10
16.0656415142
 20
12.3192103724
 30
0.0
 10
16.0700426296
 20
12.3102418422
 30
0.0
 10
16.0761070205
 20
12.2966607719
 30
0.0
 10
16.0830236484
 20
12.278280837
 30
0.0
 10
16.0875211783
 20
12.2646551537
 30
0.0
 10
16.0913696602
 20
12.2510810273
 30
0.0
 10
16.0945654598
 20
12.2375710463
 30
0.0
 10
16.0971053403
 20
12.2241382323
 30
0.0
 10
16.098986711
 20
12.2107954182
 30
0.0
 10
16.100207617
 20
12.1975554246
 30
0.0
 10
16.1007667463
 20
12.1844309903
 30
0.0
 10
16.1006634116
 20
12.1714347804
 30
0.0
 10
16.0998975592
 20
12.1585793593
 30
0.0
 10
16.0984698382
 20
12.1458772271
 30
0.0
 10
16.0963815033
 20
12.1333406008
 30
0.0
 10
16.093634649
 20
12.1209821455
 30
0.0
 10
16.0913650409
 20
12.1128661932
 30
0.0
 10
16.0901229029
 20
12.1088466217
 30
0.0
  0
SPLINE
  5
340
100
AcDbEntity
  8
LAYER_FEATURE
100
AcDbSpline
 62
7
  6
CONTINUOUS
 70
0
 71
3
 72
48
 73
44
 74
0
 42
0.0000001
 43
0.0000001
 44
0.0000000001
 40
0.0
 40
0.0
 40
0.0
 40
0.0
 40
0.0300549181
 40
0.0610936254
 40
0.0931020776
 40
0.1260304912
 40
0.1597997073
 40
0.1943050173
 40
0.2294208176
 40
0.2650050331
 40
0.3009034236
 40
0.3369538046
 40
0.3729902189
 40
0.4088470545
 40
0.4443631664
 40
0.4793860585
 40
0.5137761161
 40
0.5474109332
 40
0.5801897584
 40
0.6120380488
 40
0.6429119601
 40
0.6728026521
 40
0.7017400765
 40
0.7158778676
 40
0.7298077171
 40
0.7435452032
 40
0.7571084111
 40
0.7705178646
 40
0.7837963102
 40
0.796968425
 40
0.8100605483
 40
0.8231002695
 40
0.8361160128
 40
0.8491365986
 40
0.8621907691
 40
0.875306714
 40
0.8885116478
 40
0.9018314028
 40
0.9152900085
 40
0.928909525
 40
0.9427097527
 40
0.9709062192
 40
1.0
 40
1.0
 40
1.0
 40
1.0
 10
15.119839954
 20
12.5333479654
 30
0.0
 10
15.1203679444
 20
12.5350565431
 30
0.0
 10
15.1216279342
 20
12.5384743391
 30
0.0
 10
15.1240501781
 20
12.5434651702
 30
0.0
 10
15.1270115796
 20
12.5483570812
 30
0.0
 10
15.1304832022
 20
12.5531029854
 30
0.0
 10
15.1344316349
 20
12.5576581207
 30
0.0
 10
15.138818955
 20
12.5619791978
 30
0.0
 10
15.1436031328
 20
12.5660251531
 30
0.0
 10
15.1487383808
 20
12.569757451
 30
0.0
 10
15.1541755778
 20
12.5731404949
 30
0.0
 10
15.159862715
 20
12.5761419967
 30
0.0
 10
15.1657454103
 20
12.5787332754
 30
0.0
 10
15.1717674305
 20
12.580889535
 30
0.0
 10
15.1778712345
 20
12.5825900995
 30
0.0
 10
15.1839985234
 20
12.5838186314
 30
0.0
 10
15.190090815
 20
12.5845632446
 30
0.0
 10
15.1960899949
 20
12.5848165956
 30
0.0
 10
15.2019388746
 20
12.5845759092
 30
0.0
 10
15.2075816531
 20
12.5838430319
 30
0.0
 10
15.2129645952
 20
12.5826242204
 30
0.0
 10
15.2180357238
 20
12.5809305103
 30
0.0
 10
15.2219929317
 20
12.5791211561
 30
0.0
 10
15.2249468257
 20
12.5774507673
 30
0.0
 10
15.2270380024
 20
12.5761009869
 30
0.0
 10
15.229016562
 20
12.5746479876
 30
0.0
 10
15.2308777439
 20
12.5730951772
 30
0.0
 10
15.232616997
 20
12.5714462999
 30
0.0
 10
15.2342300887
 20
12.5697053298
 30
0.0
 10
15.235713034
 20
12.5678764394
 30
0.0
 10
15.2370622298
 20
12.5659640853
 30
0.0
 10
15.2382743545
 20
12.5639728995
 30
0.0
 10
15.2393464216
 20
12.5619077224
 30
0.0
 10
15.2402758502
 20
12.5597736091
 30
0.0
 10
15.2410603416
 20
12.5575757513
 30
0.0
 10
15.2416980184
 20
12.5553195226
 30
0.0
 10
15.2421873732
 20
12.553010429
 30
0.0
 10
15.2425272084
 20
12.5506540833
 30
0.0
 10
15.242716794
 20
12.5482562404
 30
0.0
 10
15.2427556822
 20
12.5458226351
 30
0.0
 10
15.2426055403
 20
12.5425150371
 30
0.0
 10
15.242032753
 20
12.5383138691
 30
0.0
 10
15.241194262
 20
12.5350019039
 30
0.0
 10
15.2406831564
 20
12.5333479654
 30
0.0
  0
SPLINE
  5
341
100
AcDbEntity
  8
LAYER_FEATURE
100
AcDbSpline
 62
7
  6
CONTINUOUS
 70
0
 71
3
 72
20
 73
16
 74
0
 42
0.0000001
 43
0.0000001
 44
0.0000000001
 40
0.0
 40
0.0
 40
0.0
 40
0.0
 40
0.140405604
 40
0.2089127018
 40
0.2762292412
 40
0.4071724027
 40
0.5333119399
 40
0.5946927279
 40
0.6550047819
 40
0.7143274608
 40
0.772757047
 40
0.8304058744
 40
0.887400983
 40
0.9438822472
 40
1.0
 40
1.0
 40
1.0
 40
1.0
 10
15.2051136803
 20
12.5873863686
 30
0.0
 10
15.207908079
 20
12.5873863686
 30
0.0
 10
15.212070287
 20
12.5871901285
 30
0.0
 10
15.2175274232
 20
12.5865084326
 30
0.0
 10
15.2227557954
 20
12.5855726502
 30
0.0
 10
15.229011564
 20
12.583919035
 30
0.0
 10
15.2349221892
 20
12.5815830807
 30
0.0
 10
15.2393167779
 20
12.5793366664
 30
0.0
 10
15.2424120616
 20
12.5774878234
 30
0.0
 10
15.2453259003
 20
12.5754657674
 30
0.0
 10
15.2480490543
 20
12.5732768015
 30
0.0
 10
15.2505726921
 20
12.5709278567
 30
0.0
 10
15.2528886842
 20
12.5684263091
 30
0.0
 10
15.2549893598
 20
12.5657803536
 30
0.0
 10
15.2562449306
 20
12.5639209292
 30
0.0
 10
15.2568333856
 20
12.5629716514
 30
0.0
  0
SPLINE
  5
342
100
AcDbEntity
  8
LAYER_FEATURE
100
AcDbSpline
 62
7
  6
CONTINUOUS
 70
0
 71
3
 72
23
 73
19
 74
0
 42
0.0000001
 43
0.0000001
 44
0.0000000001
 40
0.0
 40
0.0
 40
0.0
 40
0.0
 40
0.0549084683
 40
0.1116144743
 40
0.1700919154
 40
0.2302502056
 40
0.2919445326
 40
0.3549836729
 40
0.4191381541
 40
0.4841483935
 40
0.5497326125
 40
0.6155945094
 40
0.6814308885
 40
0.7469391822
 40
0.811825017
 40
0.8439521421
 40
0.8758210882
 40
1.0
 40
1.0
 40
1.0
 40
1.0
 10
15.1097372403
 20
12.523153562
 30
0.0
 10
15.1103972274
 20
12.5252892811
 30
0.0
 10
15.1119722195
 20
12.5295615269
 30
0.0
 10
15.1150000111
 20
12.5358000709
 30
0.0
 10
15.1187017713
 20
12.5419149597
 30
0.0
 10
15.1230413064
 20
12.547847331
 30
0.0
 10
15.1279768377
 20
12.5535412594
 30
0.0
 10
15.1334609881
 20
12.5589426057
 30
0.0
 10
15.1394412147
 20
12.5640000449
 30
0.0
 10
15.1458602728
 20
12.5686654195
 30
0.0
 10
15.1526567729
 20
12.572894223
 30
0.0
 10
15.1597656824
 20
12.576646103
 30
0.0
 10
15.1671190853
 20
12.5798852123
 30
0.0
 10
15.1746464909
 20
12.5825804846
 30
0.0
 10
15.1810261508
 20
12.584357932
 30
0.0
 10
15.1861523436
 20
12.5854833295
 30
0.0
 10
15.1936909796
 20
12.58684417
 30
0.0
 10
15.200058252
 20
12.5873863686
 30
0.0
 10
15.2051136803
 20
12.5873863686
 30
0.0
  0
SPLINE
  5
343
100
AcDbEntity
  8
LAYER_FEATURE
100
AcDbSpline
 62
7
  6
CONTINUOUS
 70
0
 71
3
 72
48
 73
44
 74
0
 42
0.0000001
 43
0.0000001
 44
0.0000000001
 40
0.0
 40
0.0
 40
0.0
 40
0.0
 40
0.0290937808
 40
0.0572902473
 40
0.071090475
 40
0.0847099915
 40
0.0981685972
 40
0.1114883522
 40
0.124693286
 40
0.1378092309
 40
0.1508634014
 40
0.1638839872
 40
0.1768997305
 40
0.1899394517
 40
0.203031575
 40
0.2162036898
 40
0.2294821354
 40
0.2428915889
 40
0.2564547968
 40
0.2701922829
 40
0.2841221324
 40
0.2982599235
 40
0.3271973479
 40
0.3570880399
 40
0.3879619512
 40
0.4198102416
 40
0.4525890668
 40
0.4862238839
 40
0.5206139415
 40
0.5556368336
 40
0.5911529455
 40
0.6270097811
 40
0.6630461954
 40
0.6990965764
 40
0.7349949669
 40
0.7705791824
 40
0.8056949827
 40
0.8402002927
 40
0.8739695088
 40
0.9068979224
 40
0.9389063746
 40
0.9699450819
 40
1.0
 40
1.0
 40
1.0
 40
1.0
 10
15.119839954
 20
12.5333479654
 30
0.0
 10
15.1193288484
 20
12.531694027
 30
0.0
 10
15.1184903573
 20
12.5283820617
 30
0.0
 10
15.1179175701
 20
12.5241808938
 30
0.0
 10
15.1177674282
 20
12.5208732958
 30
0.0
 10
15.1178063163
 20
12.5184396905
 30
0.0
 10
15.117995902
 20
12.5160418476
 30
0.0
 10
15.1183357372
 20
12.5136855019
 30
0.0
 10
15.118825092
 20
12.5113764083
 30
0.0
 10
15.1194627688
 20
12.5091201796
 30
0.0
 10
15.1202472602
 20
12.5069223218
 30
0.0
 10
15.1211766888
 20
12.5047882085
 30
0.0
 10
15.1222487559
 20
12.5027230314
 30
0.0
 10
15.1234608806
 20
12.5007318456
 30
0.0
 10
15.1248100763
 20
12.4988194915
 30
0.0
 10
15.1262930217
 20
12.4969906011
 30
0.0
 10
15.1279061134
 20
12.495249631
 30
0.0
 10
15.1296453665
 20
12.4936007536
 30
0.0
 10
15.1315065484
 20
12.4920479433
 30
0.0
 10
15.133485108
 20
12.490594944
 30
0.0
 10
15.1355762847
 20
12.4892451636
 30
0.0
 10
15.1385301787
 20
12.4875747748
 30
0.0
 10
15.1424873866
 20
12.4857654206
 30
0.0
 10
15.1475585151
 20
12.4840717104
 30
0.0
 10
15.1529414573
 20
12.482852899
 30
0.0
 10
15.1585842358
 20
12.4821200217
 30
0.0
 10
15.1644331155
 20
12.4818793353
 30
0.0
 10
15.1704322953
 20
12.4821326863
 30
0.0
 10
15.176524587
 20
12.4828772995
 30
0.0
 10
15.1826518759
 20
12.4841058314
 30
0.0
 10
15.1887556799
 20
12.4858063959
 30
0.0
 10
15.1947777001
 20
12.4879626554
 30
0.0
 10
15.2006603954
 20
12.4905539341
 30
0.0
 10
15.2063475326
 20
12.493555436
 30
0.0
 10
15.2117847296
 20
12.4969384799
 30
0.0
 10
15.2169199776
 20
12.5006707778
 30
0.0
 10
15.2217041554
 20
12.504716733
 30
0.0
 10
15.2260914755
 20
12.5090378102
 30
0.0
 10
15.2300399082
 20
12.5135929455
 30
0.0
 10
15.2335115308
 20
12.5183388497
 30
0.0
 10
15.2364729323
 20
12.5232307607
 30
0.0
 10
15.2388951762
 20
12.5282215918
 30
0.0
 10
15.240155166
 20
12.5316393878
 30
0.0
 10
15.2406831564
 20
12.5333479654
 30
0.0
  0
SPLINE
  5
344
100
AcDbEntity
  8
02___PRT_ALL_AXES
100
AcDbSpline
 62
7
  6
CONTINUOUS
 70
0
 71
3
 72
48
 73
44
 74
0
 42
0.0000001
 43
0.0000001
 44
0.0000000001
 40
0.0
 40
0.0
 40
0.0
 40
0.0
 40
0.0287470351
 40
0.0591488472
 40
0.0911462453
 40
0.1246525449
 40
0.1595580998
 40
0.1957333113
 40
0.2330315777
 40
0.2712917818
 40
0.3103403829
 40
0.3499933255
 40
0.3900575336
 40
0.43033255
 40
0.4706120138
 40
0.5106850853
 40
0.5503381922
 40
0.5893569622
 40
0.6275284151
 40
0.6646435239
 40
0.7005000619
 40
0.7349057951
 40
0.7676819486
 40
0.7986670348
 40
0.813444027
 40
0.8277227923
 40
0.8414900213
 40
0.8547344429
 40
0.8674469795
 40
0.8796211526
 40
0.8912532079
 40
0.9023427259
 40
0.9128927859
 40
0.9229108588
 40
0.932409095
 40
0.9414054866
 40
0.9499243645
 40
0.9579977987
 40
0.9729643625
 40
0.9799823999
 40
0.9867746619
 40
0.9934191265
 40
1.0
 40
1.0
 40
1.0
 40
1.0
 10
15.9284160929
 20
12.2283444509
 30
0.0
 10
15.9290799224
 20
12.2269917087
 30
0.0
 10
15.9303382513
 20
12.2241546828
 30
0.0
 10
15.9319803378
 20
12.2196649708
 30
0.0
 10
15.9334231076
 20
12.2148464754
 30
0.0
 10
15.9346606866
 20
12.2097285311
 30
0.0
 10
15.9356896367
 20
12.2043417863
 30
0.0
 10
15.9365086032
 20
12.1987184833
 30
0.0
 10
15.9371182948
 20
12.1928920478
 30
0.0
 10
15.9375213055
 20
12.1868968983
 30
0.0
 10
15.9377219417
 20
12.1807682269
 30
0.0
 10
15.9377260245
 20
12.174541837
 30
0.0
 10
15.9375406825
 20
12.1682539925
 30
0.0
 10
15.9371741458
 20
12.1619412895
 30
0.0
 10
15.9366355409
 20
12.1556405307
 30
0.0
 10
15.9359346919
 20
12.1493885976
 30
0.0
 10
15.9350819291
 20
12.1432223018
 30
0.0
 10
15.9340879053
 20
12.1371782027
 30
0.0
 10
15.9329634185
 20
12.1312923929
 30
0.0
 10
15.9317192454
 20
12.1256002438
 30
0.0
 10
15.9303659813
 20
12.1201361333
 30
0.0
 10
15.9289139013
 20
12.114933102
 30
0.0
 10
15.927372811
 20
12.1100226778
 30
0.0
 10
15.9260013129
 20
12.1061399141
 30
0.0
 10
15.9248624216
 20
12.1032058059
 30
0.0
 10
15.9240048414
 20
12.1011312048
 30
0.0
 10
15.9231313084
 20
12.0991507471
 30
0.0
 10
15.9222427312
 20
12.0972673555
 30
0.0
 10
15.921339981
 20
12.0954837918
 30
0.0
 10
15.9204238894
 20
12.0938026475
 30
0.0
 10
15.9194952232
 20
12.0922263468
 30
0.0
 10
15.9185547245
 20
12.0907571367
 30
0.0
 10
15.9176030523
 20
12.0893971012
 30
0.0
 10
15.9166408588
 20
12.0881481445
 30
0.0
 10
15.9156686672
 20
12.0870120118
 30
0.0
 10
15.9146870972
 20
12.0859903244
 30
0.0
 10
15.913696306
 20
12.0850843951
 30
0.0
 10
15.9123972429
 20
12.0840589693
 30
0.0
 10
15.9110448424
 20
12.0832307371
 30
0.0
 10
15.9096519807
 20
12.082645541
 30
0.0
 10
15.9086225658
 20
12.0823377061
 30
0.0
 10
15.9075874646
 20
12.0821527361
 30
0.0
 10
15.9068935316
 20
12.0821116436
 30
0.0
 10
15.9065485794
 20
12.0821116443
 30
0.0
  0
SPLINE
  5
345
100
AcDbEntity
  8
LAYER_FEATURE
100
AcDbSpline
 62
7
  6
CONTINUOUS
 70
0
 71
3
 72
78
 73
74
 74
0
 42
0.0000001
 43
0.0000001
 44
0.0000000001
 40
0.0
 40
0.0
 40
0.0
 40
0.0
 40
0.0053541098
 40
0.0107129091
 40
0.0160810664
 40
0.0214632111
 40
0.0268639112
 40
0.0322876585
 40
0.0377388457
 40
0.0432217569
 40
0.0487405439
 40
0.0542992227
 40
0.0599016502
 40
0.0655515264
 40
0.0770061088
 40
0.0886904833
 40
0.1006276343
 40
0.1128374476
 40
0.119050525
 40
0.1253378045
 40
0.1381402471
 40
0.1512566577
 40
0.1646949955
 40
0.1784605391
 40
0.1925560405
 40
0.2069818852
 40
0.2217362497
 40
0.2368152568
 40
0.2522131245
 40
0.2679223083
 40
0.2839336364
 40
0.3002364373
 40
0.3168186609
 40
0.333666992
 40
0.3507669589
 40
0.3681030357
 40
0.3856587396
 40
0.4034167245
 40
0.4213588699
 40
0.4394663669
 40
0.4577198016
 40
0.4760992358
 40
0.4945842851
 40
0.5131541964
 40
0.5317879233
 40
0.5504642006
 40
0.5691616178
 40
0.5878586929
 40
0.6065339449
 40
0.6251659668
 40
0.6437334994
 40
0.6622155043
 40
0.680591239
 40
0.6988403323
 40
0.7169428613
 40
0.73487943
 40
0.7526312504
 40
0.7701802253
 40
0.7875090345
 40
0.8046012243
 40
0.8214413009
 40
0.8380148277
 40
0.8543085282
 40
0.8703103943
 40
0.8860098005
 40
0.9013976246
 40
0.9164663761
 40
0.9312103318
 40
0.9456256761
 40
0.9597106576
 40
0.9734657236
 40
0.9868937291
 40
1.0
 40
1.0
 40
1.0
 40
1.0
 10
14.7286482091
 20
12.5295741231
 30
0.0
 10
14.7294784096
 20
12.5322606605
 30
0.0
 10
14.7312368114
 20
12.537606582
 30
0.0
 10
14.7341640884
 20
12.545530407
 30
0.0
 10
14.7373802837
 20
12.5533574608
 30
0.0
 10
14.7408840057
 20
12.5610842172
 30
0.0
 10
14.7446737014
 20
12.5687074119
 30
0.0
 10
14.7487477755
 20
12.5762237324
 30
0.0
 10
14.7531044125
 20
12.5836299833
 30
0.0
 10
14.7577417766
 20
12.5909229527
 30
0.0
 10
14.7626578122
 20
12.598099556
 30
0.0
 10
14.7678504258
 20
12.6051566637
 30
0.0
 10
14.7733173968
 20
12.6120913684
 30
0.0
 10
14.781003795
 20
12.6212113202
 30
0.0
 10
14.79130343
 20
12.632294996
 30
0.0
 10
14.8046622962
 20
12.6449951539
 30
0.0
 10
14.8190541474
 20
12.6571354515
 30
0.0
 10
14.8318128851
 20
12.6667127782
 30
0.0
 10
14.842499157
 20
12.6740781493
 30
0.0
 10
14.8536377498
 20
12.6813276541
 30
0.0
 10
14.8681698026
 20
12.6899979351
 30
0.0
 10
14.8864273245
 20
12.6997046648
 30
0.0
 10
14.9055772699
 20
12.7087600206
 30
0.0
 10
14.9255866165
 20
12.7171486457
 30
0.0
 10
14.9464213217
 20
12.7248565416
 30
0.0
 10
14.9680458444
 20
12.7318707577
 30
0.0
 10
14.9904233408
 20
12.7381795093
 30
0.0
 10
15.0135156796
 20
12.7437721764
 30
0.0
 10
15.0372835127
 20
12.7486393328
 30
0.0
 10
15.0616863348
 20
12.7527727651
 30
0.0
 10
15.0866825512
 20
12.7561654913
 30
0.0
 10
15.1122295468
 20
12.7588117768
 30
0.0
 10
15.138283758
 20
12.7607071466
 30
0.0
 10
15.1648007467
 20
12.7618483971
 30
0.0
 10
15.1917352763
 20
12.762233603
 30
0.0
 10
15.2190413892
 20
12.761862123
 30
0.0
 10
15.2466724858
 20
12.7607346031
 30
0.0
 10
15.2745814046
 20
12.758852976
 30
0.0
 10
15.3027205036
 20
12.7562204596
 30
0.0
 10
15.3310417422
 20
12.7528415521
 30
0.0
 10
15.3594967638
 20
12.7487220254
 30
0.0
 10
15.3880369794
 20
12.7438689152
 30
0.0
 10
15.4166136508
 20
12.7382905098
 30
0.0
 10
15.4451779751
 20
12.7319963365
 30
0.0
 10
15.4736811681
 20
12.7249971449
 30
0.0
 10
15.5020745484
 20
12.717304889
 30
0.0
 10
15.5303096211
 20
12.7089327069
 30
0.0
 10
15.5583381613
 20
12.699894898
 30
0.0
 10
15.586112297
 20
12.6902068988
 30
0.0
 10
15.6135845909
 20
12.679885256
 30
0.0
 10
15.6407081226
 20
12.6689475984
 30
0.0
 10
15.6674365684
 20
12.6574126058
 30
0.0
 10
15.6937242818
 20
12.6452999776
 30
0.0
 10
15.7195263708
 20
12.6326303976
 30
0.0
 10
15.7447987758
 20
12.6194254988
 30
0.0
 10
15.7694983447
 20
12.6057078257
 30
0.0
 10
15.7935829069
 20
12.5915007943
 30
0.0
 10
15.8170113456
 20
12.576828652
 30
0.0
 10
15.839743668
 20
12.5617164343
 30
0.0
 10
15.8617410735
 20
12.5461899213
 30
0.0
 10
15.8829660195
 20
12.5302755918
 30
0.0
 10
15.9033822853
 20
12.5140005766
 30
0.0
 10
15.9229550328
 20
12.4973926099
 30
0.0
 10
15.9416508643
 20
12.4804799807
 30
0.0
 10
15.9594378784
 20
12.4632914813
 30
0.0
 10
15.9762857207
 20
12.4458563568
 30
0.0
 10
15.9921656341
 20
12.4282042514
 30
0.0
 10
16.0070504981
 20
12.4103651612
 30
0.0
 10
16.0209148847
 20
12.3923693606
 30
0.0
 10
16.0337350451
 20
12.3742474296
 30
0.0
 10
16.045489104
 20
12.3560299128
 30
0.0
 10
16.0561565477
 20
12.3377483055
 30
0.0
 10
16.0626091739
 20
12.3253896324
 30
0.0
 10
16.0656415142
 20
12.3192103724
 30
0.0
  0
ENDSEC
  0
SECTION
  2
OBJECTS
  0
DICTIONARY
  5
C
100
AcDbDictionary
280
0
281
1
  3
ACAD_GROUP
350
D
  3
ACAD_MLINESTYLE
350
17
  3
ACAD_LAYOUT
350
1A
  3
ACAD_PLOTSETTINGS
350
19
  3
ACAD_PLOTSTYLENAME
350
E
  0
DICTIONARY
  5
D
102
{ACAD_REACTORS
330
C
102
}
100
AcDbDictionary
280
0
281
1
  0
ACDBDICTIONARYWDFLT
  5
E
102
{ACAD_REACTORS
330
C
102
}
100
AcDbDictionary
281
1
  3
Normal
350
F
100
AcDbDictionaryWithDefault
340
F
  0
DICTIONARY
  5
17
102
{ACAD_REACTORS
330
C
102
}
100
AcDbDictionary
280
0
281
1
  3
Standard
350
18
  0
DICTIONARY
  5
19
102
{ACAD_REACTORS
330
C
102
}
100
AcDbDictionary
281
1
  0
DICTIONARY
  5
1A
102
{ACAD_REACTORS
330
C
102
}
100
AcDbDictionary
281
1
  3
Model
350
346
  3
Layout1
350
347
  0
ACDBPLACEHOLDER
  5
F
102
{ACAD_REACTORS
330
E
102
}
  0
MLINESTYLE
  5
18
102
{ACAD_REACTORS
330
17
102
}
100
AcDbMlineStyle
  2
STANDARD
 70
0
  3

 62
256
 51
90.0
 52
90.0
 71
2
 49
0.5
 62
256
  6
BYLAYER
 49
-0.5
 62
256
  6
BYLAYER
  0
LAYOUT
  5
346
102
{ACAD_REACTORS
330
1A
102
}
100
AcDbPlotSettings
  1

  2
none_device
  4
ANSI_C_(22.00_x_17.00_Inches)
  6

 40
0.0
 41
0.0
 42
0.0
 43
0.0
 44
558.8
 45
431.8
 46
0.0
 47
0.0
 48
0.0
 49
0.0
140
0.0
141
0.0
142
1.0
143
1.0
 70
1024
 72
0
 73
0
 74
0
  7

 75
0
147
1.0
148
0.0
149
0.0
100
AcDbLayout
  1
Model
 70
0
 71
0
 10
0.0
 20
0.0
 11
22.0
 21
17.0
 12
0.0
 22
0.0
 32
0.0
 14
0.0
 24
0.0
 34
0.0
 15
0.0
 25
0.0
 35
0.0
146
0.0
 13
0.0
 23
0.0
 33
0.0
 16
1.0
 26
0.0
 36
0.0
 17
0.0
 27
1.0
 37
0.0
 76
0
330
222
345
0
346
0
  0
LAYOUT
  5
347
102
{ACAD_REACTORS
330
1A
102
}
100
AcDbPlotSettings
  1

  2
none_device
  4
ANSI_C_(22.00_x_17.00_Inches)
  6

 40
0.0
 41
0.0
 42
0.0
 43
0.0
 44
558.8
 45
431.8
 46
0.0
 47
0.0
 48
0.0
 49
0.0
140
0.0
141
0.0
142
1.0
143
1.0
 70
0
 72
0
 73
0
 74
0
  7

 75
0
147
1.0
148
0.0
149
0.0
100
AcDbLayout
  1
Layout1
 70
0
 71
1
 10
0.0
 20
0.0
 11
22.0
 21
17.0
 12
0.0
 22
0.0
 32
0.0
 14
0.0
 24
0.0
 34
0.0
 15
0.0
 25
0.0
 35
0.0
146
0.0
 13
0.0
 23
0.0
 33
0.0
 16
1.0
 26
0.0
 36
0.0
 17
0.0
 27
1.0
 37
0.0
 76
0
330
223
345
0
346
0
  0
ENDSEC
  0
EOF