999
DXF file: _cgs_temp_output.dxf
999
Pro/ENGINEER 2016360 by Parametric Technology Corporation
  0
SECTION
  2
HEADER
  9
$ACADVER
  1
AC1021
  9
$DWGCODEPAGE
  3
ANSI_1252
  9
$EXTMAX
 10
22.0
 20
17.0
 30
0.0
  9
$EXTMIN
 10
0.0
 20
0.0
 30
0.0
  9
$LIMMIN
 10
0.0
 20
0.0
  9
$LIMMAX
 10
22.0
 20
17.0
  9
$VIEWCTR
 10
11.0
 20
8.5
  9
$VIEWSIZE
 40
17.0
  9
$CLAYER
  8
0
  9
$LTSCALE
 40
1.21
  9
$CELTYPE
  6
BYLAYER
  9
$DIMSCALE
 40
1.0
  9
$DIMASZ
 40
0.1875
  9
$DIMEXO
 40
0.0625
  9
$DIMDLI
 40
0.836
  9
$DIMEXE
 40
0.125
  9
$DIMCEN
 40
0.198
  9
$DIMLFAC
 40
1.0
  9
$DIMBLK
  1
_CLOSED
  9
$DIMALT
 70
0
  9
$DIMALTF
 40
25.4
  9
$DIMTXT
 40
0.15625
  9
$DIMTOL
 70
0
  9
$DIMLIM
 70
0
  9
$DIMTFAC
 40
1.0
  9
$DIMGAP
 40
0.09
  9
$DIMDSEP
 70
46
  9
$AUNITS
 70
0
  9
$PDMODE
 70
3
  9
$PDSIZE
 40
0.3125
  9
$HANDSEED
  5
33B
  9
$TILEMODE
 70
1
  9
$MEASUREMENT
 70
0
  9
$INSUNITS
 70
1
  0
ENDSEC
  0
SECTION
  2
CLASSES
  0
CLASS
  1
ACDBDICTIONARYWDFLT
  2
AcDbDictionaryWithDefault
  3
AutoCAD 2000
 90
0
 91
1
280
0
281
0
  0
CLASS
  1
ACDBPLACEHOLDER
  2
AcDbPlaceHolder
  3
AutoCAD 2000
 90
0
 91
1
280
0
281
0
  0
CLASS
  1
LAYOUT
  2
AcDbLayout
  3
AutoCAD 2000
 90
0
 91
0
280
0
281
0
  0
ENDSEC
  0
SECTION
  2
TABLES
  0
TABLE
  2
VPORT
  5
8
100
AcDbSymbolTable
 70
2
  0
VPORT
  5
1F4
100
AcDbSymbolTableRecord
100
AcDbViewportTableRecord
  2
*ACTIVE
 70
0
 10
0.0
 20
0.0
 11
1.0
 21
1.0
 12
11.0
 22
8.5
 13
0.0
 23
0.0
 14
1.0
 24
1.0
 15
0.0
 25
0.0
 16
0.0
 26
0.0
 36
1.0
 17
0.0
 27
0.0
 37
0.0
 40
17.0
 41
1.2941176471
 42
50.0
 43
0.0
 44
0.0
 50
0.0
 51
0.0
 71
0
 72
100
 73
1
 74
1
 75
0
 76
0
 77
0
 78
0
  0
ENDTAB
  0
TABLE
  2
LTYPE
  5
5
100
AcDbSymbolTable
 70
6
  0
LTYPE
  5
14
100
AcDbSymbolTableRecord
100
AcDbLinetypeTableRecord
  2
BYBLOCK
 70
0
  3

 72
65
 73
0
 40
0.0
  0
LTYPE
  5
15
100
AcDbSymbolTableRecord
100
AcDbLinetypeTableRecord
  2
BYLAYER
 70
0
  3

 72
65
 73
0
 40
0.0
  0
LTYPE
  5
16
100
AcDbSymbolTableRecord
100
AcDbLinetypeTableRecord
  2
CONTINUOUS
 70
64
  3
Solid line
 72
65
 73
0
 40
0.0
  0
LTYPE
  5
1F5
100
AcDbSymbolTableRecord
100
AcDbLinetypeTableRecord
  2
CENTER
 70
64
  3
____ _ ____ _ ____ _ ____ _ ____ _ ____ _ ____
 72
65
 73
4
 40
0.6
 49
0.375
 74
0
 49
-0.075
 74
0
 49
0.075
 74
0
 49
-0.075
 74
0
  0
LTYPE
  5
1F6
100
AcDbSymbolTableRecord
100
AcDbLinetypeTableRecord
  2
HIDDEN
 70
64
  3
- - - - - - - - - - - - - - - - - - - -
 72
65
 73
2
 40
0.2
 49
0.1
 74
0
 49
-0.1
 74
0
  0
LTYPE
  5
1F7
100
AcDbSymbolTableRecord
100
AcDbLinetypeTableRecord
  2
PHANTOM
 70
64
  3
_____ _ _ _____ _ _ _____ _ _ _____
 72
65
 73
6
 40
0.8
 49
0.45
 74
0
 49
-0.05
 74
0
 49
0.1
 74
0
 49
-0.05
 74
0
 49
0.1
 74
0
 49
-0.05
 74
0
  0
LTYPE
  5
1F8
100
AcDbSymbolTableRecord
100
AcDbLinetypeTableRecord
  2
DOT
 70
64
  3
. . . . . . . . . . . . . . . . . . . .
 72
65
 73
2
 40
0.2
 49
0.1
 74
0
 49
-0.1
 74
0
  0
LTYPE
  5
1F9
100
AcDbSymbolTableRecord
100
AcDbLinetypeTableRecord
  2
DASHED
 70
64
  3
- - - - - - - - - - - - - - - - - - - -
 72
65
 73
2
 40
0.2
 49
0.1
 74
0
 49
-0.1
 74
0
  0
ENDTAB
  0
TABLE
  2
LAYER
  5
2
100
AcDbSymbolTable
 70
36
  0
LAYER
  5
10
100
AcDbSymbolTableRecord
100
AcDbLayerTableRecord
  2
0
 70
0
 62
7
  6
CONTINUOUS
370
-3
390
F
  0
LAYER
  5
1FA
100
AcDbSymbolTableRecord
100
AcDbLayerTableRecord
  2
DEFAULT_1
 70
0
 62
7
  6
CENTER
370
-3
390
F
  0
LAYER
  5
1FB
100
AcDbSymbolTableRecord
100
AcDbLayerTableRecord
  2
DEFAULT_2
 70
0
 62
8
  6
HIDDEN
370
-3
390
F
  0
LAYER
  5
1FC
100
AcDbSymbolTableRecord
100
AcDbLayerTableRecord
  2
DEFAULT_3
 70
0
 62
7
  6
PHANTOM
370
-3
390
F
  0
LAYER
  5
1FD
100
AcDbSymbolTableRecord
100
AcDbLayerTableRecord
  2
01_ALL_DTM_PLN
 70
0
 62
7
  6
CONTINUOUS
370
-3
390
F
  0
LAYER
  5
1FE
100
AcDbSymbolTableRecord
100
AcDbLayerTableRecord
  2
01__ASM_ALL_DTM_PLN
 70
0
 62
7
  6
CONTINUOUS
370
-3
390
F
  0
LAYER
  5
1FF
100
AcDbSymbolTableRecord
100
AcDbLayerTableRecord
  2
01__ASM_DEF_DTM_PLN
 70
0
 62
7
  6
CONTINUOUS
370
-3
390
F
  0
LAYER
  5
200
100
AcDbSymbolTableRecord
100
AcDbLayerTableRecord
  2
01___PRT_ALL_DTM_PLN
 70
0
 62
7
  6
CONTINUOUS
370
-3
390
F
  0
LAYER
  5
201
100
AcDbSymbolTableRecord
100
AcDbLayerTableRecord
  2
01___PRT_DEF_DTM_PLN
 70
0
 62
7
  6
CONTINUOUS
370
-3
390
F
  0
LAYER
  5
202
100
AcDbSymbolTableRecord
100
AcDbLayerTableRecord
  2
02_ALL_AXES
 70
0
 62
7
  6
CONTINUOUS
370
-3
390
F
  0
LAYER
  5
203
100
AcDbSymbolTableRecord
100
AcDbLayerTableRecord
  2
02__ASM_ALL_AXES
 70
0
 62
7
  6
CONTINUOUS
370
-3
390
F
  0
LAYER
  5
204
100
AcDbSymbolTableRecord
100
AcDbLayerTableRecord
  2
02___PRT_ALL_AXES
 70
0
 62
7
  6
CONTINUOUS
370
-3
390
F
  0
LAYER
  5
205
100
AcDbSymbolTableRecord
100
AcDbLayerTableRecord
  2
03_ALL_CURVES
 70
0
 62
7
  6
CONTINUOUS
370
-3
390
F
  0
LAYER
  5
206
100
AcDbSymbolTableRecord
100
AcDbLayerTableRecord
  2
03__ASM_ALL_CURVES
 70
0
 62
7
  6
CONTINUOUS
370
-3
390
F
  0
LAYER
  5
207
100
AcDbSymbolTableRecord
100
AcDbLayerTableRecord
  2
03___PRT_ALL_CURVES
 70
0
 62
7
  6
CONTINUOUS
370
-3
390
F
  0
LAYER
  5
208
100
AcDbSymbolTableRecord
100
AcDbLayerTableRecord
  2
04_ALL_DTM_PNT
 70
0
 62
7
  6
CONTINUOUS
370
-3
390
F
  0
LAYER
  5
209
100
AcDbSymbolTableRecord
100
AcDbLayerTableRecord
  2
04__ASM_ALL_DTM_PNT
 70
0
 62
7
  6
CONTINUOUS
370
-3
390
F
  0
LAYER
  5
20A
100
AcDbSymbolTableRecord
100
AcDbLayerTableRecord
  2
04___PRT_ALL_DTM_PNT
 70
0
 62
7
  6
CONTINUOUS
370
-3
390
F
  0
LAYER
  5
20B
100
AcDbSymbolTableRecord
100
AcDbLayerTableRecord
  2
05_ALL_DTM_CSYS
 70
0
 62
7
  6
CONTINUOUS
370
-3
390
F
  0
LAYER
  5
20C
100
AcDbSymbolTableRecord
100
AcDbLayerTableRecord
  2
05__ASM_ALL_DTM_CSYS
 70
0
 62
7
  6
CONTINUOUS
370
-3
390
F
  0
LAYER
  5
20D
100
AcDbSymbolTableRecord
100
AcDbLayerTableRecord
  2
05__ASM_DEF_DTM_CSYS
 70
0
 62
7
  6
CONTINUOUS
370
-3
390
F
  0
LAYER
  5
20E
100
AcDbSymbolTableRecord
100
AcDbLayerTableRecord
  2
05___PRT_ALL_DTM_CSYS
 70
0
 62
7
  6
CONTINUOUS
370
-3
390
F
  0
LAYER
  5
20F
100
AcDbSymbolTableRecord
100
AcDbLayerTableRecord
  2
05___PRT_DEF_DTM_CSYS
 70
0
 62
7
  6
CONTINUOUS
370
-3
390
F
  0
LAYER
  5
210
100
AcDbSymbolTableRecord
100
AcDbLayerTableRecord
  2
06_ALL_SURFS
 70
0
 62
7
  6
CONTINUOUS
370
-3
390
F
  0
LAYER
  5
211
100
AcDbSymbolTableRecord
100
AcDbLayerTableRecord
  2
06__ASM_ALL_SURFS
 70
0
 62
7
  6
CONTINUOUS
370
-3
390
F
  0
LAYER
  5
212
100
AcDbSymbolTableRecord
100
AcDbLayerTableRecord
  2
06___PRT_ALL_SURFS
 70
0
 62
7
  6
CONTINUOUS
370
-3
390
F
  0
LAYER
  5
213
100
AcDbSymbolTableRecord
100
AcDbLayerTableRecord
  2
07__ASM_ALL_SKELETONS
 70
0
 62
7
  6
CONTINUOUS
370
-3
390
F
  0
LAYER
  5
214
100
AcDbSymbolTableRecord
100
AcDbLayerTableRecord
  2
LAYER_AXIS
 70
0
 62
7
  6
CONTINUOUS
370
-3
390
F
  0
LAYER
  5
215
100
AcDbSymbolTableRecord
100
AcDbLayerTableRecord
  2
LAYER_CHAMFER_FEAT
 70
0
 62
7
  6
CONTINUOUS
370
-3
390
F
  0
LAYER
  5
216
100
AcDbSymbolTableRecord
100
AcDbLayerTableRecord
  2
LAYER_CUT_FEAT
 70
0
 62
7
  6
CONTINUOUS
370
-3
390
F
  0
LAYER
  5
217
100
AcDbSymbolTableRecord
100
AcDbLayerTableRecord
  2
LAYER_DATUM
 70
0
 62
7
  6
CONTINUOUS
370
-3
390
F
  0
LAYER
  5
218
100
AcDbSymbolTableRecord
100
AcDbLayerTableRecord
  2
LAYER_DIM
 70
0
 62
7
  6
CONTINUOUS
370
-3
390
F
  0
LAYER
  5
219
100
AcDbSymbolTableRecord
100
AcDbLayerTableRecord
  2
LAYER_FEATURE
 70
0
 62
7
  6
CONTINUOUS
370
-3
390
F
  0
LAYER
  5
21A
100
AcDbSymbolTableRecord
100
AcDbLayerTableRecord
  2
LAYER_GEOM_FEAT
 70
0
 62
7
  6
CONTINUOUS
370
-3
390
F
  0
LAYER
  5
21B
100
AcDbSymbolTableRecord
100
AcDbLayerTableRecord
  2
LAYER_NOGEOM_FEAT
 70
0
 62
7
  6
CONTINUOUS
370
-3
390
F
  0
LAYER
  5
21C
100
AcDbSymbolTableRecord
100
AcDbLayerTableRecord
  2
LAYER_PARAMETER_DIM
 70
0
 62
7
  6
CONTINUOUS
370
-3
390
F
  0
LAYER
  5
21D
100
AcDbSymbolTableRecord
100
AcDbLayerTableRecord
  2
LAYER_PROTRUSION_FEAT
 70
0
 62
7
  6
CONTINUOUS
370
-3
390
F
  0
LAYER
  5
21E
100
AcDbSymbolTableRecord
100
AcDbLayerTableRecord
  2
LAYER_QUILT
 70
0
 62
7
  6
CONTINUOUS
370
-3
390
F
  0
LAYER
  5
21F
100
AcDbSymbolTableRecord
100
AcDbLayerTableRecord
  2
LAYER_ROUND_FEAT
 70
0
 62
7
  6
CONTINUOUS
370
-3
390
F
  0
ENDTAB
  0
TABLE
  2
STYLE
  5
3
100
AcDbSymbolTable
 70
1
  0
STYLE
  5
11
100
AcDbSymbolTableRecord
100
AcDbTextStyleTableRecord
  2
STANDARD
 70
0
 40
0.0
 41
0.8
 50
0.0
 71
0
 42
0.2
  3
txt
  4

  0
STYLE
  5
220
100
AcDbSymbolTableRecord
100
AcDbTextStyleTableRecord
  2
TEXTSTYLE_1
 70
0
 40
0.0
 41
0.8
 50
0.0
 71
0
 42
0.2
  3
gdt
  4

  0
ENDTAB
  0
TABLE
  2
VIEW
  5
6
100
AcDbSymbolTable
 70
0
  0
ENDTAB
  0
TABLE
  2
UCS
  5
7
100
AcDbSymbolTable
 70
0
  0
ENDTAB
  0
TABLE
  2
APPID
  5
9
100
AcDbSymbolTable
 70
1
  0
APPID
  5
221
100
AcDbSymbolTableRecord
100
AcDbRegAppTableRecord
  2
ACAD
 70
0
  0
ENDTAB
  0
TABLE
  2
BLOCK_RECORD
  5
1
100
AcDbSymbolTable
 70
0
  0
BLOCK_RECORD
  5
222
100
AcDbSymbolTableRecord
100
AcDbBlockTableRecord
  2
*Model_Space
  0
BLOCK_RECORD
  5
223
100
AcDbSymbolTableRecord
100
AcDbBlockTableRecord
  2
*Paper_Space
  0
ENDTAB
  0
TABLE
  2
DIMSTYLE
  5
A
100
AcDbSymbolTable
 70
1
100
AcDbDimStyleTable
 71
0
  0
DIMSTYLE
105
224
100
AcDbSymbolTableRecord
100
AcDbDimStyleTableRecord
  2
STANDARD
 70
0
  3

  4

 40
1.0
 41
0.1875
 42
0.0625
 43
0.38
 44
0.125
 45
0.0
 46
0.0
 47
0.0001
 48
0.0001
140
0.15625
141
0.09
142
0.0
143
25.4
144
1.0
145
0.0
146
1.0
147
0.09
 71
0.0
 72
0.0
 73
1
 74
1
 75
0
 76
0
 77
0
 78
4
 79
1
170
0
171
3
172
0
173
0
174
0
175
0
176
0
177
0
178
0
270
2
179
4
271
4
272
4
273
2
274
2
275
0
280
0
281
0
282
0
283
1
284
4
285
0
286
0
287
3
288
0
340
11
278
46
  0
ENDTAB
  0
ENDSEC
  0
SECTION
  2
BLOCKS
  0
BLOCK
  5
20
100
AcDbEntity
  8
0
100
AcDbBlockBegin
  2
*Model_Space
 70
0
 10
0.0
 20
0.0
 30
0.0
  3
*Model_Space
  1

  0
ENDBLK
  5
21
100
AcDbEntity
  8
0
100
AcDbBlockEnd
  0
BLOCK
  5
1C
100
AcDbEntity
  8
0
100
AcDbBlockBegin
  2
*Paper_Space
 70
0
 10
0.0
 20
0.0
 30
0.0
  3
*Paper_Space
  1

  0
ENDBLK
  5
1D
100
AcDbEntity
  8
0
100
AcDbBlockEnd
  0
ENDSEC
  0
SECTION
  2
ENTITIES
  0
MTEXT
  5
225
100
AcDbEntity
  8
0
100
AcDbMText
 62
7
  6
CONTINUOUS
  7
STANDARD
 71
1
 72
1
 10
15.9560215477
 20
0.9479130325
 30
0.0
 11
1.0
 21
0.0
 31
0.0
 44
0.9
  1
SCALE: 1:3.000
 40
0.3
 41
3.36
  0
LINE
  5
226
100
AcDbEntity
  8
0
100
AcDbLine
 62
7
  6
CONTINUOUS
 10
0.0
 20
0.0
 11
0.0
 21
17.0
  0
LINE
  5
227
100
AcDbEntity
  8
0
100
AcDbLine
 62
7
  6
CONTINUOUS
 10
0.0
 20
0.0
 11
22.0
 21
0.0
  0
LINE
  5
228
100
AcDbEntity
  8
0
100
AcDbLine
 62
7
  6
CONTINUOUS
 10
0.0
 20
17.0
 11
22.0
 21
17.0
  0
LINE
  5
229
100
AcDbEntity
  8
0
100
AcDbLine
 62
7
  6
CONTINUOUS
 10
22.0
 20
0.0
 11
22.0
 21
17.0
  0
LINE
  5
22A
100
AcDbEntity
  8
LAYER_FEATURE
100
AcDbLine
 62
7
  6
CONTINUOUS
 10
5.9647672762
 20
6.1831198968
 11
5.9353397255
 21
6.1536923461
  0
LINE
  5
22B
100
AcDbEntity
  8
LAYER_FEATURE
100
AcDbLine
 62
7
  6
CONTINUOUS
 10
6.7933672762
 20
5.6857198968
 11
6.7933672762
 21
5.3545198968
  0
LINE
  5
22C
100
AcDbEntity
  8
LAYER_FEATURE
100
AcDbLine
 62
7
  6
CONTINUOUS
 10
6.7933672762
 20
5.3545198968
 11
6.7640009549
 21
5.3251535755
  0
LINE
  5
22D
100
AcDbEntity
  8
LAYER_FEATURE
100
AcDbLine
 62
7
  6
CONTINUOUS
 10
5.9647672762
 20
6.1831198968
 11
6.2959672762
 21
6.1831198968
  0
LINE
  5
22E
100
AcDbEntity
  8
LAYER_FEATURE
100
AcDbLine
 62
7
  6
CONTINUOUS
 10
6.2959672762
 20
6.1831198968
 11
6.3253948268
 21
6.1536923461
  0
LINE
  5
22F
100
AcDbEntity
  8
LAYER_FEATURE
100
AcDbLine
 62
7
  6
CONTINUOUS
 10
6.7933672762
 20
5.6857198968
 11
6.7640009549
 21
5.715086218
  0
LINE
  5
230
100
AcDbEntity
  8
LAYER_FEATURE
100
AcDbLine
 62
7
  6
CONTINUOUS
 10
4.8858720839
 20
12.4650477814
 11
4.8858720839
 21
12.5610477814
  0
LINE
  5
231
100
AcDbEntity
  8
LAYER_FEATURE
100
AcDbLine
 62
7
  6
CONTINUOUS
 10
4.8858720839
 20
13.5360477814
 11
4.8858720839
 21
13.6320477814
  0
LINE
  5
232
100
AcDbEntity
  8
02___PRT_ALL_AXES
100
AcDbLine
 62
7
  6
CONTINUOUS
 10
5.4078721059
 20
11.5680477814
 11
6.7338720618
 21
11.5680477814
  0
LINE
  5
233
100
AcDbEntity
  8
LAYER_CUT_FEAT
100
AcDbLine
 62
7
  6
CONTINUOUS
 10
5.187831292
 20
13.4835477814
 11
5.187831292
 21
12.6135477814
  0
LINE
  5
234
100
AcDbEntity
  8
LAYER_CUT_FEAT
100
AcDbLine
 62
7
  6
CONTINUOUS
 10
5.2372123919
 20
13.4835477814
 11
5.2372123919
 21
12.6135477814
  0
LINE
  5
235
100
AcDbEntity
  8
LAYER_CUT_FEAT
100
AcDbLine
 62
7
  6
CONTINUOUS
 10
5.3419749067
 20
13.4835477814
 11
5.3419749067
 21
12.6135477814
  0
LINE
  5
236
100
AcDbEntity
  8
02___PRT_ALL_AXES
100
AcDbLine
 62
7
  6
CONTINUOUS
 10
5.4078720839
 20
11.5680477814
 11
5.4078720839
 21
12.4650477814
  0
LINE
  5
237
100
AcDbEntity
  8
LAYER_CUT_FEAT
100
AcDbLine
 62
7
  6
CONTINUOUS
 10
6.011116331
 20
11.9130477814
 11
6.1306278367
 21
11.9130477814
  0
LINE
  5
238
100
AcDbEntity
  8
LAYER_CUT_FEAT
100
AcDbLine
 62
7
  6
CONTINUOUS
 10
5.4949794444
 20
13.4835477814
 11
5.4949794444
 21
12.6135477814
  0
LINE
  5
239
100
AcDbEntity
  8
LAYER_FEATURE
100
AcDbLine
 62
7
  6
CONTINUOUS
 10
7.1402788912
 20
13.4955901639
 11
7.2558720839
 21
13.5360477814
  0
LINE
  5
23A
100
AcDbEntity
  8
LAYER_CUT_FEAT
100
AcDbLine
 62
7
  6
CONTINUOUS
 10
6.1306278367
 20
12.1200477814
 11
6.011116331
 21
12.1200477814
  0
LINE
  5
23B
100
AcDbEntity
  8
LAYER_FEATURE
100
AcDbLine
 62
7
  6
CONTINUOUS
 10
5.6857989984
 20
12.6135477814
 11
5.6857989984
 21
13.4835477814
  0
LINE
  5
23C
100
AcDbEntity
  8
LAYER_FEATURE
100
AcDbLine
 62
7
  6
CONTINUOUS
 10
4.8858720839
 20
12.5610477814
 11
5.0014652765
 21
12.6015053988
  0
LINE
  5
23D
100
AcDbEntity
  8
LAYER_CUT_FEAT
100
AcDbLine
 62
7
  6
CONTINUOUS
 10
5.9513605781
 20
12.0165477814
 11
6.011116331
 21
11.9130477814
  0
LINE
  5
23E
100
AcDbEntity
  8
LAYER_FEATURE
100
AcDbLine
 62
7
  6
CONTINUOUS
 10
4.8858720839
 20
12.4650477814
 11
7.2558720839
 21
12.4650477814
  0
LINE
  5
23F
100
AcDbEntity
  8
LAYER_CUT_FEAT
100
AcDbLine
 62
7
  6
CONTINUOUS
 10
6.1903835896
 20
12.0165477814
 11
6.1306278367
 21
12.1200477814
  0
LINE
  5
240
100
AcDbEntity
  8
LAYER_FEATURE
100
AcDbLine
 62
7
  6
CONTINUOUS
 10
4.8858720839
 20
12.5610477814
 11
7.2558720839
 21
12.5610477814
  0
LINE
  5
241
100
AcDbEntity
  8
LAYER_FEATURE
100
AcDbLine
 62
7
  6
CONTINUOUS
 10
7.0694187251
 20
12.6135477814
 11
5.0723254427
 21
12.6135477814
  0
LINE
  5
242
100
AcDbEntity
  8
LAYER_CUT_FEAT
100
AcDbLine
 62
7
  6
CONTINUOUS
 10
6.011116331
 20
12.1200477814
 11
5.9513605781
 21
12.0165477814
  0
LINE
  5
243
100
AcDbEntity
  8
LAYER_FEATURE
100
AcDbLine
 62
7
  6
CONTINUOUS
 10
6.7245649423
 20
12.191454923
 11
6.7338720839
 21
12.1821477814
  0
LINE
  5
244
100
AcDbEntity
  8
LAYER_FEATURE
100
AcDbLine
 62
7
  6
CONTINUOUS
 10
6.4559451693
 20
12.6135477814
 11
6.4559451693
 21
13.4835477814
  0
LINE
  5
245
100
AcDbEntity
  8
LAYER_CUT_FEAT
100
AcDbLine
 62
7
  6
CONTINUOUS
 10
6.1306278367
 20
11.9130477814
 11
6.1903835896
 21
12.0165477814
  0
LINE
  5
246
100
AcDbEntity
  8
LAYER_FEATURE
100
AcDbLine
 62
7
  6
CONTINUOUS
 10
7.2558720839
 20
12.5610477814
 11
7.1402788912
 21
12.6015053988
  0
LINE
  5
247
100
AcDbEntity
  8
LAYER_FEATURE
100
AcDbLine
 62
7
  6
CONTINUOUS
 10
5.0014652765
 20
13.4955901639
 11
4.8858720839
 21
13.5360477814
  0
LINE
  5
248
100
AcDbEntity
  8
LAYER_CUT_FEAT
100
AcDbLine
 62
7
  6
CONTINUOUS
 10
6.6467647233
 20
13.4835477814
 11
6.6467647233
 21
12.6135477814
  0
LINE
  5
249
100
AcDbEntity
  8
02___PRT_ALL_AXES
100
AcDbLine
 62
7
  6
CONTINUOUS
 10
6.7338720839
 20
11.5680477814
 11
6.7338720839
 21
11.8095477814
  0
LINE
  5
24A
100
AcDbEntity
  8
LAYER_FEATURE
100
AcDbLine
 62
7
  6
CONTINUOUS
 10
6.7338720839
 20
11.8509477814
 11
6.7338720839
 21
12.1821477814
  0
LINE
  5
24B
100
AcDbEntity
  8
02___PRT_ALL_AXES
100
AcDbLine
 62
7
  6
CONTINUOUS
 10
6.7338720839
 20
12.2235477814
 11
6.7338720839
 21
12.4650477814
  0
LINE
  5
24C
100
AcDbEntity
  8
LAYER_CUT_FEAT
100
AcDbLine
 62
7
  6
CONTINUOUS
 10
6.799769261
 20
13.4835477814
 11
6.799769261
 21
12.6135477814
  0
LINE
  5
24D
100
AcDbEntity
  8
LAYER_CUT_FEAT
100
AcDbLine
 62
7
  6
CONTINUOUS
 10
6.9045317759
 20
13.4835477814
 11
6.9045317759
 21
12.6135477814
  0
LINE
  5
24E
100
AcDbEntity
  8
LAYER_CUT_FEAT
100
AcDbLine
 62
7
  6
CONTINUOUS
 10
6.9539128757
 20
13.4835477814
 11
6.9539128757
 21
12.6135477814
  0
LINE
  5
24F
100
AcDbEntity
  8
LAYER_FEATURE
100
AcDbLine
 62
7
  6
CONTINUOUS
 10
7.0694187251
 20
13.4835477814
 11
5.0723254427
 21
13.4835477814
  0
LINE
  5
250
100
AcDbEntity
  8
LAYER_FEATURE
100
AcDbLine
 62
7
  6
CONTINUOUS
 10
4.8858720839
 20
13.5360477814
 11
7.2558720839
 21
13.5360477814
  0
LINE
  5
251
100
AcDbEntity
  8
LAYER_FEATURE
100
AcDbLine
 62
7
  6
CONTINUOUS
 10
6.7245649397
 20
11.8416406373
 11
6.7338720839
 21
11.8509477814
  0
LINE
  5
252
100
AcDbEntity
  8
LAYER_FEATURE
100
AcDbLine
 62
7
  6
CONTINUOUS
 10
4.8858720839
 20
13.6320477814
 11
7.2558720839
 21
13.6320477814
  0
LINE
  5
253
100
AcDbEntity
  8
LAYER_FEATURE
100
AcDbLine
 62
7
  6
CONTINUOUS
 10
7.2558720839
 20
12.4650477814
 11
7.2558720839
 21
12.5610477814
  0
LINE
  5
254
100
AcDbEntity
  8
LAYER_FEATURE
100
AcDbLine
 62
7
  6
CONTINUOUS
 10
7.2558720839
 20
13.5360477814
 11
7.2558720839
 21
13.6320477814
  0
LINE
  5
255
100
AcDbEntity
  8
LAYER_FEATURE
100
AcDbLine
 62
7
  6
CONTINUOUS
 10
16.5923552569
 20
4.2756247044
 11
16.4963552569
 21
4.2756247044
  0
LINE
  5
256
100
AcDbEntity
  8
LAYER_FEATURE
100
AcDbLine
 62
7
  6
CONTINUOUS
 10
15.5213552569
 20
4.2756247044
 11
15.4253552569
 21
4.2756247044
  0
LINE
  5
257
100
AcDbEntity
  8
02___PRT_ALL_AXES
100
AcDbLine
 62
7
  6
CONTINUOUS
 10
14.5283552569
 20
6.1236247044
 11
14.5283552569
 21
4.7976247044
  0
LINE
  5
258
100
AcDbEntity
  8
LAYER_FEATURE
100
AcDbLine
 62
7
  6
CONTINUOUS
 10
14.8019529602
 20
6.1143224078
 11
14.8112552569
 21
6.1236247044
  0
LINE
  5
259
100
AcDbEntity
  8
LAYER_CUT_FEAT
100
AcDbLine
 62
7
  6
CONTINUOUS
 10
16.4438552569
 20
4.5775839126
 11
15.5738552569
 21
4.5775839126
  0
LINE
  5
25A
100
AcDbEntity
  8
LAYER_CUT_FEAT
100
AcDbLine
 62
7
  6
CONTINUOUS
 10
16.4438552569
 20
4.6269650124
 11
15.5738552569
 21
4.6269650124
  0
LINE
  5
25B
100
AcDbEntity
  8
LAYER_CUT_FEAT
100
AcDbLine
 62
7
  6
CONTINUOUS
 10
16.4438552569
 20
4.7317275273
 11
15.5738552569
 21
4.7317275273
  0
LINE
  5
25C
100
AcDbEntity
  8
LAYER_CUT_FEAT
100
AcDbLine
 62
7
  6
CONTINUOUS
 10
14.8733552569
 20
5.5203804573
 11
14.8733552569
 21
5.4008689516
  0
LINE
  5
25D
100
AcDbEntity
  8
02___PRT_ALL_AXES
100
AcDbLine
 62
7
  6
CONTINUOUS
 10
15.4253552569
 20
4.7976247044
 11
14.5283552569
 21
4.7976247044
  0
LINE
  5
25E
100
AcDbEntity
  8
LAYER_CUT_FEAT
100
AcDbLine
 62
7
  6
CONTINUOUS
 10
16.4438552569
 20
4.884732065
 11
15.5738552569
 21
4.884732065
  0
LINE
  5
25F
100
AcDbEntity
  8
LAYER_CUT_FEAT
100
AcDbLine
 62
7
  6
CONTINUOUS
 10
15.0803552569
 20
5.4008689516
 11
15.0803552569
 21
5.5203804573
  0
LINE
  5
260
100
AcDbEntity
  8
LAYER_CUT_FEAT
100
AcDbLine
 62
7
  6
CONTINUOUS
 10
14.9768552569
 20
5.5801362102
 11
14.8733552569
 21
5.5203804573
  0
LINE
  5
261
100
AcDbEntity
  8
LAYER_FEATURE
100
AcDbLine
 62
7
  6
CONTINUOUS
 10
15.5738552569
 20
5.075551619
 11
16.4438552569
 21
5.075551619
  0
LINE
  5
262
100
AcDbEntity
  8
LAYER_CUT_FEAT
100
AcDbLine
 62
7
  6
CONTINUOUS
 10
14.8733552569
 20
5.4008689516
 11
14.9768552569
 21
5.3411131987
  0
LINE
  5
263
100
AcDbEntity
  8
LAYER_FEATURE
100
AcDbLine
 62
7
  6
CONTINUOUS
 10
15.4253552569
 20
6.6456247044
 11
15.4253552569
 21
4.2756247044
  0
LINE
  5
264
100
AcDbEntity
  8
LAYER_CUT_FEAT
100
AcDbLine
 62
7
  6
CONTINUOUS
 10
14.9768552569
 20
5.3411131987
 11
15.0803552569
 21
5.4008689516
  0
LINE
  5
265
100
AcDbEntity
  8
LAYER_CUT_FEAT
100
AcDbLine
 62
7
  6
CONTINUOUS
 10
15.0803552569
 20
5.5203804573
 11
14.9768552569
 21
5.5801362102
  0
LINE
  5
266
100
AcDbEntity
  8
LAYER_FEATURE
100
AcDbLine
 62
7
  6
CONTINUOUS
 10
15.5213552569
 20
6.6456247044
 11
15.5213552569
 21
4.2756247044
  0
LINE
  5
267
100
AcDbEntity
  8
LAYER_FEATURE
100
AcDbLine
 62
7
  6
CONTINUOUS
 10
15.5738552569
 20
4.4620780632
 11
15.5738552569
 21
6.4591713457
  0
LINE
  5
268
100
AcDbEntity
  8
LAYER_FEATURE
100
AcDbLine
 62
7
  6
CONTINUOUS
 10
15.1517575537
 20
6.1143224077
 11
15.1424552569
 21
6.1236247044
  0
LINE
  5
269
100
AcDbEntity
  8
LAYER_FEATURE
100
AcDbLine
 62
7
  6
CONTINUOUS
 10
15.5618128744
 20
4.3912178971
 11
15.5213552569
 21
4.2756247044
  0
LINE
  5
26A
100
AcDbEntity
  8
LAYER_FEATURE
100
AcDbLine
 62
7
  6
CONTINUOUS
 10
15.5738552569
 20
5.8456977899
 11
16.4438552569
 21
5.8456977899
  0
LINE
  5
26B
100
AcDbEntity
  8
LAYER_FEATURE
100
AcDbLine
 62
7
  6
CONTINUOUS
 10
15.5618128744
 20
6.5300315118
 11
15.5213552569
 21
6.6456247044
  0
LINE
  5
26C
100
AcDbEntity
  8
LAYER_FEATURE
100
AcDbLine
 62
7
  6
CONTINUOUS
 10
16.4963552569
 20
6.6456247044
 11
16.4558976395
 21
6.5300315118
  0
LINE
  5
26D
100
AcDbEntity
  8
LAYER_FEATURE
100
AcDbLine
 62
7
  6
CONTINUOUS
 10
16.4963552569
 20
4.2756247044
 11
16.4558976395
 21
4.3912178971
  0
LINE
  5
26E
100
AcDbEntity
  8
LAYER_CUT_FEAT
100
AcDbLine
 62
7
  6
CONTINUOUS
 10
16.4438552569
 20
6.0365173439
 11
15.5738552569
 21
6.0365173439
  0
LINE
  5
26F
100
AcDbEntity
  8
02___PRT_ALL_AXES
100
AcDbLine
 62
7
  6
CONTINUOUS
 10
15.4253552569
 20
6.1236247044
 11
15.1838552569
 21
6.1236247044
  0
LINE
  5
270
100
AcDbEntity
  8
02___PRT_ALL_AXES
100
AcDbLine
 62
7
  6
CONTINUOUS
 10
14.7698552569
 20
6.1236247044
 11
14.5283552569
 21
6.1236247044
  0
LINE
  5
271
100
AcDbEntity
  8
LAYER_FEATURE
100
AcDbLine
 62
7
  6
CONTINUOUS
 10
14.8112552569
 20
6.1236247044
 11
15.1424552569
 21
6.1236247044
  0
LINE
  5
272
100
AcDbEntity
  8
LAYER_CUT_FEAT
100
AcDbLine
 62
7
  6
CONTINUOUS
 10
16.4438552569
 20
6.1895218816
 11
15.5738552569
 21
6.1895218816
  0
LINE
  5
273
100
AcDbEntity
  8
LAYER_CUT_FEAT
100
AcDbLine
 62
7
  6
CONTINUOUS
 10
16.4438552569
 20
6.2942843965
 11
15.5738552569
 21
6.2942843965
  0
LINE
  5
274
100
AcDbEntity
  8
LAYER_FEATURE
100
AcDbLine
 62
7
  6
CONTINUOUS
 10
16.4438552569
 20
4.4620780632
 11
16.4438552569
 21
6.4591713457
  0
LINE
  5
275
100
AcDbEntity
  8
LAYER_FEATURE
100
AcDbLine
 62
7
  6
CONTINUOUS
 10
16.4963552569
 20
6.6456247044
 11
16.4963552569
 21
4.2756247044
  0
LINE
  5
276
100
AcDbEntity
  8
LAYER_CUT_FEAT
100
AcDbLine
 62
7
  6
CONTINUOUS
 10
16.4438552569
 20
6.3436654963
 11
15.5738552569
 21
6.3436654963
  0
LINE
  5
277
100
AcDbEntity
  8
LAYER_FEATURE
100
AcDbLine
 62
7
  6
CONTINUOUS
 10
16.5923552569
 20
6.6456247044
 11
16.5923552569
 21
4.2756247044
  0
LINE
  5
278
100
AcDbEntity
  8
LAYER_FEATURE
100
AcDbLine
 62
7
  6
CONTINUOUS
 10
16.5923552569
 20
6.6456247044
 11
16.4963552569
 21
6.6456247044
  0
LINE
  5
279
100
AcDbEntity
  8
LAYER_FEATURE
100
AcDbLine
 62
7
  6
CONTINUOUS
 10
15.5213552569
 20
6.6456247044
 11
15.4253552569
 21
6.6456247044
  0
LINE
  5
27A
100
AcDbEntity
  8
LAYER_FEATURE
100
AcDbLine
 62
7
  6
CONTINUOUS
 10
14.1976930683
 20
12.5926837936
 11
14.2209314354
 21
12.6678831769
  0
LINE
  5
27B
100
AcDbEntity
  8
LAYER_FEATURE
100
AcDbLine
 62
7
  6
CONTINUOUS
 10
14.4569461007
 20
13.4316269138
 11
14.4801844677
 21
13.5068262971
  0
LINE
  5
27C
100
AcDbEntity
  8
LAYER_FEATURE
100
AcDbLine
 62
7
  6
CONTINUOUS
 10
14.9599264917
 20
13.4824498514
 11
14.9662154733
 21
13.4854796479
  0
LINE
  5
27D
100
AcDbEntity
  8
LAYER_CUT_FEAT
100
AcDbLine
 62
7
  6
CONTINUOUS
 10
14.7220716832
 20
13.2731457697
 11
14.640836615
 21
13.0102689927
  0
LINE
  5
27E
100
AcDbEntity
  8
LAYER_CUT_FEAT
100
AcDbLine
 62
7
  6
CONTINUOUS
 10
14.7524300051
 20
13.3563760008
 11
14.6458944919
 21
13.0116269536
  0
LINE
  5
27F
100
AcDbEntity
  8
LAYER_CUT_FEAT
100
AcDbLine
 62
7
  6
CONTINUOUS
 10
14.8426434792
 20
13.4597183058
 11
14.7088944138
 21
13.0269061714
  0
LINE
  5
280
100
AcDbEntity
  8
LAYER_CUT_FEAT
100
AcDbLine
 62
7
  6
CONTINUOUS
 10
14.6075686105
 20
12.4660226712
 11
14.6202770925
 21
12.507147334
  0
LINE
  5
281
100
AcDbEntity
  8
LAYER_CUT_FEAT
100
AcDbLine
 62
7
  6
CONTINUOUS
 10
14.9814947016
 20
13.5349232488
 11
14.8304146064
 21
13.0460278817
  0
LINE
  5
282
100
AcDbEntity
  8
02___PRT_ALL_AXES
100
AcDbLine
 62
7
  6
CONTINUOUS
 10
14.4792892569
 20
11.7359204277
 11
14.696422749
 21
12.4385646657
  0
LINE
  5
283
100
AcDbEntity
  8
LAYER_FEATURE
100
AcDbLine
 62
7
  6
CONTINUOUS
 10
15.5712359044
 20
13.5415513407
 11
15.5845853258
 21
13.5550219183
  0
LINE
  5
284
100
AcDbEntity
  8
LAYER_FEATURE
100
AcDbLine
 62
7
  6
CONTINUOUS
 10
15.784141449
 20
13.4824498514
 11
15.8039128789
 21
13.4919749882
  0
LINE
  5
285
100
AcDbEntity
  8
LAYER_CUT_FEAT
100
AcDbLine
 62
7
  6
CONTINUOUS
 10
15.8684194745
 20
11.8172039961
 11
15.803580105
 21
11.8172039961
  0
LINE
  5
286
100
AcDbEntity
  8
LAYER_CUT_FEAT
100
AcDbLine
 62
7
  6
CONTINUOUS
 10
15.1595211909
 20
13.5768657372
 11
14.9981092402
 21
13.0545364732
  0
LINE
  5
287
100
AcDbEntity
  8
LAYER_CUT_FEAT
100
AcDbLine
 62
7
  6
CONTINUOUS
 10
15.8752453326
 20
11.9354231029
 11
15.7937544928
 21
11.9354231029
  0
LINE
  5
288
100
AcDbEntity
  8
LAYER_CUT_FEAT
100
AcDbLine
 62
7
  6
CONTINUOUS
 10
14.9089798789
 20
12.3036209484
 11
14.9405517121
 21
12.2392843167
  0
LINE
  5
289
100
AcDbEntity
  8
LAYER_CUT_FEAT
100
AcDbLine
 62
7
  6
CONTINUOUS
 10
14.9890724365
 20
12.3846952835
 11
15.0206442697
 21
12.3203586518
  0
LINE
  5
28A
100
AcDbEntity
  8
LAYER_CUT_FEAT
100
AcDbLine
 62
7
  6
CONTINUOUS
 10
14.9089798789
 20
12.3036209484
 11
14.9389647075
 21
12.2225466132
  0
LINE
  5
28B
100
AcDbEntity
  8
LAYER_CUT_FEAT
100
AcDbLine
 62
7
  6
CONTINUOUS
 10
14.9405517121
 20
12.2392843167
 11
14.9467420455
 21
12.2225466132
  0
LINE
  5
28C
100
AcDbEntity
  8
LAYER_FEATURE
100
AcDbLine
 62
7
  6
CONTINUOUS
 10
15.3586830557
 20
13.566516149
 11
15.3647007277
 21
13.5830141698
  0
LINE
  5
28D
100
AcDbEntity
  8
LAYER_CUT_FEAT
100
AcDbLine
 62
7
  6
CONTINUOUS
 10
15.1291346514
 20
12.3036209484
 11
15.0991498227
 21
12.3846952835
  0
LINE
  5
28E
100
AcDbEntity
  8
LAYER_CUT_FEAT
100
AcDbLine
 62
7
  6
CONTINUOUS
 10
14.9890724365
 20
12.3846952835
 11
14.9089798789
 21
12.3036209484
  0
LINE
  5
28F
100
AcDbEntity
  8
LAYER_CUT_FEAT
100
AcDbLine
 62
7
  6
CONTINUOUS
 10
14.9389647075
 20
12.2225466132
 11
15.0490420938
 21
12.2225466132
  0
LINE
  5
290
100
AcDbEntity
  8
LAYER_CUT_FEAT
100
AcDbLine
 62
7
  6
CONTINUOUS
 10
15.0206442697
 20
12.3203586518
 11
14.9405517121
 21
12.2392843167
  0
LINE
  5
291
100
AcDbEntity
  8
LAYER_CUT_FEAT
100
AcDbLine
 62
7
  6
CONTINUOUS
 10
15.1229443179
 20
12.3203586518
 11
15.0206442697
 21
12.3203586518
  0
LINE
  5
292
100
AcDbEntity
  8
LAYER_CUT_FEAT
100
AcDbLine
 62
7
  6
CONTINUOUS
 10
15.0991498227
 20
12.3846952835
 11
14.9890724365
 21
12.3846952835
  0
LINE
  5
293
100
AcDbEntity
  8
LAYER_CUT_FEAT
100
AcDbLine
 62
7
  6
CONTINUOUS
 10
15.0490420938
 20
12.2225466132
 11
15.1291346514
 21
12.3036209484
  0
LINE
  5
294
100
AcDbEntity
  8
LAYER_FEATURE
100
AcDbLine
 62
7
  6
CONTINUOUS
 10
15.8279127275
 20
12.0790823592
 11
15.8592284145
 21
12.0415645953
  0
LINE
  5
295
100
AcDbEntity
  8
LAYER_CUT_FEAT
100
AcDbLine
 62
7
  6
CONTINUOUS
 10
15.7886815909
 20
11.8475639759
 11
15.8251376037
 21
11.7732744326
  0
LINE
  5
296
100
AcDbEntity
  8
LAYER_CUT_FEAT
100
AcDbLine
 62
7
  6
CONTINUOUS
 10
15.8752453326
 20
11.9354231029
 11
15.8387893198
 21
12.0097126462
  0
LINE
  5
297
100
AcDbEntity
  8
LAYER_CUT_FEAT
100
AcDbLine
 62
7
  6
CONTINUOUS
 10
15.795507449
 20
11.9657830827
 11
15.7886815909
 21
11.8475639759
  0
LINE
  5
298
100
AcDbEntity
  8
LAYER_CUT_FEAT
100
AcDbLine
 62
7
  6
CONTINUOUS
 10
16.0965906358
 20
13.3439756112
 11
15.9304397295
 21
12.8063110813
  0
LINE
  5
299
100
AcDbEntity
  8
LAYER_FEATURE
100
AcDbLine
 62
7
  6
CONTINUOUS
 10
15.9052284213
 20
13.4501395365
 11
15.9069525932
 21
13.4317383853
  0
LINE
  5
29A
100
AcDbEntity
  8
LAYER_CUT_FEAT
100
AcDbLine
 62
7
  6
CONTINUOUS
 10
15.8684194745
 20
11.8172039961
 11
15.8752453326
 21
11.9354231029
  0
LINE
  5
29B
100
AcDbEntity
  8
LAYER_CUT_FEAT
100
AcDbLine
 62
7
  6
CONTINUOUS
 10
16.2541481414
 20
13.2195385516
 11
16.0945173325
 21
12.7029730648
  0
LINE
  5
29C
100
AcDbEntity
  8
02___PRT_ALL_AXES
100
AcDbLine
 62
7
  6
CONTINUOUS
 10
15.7461772964
 20
11.3444224132
 11
15.9633107885
 21
12.0470666511
  0
LINE
  5
29D
100
AcDbEntity
  8
LAYER_CUT_FEAT
100
AcDbLine
 62
7
  6
CONTINUOUS
 10
15.8387893198
 20
12.0097126462
 11
15.795507449
 21
11.9657830827
  0
LINE
  5
29E
100
AcDbEntity
  8
LAYER_FEATURE
100
AcDbLine
 62
7
  6
CONTINUOUS
 10
15.6915678562
 20
13.528723054
 11
15.7009163726
 21
13.5096727805
  0
LINE
  5
29F
100
AcDbEntity
  8
LAYER_CUT_FEAT
100
AcDbLine
 62
7
  6
CONTINUOUS
 10
16.3668863199
 20
13.0824869174
 11
16.218880761
 21
12.6035407532
  0
LINE
  5
2A0
100
AcDbEntity
  8
LAYER_CUT_FEAT
100
AcDbLine
 62
7
  6
CONTINUOUS
 10
16.052164927
 20
12.0196086456
 11
16.064873409
 21
12.0607333083
  0
LINE
  5
2A1
100
AcDbEntity
  8
LAYER_CUT_FEAT
100
AcDbLine
 62
7
  6
CONTINUOUS
 10
15.8251376037
 20
11.7732744326
 11
15.8684194745
 21
11.8172039961
  0
LINE
  5
2A2
100
AcDbEntity
  8
LAYER_FEATURE
100
AcDbLine
 62
7
  6
CONTINUOUS
 10
15.9828905286
 20
13.3932393498
 11
16.0077365767
 21
13.3981699234
  0
LINE
  5
2A3
100
AcDbEntity
  8
LAYER_FEATURE
100
AcDbLine
 62
7
  6
CONTINUOUS
 10
16.1539387217
 20
13.2799993843
 11
16.182166171
 21
13.2799993843
  0
LINE
  5
2A4
100
AcDbEntity
  8
LAYER_FEATURE
100
AcDbLine
 62
7
  6
CONTINUOUS
 10
14.7941798802
 20
13.3981699234
 11
14.8221861052
 21
13.3935182192
  0
LINE
  5
2A5
100
AcDbEntity
  8
LAYER_FEATURE
100
AcDbLine
 62
7
  6
CONTINUOUS
 10
16.2856293768
 20
13.1504470712
 11
16.3153145732
 21
13.1455164977
  0
LINE
  5
2A6
100
AcDbEntity
  8
LAYER_FEATURE
100
AcDbLine
 62
7
  6
CONTINUOUS
 10
14.9059378985
 20
13.4919749882
 11
14.9350578449
 21
13.4824498514
  0
LINE
  5
2A7
100
AcDbEntity
  8
LAYER_FEATURE
100
AcDbLine
 62
7
  6
CONTINUOUS
 10
16.3689879933
 20
13.0134111868
 11
16.3981079397
 21
13.00388605
  0
LINE
  5
2A8
100
AcDbEntity
  8
LAYER_FEATURE
100
AcDbLine
 62
7
  6
CONTINUOUS
 10
15.0633875725
 20
13.5550219183
 11
15.0899577926
 21
13.5415513407
  0
LINE
  5
2A9
100
AcDbEntity
  8
LAYER_FEATURE
100
AcDbLine
 62
7
  6
CONTINUOUS
 10
16.4061429277
 20
12.874271436
 11
16.4249040394
 21
12.8647599224
  0
LINE
  5
2AA
100
AcDbEntity
  8
LAYER_FEATURE
100
AcDbLine
 62
7
  6
CONTINUOUS
 10
15.2557989669
 20
13.5830141698
 11
15.2780087442
 21
13.566516149
  0
LINE
  5
2AB
100
AcDbEntity
  8
LAYER_FEATURE
100
AcDbLine
 62
7
  6
CONTINUOUS
 10
15.4700595633
 20
13.5740441169
 11
15.4863953382
 21
13.5556429658
  0
LINE
  5
2AC
100
AcDbEntity
  8
LAYER_FEATURE
100
AcDbLine
 62
7
  6
CONTINUOUS
 10
16.4307509148
 20
12.8081224744
 11
16.4309295111
 21
12.8088315641
  0
LINE
  5
2AD
100
AcDbEntity
  8
LAYER_CUT_FEAT
100
AcDbLine
 62
7
  6
CONTINUOUS
 10
16.4271222509
 20
12.9421605508
 11
16.2983619591
 21
12.525492094
  0
LINE
  5
2AE
100
AcDbEntity
  8
LAYER_CUT_FEAT
100
AcDbLine
 62
7
  6
CONTINUOUS
 10
16.4307509551
 20
12.8081224619
 11
16.3317343164
 21
12.4877045019
  0
LINE
  5
2AF
100
AcDbEntity
  8
LAYER_FEATURE
100
AcDbLine
 62
7
  6
CONTINUOUS
 10
15.8279127275
 20
11.7039047196
 11
15.8592284145
 21
11.7414224836
  0
LINE
  5
2B0
100
AcDbEntity
  8
LAYER_FEATURE
100
AcDbLine
 62
7
  6
CONTINUOUS
 10
15.5098039507
 20
13.5437752609
 11
15.5493463036
 21
13.5372074593
  0
LINE
  5
2B1
100
AcDbEntity
  8
LAYER_FEATURE
100
AcDbLine
 62
7
  6
CONTINUOUS
 10
15.7204833941
 20
13.4951378698
 11
15.7592728022
 21
13.4824498514
  0
LINE
  5
2B2
100
AcDbEntity
  8
LAYER_FEATURE
100
AcDbLine
 62
7
  6
CONTINUOUS
 10
15.9213445637
 20
13.415526799
 11
15.9567375929
 21
13.3975832313
  0
LINE
  5
2B3
100
AcDbEntity
  8
LAYER_FEATURE
100
AcDbLine
 62
7
  6
CONTINUOUS
 10
16.0986991028
 20
13.3103674114
 11
16.1282837766
 21
13.2883911189
  0
LINE
  5
2B4
100
AcDbEntity
  8
LAYER_FEATURE
100
AcDbLine
 62
7
  6
CONTINUOUS
 10
16.2431151928
 20
13.1838359168
 11
16.2622207644
 21
13.1623147761
  0
LINE
  5
2B5
100
AcDbEntity
  8
LAYER_FEATURE
100
AcDbLine
 62
7
  6
CONTINUOUS
 10
16.4620404692
 20
11.8929475232
 11
16.4852788363
 21
11.9681469065
  0
LINE
  5
2B6
100
AcDbEntity
  8
LAYER_FEATURE
100
AcDbLine
 62
7
  6
CONTINUOUS
 10
16.7212935016
 20
12.7318906434
 11
16.7445318686
 21
12.8070900267
  0
LINE
  5
2B7
100
AcDbEntity
  8
LAYER_FEATURE
100
AcDbLine
 62
7
  6
CONTINUOUS
 10
15.1161107282
 20
13.5372074593
 11
15.1492070633
 21
13.5437752609
  0
LINE
  5
2B8
100
AcDbEntity
  8
LAYER_FEATURE
100
AcDbLine
 62
7
  6
CONTINUOUS
 10
15.3036636893
 20
13.5581244144
 11
15.341264241
 21
13.5581244144
  0
CIRCLE
  5
2B9
100
AcDbEntity
  8
LAYER_FEATURE
100
AcDbCircle
 62
7
  6
CONTINUOUS
 10
6.1303672762
 20
5.5201198968
 40
1.185
  0
CIRCLE
  5
2BA
100
AcDbEntity
  8
LAYER_FEATURE
100
AcDbCircle
 62
7
  6
CONTINUOUS
 10
6.1303672762
 20
5.5201198968
 40
1.035
  0
CIRCLE
  5
2BB
100
AcDbEntity
  8
LAYER_CUT_FEAT
100
AcDbCircle
 62
7
  6
CONTINUOUS
 10
6.1303672762
 20
5.5201198968
 40
0.756
  0
CIRCLE
  5
2BC
100
AcDbEntity
  8
02___PRT_ALL_AXES
100
AcDbCircle
 62
7
  6
CONTINUOUS
 10
6.1303672762
 20
5.5201198968
 40
0.663
  0
CIRCLE
  5
2BD
100
AcDbEntity
  8
LAYER_CHAMFER_FEAT
100
AcDbCircle
 62
7
  6
CONTINUOUS
 10
6.1303672762
 20
5.5201198968
 40
0.43125
  0
CIRCLE
  5
2BE
100
AcDbEntity
  8
LAYER_CHAMFER_FEAT
100
AcDbCircle
 62
7
  6
CONTINUOUS
 10
6.1303672762
 20
5.5201198968
 40
0.375
  0
ARC
  5
2BF
100
AcDbEntity
  8
LAYER_FEATURE
100
AcDbCircle
 62
7
  6
CONTINUOUS
 10
7.0694187251
 20
12.3990477814
 40
0.2145
100
AcDbArc
 50
70.7099537808
 51
90.0
  0
ARC
  5
2C0
100
AcDbEntity
  8
LAYER_FEATURE
100
AcDbCircle
 62
7
  6
CONTINUOUS
 10
5.0723254427
 20
12.3990477814
 40
0.2145
100
AcDbArc
 50
90.0
 51
109.2900462192
  0
ARC
  5
2C1
100
AcDbEntity
  8
LAYER_FEATURE
100
AcDbCircle
 62
7
  6
CONTINUOUS
 10
7.0694187251
 20
13.6980477814
 40
0.2145
100
AcDbArc
 50
270.0
 51
289.2900462192
  0
ARC
  5
2C2
100
AcDbEntity
  8
LAYER_FEATURE
100
AcDbCircle
 62
7
  6
CONTINUOUS
 10
5.0723254427
 20
13.6980477814
 40
0.2145
100
AcDbArc
 50
250.7099537808
 51
270.0
  0
CIRCLE
  5
2C3
100
AcDbEntity
  8
02___PRT_ALL_AXES
100
AcDbCircle
 62
7
  6
CONTINUOUS
 10
6.0708720839
 20
12.0165477814
 40
0.207
  0
CIRCLE
  5
2C4
100
AcDbEntity
  8
LAYER_FEATURE
100
AcDbCircle
 62
7
  6
CONTINUOUS
 10
6.0708720839
 20
12.0165477814
 40
0.1656
  0
ARC
  5
2C5
100
AcDbEntity
  8
LAYER_FEATURE
100
AcDbCircle
 62
7
  6
CONTINUOUS
 10
15.3593552569
 20
4.4620780632
 40
0.2145
100
AcDbArc
 50
340.7099537808
 51
360.0
  0
ARC
  5
2C6
100
AcDbEntity
  8
LAYER_FEATURE
100
AcDbCircle
 62
7
  6
CONTINUOUS
 10
15.3593552569
 20
6.4591713457
 40
0.2145
100
AcDbArc
 50
0.0
 51
19.2900462192
  0
ARC
  5
2C7
100
AcDbEntity
  8
LAYER_FEATURE
100
AcDbCircle
 62
7
  6
CONTINUOUS
 10
16.6583552569
 20
4.4620780632
 40
0.2145
100
AcDbArc
 50
180.0
 51
199.2900462192
  0
ARC
  5
2C8
100
AcDbEntity
  8
LAYER_FEATURE
100
AcDbCircle
 62
7
  6
CONTINUOUS
 10
16.6583552569
 20
6.4591713457
 40
0.2145
100
AcDbArc
 50
160.7099537808
 51
180.0
  0
CIRCLE
  5
2C9
100
AcDbEntity
  8
02___PRT_ALL_AXES
100
AcDbCircle
 62
7
  6
CONTINUOUS
 10
14.9768552569
 20
5.4606247044
 40
0.207
  0
CIRCLE
  5
2CA
100
AcDbEntity
  8
LAYER_FEATURE
100
AcDbCircle
 62
7
  6
CONTINUOUS
 10
14.9768552569
 20
5.4606247044
 40
0.1656
  0
ARC
  5
2CB
100
AcDbEntity
  8
LAYER_FEATURE
100
AcDbCircle
 62
7
  6
CONTINUOUS
 10
15.2734560883
 20
12.0623274463
 40
1.5316870256
100
AcDbArc
 50
74.8192834813
 51
77.5590647958
  0
ARC
  5
2CC
100
AcDbEntity
  8
LAYER_FEATURE
100
AcDbCircle
 62
7
  6
CONTINUOUS
 10
15.2830551031
 20
12.0833747194
 40
1.508679031
100
AcDbArc
 50
66.179389858
 51
68.9469614432
  0
ARC
  5
2CD
100
AcDbEntity
  8
LAYER_FEATURE
100
AcDbCircle
 62
7
  6
CONTINUOUS
 10
15.3001697823
 20
12.2375046994
 40
1.3543391188
100
AcDbArc
 50
83.646644612
 51
86.6207162261
  0
ARC
  5
2CE
100
AcDbEntity
  8
LAYER_FEATURE
100
AcDbCircle
 62
7
  6
CONTINUOUS
 10
15.3818805026
 20
12.2733908011
 40
1.2943090645
100
AcDbArc
 50
56.9023200404
 51
59.967672946
  0
ARC
  5
2CF
100
AcDbEntity
  8
LAYER_FEATURE
100
AcDbCircle
 62
7
  6
CONTINUOUS
 10
15.298630453
 20
12.5468985245
 40
1.04458284
100
AcDbArc
 50
93.5394060317
 51
97.0757800372
  0
ARC
  5
2D0
100
AcDbEntity
  8
LAYER_FEATURE
100
AcDbCircle
 62
7
  6
CONTINUOUS
 10
15.5762086168
 20
12.5328395491
 40
0.9697445552
100
AcDbArc
 50
45.984234632
 51
49.7003341799
  0
ARC
  5
2D1
100
AcDbEntity
  8
LAYER_FEATURE
100
AcDbCircle
 62
7
  6
CONTINUOUS
 10
15.1230362964
 20
13.1063930099
 40
0.4523697836
100
AcDbArc
 50
121.6824984099
 51
127.8617800679
  0
ARC
  5
2D2
100
AcDbEntity
  8
LAYER_CUT_FEAT
100
AcDbCircle
 62
7
  6
CONTINUOUS
 10
15.0294710369
 20
12.4371129981
 40
0.4410319198
100
AcDbArc
 50
206.13908384
 51
206.5550278159
  0
ARC
  5
2D3
100
AcDbEntity
  8
LAYER_FEATURE
100
AcDbCircle
 62
7
  6
CONTINUOUS
 10
16.0269439329
 20
12.852406769
 40
0.4110932462
100
AcDbArc
 50
13.1773261363
 51
19.7637931545
  0
ARC
  5
2D4
100
AcDbEntity
  8
LAYER_FEATURE
100
AcDbCircle
 62
7
  6
CONTINUOUS
 10
15.027515773
 20
13.2059395346
 40
0.3136772564
100
AcDbArc
 50
143.1795746657
 51
151.0681187535
  0
ARC
  5
2D5
100
AcDbEntity
  8
LAYER_FEATURE
100
AcDbCircle
 62
7
  6
CONTINUOUS
 10
16.1363194972
 20
12.8664853553
 40
0.3001992017
100
AcDbArc
 50
348.9274183277
 51
357.0504778767
  0
ARC
  5
2D6
100
AcDbEntity
  8
LAYER_FEATURE
100
AcDbCircle
 62
7
  6
CONTINUOUS
 10
14.9431914588
 20
12.2344167655
 40
0.1084067082
100
AcDbArc
 50
199.2264363014
 51
202.1059278748
  0
ARC
  5
2D7
100
AcDbEntity
  8
LAYER_FEATURE
100
AcDbCircle
 62
7
  6
CONTINUOUS
 10
15.1202762756
 20
12.3213258932
 40
0.1083335568
100
AcDbArc
 50
29.0851109577
 51
33.0427267497
  0
ARC
  5
2D8
100
AcDbEntity
  8
LAYER_FEATURE
100
AcDbCircle
 62
7
  6
CONTINUOUS
 10
15.1440479814
 20
13.5697730734
 40
0.0265047615
100
AcDbArc
 50
281.224124182
 51
281.4412463376
  0
ARC
  5
2D9
100
AcDbEntity
  8
LAYER_FEATURE
100
AcDbCircle
 62
7
  6
CONTINUOUS
 10
14.7590906365
 20
13.354313415
 40
0.0069726821
100
AcDbArc
 50
151.0703344416
 51
162.7939091088
  0
SPLINE
  5
2DA
100
AcDbEntity
  8
02___PRT_ALL_AXES
100
AcDbSpline
 62
7
  6
CONTINUOUS
 70
0
 71
3
 72
31
 73
27
 74
0
 42
0.0000001
 43
0.0000001
 44
0.0000000001
 40
0.0
 40
0.0
 40
0.0
 40
0.0
 40
0.0100062693
 40
0.0394194409
 40
0.0866011986
 40
0.1492744909
 40
0.1856233475
 40
0.2248643015
 40
0.2666461526
 40
0.3106012328
 40
0.3563403029
 40
0.4034492725
 40
0.4514890346
 40
0.5000000003
 40
0.548510966
 40
0.5965507281
 40
0.6436596977
 40
0.6893987677
 40
0.7333538479
 40
0.7751356991
 40
0.814376653
 40
0.8507255096
 40
0.913398802
 40
0.9605805594
 40
0.9899937309
 40
1.0
 40
1.0
 40
1.0
 40
1.0
 10
6.7338720839
 20
11.8095477814
 30
0.0
 10
6.7334536972
 20
11.8108878272
 30
0.0
 10
6.7318186322
 20
11.8161710317
 30
0.0
 10
6.7283417761
 20
11.8278132582
 30
0.0
 10
6.7231230624
 20
11.8466442289
 30
0.0
 10
6.71823539
 20
11.8665701255
 30
0.0
 10
6.7141503545
 20
11.8855341992
 30
0.0
 10
6.7110420853
 20
11.9017065969
 30
0.0
 10
6.708156431
 20
11.9190034081
 30
0.0
 10
6.7056075579
 20
11.9372744597
 30
0.0
 10
6.7035001281
 20
11.9563541985
 30
0.0
 10
6.7019240644
 20
11.9760604815
 30
0.0
 10
6.7009489358
 20
11.9961952496
 30
0.0
 10
6.7006188117
 20
12.0165477815
 30
0.0
 10
6.7009489358
 20
12.0369003134
 30
0.0
 10
6.7019240644
 20
12.0570350815
 30
0.0
 10
6.7035001281
 20
12.0767413645
 30
0.0
 10
6.7056075579
 20
12.0958211033
 30
0.0
 10
6.708156431
 20
12.1140921549
 30
0.0
 10
6.7110420854
 20
12.1313889661
 30
0.0
 10
6.7141503546
 20
12.1475613637
 30
0.0
 10
6.7182353901
 20
12.1665254375
 30
0.0
 10
6.7231230624
 20
12.186451334
 30
0.0
 10
6.7283417761
 20
12.2052823047
 30
0.0
 10
6.7318186322
 20
12.2169245311
 30
0.0
 10
6.7334536972
 20
12.2222077356
 30
0.0
 10
6.7338720839
 20
12.2235477814
 30
0.0
  0
SPLINE
  5
2DB
100
AcDbEntity
  8
02___PRT_ALL_AXES
100
AcDbSpline
 62
7
  6
CONTINUOUS
 70
0
 71
3
 72
31
 73
27
 74
0
 42
0.0000001
 43
0.0000001
 44
0.0000000001
 40
0.0
 40
0.0
 40
0.0
 40
0.0
 40
0.0100062717
 40
0.0394194166
 40
0.0866011697
 40
0.1492744861
 40
0.185623367
 40
0.2248643302
 40
0.2666461967
 40
0.3106012771
 40
0.3563403564
 40
0.4034493042
 40
0.4514890544
 40
0.5
 40
0.5485109456
 40
0.5965506958
 40
0.6436596436
 40
0.689398723
 40
0.7333538033
 40
0.7751356699
 40
0.814376633
 40
0.8507255139
 40
0.9133988304
 40
0.9605805836
 40
0.9899937284
 40
1.0
 40
1.0
 40
1.0
 40
1.0
 10
15.1838552569
 20
6.1236247044
 30
0.0
 10
15.1825152111
 20
6.1232063166
 30
0.0
 10
15.1772320106
 20
6.1215712504
 30
0.0
 10
15.1655897858
 20
6.1180944024
 30
0.0
 10
15.1467588166
 20
6.1128756877
 30
0.0
 10
15.1268329146
 20
6.1079880111
 30
0.0
 10
15.107868833
 20
6.103902974
 30
0.0
 10
15.0916964287
 20
6.1007947024
 30
0.0
 10
15.0743996136
 20
6.0979090511
 30
0.0
 10
15.0561285596
 20
6.0953601693
 30
0.0
 10
15.0370488209
 20
6.0932527534
 30
0.0
 10
15.0173425423
 20
6.0916766816
 30
0.0
 10
14.9972077819
 20
6.0907015407
 30
0.0
 10
14.9768552569
 20
6.0903714545
 30
0.0
 10
14.956502732
 20
6.0907015407
 30
0.0
 10
14.9363679715
 20
6.0916766816
 30
0.0
 10
14.9166616929
 20
6.0932527534
 30
0.0
 10
14.8975819543
 20
6.0953601693
 30
0.0
 10
14.8793109003
 20
6.0979090511
 30
0.0
 10
14.8620140851
 20
6.1007947024
 30
0.0
 10
14.8458416809
 20
6.103902974
 30
0.0
 10
14.8268775992
 20
6.1079880111
 30
0.0
 10
14.8069516973
 20
6.1128756877
 30
0.0
 10
14.788120728
 20
6.1180944024
 30
0.0
 10
14.7764785033
 20
6.1215712505
 30
0.0
 10
14.7711953028
 20
6.1232063166
 30
0.0
 10
14.7698552569
 20
6.1236247044
 30
0.0
  0
SPLINE
  5
2DC
100
AcDbEntity
  8
02___PRT_ALL_AXES
100
AcDbSpline
 62
7
  6
CONTINUOUS
 70
0
 71
3
 72
73
 73
69
 74
0
 42
0.0000001
 43
0.0000001
 44
0.0000000001
 40
0.0
 40
0.0
 40
0.0
 40
0.0
 40
0.013493416
 40
0.0275057459
 40
0.042014471
 40
0.0569980995
 40
0.072433093
 40
0.0882946692
 40
0.1045573136
 40
0.1211948386
 40
0.1381805619
 40
0.1554874532
 40
0.1730883619
 40
0.1909561053
 40
0.2090636134
 40
0.2273840198
 40
0.2458907628
 40
0.2645576531
 40
0.2833589211
 40
0.3022692631
 40
0.3212638445
 40
0.3403183521
 40
0.3594089781
 40
0.3785124424
 40
0.3976059664
 40
0.416667295
 40
0.4356746719
 40
0.4546068628
 40
0.4734431794
 40
0.4921634399
 40
0.5107480689
 40
0.5291780656
 40
0.5474351001
 40
0.5655015701
 40
0.5833606179
 40
0.6009962854
 40
0.618393548
 40
0.6355384241
 40
0.6524180656
 40
0.6690208545
 40
0.7013514473
 40
0.7170675352
 40
0.7324742005
 40
0.7475670559
 40
0.7623433144
 40
0.7768017177
 40
0.7909425997
 40
0.8182735756
 40
0.8314789167
 40
0.8443829061
 40
0.8569930747
 40
0.8693183066
 40
0.8813687344
 40
0.8931557982
 40
0.9046921958
 40
0.9159918963
 40
0.9270702089
 40
0.9379437518
 40
0.9433100101
 40
0.948631947
 40
0.9539120446
 40
0.9591528676
 40
0.9695258794
 40
0.9797747879
 40
0.9848608609
 40
0.9899249498
 40
0.9949702413
 40
1.0
 40
1.0
 40
1.0
 40
1.0
 10
15.7818557328
 20
11.7293448691
 30
0.0
 10
15.7810213275
 20
11.7310452084
 30
0.0
 10
15.779350517
 20
11.7345261101
 30
0.0
 10
15.7768826083
 20
11.7398826149
 30
0.0
 10
15.7744092642
 20
11.7454661941
 30
0.0
 10
15.7719355083
 20
11.7512673124
 30
0.0
 10
15.7694666258
 20
11.7572763203
 30
0.0
 10
15.7670082233
 20
11.7634831368
 30
0.0
 10
15.7645661865
 20
11.7698774268
 30
0.0
 10
15.762146639
 20
11.7764486713
 30
0.0
 10
15.7597558965
 20
11.7831861879
 30
0.0
 10
15.7574004938
 20
11.7900792047
 30
0.0
 10
15.7550871017
 20
11.7971168817
 30
0.0
 10
15.7528225326
 20
11.8042883654
 30
0.0
 10
15.75061373
 20
11.8115828156
 30
0.0
 10
15.7484677061
 20
11.8189894203
 30
0.0
 10
15.7463915753
 20
11.826497428
 30
0.0
 10
15.7443924942
 20
11.8340961448
 30
0.0
 10
15.7424776661
 20
11.8417749436
 30
0.0
 10
15.7406543244
 20
11.8495232566
 30
0.0
 10
15.7389297037
 20
11.8573305653
 30
0.0
 10
15.7373110398
 20
11.865186388
 30
0.0
 10
15.7358055261
 20
11.873080261
 30
0.0
 10
15.7344203287
 20
11.8810017188
 30
0.0
 10
15.7331625087
 20
11.888940263
 30
0.0
 10
15.7320390599
 20
11.8968853449
 30
0.0
 10
15.7310568193
 20
11.9048263333
 30
0.0
 10
15.7302224476
 20
11.9127524968
 30
0.0
 10
15.7295424417
 20
11.9206529838
 30
0.0
 10
15.7290229578
 20
11.9285167991
 30
0.0
 10
15.7286699378
 20
11.9363327998
 30
0.0
 10
15.7284888969
 20
11.9440896854
 30
0.0
 10
15.7284849208
 20
11.951776005
 30
0.0
 10
15.7286627042
 20
11.9593801631
 30
0.0
 10
15.7290262475
 20
11.9668904484
 30
0.0
 10
15.7295790712
 20
11.9742950478
 30
0.0
 10
15.7303239839
 20
11.9815821127
 30
0.0
 10
15.7312629736
 20
11.9887397357
 30
0.0
 10
15.7323974617
 20
11.9957562622
 30
0.0
 10
15.7341555173
 20
12.0048264969
 30
0.0
 10
15.736312141
 20
12.0136497972
 30
0.0
 10
15.7388855922
 20
12.0221783575
 30
0.0
 10
15.7409865902
 20
12.0283175552
 30
0.0
 10
15.7432726071
 20
12.034249137
 30
0.0
 10
15.7457387579
 20
12.0399634793
 30
0.0
 10
15.7483796769
 20
12.0454515924
 30
0.0
 10
15.7520825611
 20
12.0523761378
 30
0.0
 10
15.7561428341
 20
12.0589041796
 30
0.0
 10
15.7605514358
 20
12.0649761423
 30
0.0
 10
15.7639567939
 20
12.0692149806
 30
0.0
 10
15.7674892925
 20
12.0731845034
 30
0.0
 10
15.7711393911
 20
12.0768797499
 30
0.0
 10
15.7748972321
 20
12.0802959977
 30
0.0
 10
15.778752637
 20
12.0834291428
 30
0.0
 10
15.7826952669
 20
12.0862754439
 30
0.0
 10
15.7867146703
 20
12.0888315727
 30
0.0
 10
15.7908000787
 20
12.0910945682
 30
0.0
 10
15.7942662042
 20
12.0927412225
 30
0.0
 10
15.7970598002
 20
12.0939068218
 30
0.0
 10
15.7991556789
 20
12.0947025274
 30
0.0
 10
15.8012599114
 20
12.0954232725
 30
0.0
 10
15.8040649789
 20
12.0962810269
 30
0.0
 10
15.8075884459
 20
12.0971674383
 30
0.0
 10
15.8111432908
 20
12.0978056875
 30
0.0
 10
15.8139848423
 20
12.0981625184
 30
0.0
 10
15.816109711
 20
12.0983533706
 30
0.0
 10
15.8182320899
 20
12.0984679841
 30
0.0
 10
15.8196464331
 20
12.0984935368
 30
0.0
 10
15.8203524487
 20
12.0984935352
 30
0.0
  0
SPLINE
  5
2DD
100
AcDbEntity
  8
02___PRT_ALL_AXES
100
AcDbSpline
 62
7
  6
CONTINUOUS
 70
0
 71
3
 72
37
 73
33
 74
0
 42
0.0000001
 43
0.0000001
 44
0.0000000001
 40
0.0
 40
0.0
 40
0.0
 40
0.0
 40
0.0391691602
 40
0.0778752762
 40
0.1160897713
 40
0.1537922791
 40
0.1909645576
 40
0.2275891903
 40
0.263650861
 40
0.2991372991
 40
0.3340386756
 40
0.3683479542
 40
0.402060939
 40
0.4351764982
 40
0.4676966607
 40
0.4996266581
 40
0.5309751449
 40
0.5617540992
 40
0.6216597831
 40
0.6795193488
 40
0.7077556996
 40
0.7355695547
 40
0.7629978423
 40
0.790080688
 40
0.8168613836
 40
0.8433859927
 40
0.8697031206
 40
0.8958634801
 40
0.9219194623
 40
0.9479246828
 40
0.9739333837
 40
1.0
 40
1.0
 40
1.0
 40
1.0
 10
14.9689495362
 20
12.1414722781
 30
0.0
 10
14.9670130432
 20
12.1414722781
 30
0.0
 10
14.9631628352
 20
12.1415098058
 30
0.0
 10
14.9574256188
 20
12.1416808456
 30
0.0
 10
14.9517655178
 20
12.141966295
 30
0.0
 10
14.9461883475
 20
12.1423659961
 30
0.0
 10
14.940699446
 20
12.1428797776
 30
0.0
 10
14.9353040326
 20
12.1435074071
 30
0.0
 10
14.9300071705
 20
12.1442486414
 30
0.0
 10
14.9248136949
 20
12.1451031557
 30
0.0
 10
14.9197282035
 20
12.1460706216
 30
0.0
 10
14.9147550768
 20
12.14715066
 30
0.0
 10
14.9098984701
 20
12.1483428795
 30
0.0
 10
14.9051623123
 20
12.1496468567
 30
0.0
 10
14.9005502998
 20
12.1510621555
 30
0.0
 10
14.8960659356
 20
12.152588321
 30
0.0
 10
14.8917124094
 20
12.1542249138
 30
0.0
 10
14.8861370332
 20
12.1565326536
 30
0.0
 10
14.8794971384
 20
12.159685327
 30
0.0
 10
14.8732170387
 20
12.1632595866
 30
0.0
 10
14.8684985998
 20
12.1663363844
 30
0.0
 10
14.8651367293
 20
12.1687324738
 30
0.0
 10
14.8619253331
 20
12.1712350429
 30
0.0
 10
14.8588661504
 20
12.1738436029
 30
0.0
 10
14.8559608459
 20
12.1765575603
 30
0.0
 10
14.8532109935
 20
12.1793763353
 30
0.0
 10
14.8506180364
 20
12.1822992592
 30
0.0
 10
14.8481833623
 20
12.1853256509
 30
0.0
 10
14.8459082275
 20
12.1884547153
 30
0.0
 10
14.8437938314
 20
12.1916856554
 30
0.0
 10
14.8418413
 20
12.1950174164
 30
0.0
 10
14.840650227
 20
12.1973012861
 30
0.0
 10
14.8400824951
 20
12.1984582056
 30
0.0
  0
SPLINE
  5
2DE
100
AcDbEntity
  8
LAYER_CUT_FEAT
100
AcDbSpline
 62
7
  6
CONTINUOUS
 70
0
 71
3
 72
25
 73
21
 74
0
 42
0.0000001
 43
0.0000001
 44
0.0000000001
 40
0.0
 40
0.0
 40
0.0
 40
0.0
 40
0.069690427
 40
0.1381401825
 40
0.2053844017
 40
0.2714704727
 40
0.3364503916
 40
0.4003835352
 40
0.4633365395
 40
0.5253828726
 40
0.5866028801
 40
0.6470834123
 40
0.7069173935
 40
0.7662033209
 40
0.825044568
 40
0.8835485713
 40
0.9127112009
 40
0.9418312034
 40
0.97092273
 40
1.0
 40
1.0
 40
1.0
 40
1.0
 10
14.6335446573
 20
12.2428156584
 30
0.0
 10
14.6311883468
 20
12.2476173143
 30
0.0
 10
14.6266913651
 20
12.2572216781
 30
0.0
 10
14.6205570667
 20
12.2717462385
 30
0.0
 10
14.6151012014
 20
12.286244273
 30
0.0
 10
14.6103292097
 20
12.3007015595
 30
0.0
 10
14.6062457357
 20
12.3151044939
 30
0.0
 10
14.6028548284
 20
12.3294392762
 30
0.0
 10
14.6001598798
 20
12.3436922035
 30
0.0
 10
14.5981636538
 20
12.3578496311
 30
0.0
 10
14.5968682033
 20
12.3718979603
 30
0.0
 10
14.5962749315
 20
12.3858236786
 30
0.0
 10
14.5963845836
 20
12.3996133312
 30
0.0
 10
14.5971972028
 20
12.4132536455
 30
0.0
 10
14.5987120469
 20
12.4267311431
 30
0.0
 10
14.600560642
 20
12.4378283691
 30
0.0
 10
14.6023883782
 20
12.446604172
 30
0.0
 10
14.6039319276
 20
12.4531308495
 30
0.0
 10
14.6056491818
 20
12.4596071124
 30
0.0
 10
14.6069097271
 20
12.4638905105
 30
0.0
 10
14.6075686161
 20
12.4660226695
 30
0.0
  0
SPLINE
  5
2DF
100
AcDbEntity
  8
LAYER_CHAMFER_FEAT
100
AcDbSpline
 62
7
  6
CONTINUOUS
 70
0
 71
3
 72
30
 73
26
 74
0
 42
0.0000001
 43
0.0000001
 44
0.0000000001
 40
0.0
 40
0.0
 40
0.0
 40
0.0
 40
0.0739119608
 40
0.1460312671
 40
0.2163626982
 40
0.2849255346
 40
0.3517546266
 40
0.4169013436
 40
0.4804344243
 40
0.5424407088
 40
0.6030256605
 40
0.6328271904
 40
0.6623215518
 40
0.6915272096
 40
0.7204636442
 40
0.7491514833
 40
0.7776123437
 40
0.8058687757
 40
0.8339442749
 40
0.8618630805
 40
0.8896501805
 40
0.9173311653
 40
0.9449321059
 40
0.9724794797
 40
1.0
 40
1.0
 40
1.0
 40
1.0
 10
14.8927097905
 20
11.8009271496
 30
0.0
 10
14.8887003
 20
11.7996921429
 30
0.0
 10
14.8808271547
 20
11.7970903358
 30
0.0
 10
14.8693402454
 20
11.7927345835
 30
0.0
 10
14.8583414698
 20
11.7879813346
 30
0.0
 10
14.8478519938
 20
11.7828395122
 30
0.0
 10
14.837891708
 20
11.7773186516
 30
0.0
 10
14.8284796381
 20
11.7714290334
 30
0.0
 10
14.8196337305
 20
11.76518152
 30
0.0
 10
14.8113712112
 20
11.7585879371
 30
0.0
 10
14.804949771
 20
11.7527829168
 30
0.0
 10
14.8001283965
 20
11.7479796191
 30
0.0
 10
14.7966872747
 20
11.7443184666
 30
0.0
 10
14.7934031752
 20
11.7405809761
 30
0.0
 10
14.7902776832
 20
11.7367688395
 30
0.0
 10
14.7873122859
 20
11.7328839076
 30
0.0
 10
14.7845084003
 20
11.7289280316
 30
0.0
 10
14.7818674258
 20
11.7249030672
 30
0.0
 10
14.7793905753
 20
11.7208109773
 30
0.0
 10
14.7770790952
 20
11.7166536852
 30
0.0
 10
14.7749340885
 20
11.7124331897
 30
0.0
 10
14.7729565629
 20
11.7081515319
 30
0.0
 10
14.7711475317
 20
11.7038107129
 30
0.0
 10
14.7695078281
 20
11.6994129308
 30
0.0
 10
14.7685279014
 20
11.6964438033
 30
0.0
 10
14.7680666939
 20
11.6949513224
 30
0.0
  0
SPLINE
  5
2E0
100
AcDbEntity
  8
LAYER_CHAMFER_FEAT
100
AcDbSpline
 62
7
  6
CONTINUOUS
 70
0
 71
3
 72
28
 73
24
 74
0
 42
0.0000001
 43
0.0000001
 44
0.0000000001
 40
0.0
 40
0.0
 40
0.0
 40
0.0
 40
0.0739149915
 40
0.1460370836
 40
0.2163710247
 40
0.2849361272
 40
0.3517672255
 40
0.4169156421
 40
0.4804500815
 40
0.5424574146
 40
0.6030431413
 40
0.6623315312
 40
0.7204653518
 40
0.7491531949
 40
0.7776140076
 40
0.8058703615
 40
0.833945708
 40
0.8618643456
 40
0.8896512322
 40
0.9173319742
 40
0.9449326613
 40
0.9724797579
 40
1.0
 40
1.0
 40
1.0
 40
1.0
 10
15.4414910197
 20
11.6313572191
 30
0.0
 10
15.4441055077
 20
11.6280751033
 30
0.0
 10
15.4491397067
 20
11.6214843382
 30
0.0
 10
15.4561687462
 20
11.6114061477
 30
0.0
 10
15.4625703466
 20
11.6012751008
 30
0.0
 10
15.4683320757
 20
11.5911105178
 30
0.0
 10
15.4734428833
 20
11.5809315045
 30
0.0
 10
15.4778928452
 20
11.5707572647
 30
0.0
 10
15.4816732383
 20
11.5606069759
 30
0.0
 10
15.4847765697
 20
11.5504998479
 30
0.0
 10
15.4871965754
 20
11.5404549344
 30
0.0
 10
15.4889282224
 20
11.5304916894
 30
0.0
 10
15.4897983261
 20
11.5222356106
 30
0.0
 10
15.4901423036
 20
11.5156989146
 30
0.0
 10
15.4902257673
 20
11.5108501054
 30
0.0
 10
15.4901357371
 20
11.5060362207
 30
0.0
 10
15.4898722108
 20
11.5012595033
 30
0.0
 10
15.4894353733
 20
11.4965222583
 30
0.0
 10
15.4888253566
 20
11.4918267575
 30
0.0
 10
15.48804248
 20
11.4871752622
 30
0.0
 10
15.4870871239
 20
11.4825699785
 30
0.0
 10
15.4859597084
 20
11.4780132197
 30
0.0
 10
15.4850935909
 20
11.4750084792
 30
0.0
 10
15.4846323208
 20
11.4735157958
 30
0.0
  0
SPLINE
  5
2E1
100
AcDbEntity
  8
LAYER_FEATURE
100
AcDbSpline
 62
7
  6
CONTINUOUS
 70
0
 71
3
 72
45
 73
41
 74
0
 42
0.0000001
 43
0.0000001
 44
0.0000000001
 40
0.0
 40
0.0
 40
0.0
 40
0.0
 40
0.009989956
 40
0.020281742
 40
0.0308783909
 40
0.0417818591
 40
0.0529929634
 40
0.064511484
 40
0.0763363783
 40
0.0884656062
 40
0.1008964791
 40
0.1136254816
 40
0.1266484485
 40
0.1399606356
 40
0.1674293164
 40
0.1959835247
 40
0.2255662847
 40
0.2561139311
 40
0.2875569131
 40
0.3198205372
 40
0.3528256194
 40
0.3864890737
 40
0.4207244586
 40
0.4554424882
 40
0.4905515263
 40
0.5259580764
 40
0.5615672437
 40
0.597283188
 40
0.6330095695
 40
0.6686499971
 40
0.7041084819
 40
0.7392898877
 40
0.7741003772
 40
0.8084478794
 40
0.8422425524
 40
0.875397261
 40
0.9078283042
 40
0.939455082
 40
0.9702031904
 40
1.0
 40
1.0
 40
1.0
 40
1.0
 10
15.859228413
 20
12.0415645871
 30
0.0
 10
15.8597861529
 20
12.0408963883
 30
0.0
 10
15.8608936617
 20
12.0395189067
 30
0.0
 10
15.8625072485
 20
12.0373656469
 30
0.0
 10
15.8640965315
 20
12.0350965063
 30
0.0
 10
15.8656602047
 20
12.0327132979
 30
0.0
 10
15.8671970541
 20
12.0302179016
 30
0.0
 10
15.8687058873
 20
12.027612303
 30
0.0
 10
15.8701854757
 20
12.0248985459
 30
0.0
 10
15.8716346973
 20
12.0220787995
 30
0.0
 10
15.8730523661
 20
12.0191552801
 30
0.0
 10
15.8744373804
 20
12.0161303164
 30
0.0
 10
15.8757886526
 20
12.0130062962
 30
0.0
 10
15.8775623895
 20
12.0086668477
 30
0.0
 10
15.8796837691
 20
12.0030090747
 30
0.0
 10
15.8820523038
 20
11.9959352175
 30
0.0
 10
15.8842621372
 20
11.9885298721
 30
0.0
 10
15.8863062267
 20
11.9808165462
 30
0.0
 10
15.8881780772
 20
11.9728196399
 30
0.0
 10
15.8898717274
 20
11.9645645047
 30
0.0
 10
15.8913817808
 20
11.9560773179
 30
0.0
 10
15.892703422
 20
11.9473850075
 30
0.0
 10
15.8938324334
 20
11.9385151627
 30
0.0
 10
15.8947652115
 20
11.9294959463
 30
0.0
 10
15.8954987838
 20
11.920356003
 30
0.0
 10
15.896030811
 20
11.9111243654
 30
0.0
 10
15.8963595954
 20
11.9018303594
 30
0.0
 10
15.896484087
 20
11.8925035118
 30
0.0
 10
15.8964038854
 20
11.8831734551
 30
0.0
 10
15.8961192465
 20
11.8738698328
 30
0.0
 10
15.8956310818
 20
11.8646222028
 30
0.0
 10
15.8949409498
 20
11.8554599426
 30
0.0
 10
15.8940510526
 20
11.8464121552
 30
0.0
 10
15.8929642283
 20
11.8375075764
 30
0.0
 10
15.8916839396
 20
11.8287744854
 30
0.0
 10
15.8902142753
 20
11.8202405899
 30
0.0
 10
15.8885599164
 20
11.8119330148
 30
0.0
 10
15.8867261454
 20
11.8038779882
 30
0.0
 10
15.884718803
 20
11.7961012628
 30
0.0
 10
15.8832448764
 20
11.7910352639
 30
0.0
 10
15.8824783949
 20
11.7885549287
 30
0.0
  0
SPLINE
  5
2E2
100
AcDbEntity
  8
LAYER_FEATURE
100
AcDbSpline
 62
7
  6
CONTINUOUS
 70
0
 71
3
 72
23
 73
19
 74
0
 42
0.0000001
 43
0.0000001
 44
0.0000000001
 40
0.0
 40
0.0
 40
0.0
 40
0.0
 40
0.0507377155
 40
0.1030493762
 40
0.1569516586
 40
0.2124540277
 40
0.2695607267
 40
0.3282698489
 40
0.3885747904
 40
0.4504644232
 40
0.5139231573
 40
0.5789318532
 40
0.6454662965
 40
0.7134996618
 40
0.7830037887
 40
0.8539489856
 40
0.9262973792
 40
1.0
 40
1.0
 40
1.0
 40
1.0
 10
15.8592284138
 20
11.7414224874
 30
0.0
 10
15.859801472
 20
11.7421090445
 30
0.0
 10
15.8609391493
 20
11.7435255285
 30
0.0
 10
15.8625953832
 20
11.7457419605
 30
0.0
 10
15.8642258602
 20
11.7480805457
 30
0.0
 10
15.8658292505
 20
11.7505392653
 30
0.0
 10
15.8674041861
 20
11.7531161057
 30
0.0
 10
15.8689493932
 20
11.7558088933
 30
0.0
 10
15.8704635725
 20
11.7586153886
 30
0.0
 10
15.8719454555
 20
11.7615332539
 30
0.0
 10
15.8733938354
 20
11.7645600469
 30
0.0
 10
15.8748074552
 20
11.7676932457
 30
0.0
 10
15.8761851775
 20
11.7709301919
 30
0.0
 10
15.8775258158
 20
11.7742681975
 30
0.0
 10
15.878828289
 20
11.7777045315
 30
0.0
 10
15.8800915036
 20
11.7812363606
 30
0.0
 10
15.8813143347
 20
11.7848605378
 30
0.0
 10
15.8820948493
 20
11.787313775
 30
0.0
 10
15.8824783949
 20
11.7885549287
 30
0.0
  0
SPLINE
  5
2E3
100
AcDbEntity
  8
02___PRT_ALL_AXES
100
AcDbSpline
 62
7
  6
CONTINUOUS
 70
0
 71
3
 72
36
 73
32
 74
0
 42
0.0000001
 43
0.0000001
 44
0.0000000001
 40
0.0
 40
0.0
 40
0.0
 40
0.0
 40
0.0174198402
 40
0.0350794597
 40
0.0531016798
 40
0.0716015871
 40
0.090685339
 40
0.1104495396
 40
0.130980076
 40
0.1523528077
 40
0.1746345157
 40
0.1978825134
 40
0.2221460133
 40
0.2474675319
 40
0.2738823889
 40
0.3014200405
 40
0.3301054424
 40
0.3599581804
 40
0.39099365
 40
0.4232242731
 40
0.4566582886
 40
0.4913008585
 40
0.5271551407
 40
0.5642209107
 40
0.6024956652
 40
0.6419754446
 40
0.6826530726
 40
0.7245195056
 40
0.8117756598
 40
0.9036486413
 40
1.0
 40
1.0
 40
1.0
 40
1.0
 10
15.8203524484
 20
11.6844935436
 30
0.0
 10
15.8199965527
 20
11.6844935454
 30
0.0
 10
15.819279514
 20
11.6845240125
 30
0.0
 10
15.8182020129
 20
11.6846599119
 30
0.0
 10
15.8171172459
 20
11.684886154
 30
0.0
 10
15.8160250686
 20
11.6852025853
 30
0.0
 10
15.814925175
 20
11.6856090377
 30
0.0
 10
15.813817289
 20
11.6861053526
 30
0.0
 10
15.8127011069
 20
11.6866913258
 30
0.0
 10
15.8115763367
 20
11.6873667576
 30
0.0
 10
15.8104427187
 20
11.6881314569
 30
0.0
 10
15.8093000062
 20
11.6889851902
 30
0.0
 10
15.8081479873
 20
11.68992771
 30
0.0
 10
15.8069864972
 20
11.6909587529
 30
0.0
 10
15.8058153959
 20
11.6920780058
 30
0.0
 10
15.8046345842
 20
11.6932851232
 30
0.0
 10
15.8034440093
 20
11.6945797254
 30
0.0
 10
15.802243648
 20
11.6959613791
 30
0.0
 10
15.8010335188
 20
11.6974296086
 30
0.0
 10
15.7998136826
 20
11.6989838921
 30
0.0
 10
15.7985842344
 20
11.7006236532
 30
0.0
 10
15.7973453108
 20
11.7023482674
 30
0.0
 10
15.7960970862
 20
11.7041570575
 30
0.0
 10
15.7948397735
 20
11.706049296
 30
0.0
 10
15.7935736258
 20
11.708024205
 30
0.0
 10
15.7922989354
 20
11.7100809444
 30
0.0
 10
15.7910160319
 20
11.712218617
 30
0.0
 10
15.789270953
 20
11.715216942
 30
0.0
 10
15.7870747309
 20
11.7191623935
 30
0.0
 10
15.7844482631
 20
11.724140613
 30
0.0
 10
15.7827229431
 20
11.7275776803
 30
0.0
 10
15.7818557328
 20
11.7293448691
 30
0.0
  0
SPLINE
  5
2E4
100
AcDbEntity
  8
LAYER_FEATURE
100
AcDbSpline
 62
7
  6
CONTINUOUS
 70
0
 71
3
 72
47
 73
43
 74
0
 42
0.0000001
 43
0.0000001
 44
0.0000000001
 40
0.0
 40
0.0
 40
0.0
 40
0.0
 40
0.0127271575
 40
0.0254603922
 40
0.0382057671
 40
0.0509693172
 40
0.0637570326
 40
0.0765748513
 40
0.0894286366
 40
0.1023241725
 40
0.1152671498
 40
0.1282631467
 40
0.1413176329
 40
0.1544359442
 40
0.1676232805
 40
0.180884704
 40
0.1942251116
 40
0.2076492523
 40
0.2347650031
 40
0.2622684649
 40
0.2901913429
 40
0.3185624112
 40
0.3474074763
 40
0.3767493741
 40
0.4066079901
 40
0.4370003196
 40
0.467940546
 40
0.4994401288
 40
0.5315078932
 40
0.5641501379
 40
0.5973707542
 40
0.631171338
 40
0.665551296
 40
0.7005079516
 40
0.7360366649
 40
0.7721309395
 40
0.8087825217
 40
0.84598149
 40
0.8837163596
 40
0.921974177
 40
0.9607406054
 40
1.0
 40
1.0
 40
1.0
 40
1.0
 10
14.1976930686
 20
12.5926837935
 30
0.0
 10
14.196673823
 20
12.5893855085
 30
0.0
 10
14.1947227265
 20
12.5827598359
 30
0.0
 10
14.1920609731
 20
12.5727431662
 30
0.0
 10
14.1896644316
 20
12.5626495335
 30
0.0
 10
14.1875336853
 20
12.5524813948
 30
0.0
 10
14.1856691881
 20
12.5422411105
 30
0.0
 10
14.1840714327
 20
12.5319310734
 30
0.0
 10
14.1827407372
 20
12.5215537024
 30
0.0
 10
14.1816774262
 20
12.5111114214
 30
0.0
 10
14.180881767
 20
12.5006066716
 30
0.0
 10
14.1803538881
 20
12.4900419117
 30
0.0
 10
14.1800939615
 20
12.4794196081
 30
0.0
 10
14.1801020114
 20
12.468742246
 30
0.0
 10
14.1803780194
 20
12.4580123126
 30
0.0
 10
14.1809219573
 20
12.4472323354
 30
0.0
 10
14.1817336463
 20
12.4364047552
 30
0.0
 10
14.1831773871
 20
12.4218602957
 30
0.0
 10
14.1856582957
 20
12.4035638432
 30
0.0
 10
14.1896925661
 20
12.3815334726
 30
0.0
 10
14.1947899402
 20
12.3593750857
 30
0.0
 10
14.200945417
 20
12.3371096743
 30
0.0
 10
14.2081530649
 20
12.3147578484
 30
0.0
 10
14.2164059957
 20
12.2923404016
 30
0.0
 10
14.2256963498
 20
12.2698781293
 30
0.0
 10
14.2360153287
 20
12.2473918662
 30
0.0
 10
14.2473532066
 20
12.2249024596
 30
0.0
 10
14.2596993393
 20
12.2024307611
 30
0.0
 10
14.2730421502
 20
12.1799976009
 30
0.0
 10
14.2873691439
 20
12.1576237719
 30
0.0
 10
14.3026669329
 20
12.135330019
 30
0.0
 10
14.3189212453
 20
12.1131370209
 30
0.0
 10
14.3361169265
 20
12.0910653695
 30
0.0
 10
14.3542379389
 20
12.0691355405
 30
0.0
 10
14.3732673985
 20
12.0473678898
 30
0.0
 10
14.3931875865
 20
12.0257826301
 30
0.0
 10
14.4139799618
 20
12.0043998172
 30
0.0
 10
14.4356251625
 20
11.983239309
 30
0.0
 10
14.4581030244
 20
11.9623207765
 30
0.0
 10
14.4813926679
 20
11.9416636323
 30
0.0
 10
14.5054722622
 20
11.9212872113
 30
0.0
 10
14.521935776
 20
11.9079845294
 30
0.0
 10
14.5302918266
 20
11.9013833228
 30
0.0
  0
SPLINE
  5
2E5
100
AcDbEntity
  8
LAYER_FEATURE
100
AcDbSpline
 62
7
  6
CONTINUOUS
 70
0
 71
3
 72
33
 73
29
 74
0
 42
0.0000001
 43
0.0000001
 44
0.0000000001
 40
0.0
 40
0.0
 40
0.0
 40
0.0
 40
0.0280499698
 40
0.056122218
 40
0.0842389392
 40
0.1124221474
 40
0.1406936082
 40
0.169074736
 40
0.1975865436
 40
0.2262495382
 40
0.2550836921
 40
0.2841083385
 40
0.3133421657
 40
0.3428031156
 40
0.3725084007
 40
0.402474406
 40
0.4327167285
 40
0.463250083
 40
0.525238397
 40
0.5885463353
 40
0.6532602996
 40
0.7194527573
 40
0.7871825729
 40
0.8216410225
 40
0.8564998823
 40
0.8917629402
 40
0.9274331947
 40
1.0
 40
1.0
 40
1.0
 40
1.0
 10
14.456946101
 20
13.4316269137
 30
0.0
 10
14.4556312765
 20
13.4273721338
 30
0.0
 10
14.4531468184
 20
13.41881321
 30
0.0
 10
14.4498615171
 20
13.405846376
 30
0.0
 10
14.4470182367
 20
13.3927537004
 30
0.0
 10
14.4446180555
 20
13.3795405123
 30
0.0
 10
14.4426619695
 20
13.3662119025
 30
0.0
 10
14.4411506435
 20
13.3527730995
 30
0.0
 10
14.4400847377
 20
13.3392293337
 30
0.0
 10
14.4394645591
 20
13.325585893
 30
0.0
 10
14.4392904174
 20
13.3118480915
 30
0.0
 10
14.4395622677
 20
13.2980212791
 30
0.0
 10
14.4402800692
 20
13.2841108402
 30
0.0
 10
14.4414434282
 20
13.2701221805
 30
0.0
 10
14.4430519566
 20
13.2560607376
 30
0.0
 10
14.4451049079
 20
13.241931995
 30
0.0
 10
14.4476015783
 20
13.2277413226
 30
0.0
 10
14.4515401222
 20
13.2086506446
 30
0.0
 10
14.4575870582
 20
13.1846461473
 30
0.0
 10
14.4665620272
 20
13.1558306511
 30
0.0
 10
14.4772776795
 20
13.12690361
 30
0.0
 10
14.4897165287
 20
13.0979106305
 30
0.0
 10
14.5014340367
 20
13.0738709052
 30
0.0
 10
14.5116342525
 20
13.0546502788
 30
0.0
 10
14.519746432
 20
13.0401617723
 30
0.0
 10
14.5282731176
 20
13.0256895525
 30
0.0
 10
14.5402580549
 20
13.0063127258
 30
0.0
 10
14.5497595856
 20
12.9919867349
 30
0.0
 10
14.5563167486
 20
12.9825138426
 30
0.0
  0
SPLINE
  5
2E6
100
AcDbEntity
  8
LAYER_FEATURE
100
AcDbSpline
 62
7
  6
CONTINUOUS
 70
0
 71
3
 72
46
 73
42
 74
0
 42
0.0000001
 43
0.0000001
 44
0.0000000001
 40
0.0
 40
0.0
 40
0.0
 40
0.0
 40
0.0127272078
 40
0.025460493
 40
0.0382059179
 40
0.0509695181
 40
0.0637572834
 40
0.0765751509
 40
0.0894289858
 40
0.1023245697
 40
0.115267595
 40
0.1282636398
 40
0.1413181717
 40
0.1544365299
 40
0.1676239113
 40
0.1808853786
 40
0.2076480681
 40
0.2347639031
 40
0.2622674439
 40
0.2901903959
 40
0.3185615346
 40
0.347406668
 40
0.3767486296
 40
0.4066073033
 40
0.4369996867
 40
0.4679399652
 40
0.4994395976
 40
0.5315074057
 40
0.5641496907
 40
0.597370346
 40
0.6311709687
 40
0.6655509613
 40
0.7005076486
 40
0.7360363933
 40
0.7721307011
 40
0.8087823153
 40
0.8459813126
 40
0.883716215
 40
0.9219740655
 40
0.9607405189
 40
1.0
 40
1.0
 40
1.0
 40
1.0
 10
16.4620404689
 20
11.8929475233
 30
0.0
 10
16.4610212312
 20
11.889649264
 30
0.0
 10
16.4588941746
 20
11.8830780234
 30
0.0
 10
16.4554407799
 20
11.8733060744
 30
0.0
 10
16.4517250132
 20
11.8636201966
 30
0.0
 10
16.4477477442
 20
11.8540227612
 30
0.0
 10
16.4435099501
 20
11.8445159656
 30
0.0
 10
16.4390125799
 20
11.8351020594
 30
0.0
 10
16.4342567082
 20
11.8257832331
 30
0.0
 10
16.4292434691
 20
11.8165616535
 30
0.0
 10
16.4239739927
 20
11.8074395001
 30
0.0
 10
16.4184495659
 20
11.7984188749
 30
0.0
 10
16.4126714539
 20
11.7895018945
 30
0.0
 10
16.4066410196
 20
11.7806906599
 30
0.0
 10
16.4003596596
 20
11.7719871432
 30
0.0
 10
16.3916259903
 20
11.7604947419
 30
0.0
 10
16.3800772202
 20
11.7464037725
 30
0.0
 10
16.3652822879
 20
11.7300107696
 30
0.0
 10
16.3495224894
 20
11.7140971024
 30
0.0
 10
16.3328129392
 20
11.6986777821
 30
0.0
 10
16.3151693313
 20
11.6837669603
 30
0.0
 10
16.2966082616
 20
11.6693784109
 30
0.0
 10
16.2771471335
 20
11.6555253825
 30
0.0
 10
16.2568041757
 20
11.6422206157
 30
0.0
 10
16.2355984013
 20
11.6294763503
 30
0.0
 10
16.2135495994
 20
11.6173043152
 30
0.0
 10
16.1906783228
 20
11.6057157217
 30
0.0
 10
16.1670058861
 20
11.5947212281
 30
0.0
 10
16.1425543331
 20
11.584330958
 30
0.0
 10
16.1173464186
 20
11.5745544881
 30
0.0
 10
16.091405591
 20
11.5654008444
 30
0.0
 10
16.0647559844
 20
11.5568784678
 30
0.0
 10
16.0374223899
 20
11.5489952204
 30
0.0
 10
16.0094302298
 20
11.5417583853
 30
0.0
 10
15.9808055351
 20
11.5351746598
 30
0.0
 10
15.9515749316
 20
11.5292501352
 30
0.0
 10
15.9217656081
 20
11.5239902824
 30
0.0
 10
15.8914053093
 20
11.5193999714
 30
0.0
 10
15.8605222275
 20
11.5154834535
 30
0.0
 10
15.8291452801
 20
11.5122443719
 30
0.0
 10
15.8080472886
 20
11.5105490438
 30
0.0
 10
15.7974239448
 20
11.5098128973
 30
0.0
  0
SPLINE
  5
2E7
100
AcDbEntity
  8
LAYER_FEATURE
100
AcDbSpline
 62
7
  6
CONTINUOUS
 70
0
 71
3
 72
32
 73
28
 74
0
 42
0.0000001
 43
0.0000001
 44
0.0000000001
 40
0.0
 40
0.0
 40
0.0
 40
0.0
 40
0.0280507296
 40
0.0561237329
 40
0.0842411983
 40
0.1124251358
 40
0.1406973049
 40
0.1690791165
 40
0.1975915774
 40
0.2262551922
 40
0.2550899267
 40
0.2841151133
 40
0.3133494334
 40
0.3428108296
 40
0.3725165069
 40
0.4024828532
 40
0.4327254574
 40
0.4632590388
 40
0.5252476244
 40
0.5885555884
 40
0.6532693297
 40
0.7194613174
 40
0.7871904226
 40
0.8565023966
 40
0.891764898
 40
0.9274345515
 40
1.0
 40
1.0
 40
1.0
 40
1.0
 10
16.7212935013
 20
12.7318906435
 30
0.0
 10
16.7199788484
 20
12.7276364188
 30
0.0
 10
16.7172018415
 20
12.7191691177
 30
0.0
 10
16.7125995532
 20
12.7066110878
 30
0.0
 10
16.7075614232
 20
12.694198492
 30
0.0
 10
16.7020895656
 20
12.6819363376
 30
0.0
 10
16.6961860347
 20
12.6698293851
 30
0.0
 10
16.6898532226
 20
12.657882329
 30
0.0
 10
16.6830935433
 20
12.646099853
 30
0.0
 10
16.6759097145
 20
12.6344865014
 30
0.0
 10
16.6683044897
 20
12.6230468264
 30
0.0
 10
16.6602809092
 20
12.6117852282
 30
0.0
 10
16.6518420577
 20
12.6007061164
 30
0.0
 10
16.6429912928
 20
12.5898137435
 30
0.0
 10
16.6337320175
 20
12.5791123642
 30
0.0
 10
16.6240679231
 20
12.568606099
 30
0.0
 10
16.614002636
 20
12.5582989665
 30
0.0
 10
16.59998325
 20
12.5447598372
 30
0.0
 10
16.5814518025
 20
12.5283532101
 30
0.0
 10
16.5577896402
 20
12.5096262316
 30
0.0
 10
16.5326277676
 20
12.4917889772
 30
0.0
 10
16.5060059096
 20
12.4748689899
 30
0.0
 10
16.4779656677
 20
12.458891964
 30
0.0
 10
16.4535941608
 20
12.4464557722
 30
0.0
 10
16.4334419153
 20
12.4369924374
 30
0.0
 10
16.4126189269
 20
12.427755244
 30
0.0
 10
16.3966949735
 20
12.4212871876
 30
0.0
 10
16.3859389113
 20
12.4171650026
 30
0.0
  0
SPLINE
  5
2E8
100
AcDbEntity
  8
LAYER_CUT_FEAT
100
AcDbSpline
 62
7
  6
CONTINUOUS
 70
0
 71
3
 72
23
 73
19
 74
0
 42
0.0000001
 43
0.0000001
 44
0.0000000001
 40
0.0
 40
0.0
 40
0.0
 40
0.0
 40
0.0290335743
 40
0.0580817322
 40
0.1162745371
 40
0.1746991783
 40
0.2334687279
 40
0.2926929531
 40
0.3524773578
 40
0.4129223351
 40
0.4741224939
 40
0.5361661011
 40
0.5991346202
 40
0.6631024325
 40
0.72813669
 40
0.7942972242
 40
0.8616365305
 40
1.0
 40
1.0
 40
1.0
 40
1.0
 10
16.0521649215
 20
12.0196086473
 30
0.0
 10
16.0514979594
 20
12.0174503636
 30
0.0
 10
16.0501045674
 20
12.0131506961
 30
0.0
 10
16.0470811
 20
12.0046230861
 30
0.0
 10
16.0428569892
 20
11.9940993828
 30
0.0
 10
16.0370911496
 20
11.9817240144
 30
0.0
 10
16.0306308867
 20
11.9696054255
 30
0.0
 10
16.0234827991
 20
11.9577558987
 30
0.0
 10
16.0156540701
 20
11.9461870688
 30
0.0
 10
16.0071526117
 20
11.9349103261
 30
0.0
 10
15.9979869612
 20
11.9239367206
 30
0.0
 10
15.9881662778
 20
11.9132769905
 30
0.0
 10
15.9777003769
 20
11.9029415216
 30
0.0
 10
15.9665996495
 20
11.8929403348
 30
0.0
 10
15.9548751995
 20
11.8832832065
 30
0.0
 10
15.9425382087
 20
11.8739792517
 30
0.0
 10
15.9251339004
 20
11.8619499414
 30
0.0
 10
15.9114242715
 20
11.853650551
 30
0.0
 10
15.9020179719
 20
11.8484143437
 30
0.0
  0
SPLINE
  5
2E9
100
AcDbEntity
  8
02___PRT_ALL_AXES
100
AcDbSpline
 62
7
  6
CONTINUOUS
 70
0
 71
3
 72
60
 73
56
 74
0
 42
0.0000001
 43
0.0000001
 44
0.0000000001
 40
0.0
 40
0.0
 40
0.0
 40
0.0
 40
0.0141419643
 40
0.0282497091
 40
0.0423260741
 40
0.0563742353
 40
0.0703977127
 40
0.0844004332
 40
0.0983867364
 40
0.1123614122
 40
0.1263296903
 40
0.140297271
 40
0.1542702943
 40
0.1682553388
 40
0.1822593818
 40
0.1962897442
 40
0.2103540734
 40
0.2244602204
 40
0.2386162212
 40
0.2528301568
 40
0.2671101072
 40
0.2814640434
 40
0.2958996916
 40
0.3104245283
 40
0.3250455898
 40
0.3397694736
 40
0.3546022109
 40
0.3695492138
 40
0.3846152572
 40
0.399804352
 40
0.4151198136
 40
0.4305641334
 40
0.4618413484
 40
0.4776793839
 40
0.4936483456
 40
0.5259688841
 40
0.5423184137
 40
0.5587881173
 40
0.592066036
 40
0.6257594643
 40
0.659810406
 40
0.6941493793
 40
0.7286958178
 40
0.7633586826
 40
0.7980373136
 40
0.8326225948
 40
0.8669986676
 40
0.8840715244
 40
0.9010466862
 40
0.9179088762
 40
0.9346428319
 40
0.9512332893
 40
0.9676657831
 40
0.9839266349
 40
1.0
 40
1.0
 40
1.0
 40
1.0
 10
15.2117433923
 20
12.380842883
 30
0.0
 10
15.2125879047
 20
12.3791219435
 30
0.0
 10
15.2142050206
 20
12.3756494198
 30
0.0
 10
15.2164118843
 20
12.3703517222
 30
0.0
 10
15.2183932157
 20
12.364979036
 30
0.0
 10
15.2201451882
 20
12.3595392489
 30
0.0
 10
15.2216643563
 20
12.3540402353
 30
0.0
 10
15.2229474082
 20
12.3484899703
 30
0.0
 10
15.2239913344
 20
12.3428965089
 30
0.0
 10
15.2247934327
 20
12.3372679767
 30
0.0
 10
15.2253512375
 20
12.3316125401
 30
0.0
 10
15.2256627721
 20
12.3259384131
 30
0.0
 10
15.2257262729
 20
12.3202538066
 30
0.0
 10
15.2255405504
 20
12.3145669236
 30
0.0
 10
15.2251047416
 20
12.3088859192
 30
0.0
 10
15.2244184768
 20
12.3032188752
 30
0.0
 10
15.2234819386
 20
12.2975737506
 30
0.0
 10
15.2222956533
 20
12.2919583817
 30
0.0
 10
15.2208608618
 20
12.2863803855
 30
0.0
 10
15.2191791219
 20
12.2808472002
 30
0.0
 10
15.217252632
 20
12.2753659815
 30
0.0
 10
15.2150840629
 20
12.2699436028
 30
0.0
 10
15.2126764914
 20
12.2645866588
 30
0.0
 10
15.2100336212
 20
12.2593013377
 30
0.0
 10
15.2071593984
 20
12.2540935591
 30
0.0
 10
15.2040583567
 20
12.2489687861
 30
0.0
 10
15.2007352917
 20
12.2439321593
 30
0.0
 10
15.1971953702
 20
12.2389884269
 30
0.0
 10
15.1934441143
 20
12.2341419088
 30
0.0
 10
15.1894872257
 20
12.2293966602
 30
0.0
 10
15.1853306914
 20
12.2247561755
 30
0.0
 10
15.1795068446
 20
12.2186881605
 30
0.0
 10
15.1733290117
 20
12.2128685195
 30
0.0
 10
15.1668348143
 20
12.2073037516
 30
0.0
 10
15.1600633363
 20
12.2018512428
 30
0.0
 10
15.1529957424
 20
12.196662542
 30
0.0
 10
15.1456660343
 20
12.1917374368
 30
0.0
 10
15.1380960577
 20
12.1869427764
 30
0.0
 10
15.1283046781
 20
12.1812698742
 30
0.0
 10
15.1161261807
 20
12.1749971593
 30
0.0
 10
15.1035365865
 20
12.1692422845
 30
0.0
 10
15.0905960825
 20
12.1640114214
 30
0.0
 10
15.0773661499
 20
12.1593102023
 30
0.0
 10
15.0639101445
 20
12.1551441215
 30
0.0
 10
15.0502932561
 20
12.1515185386
 30
0.0
 10
15.0365827283
 20
12.1484387123
 30
0.0
 10
15.0251101932
 20
12.1463262291
 30
0.0
 10
15.0159427484
 20
12.144914055
 30
0.0
 10
15.0091024596
 20
12.1439969477
 30
0.0
 10
15.0022910995
 20
12.1432199516
 30
0.0
 10
14.9955175348
 20
12.1425834913
 30
0.0
 10
14.9887906081
 20
12.1420878876
 30
0.0
 10
14.9821189687
 20
12.1417334261
 30
0.0
 10
14.9755114676
 20
12.1415203388
 30
0.0
 10
14.9711283291
 20
12.1414722781
 30
0.0
 10
14.9689495362
 20
12.1414722781
 30
0.0
  0
SPLINE
  5
2EA
100
AcDbEntity
  8
02___PRT_ALL_AXES
100
AcDbSpline
 62
7
  6
CONTINUOUS
 70
0
 71
3
 72
75
 73
71
 74
0
 42
0.0000001
 43
0.0000001
 44
0.0000000001
 40
0.0
 40
0.0
 40
0.0
 40
0.0
 40
0.0053117708
 40
0.0106263767
 40
0.0159466457
 40
0.0212753901
 40
0.0266154012
 40
0.0319694395
 40
0.0427294419
 40
0.0535776875
 40
0.0645345561
 40
0.0756193835
 40
0.0868503215
 40
0.0982442277
 40
0.1098165838
 40
0.1215814416
 40
0.1335513933
 40
0.1396171667
 40
0.1457382622
 40
0.1581503176
 40
0.1707964918
 40
0.1836836217
 40
0.1968171922
 40
0.2102013872
 40
0.2238391453
 40
0.2377322166
 40
0.2518812218
 40
0.2662857111
 40
0.2809442212
 40
0.2958543328
 40
0.3110127244
 40
0.326415226
 40
0.3420568691
 40
0.357931936
 40
0.3740340058
 40
0.3903559993
 40
0.4068902216
 40
0.4236284025
 40
0.4405617363
 40
0.4576809186
 40
0.474976183
 40
0.4924373355
 40
0.5100537885
 40
0.5278145933
 40
0.5457084716
 40
0.5637238467
 40
0.5818488732
 40
0.6000714666
 40
0.6183793321
 40
0.636759993
 40
0.6552008189
 40
0.6736890529
 40
0.6922118393
 40
0.7107562505
 40
0.7293093142
 40
0.7478580403
 40
0.7663894473
 40
0.78489059
 40
0.8033485858
 40
0.8217506419
 40
0.8400840828
 40
0.8583363777
 40
0.8764951682
 40
0.8945482966
 40
0.912483836
 40
0.9302901133
 40
0.9479557584
 40
0.9654696818
 40
0.9828212339
 40
1.0
 40
1.0
 40
1.0
 40
1.0
 10
14.4792892576
 20
11.7359204275
 30
0.0
 10
14.4786863213
 20
11.7339693209
 30
0.0
 10
14.4775350861
 20
11.7300488376
 30
0.0
 10
14.4759739605
 20
11.7241193455
 30
0.0
 10
14.4745787627
 20
11.718141879
 30
0.0
 10
14.4733498528
 20
11.7121180846
 30
0.0
 10
14.4722875701
 20
11.7060494582
 30
0.0
 10
14.4710917917
 20
11.6978875701
 30
0.0
 10
14.4700161567
 20
11.6875719653
 30
0.0
 10
14.4693985052
 20
11.6750613951
 30
0.0
 10
14.4694521649
 20
11.6624108001
 30
0.0
 10
14.4701769695
 20
11.6496337634
 30
0.0
 10
14.471571977
 20
11.6367436348
 30
0.0
 10
14.4736355528
 20
11.6237539438
 30
0.0
 10
14.4763653792
 20
11.6106782167
 30
0.0
 10
14.4797583928
 20
11.5975302234
 30
0.0
 10
14.4831205683
 20
11.586573391
 30
0.0
 10
14.4861328524
 20
11.5777876016
 30
0.0
 10
14.4893911653
 20
11.5689087366
 30
0.0
 10
14.4938766611
 20
11.5577884875
 30
0.0
 10
14.4998789737
 20
11.544488087
 30
0.0
 10
14.5065194542
 20
11.5311838577
 30
0.0
 10
14.5137910574
 20
11.5178897407
 30
0.0
 10
14.5216861728
 20
11.5046194579
 30
0.0
 10
14.5301965331
 20
11.4913867654
 30
0.0
 10
14.5393132477
 20
11.4782053674
 30
0.0
 10
14.5490268031
 20
11.4650889233
 30
0.0
 10
14.5593270727
 20
11.4520510284
 30
0.0
 10
14.5702033257
 20
11.4391052017
 30
0.0
 10
14.5816442367
 20
11.4262648715
 30
0.0
 10
14.5936378965
 20
11.4135433616
 30
0.0
 10
14.6061718235
 20
11.4009538767
 30
0.0
 10
14.6192329758
 20
11.388509489
 30
0.0
 10
14.6328077642
 20
11.3762231238
 30
0.0
 10
14.6468820655
 20
11.3641075457
 30
0.0
 10
14.6614412372
 20
11.3521753454
 30
0.0
 10
14.6764701322
 20
11.3404389255
 30
0.0
 10
14.691953114
 20
11.3289104878
 30
0.0
 10
14.7078740733
 20
11.3176020203
 30
0.0
 10
14.7242164442
 20
11.3065252839
 30
0.0
 10
14.7409632216
 20
11.2956918004
 30
0.0
 10
14.7580969786
 20
11.2851128398
 30
0.0
 10
14.7755998847
 20
11.2747994086
 30
0.0
 10
14.7934537247
 20
11.2647622383
 30
0.0
 10
14.8116399172
 20
11.2550117737
 30
0.0
 10
14.8301395341
 20
11.245558162
 30
0.0
 10
14.8489333205
 20
11.2364112422
 30
0.0
 10
14.8680017147
 20
11.2275805345
 30
0.0
 10
14.8873248685
 20
11.2190752306
 30
0.0
 10
14.9068826681
 20
11.2109041836
 30
0.0
 10
14.926654755
 20
11.2030758992
 30
0.0
 10
14.9466205472
 20
11.1955985263
 30
0.0
 10
14.9667592607
 20
11.1884798487
 30
0.0
 10
14.9870499316
 20
11.181727277
 30
0.0
 10
15.0074714372
 20
11.1753478407
 30
0.0
 10
15.0280025189
 20
11.1693481807
 30
0.0
 10
15.0486218038
 20
11.1637345426
 30
0.0
 10
15.0693078274
 20
11.1585127701
 30
0.0
 10
15.090039056
 20
11.1536882989
 30
0.0
 10
15.1107939089
 20
11.149266151
 30
0.0
 10
15.1315507816
 20
11.1452509297
 30
0.0
 10
15.1522880676
 20
11.1416468145
 30
0.0
 10
15.1729841814
 20
11.1384575573
 30
0.0
 10
15.1936175817
 20
11.1356864776
 30
0.0
 10
15.2141667912
 20
11.1333364609
 30
0.0
 10
15.2346104279
 20
11.1314099519
 30
0.0
 10
15.2549271986
 20
11.1299089607
 30
0.0
 10
15.2750960111
 20
11.1288350437
 30
0.0
 10
15.2950957316
 20
11.12818933
 30
0.0
 10
15.3083715509
 20
11.1280440115
 30
0.0
 10
15.3149760342
 20
11.1280440115
 30
0.0
  0
SPLINE
  5
2EB
100
AcDbEntity
  8
02___PRT_ALL_AXES
100
AcDbSpline
 62
7
  6
CONTINUOUS
 70
0
 71
3
 72
46
 73
42
 74
0
 42
0.0000001
 43
0.0000001
 44
0.0000000001
 40
0.0
 40
0.0
 40
0.0
 40
0.0
 40
0.0123992807
 40
0.0248057418
 40
0.037226543
 40
0.0496688032
 40
0.0621395802
 40
0.0746458516
 40
0.0871944958
 40
0.0997922743
 40
0.1124458141
 40
0.1251615937
 40
0.1379459252
 40
0.1508049454
 40
0.1767683032
 40
0.2030991921
 40
0.2298392364
 40
0.2570263768
 40
0.2846947452
 40
0.3128746088
 40
0.3271656224
 40
0.3415940894
 40
0.3708723317
 40
0.4007299086
 40
0.4311820548
 40
0.4622405211
 40
0.4939137226
 40
0.5262068955
 40
0.5591222575
 40
0.592659169
 40
0.6268142926
 40
0.661581749
 40
0.6969532679
 40
0.7329183337
 40
0.7694643246
 40
0.8065766479
 40
0.8442388621
 40
0.8824328146
 40
0.9211387151
 40
0.9603353517
 40
1.0
 40
1.0
 40
1.0
 40
1.0
 10
15.7461772957
 20
11.3444224134
 30
0.0
 10
15.7455492552
 20
11.3423900696
 30
0.0
 10
15.7442330167
 20
11.338342406
 30
0.0
 10
15.7420803701
 20
11.3323287708
 30
0.0
 10
15.7397497625
 20
11.3263738654
 30
0.0
 10
15.7372418888
 20
11.320479446
 30
0.0
 10
15.734557451
 20
11.3146471697
 30
0.0
 10
15.7316972203
 20
11.3088786943
 30
0.0
 10
15.728662009
 20
11.3031756553
 30
0.0
 10
15.7254526838
 20
11.2975396702
 30
0.0
 10
15.7220701581
 20
11.2919723316
 30
0.0
 10
15.7185154032
 20
11.2864752294
 30
0.0
 10
15.7147893975
 20
11.2810498733
 30
0.0
 10
15.7095782295
 20
11.2738914234
 30
0.0
 10
15.702632773
 20
11.2651263287
 30
0.0
 10
15.6936583286
 20
11.2549546839
 30
0.0
 10
15.6840272875
 20
11.2451066427
 30
0.0
 10
15.673750852
 20
11.2355934444
 30
0.0
 10
15.6628408926
 20
11.2264257519
 30
0.0
 10
15.6532766192
 20
11.2191167997
 30
0.0
 10
15.6453270481
 20
11.2134508896
 30
0.0
 10
15.6370995321
 20
11.207854322
 30
0.0
 10
15.6264368552
 20
11.2010952679
 30
0.0
 10
15.6131236817
 20
11.1934074946
 30
0.0
 10
15.5992456468
 20
11.186112063
 30
0.0
 10
15.5848185962
 20
11.1792172037
 30
0.0
 10
15.5698587795
 20
11.1727305685
 30
0.0
 10
15.5543830927
 20
11.1666593978
 30
0.0
 10
15.5384089913
 20
11.1610104638
 30
0.0
 10
15.5219544927
 20
11.1557900757
 30
0.0
 10
15.505038152
 20
11.151004068
 30
0.0
 10
15.4876790447
 20
11.1466577942
 30
0.0
 10
15.4698967455
 20
11.1427561195
 30
0.0
 10
15.4517113078
 20
11.1393034142
 30
0.0
 10
15.4331432407
 20
11.1363035481
 30
0.0
 10
15.4142134886
 20
11.1337598852
 30
0.0
 10
15.3949434016
 20
11.131675278
 30
0.0
 10
15.375354732
 20
11.130052067
 30
0.0
 10
15.3554695402
 20
11.1288920705
 30
0.0
 10
15.335310408
 20
11.1281965927
 30
0.0
 10
15.3217807424
 20
11.1280440115
 30
0.0
 10
15.3149760342
 20
11.1280440115
 30
0.0
  0
SPLINE
  5
2EC
100
AcDbEntity
  8
LAYER_CHAMFER_FEAT
100
AcDbSpline
 62
7
  6
CONTINUOUS
 70
0
 71
3
 72
15
 73
11
 74
0
 42
0.0000001
 43
0.0000001
 44
0.0000000001
 40
0.0
 40
0.0
 40
0.0
 40
0.0
 40
0.1317646137
 40
0.2617723881
 40
0.3899185371
 40
0.5161211785
 40
0.6402989206
 40
0.7623789199
 40
0.8822975654
 40
1.0
 40
1.0
 40
1.0
 40
1.0
 10
14.9811839717
 20
11.8082407193
 30
0.0
 10
14.9762046825
 20
11.8082407193
 30
0.0
 10
14.9663119899
 20
11.8081151995
 30
0.0
 10
14.9515867377
 20
11.8075422757
 30
0.0
 10
14.937091821
 20
11.8065866299
 30
0.0
 10
14.9228482938
 20
11.8052496876
 30
0.0
 10
14.9088763332
 20
11.8035333204
 30
0.0
 10
14.8951959016
 20
11.8014399637
 30
0.0
 10
14.8818267449
 20
11.7989726315
 30
0.0
 10
14.8730507999
 20
11.7970625754
 30
0.0
 10
14.8687210352
 20
11.7960443119
 30
0.0
  0
SPLINE
  5
2ED
100
AcDbEntity
  8
LAYER_CHAMFER_FEAT
100
AcDbSpline
 62
7
  6
CONTINUOUS
 70
0
 71
3
 72
39
 73
35
 74
0
 42
0.0000001
 43
0.0000001
 44
0.0000000001
 40
0.0
 40
0.0
 40
0.0
 40
0.0
 40
0.0305399801
 40
0.0614591659
 40
0.0927264481
 40
0.1243126485
 40
0.156185867
 40
0.1883135661
 40
0.2206623636
 40
0.2531980684
 40
0.285885893
 40
0.3186905361
 40
0.3515763178
 40
0.3845072961
 40
0.4174473785
 40
0.4503604437
 40
0.4832104611
 40
0.5159616021
 40
0.5485783586
 40
0.5810256697
 40
0.6132690376
 40
0.6452746433
 40
0.6770094778
 40
0.7084414791
 40
0.7395396523
 40
0.7702741992
 40
0.8006166699
 40
0.8305401185
 40
0.8600192383
 40
0.8890305165
 40
0.9175524192
 40
0.9455655753
 40
0.9730529422
 40
1.0
 40
1.0
 40
1.0
 40
1.0
 10
14.9811839717
 20
11.8082407193
 30
0.0
 10
14.9865672448
 20
11.8082407193
 30
0.0
 10
14.9974011656
 20
11.8080921152
 30
0.0
 10
15.0137345523
 20
11.8074340292
 30
0.0
 10
15.0302294516
 20
11.8063402961
 30
0.0
 10
15.0468586422
 20
11.8048127943
 30
0.0
 10
15.0635952274
 20
11.8028539472
 30
0.0
 10
15.0804118744
 20
11.8004669772
 30
0.0
 10
15.0972811912
 20
11.7976557804
 30
0.0
 10
15.1141756905
 20
11.794424927
 30
0.0
 10
15.131067835
 20
11.7907796746
 30
0.0
 10
15.1479300981
 20
11.7867259775
 30
0.0
 10
15.1647349985
 20
11.7822704447
 30
0.0
 10
15.1814551455
 20
11.7774203311
 30
0.0
 10
15.1980632849
 20
11.772183533
 30
0.0
 10
15.2145323518
 20
11.7665685991
 30
0.0
 10
15.2308355054
 20
11.7605846827
 30
0.0
 10
15.2469461716
 20
11.754241529
 30
0.0
 10
15.2628380905
 20
11.747549469
 30
0.0
 10
15.2784853685
 20
11.7405194218
 30
0.0
 10
15.2938625073
 20
11.7331628446
 30
0.0
 10
15.3089444446
 20
11.7254917164
 30
0.0
 10
15.3237066019
 20
11.7175185311
 30
0.0
 10
15.338124934
 20
11.7092562895
 30
0.0
 10
15.3521759519
 20
11.7007184503
 30
0.0
 10
15.3658367591
 20
11.6919189089
 30
0.0
 10
15.3790851007
 20
11.6828719897
 30
0.0
 10
15.3918994075
 20
11.6735924297
 30
0.0
 10
15.4042588103
 20
11.6640953307
 30
0.0
 10
15.4161431768
 20
11.6543961288
 30
0.0
 10
15.4275331407
 20
11.6445106086
 30
0.0
 10
15.4384102098
 20
11.6344547966
 30
0.0
 10
15.448756513
 20
11.6242452116
 30
0.0
 10
15.4553558041
 20
11.6172767357
 30
0.0
 10
15.4585599977
 20
11.6137702893
 30
0.0
  0
SPLINE
  5
2EE
100
AcDbEntity
  8
LAYER_FEATURE
100
AcDbSpline
 62
7
  6
CONTINUOUS
 70
0
 71
3
 72
50
 73
46
 74
0
 42
0.0000001
 43
0.0000001
 44
0.0000000001
 40
0.0
 40
0.0
 40
0.0
 40
0.0
 40
0.039664162
 40
0.0788606751
 40
0.1175661276
 40
0.1557597864
 40
0.1934216628
 40
0.2305336661
 40
0.2670793387
 40
0.3030440896
 40
0.338415299
 40
0.373182452
 40
0.407337279
 40
0.4408738999
 40
0.4737889762
 40
0.5060818669
 40
0.5377547909
 40
0.5688129856
 40
0.5992648667
 40
0.6291221848
 40
0.6584001734
 40
0.6728285099
 40
0.6871194035
 40
0.7152990201
 40
0.7429671463
 40
0.756619711
 40
0.7701560767
 40
0.7835806402
 40
0.7968980193
 40
0.8101130793
 40
0.823230911
 40
0.8362568278
 40
0.8491963703
 40
0.8620552763
 40
0.8748394978
 40
0.8875551658
 40
0.9002085953
 40
0.9128062646
 40
0.9253547986
 40
0.9378609619
 40
0.9503316295
 40
0.9627737815
 40
0.9751944744
 40
0.9876008273
 40
1.0
 40
1.0
 40
1.0
 40
1.0
 10
14.9916305239
 20
13.0546228541
 30
0.0
 10
14.9794683057
 20
13.0546228541
 30
0.0
 10
14.9552863007
 20
13.0543501332
 30
0.0
 10
14.9192552821
 20
13.0531070991
 30
0.0
 10
14.883713832
 20
13.0510337834
 30
0.0
 10
14.8487024331
 20
13.0481325808
 30
0.0
 10
14.8142604125
 20
13.0444066965
 30
0.0
 10
14.7804266939
 20
13.0398603352
 30
0.0
 10
14.747239424
 20
13.0344985832
 30
0.0
 10
14.7147360409
 20
13.0283274561
 30
0.0
 10
14.6829531999
 20
13.0213538729
 30
0.0
 10
14.6519267414
 20
13.0135856457
 30
0.0
 10
14.6216916516
 20
13.0050314707
 30
0.0
 10
14.5922820253
 20
12.9957009155
 30
0.0
 10
14.5637310282
 20
12.9856044064
 30
0.0
 10
14.5360708652
 20
12.9747532171
 30
0.0
 10
14.5093327332
 20
12.9631594551
 30
0.0
 10
14.4835468299
 20
12.9508360626
 30
0.0
 10
14.4587421958
 20
12.937796718
 30
0.0
 10
14.4349471582
 20
12.9240561271
 30
0.0
 10
14.4158894212
 20
12.9119754759
 30
0.0
 10
14.4011841527
 20
12.9019725442
 30
0.0
 10
14.3869756064
 20
12.8918456915
 30
0.0
 10
14.3698812664
 20
12.8787823252
 30
0.0
 10
14.3535593793
 20
12.8650669015
 30
0.0
 10
14.3410801821
 20
12.8537860916
 30
0.0
 10
14.3320477322
 20
12.8452109903
 30
0.0
 10
14.3233038057
 20
12.8364868275
 30
0.0
 10
14.314850863
 20
12.8276159738
 30
0.0
 10
14.3066912978
 20
12.8186009672
 30
0.0
 10
14.2988274231
 20
12.8094443466
 30
0.0
 10
14.2912615004
 20
12.8001486766
 30
0.0
 10
14.2839956361
 20
12.7907166192
 30
0.0
 10
14.2770319536
 20
12.7811507945
 30
0.0
 10
14.2703723816
 20
12.771453948
 30
0.0
 10
14.2640188546
 20
12.7616287937
 30
0.0
 10
14.2579731697
 20
12.7516781228
 30
0.0
 10
14.2522370337
 20
12.7416047609
 30
0.0
 10
14.246812125
 20
12.7314115379
 30
0.0
 10
14.2416999294
 20
12.7211013763
 30
0.0
 10
14.236901969
 20
12.7106771641
 30
0.0
 10
14.2324195596
 20
12.7001418945
 30
0.0
 10
14.2282539977
 20
12.6894985099
 30
0.0
 10
14.2244065106
 20
12.6787501564
 30
0.0
 10
14.222053952
 20
12.6715156464
 30
0.0
 10
14.2209314357
 20
12.6678831768
 30
0.0
  0
SPLINE
  5
2EF
100
AcDbEntity
  8
LAYER_FEATURE
100
AcDbSpline
 62
7
  6
CONTINUOUS
 70
0
 71
3
 72
50
 73
46
 74
0
 42
0.0000001
 43
0.0000001
 44
0.0000000001
 40
0.0
 40
0.0
 40
0.0
 40
0.0
 40
0.039664162
 40
0.0788606751
 40
0.1175661276
 40
0.1557597864
 40
0.1934216628
 40
0.2305336661
 40
0.2670793387
 40
0.3030440896
 40
0.338415299
 40
0.373182452
 40
0.407337279
 40
0.4408738999
 40
0.4737889762
 40
0.5060818669
 40
0.5377547909
 40
0.5688129856
 40
0.5992648667
 40
0.6291221848
 40
0.6584001734
 40
0.6728285099
 40
0.6871194035
 40
0.7152990201
 40
0.7429671463
 40
0.756619711
 40
0.7701560767
 40
0.7835806402
 40
0.7968980193
 40
0.8101130793
 40
0.823230911
 40
0.8362568278
 40
0.8491963703
 40
0.8620552763
 40
0.8748394978
 40
0.8875551658
 40
0.9002085953
 40
0.9128062646
 40
0.9253547986
 40
0.9378609619
 40
0.9503316295
 40
0.9627737815
 40
0.9751944744
 40
0.9876008273
 40
1.0
 40
1.0
 40
1.0
 40
1.0
 10
15.2508835562
 20
13.8935659743
 30
0.0
 10
15.2387213381
 20
13.8935659743
 30
0.0
 10
15.2145393331
 20
13.8932932534
 30
0.0
 10
15.1785083144
 20
13.8920502193
 30
0.0
 10
15.1429668644
 20
13.8899769037
 30
0.0
 10
15.1079554655
 20
13.887075701
 30
0.0
 10
15.0735134449
 20
13.8833498167
 30
0.0
 10
15.0396797262
 20
13.8788034554
 30
0.0
 10
15.0064924563
 20
13.8734417034
 30
0.0
 10
14.9739890733
 20
13.8672705763
 30
0.0
 10
14.9422062323
 20
13.8602969931
 30
0.0
 10
14.9111797737
 20
13.8525287659
 30
0.0
 10
14.880944684
 20
13.8439745909
 30
0.0
 10
14.8515350576
 20
13.8346440357
 30
0.0
 10
14.8229840606
 20
13.8245475266
 30
0.0
 10
14.7953238975
 20
13.8136963373
 30
0.0
 10
14.7685857655
 20
13.8021025753
 30
0.0
 10
14.7427998623
 20
13.7897791828
 30
0.0
 10
14.7179952282
 20
13.7767398382
 30
0.0
 10
14.6942001906
 20
13.7629992473
 30
0.0
 10
14.6751424535
 20
13.7509185961
 30
0.0
 10
14.6604371851
 20
13.7409156644
 30
0.0
 10
14.6462286388
 20
13.7307888117
 30
0.0
 10
14.6291342988
 20
13.7177254454
 30
0.0
 10
14.6128124117
 20
13.7040100217
 30
0.0
 10
14.6003332144
 20
13.6927292119
 30
0.0
 10
14.5913007646
 20
13.6841541105
 30
0.0
 10
14.5825568381
 20
13.6754299477
 30
0.0
 10
14.5741038954
 20
13.666559094
 30
0.0
 10
14.5659443302
 20
13.6575440874
 30
0.0
 10
14.5580804555
 20
13.6483874668
 30
0.0
 10
14.5505145328
 20
13.6390917969
 30
0.0
 10
14.5432486685
 20
13.6296597394
 30
0.0
 10
14.536284986
 20
13.6200939147
 30
0.0
 10
14.529625414
 20
13.6103970682
 30
0.0
 10
14.523271887
 20
13.600571914
 30
0.0
 10
14.517226202
 20
13.590621243
 30
0.0
 10
14.5114900661
 20
13.5805478812
 30
0.0
 10
14.5060651574
 20
13.5703546581
 30
0.0
 10
14.5009529618
 20
13.5600444965
 30
0.0
 10
14.4961550014
 20
13.5496202844
 30
0.0
 10
14.491672592
 20
13.5390850147
 30
0.0
 10
14.4875070301
 20
13.5284416301
 30
0.0
 10
14.483659543
 20
13.5176932766
 30
0.0
 10
14.4813069844
 20
13.5104587666
 30
0.0
 10
14.4801844681
 20
13.506826297
 30
0.0
  0
SPLINE
  5
2F0
100
AcDbEntity
  8
LAYER_FEATURE
100
AcDbSpline
 62
7
  6
CONTINUOUS
 70
0
 71
3
 72
82
 73
78
 74
0
 42
0.0000001
 43
0.0000001
 44
0.0000000001
 40
0.0
 40
0.0
 40
0.0
 40
0.0
 40
0.0171785869
 40
0.0345301334
 40
0.0520438937
 40
0.0697094391
 40
0.0875155986
 40
0.1054510217
 40
0.1235040346
 40
0.1416627076
 40
0.1599148845
 40
0.1782482068
 40
0.1966501442
 40
0.2151080209
 40
0.2336090442
 40
0.2521403314
 40
0.2706889375
 40
0.2892418815
 40
0.3077861729
 40
0.3263088395
 40
0.344796954
 40
0.363237661
 40
0.3816182035
 40
0.3999259508
 40
0.4181484262
 40
0.4362733354
 40
0.4542885943
 40
0.4721823575
 40
0.4899430476
 40
0.5075593862
 40
0.5250204254
 40
0.542315578
 40
0.5594346503
 40
0.5763678752
 40
0.5931059476
 40
0.6096400626
 40
0.6259619507
 40
0.6420639173
 40
0.6579388824
 40
0.6735804243
 40
0.6889828256
 40
0.704141119
 40
0.7190511346
 40
0.7337095508
 40
0.7481139469
 40
0.7622628597
 40
0.7761558405
 40
0.7897935106
 40
0.8031776201
 40
0.8163111063
 40
0.8291981524
 40
0.8418442444
 40
0.8542562197
 40
0.8603772761
 40
0.8664430108
 40
0.8784128859
 40
0.8901776673
 40
0.8959874291
 40
0.901750764
 40
0.9074694753
 40
0.9131454513
 40
0.9187806752
 40
0.9243772098
 40
0.9299372058
 40
0.9354628943
 40
0.9409565818
 40
0.9464206534
 40
0.9518575593
 40
0.9572698189
 40
0.9626600106
 40
0.9680307667
 40
0.973384771
 40
0.9787247471
 40
0.9840534573
 40
0.9893736919
 40
0.9946882635
 40
1.0
 40
1.0
 40
1.0
 40
1.0
 10
14.9916305239
 20
13.0546228541
 30
0.0
 10
15.0034348702
 20
13.0546228541
 30
0.0
 10
15.0271631706
 20
13.0543631136
 30
0.0
 10
15.0629092697
 20
13.0532090239
 30
0.0
 10
15.0989576476
 20
13.0512895634
 30
0.0
 10
15.1352704022
 20
13.0486068082
 30
0.0
 10
15.1718099417
 20
13.0451635008
 30
0.0
 10
15.2085381651
 20
13.0409632445
 30
0.0
 10
15.245416867
 20
13.036010407
 30
0.0
 10
15.2824076589
 20
13.0303101494
 30
0.0
 10
15.3194720387
 20
13.0238684066
 30
0.0
 10
15.3565714268
 20
13.0166918826
 30
0.0
 10
15.3936672049
 20
13.0087880438
 30
0.0
 10
15.4307207576
 20
13.0001651164
 30
0.0
 10
15.4676935142
 20
12.9908320818
 30
0.0
 10
15.504546987
 20
12.9807986564
 30
0.0
 10
15.5412428123
 20
12.9700752847
 30
0.0
 10
15.577742789
 20
12.9586731269
 30
0.0
 10
15.6140089193
 20
12.9466040486
 30
0.0
 10
15.6500034518
 20
12.9338806185
 30
0.0
 10
15.6856889174
 20
12.9205160835
 30
0.0
 10
15.7210281689
 20
12.9065243559
 30
0.0
 10
15.7559844187
 20
12.891919999
 30
0.0
 10
15.7905212769
 20
12.8767182103
 30
0.0
 10
15.8246027944
 20
12.8609348162
 30
0.0
 10
15.8581934979
 20
12.8445862482
 30
0.0
 10
15.8912584247
 20
12.8276895225
 30
0.0
 10
15.9237631595
 20
12.8102622239
 30
0.0
 10
15.9556738689
 20
12.792322485
 30
0.0
 10
15.9869573411
 20
12.7738889739
 30
0.0
 10
16.0175810223
 20
12.7549808753
 30
0.0
 10
16.0475130454
 20
12.7356178622
 30
0.0
 10
16.0767222626
 20
12.7158200776
 30
0.0
 10
16.1051782775
 20
12.6956081124
 30
0.0
 10
16.1328514784
 20
12.6750029845
 30
0.0
 10
16.1597130761
 20
12.6540261241
 30
0.0
 10
16.1857351255
 20
12.6326993409
 30
0.0
 10
16.2108905539
 20
12.6110448026
 30
0.0
 10
16.2351531879
 20
12.5890850117
 30
0.0
 10
16.2584977801
 20
12.5668427791
 30
0.0
 10
16.2809000446
 20
12.5443412094
 30
0.0
 10
16.302336675
 20
12.5216036685
 30
0.0
 10
16.3227853636
 20
12.4986537579
 30
0.0
 10
16.3422248233
 20
12.4755152911
 30
0.0
 10
16.3606348067
 20
12.452212266
 30
0.0
 10
16.3779961341
 20
12.428768846
 30
0.0
 10
16.3942907117
 20
12.4052093333
 30
0.0
 10
16.4095015375
 20
12.3815581413
 30
0.0
 10
16.4236127207
 20
12.3578397638
 30
0.0
 10
16.4366094802
 20
12.3340787862
 30
0.0
 10
16.4484782092
 20
12.3102997324
 30
0.0
 10
16.4592063216
 20
12.2865275239
 30
0.0
 10
16.4672233856
 20
12.2666519627
 30
0.0
 10
16.4730470676
 20
12.250782505
 30
0.0
 10
16.4784310234
 20
12.2350793701
 30
0.0
 10
16.4844403042
 20
12.2154960964
 30
0.0
 10
16.4895150874
 20
12.1958310492
 30
0.0
 10
16.4929736427
 20
12.1801704051
 30
0.0
 10
16.4952599575
 20
12.1685090943
 30
0.0
 10
16.4972487565
 20
12.1568866597
 30
0.0
 10
16.4989394759
 20
12.1453060533
 30
0.0
 10
16.5003317239
 20
12.1337703225
 30
0.0
 10
16.5014250772
 20
12.1222824621
 30
0.0
 10
16.5022192639
 20
12.1108454741
 30
0.0
 10
16.5027140814
 20
12.0994623423
 30
0.0
 10
16.5029093434
 20
12.0881360364
 30
0.0
 10
16.5028050549
 20
12.0768695161
 30
0.0
 10
16.5024011743
 20
12.0656657235
 30
0.0
 10
16.5016978346
 20
12.0545275872
 30
0.0
 10
16.5006952139
 20
12.043458017
 30
0.0
 10
16.4993935285
 20
12.032459912
 30
0.0
 10
16.4977931751
 20
12.0215361423
 30
0.0
 10
16.4958945012
 20
12.0106895722
 30
0.0
 10
16.4936980477
 20
11.9999230418
 30
0.0
 10
16.4912043656
 20
11.9892393397
 30
0.0
 10
16.4884141122
 20
11.9786413793
 30
0.0
 10
16.4863564828
 20
11.9716341784
 30
0.0
 10
16.4852788359
 20
11.9681469066
 30
0.0
  0
SPLINE
  5
2F1
100
AcDbEntity
  8
LAYER_FEATURE
100
AcDbSpline
 62
7
  6
CONTINUOUS
 70
0
 71
3
 72
82
 73
78
 74
0
 42
0.0000001
 43
0.0000001
 44
0.0000000001
 40
0.0
 40
0.0
 40
0.0
 40
0.0
 40
0.0171785869
 40
0.0345301334
 40
0.0520438937
 40
0.0697094391
 40
0.0875155986
 40
0.1054510217
 40
0.1235040346
 40
0.1416627076
 40
0.1599148845
 40
0.1782482068
 40
0.1966501442
 40
0.2151080209
 40
0.2336090442
 40
0.2521403314
 40
0.2706889375
 40
0.2892418815
 40
0.3077861729
 40
0.3263088395
 40
0.344796954
 40
0.363237661
 40
0.3816182035
 40
0.3999259508
 40
0.4181484262
 40
0.4362733354
 40
0.4542885943
 40
0.4721823575
 40
0.4899430476
 40
0.5075593862
 40
0.5250204254
 40
0.542315578
 40
0.5594346503
 40
0.5763678752
 40
0.5931059476
 40
0.6096400626
 40
0.6259619507
 40
0.6420639173
 40
0.6579388824
 40
0.6735804243
 40
0.6889828256
 40
0.704141119
 40
0.7190511346
 40
0.7337095508
 40
0.7481139469
 40
0.7622628597
 40
0.7761558405
 40
0.7897935106
 40
0.8031776201
 40
0.8163111063
 40
0.8291981524
 40
0.8418442444
 40
0.8542562197
 40
0.8603772761
 40
0.8664430108
 40
0.8784128859
 40
0.8901776673
 40
0.8959874291
 40
0.901750764
 40
0.9074694753
 40
0.9131454513
 40
0.9187806752
 40
0.9243772098
 40
0.9299372058
 40
0.9354628943
 40
0.9409565818
 40
0.9464206534
 40
0.9518575593
 40
0.9572698189
 40
0.9626600106
 40
0.9680307667
 40
0.973384771
 40
0.9787247471
 40
0.9840534573
 40
0.9893736919
 40
0.9946882635
 40
1.0
 40
1.0
 40
1.0
 40
1.0
 10
15.2508835562
 20
13.8935659743
 30
0.0
 10
15.2626879026
 20
13.8935659743
 30
0.0
 10
15.286416203
 20
13.8933062338
 30
0.0
 10
15.3221623021
 20
13.8921521441
 30
0.0
 10
15.35821068
 20
13.8902326837
 30
0.0
 10
15.3945234345
 20
13.8875499284
 30
0.0
 10
15.431062974
 20
13.884106621
 30
0.0
 10
15.4677911975
 20
13.8799063647
 30
0.0
 10
15.5046698994
 20
13.8749535272
 30
0.0
 10
15.5416606913
 20
13.8692532696
 30
0.0
 10
15.5787250711
 20
13.8628115268
 30
0.0
 10
15.6158244592
 20
13.8556350028
 30
0.0
 10
15.6529202372
 20
13.847731164
 30
0.0
 10
15.6899737899
 20
13.8391082367
 30
0.0
 10
15.7269465465
 20
13.829775202
 30
0.0
 10
15.7638000194
 20
13.8197417767
 30
0.0
 10
15.8004958446
 20
13.8090184049
 30
0.0
 10
15.8369958214
 20
13.7976162471
 30
0.0
 10
15.8732619517
 20
13.7855471688
 30
0.0
 10
15.9092564841
 20
13.7728237387
 30
0.0
 10
15.9449419498
 20
13.7594592037
 30
0.0
 10
15.9802812013
 20
13.7454674761
 30
0.0
 10
16.0152374511
 20
13.7308631192
 30
0.0
 10
16.0497743093
 20
13.7156613305
 30
0.0
 10
16.0838558268
 20
13.6998779364
 30
0.0
 10
16.1174465302
 20
13.6835293684
 30
0.0
 10
16.1505114571
 20
13.6666326427
 30
0.0
 10
16.1830161919
 20
13.6492053441
 30
0.0
 10
16.2149269012
 20
13.6312656052
 30
0.0
 10
16.2462103734
 20
13.6128320941
 30
0.0
 10
16.2768340547
 20
13.5939239955
 30
0.0
 10
16.3067660778
 20
13.5745609824
 30
0.0
 10
16.335975295
 20
13.5547631978
 30
0.0
 10
16.3644313098
 20
13.5345512327
 30
0.0
 10
16.3921045108
 20
13.5139461047
 30
0.0
 10
16.4189661084
 20
13.4929692443
 30
0.0
 10
16.4449881579
 20
13.4716424611
 30
0.0
 10
16.4701435863
 20
13.4499879229
 30
0.0
 10
16.4944062203
 20
13.4280281319
 30
0.0
 10
16.5177508124
 20
13.4057858993
 30
0.0
 10
16.540153077
 20
13.3832843296
 30
0.0
 10
16.5615897074
 20
13.3605467887
 30
0.0
 10
16.582038396
 20
13.3375968781
 30
0.0
 10
16.6014778557
 20
13.3144584113
 30
0.0
 10
16.6198878391
 20
13.2911553862
 30
0.0
 10
16.6372491665
 20
13.2677119663
 30
0.0
 10
16.653543744
 20
13.2441524535
 30
0.0
 10
16.6687545698
 20
13.2205012615
 30
0.0
 10
16.6828657531
 20
13.196782884
 30
0.0
 10
16.6958625126
 20
13.1730219064
 30
0.0
 10
16.7077312416
 20
13.1492428526
 30
0.0
 10
16.7184593539
 20
13.1254706442
 30
0.0
 10
16.726476418
 20
13.105595083
 30
0.0
 10
16.7323001
 20
13.0897256253
 30
0.0
 10
16.7376840557
 20
13.0740224903
 30
0.0
 10
16.7436933366
 20
13.0544392166
 30
0.0
 10
16.7487681198
 20
13.0347741694
 30
0.0
 10
16.752226675
 20
13.0191135253
 30
0.0
 10
16.7545129899
 20
13.0074522145
 30
0.0
 10
16.7565017888
 20
12.9958297799
 30
0.0
 10
16.7581925083
 20
12.9842491735
 30
0.0
 10
16.7595847563
 20
12.9727134427
 30
0.0
 10
16.7606781095
 20
12.9612255823
 30
0.0
 10
16.7614722963
 20
12.9497885943
 30
0.0
 10
16.7619671137
 20
12.9384054625
 30
0.0
 10
16.7621623758
 20
12.9270791566
 30
0.0
 10
16.7620580873
 20
12.9158126363
 30
0.0
 10
16.7616542067
 20
12.9046088437
 30
0.0
 10
16.7609508669
 20
12.8934707074
 30
0.0
 10
16.7599482463
 20
12.8824011372
 30
0.0
 10
16.7586465609
 20
12.8714030322
 30
0.0
 10
16.7570462075
 20
12.8604792625
 30
0.0
 10
16.7551475336
 20
12.8496326925
 30
0.0
 10
16.75295108
 20
12.838866162
 30
0.0
 10
16.750457398
 20
12.8281824599
 30
0.0
 10
16.7476671446
 20
12.8175844995
 30
0.0
 10
16.7456095152
 20
12.8105772986
 30
0.0
 10
16.7445318683
 20
12.8070900268
 30
0.0
  0
SPLINE
  5
2F2
100
AcDbEntity
  8
LAYER_CUT_FEAT
100
AcDbSpline
 62
7
  6
CONTINUOUS
 70
0
 71
3
 72
80
 73
76
 74
0
 42
0.0000001
 43
0.0000001
 44
0.0000000001
 40
0.0
 40
0.0
 40
0.0
 40
0.0
 40
0.0053540951
 40
0.0107128794
 40
0.016081022
 40
0.0214631515
 40
0.0268638371
 40
0.0322875688
 40
0.0377387418
 40
0.0432216367
 40
0.0487404097
 40
0.0542990715
 40
0.0599014853
 40
0.0655513439
 40
0.0712521754
 40
0.07700732
 40
0.0828199416
 40
0.0886930052
 40
0.1006301234
 40
0.1128399033
 40
0.119052965
 40
0.1253402259
 40
0.1381426334
 40
0.151259008
 40
0.164697309
 40
0.1784628146
 40
0.1925582771
 40
0.2069840819
 40
0.2217384055
 40
0.2368173707
 40
0.2522151956
 40
0.2679243357
 40
0.2839356192
 40
0.3002383748
 40
0.3168205523
 40
0.3336688366
 40
0.3507687562
 40
0.3681047851
 40
0.3856604406
 40
0.4034183764
 40
0.4213604721
 40
0.439467919
 40
0.4577213032
 40
0.4761006864
 40
0.4945856844
 40
0.5131555442
 40
0.5317892195
 40
0.5504654449
 40
0.5691628103
 40
0.5878598337
 40
0.606535034
 40
0.6251670045
 40
0.6437344859
 40
0.6622164399
 40
0.6805921239
 40
0.6988411669
 40
0.7169436459
 40
0.734880165
 40
0.7526319362
 40
0.7701808623
 40
0.7875096234
 40
0.8046017656
 40
0.8214417953
 40
0.838015276
 40
0.8543089312
 40
0.8703107528
 40
0.8860101153
 40
0.9013978968
 40
0.9164666065
 40
0.9312105218
 40
0.9456258252
 40
0.959710771
 40
0.9734657916
 40
0.9868937745
 40
1.0
 40
1.0
 40
1.0
 40
1.0
 10
14.6075686161
 20
12.4660226695
 30
0.0
 10
14.6084495072
 20
12.4688732256
 30
0.0
 10
14.6103152587
 20
12.4745455313
 30
0.0
 10
14.6134212514
 20
12.4829531279
 30
0.0
 10
14.6168338119
 20
12.4912580402
 30
0.0
 10
14.6205514332
 20
12.4994565414
 30
0.0
 10
14.6245725156
 20
12.5075451437
 30
0.0
 10
14.6288953036
 20
12.5155203663
 30
0.0
 10
14.6335179463
 20
12.5233787745
 30
0.0
 10
14.6384384105
 20
12.531117016
 30
0.0
 10
14.6436546053
 20
12.5387317479
 30
0.0
 10
14.649164228
 20
12.5462197439
 30
0.0
 10
14.6549649487
 20
12.5535777613
 30
0.0
 10
14.6610542064
 20
12.5608027013
 30
0.0
 10
14.6674294349
 20
12.5678914331
 30
0.0
 10
14.6740878127
 20
12.5748409719
 30
0.0
 10
14.6810265938
 20
12.5816483572
 30
0.0
 10
14.6906997263
 20
12.5905792073
 30
0.0
 10
14.7034942412
 20
12.6013721093
 30
0.0
 10
14.7170317396
 20
12.6115339875
 30
0.0
 10
14.7283704712
 20
12.6193490448
 30
0.0
 10
14.7401890905
 20
12.6270411568
 30
0.0
 10
14.7556083711
 20
12.636240777
 30
0.0
 10
14.7749805612
 20
12.6465401284
 30
0.0
 10
14.7952996627
 20
12.6561483366
 30
0.0
 10
14.816530633
 20
12.6650491088
 30
0.0
 10
14.8386373522
 20
12.6732275916
 30
0.0
 10
14.8615821089
 20
12.6806700438
 30
0.0
 10
14.8853258103
 20
12.6873639612
 30
0.0
 10
14.9098279969
 20
12.6932980754
 30
0.0
 10
14.9350469184
 20
12.6984623847
 30
0.0
 10
14.9609395965
 20
12.7028481743
 30
0.0
 10
14.9874618973
 20
12.7064480359
 30
0.0
 10
15.0145686039
 20
12.7092558845
 30
0.0
 10
15.0422134929
 20
12.7112669722
 30
0.0
 10
15.0703494134
 20
12.7124778993
 30
0.0
 10
15.0989283668
 20
12.7128866231
 30
0.0
 10
15.1279015898
 20
12.7124924631
 30
0.0
 10
15.1572196377
 20
12.7112961047
 30
0.0
 10
15.1868324696
 20
12.7092995989
 30
0.0
 10
15.2166895347
 20
12.70650636
 30
0.0
 10
15.2467398594
 20
12.7029211609
 30
0.0
 10
15.2769321348
 20
12.6985501259
 30
0.0
 10
15.3072148055
 20
12.6934007204
 30
0.0
 10
15.3375361578
 20
12.6874817388
 30
0.0
 10
15.3678444091
 20
12.6808032898
 30
0.0
 10
15.3980877969
 20
12.6733767795
 30
0.0
 10
15.4282146677
 20
12.6652148917
 30
0.0
 10
15.458173566
 20
12.6563315664
 30
0.0
 10
15.4879133226
 20
12.6467419762
 30
0.0
 10
15.5173831427
 20
12.6364624999
 30
0.0
 10
15.5465326929
 20
12.6255106943
 30
0.0
 10
15.5753121881
 20
12.6139052645
 30
0.0
 10
15.6036724765
 20
12.6016660308
 30
0.0
 10
15.6315651245
 20
12.588813895
 30
0.0
 10
15.6589424993
 20
12.5753708038
 30
0.0
 10
15.6857578512
 20
12.5613597109
 30
0.0
 10
15.7119653935
 20
12.5468045372
 30
0.0
 10
15.7375203811
 20
12.5317301286
 30
0.0
 10
15.762379187
 20
12.5161622127
 30
0.0
 10
15.7864993768
 20
12.5001273539
 30
0.0
 10
15.8098397809
 20
12.4836529059
 30
0.0
 10
15.8323605649
 20
12.4667669644
 30
0.0
 10
15.8540232967
 20
12.4494983163
 30
0.0
 10
15.8747910113
 20
12.4318763895
 30
0.0
 10
15.894628272
 20
12.4139311997
 30
0.0
 10
15.9135012299
 20
12.3956932973
 30
0.0
 10
15.9313776772
 20
12.3771937127
 30
0.0
 10
15.9482271017
 20
12.3584638999
 30
0.0
 10
15.9640207253
 20
12.3395356866
 30
0.0
 10
15.9787315717
 20
12.3204411949
 30
0.0
 10
15.9923344334
 20
12.3012128736
 30
0.0
 10
16.0048061153
 20
12.2818831269
 30
0.0
 10
16.0161248309
 20
12.2624853784
 30
0.0
 10
16.0229714097
 20
12.2493721739
 30
0.0
 10
16.0261888802
 20
12.2428156584
 30
0.0
  0
SPLINE
  5
2F3
100
AcDbEntity
  8
LAYER_CHAMFER_FEAT
100
AcDbSpline
 62
7
  6
CONTINUOUS
 70
0
 71
3
 72
86
 73
82
 74
0
 42
0.0000001
 43
0.0000001
 44
0.0000000001
 40
0.0
 40
0.0
 40
0.0
 40
0.0
 40
0.0157577766
 40
0.0311470742
 40
0.0461642075
 40
0.060808249
 40
0.0750812515
 40
0.0889884683
 40
0.1025385676
 40
0.1091840369
 40
0.1157451547
 40
0.1286216945
 40
0.1411895432
 40
0.1473658772
 40
0.1534744061
 40
0.1595187724
 40
0.1655028491
 40
0.1714307662
 40
0.1773068681
 40
0.1831357274
 40
0.1889221219
 40
0.1946710132
 40
0.2003875453
 40
0.2060770041
 40
0.2117448117
 40
0.2173964925
 40
0.2230376498
 40
0.2286739405
 40
0.2343110446
 40
0.2399546385
 40
0.2456103657
 40
0.2512838119
 40
0.2569804713
 40
0.2627057333
 40
0.2684648428
 40
0.274262893
 40
0.2801047987
 40
0.2859952738
 40
0.2919388347
 40
0.297939759
 40
0.304002106
 40
0.3163244443
 40
0.3289350969
 40
0.3418575541
 40
0.355111285
 40
0.368711831
 40
0.3826709534
 40
0.3969968198
 40
0.411694211
 40
0.4267647363
 40
0.4422070613
 40
0.4580171259
 40
0.4741883543
 40
0.490711854
 40
0.5075766011
 40
0.5247696205
 40
0.5422761578
 40
0.5600798368
 40
0.5781628079
 40
0.5965058874
 40
0.6150886891
 40
0.6338897564
 40
0.6528866845
 40
0.6720562376
 40
0.6913744616
 40
0.7108167927
 40
0.7303581669
 40
0.7499731271
 40
0.7696359263
 40
0.7893206295
 40
0.809001215
 40
0.8286516776
 40
0.8482461307
 40
0.8677589073
 40
0.8871646654
 40
0.9064384864
 40
0.9255559771
 40
0.9444934582
 40
0.9632277338
 40
0.9817372186
 40
1.0
 40
1.0
 40
1.0
 40
1.0
 10
14.8687210352
 20
11.7960443119
 30
0.0
 10
14.8637531967
 20
11.7948759877
 30
0.0
 10
14.8539766573
 20
11.7923784627
 30
0.0
 10
14.8396489052
 20
11.7880926521
 30
0.0
 10
14.8258567246
 20
11.7833191402
 30
0.0
 10
14.8126274488
 20
11.7780671988
 30
0.0
 10
14.799986878
 20
11.7723468718
 30
0.0
 10
14.7879600853
 20
11.7661692988
 30
0.0
 10
14.7784073494
 20
11.7606143076
 30
0.0
 10
14.7711026803
 20
11.7559505549
 30
0.0
 10
14.7641130158
 20
11.7512051302
 30
0.0
 10
14.7557912188
 20
11.7450147058
 30
0.0
 10
14.7479558821
 20
11.7384095061
 30
0.0
 10
14.7420576441
 20
11.7329309318
 30
0.0
 10
14.737841539
 20
11.7287505233
 30
0.0
 10
14.7338098091
 20
11.7244772501
 30
0.0
 10
14.7299644635
 20
11.7201131133
 30
0.0
 10
14.7263073657
 20
11.7156603196
 30
0.0
 10
14.7228403723
 20
11.7111210151
 30
0.0
 10
14.7195651998
 20
11.7064974445
 30
0.0
 10
14.7164834534
 20
11.7017919005
 30
0.0
 10
14.7135967291
 20
11.6970066653
 30
0.0
 10
14.7109063952
 20
11.6921441459
 30
0.0
 10
14.7084138591
 20
11.6872067076
 30
0.0
 10
14.7061203307
 20
11.6821968142
 30
0.0
 10
14.7040269477
 20
11.6771169472
 30
0.0
 10
14.7021348036
 20
11.671969607
 30
0.0
 10
14.7004447643
 20
11.6667573742
 30
0.0
 10
14.6989577503
 20
11.6614828089
 30
0.0
 10
14.6976744385
 20
11.6561485486
 30
0.0
 10
14.6965954798
 20
11.6507572342
 30
0.0
 10
14.6957214323
 20
11.645311539
 30
0.0
 10
14.6950526532
 20
11.6398141733
 30
0.0
 10
14.6945895491
 20
11.634267854
 30
0.0
 10
14.69433226
 20
11.6286753364
 30
0.0
 10
14.6942809418
 20
11.6230393853
 30
0.0
 10
14.6944356075
 20
11.6173627925
 30
0.0
 10
14.6947961181
 20
11.6116483541
 30
0.0
 10
14.6953623517
 20
11.605898917
 30
0.0
 10
14.6961339475
 20
11.6001172387
 30
0.0
 10
14.6974430585
 20
11.592327612
 30
0.0
 10
14.6996007537
 20
11.5825160519
 30
0.0
 10
14.7029891982
 20
11.5707257042
 30
0.0
 10
14.7071838028
 20
11.5588773048
 30
0.0
 10
14.7121758672
 20
11.546994358
 30
0.0
 10
14.7179552737
 20
11.5350998974
 30
0.0
 10
14.72451042
 20
11.5232170941
 30
0.0
 10
14.7318282555
 20
11.5113690557
 30
0.0
 10
14.7398942856
 20
11.4995788428
 30
0.0
 10
14.7486925796
 20
11.48786941
 30
0.0
 10
14.7582058073
 20
11.4762635777
 30
0.0
 10
14.768415263
 20
11.4647839854
 30
0.0
 10
14.7793008943
 20
11.4534530479
 30
0.0
 10
14.7908413355
 20
11.4422929131
 30
0.0
 10
14.8030139347
 20
11.4313254081
 30
0.0
 10
14.8157947996
 20
11.4205719962
 30
0.0
 10
14.829158848
 20
11.4100537379
 30
0.0
 10
14.8430798542
 20
11.3997912454
 30
0.0
 10
14.8575304988
 20
11.3898046414
 30
0.0
 10
14.8724824188
 20
11.3801135178
 30
0.0
 10
14.887906257
 20
11.3707368846
 30
0.0
 10
14.903771728
 20
11.3616931431
 30
0.0
 10
14.9200476778
 20
11.3530000469
 30
0.0
 10
14.9367021446
 20
11.344674666
 30
0.0
 10
14.9537024215
 20
11.3367333549
 30
0.0
 10
14.9710151158
 20
11.3291917104
 30
0.0
 10
14.9886062173
 20
11.3220645419
 30
0.0
 10
15.0064411693
 20
11.315365849
 30
0.0
 10
15.024484936
 20
11.3091087915
 30
0.0
 10
15.0427020706
 20
11.3033056647
 30
0.0
 10
15.0610567853
 20
11.2979678741
 30
0.0
 10
15.0795130193
 20
11.293105901
 30
0.0
 10
15.098034514
 20
11.2887292943
 30
0.0
 10
15.116584885
 20
11.2848466508
 30
0.0
 10
15.135127693
 20
11.2814655991
 30
0.0
 10
15.1536265111
 20
11.2785927887
 30
0.0
 10
15.1720450244
 20
11.2762338525
 30
0.0
 10
15.1903469945
 20
11.2743934494
 30
0.0
 10
15.2084966604
 20
11.273075133
 30
0.0
 10
15.2264580292
 20
11.2722815879
 30
0.0
 10
15.23836793
 20
11.2721021216
 30
0.0
 10
15.2442825817
 20
11.2721021216
 30
0.0
  0
SPLINE
  5
2F4
100
AcDbEntity
  8
02___PRT_ALL_AXES
100
AcDbSpline
 62
7
  6
CONTINUOUS
 70
0
 71
3
 72
75
 73
71
 74
0
 42
0.0000001
 43
0.0000001
 44
0.0000000001
 40
0.0
 40
0.0
 40
0.0
 40
0.0
 40
0.0171787661
 40
0.0345303182
 40
0.0520442416
 40
0.0697098867
 40
0.087516164
 40
0.1054517034
 40
0.1235048318
 40
0.1416636223
 40
0.1599159172
 40
0.1782493581
 40
0.1966514142
 40
0.21510941
 40
0.2336105527
 40
0.2521419597
 40
0.2706906858
 40
0.2892437495
 40
0.3077881607
 40
0.3263109471
 40
0.3447991811
 40
0.363240007
 40
0.3816206679
 40
0.3999285334
 40
0.4181511268
 40
0.4362761533
 40
0.4542915284
 40
0.4721854067
 40
0.4899462115
 40
0.5075626645
 40
0.525023817
 40
0.5423190814
 40
0.5594382637
 40
0.5763715975
 40
0.5931097784
 40
0.6096440007
 40
0.6259659942
 40
0.642068064
 40
0.6579431309
 40
0.673584774
 40
0.6889872756
 40
0.7041456672
 40
0.7190557788
 40
0.7337142889
 40
0.7481187782
 40
0.7622677834
 40
0.7761608547
 40
0.7897986128
 40
0.8031828078
 40
0.8163163783
 40
0.8292035082
 40
0.8418496824
 40
0.8542617378
 40
0.8603828333
 40
0.8664486067
 40
0.8784185584
 40
0.8901834162
 40
0.9017557723
 40
0.9131496785
 40
0.9243806165
 40
0.9354654439
 40
0.9464223125
 40
0.9572705581
 40
0.9680305605
 40
0.9733845988
 40
0.9787246099
 40
0.9840533543
 40
0.9893736233
 40
0.9946882292
 40
1.0
 40
1.0
 40
1.0
 40
1.0
 10
14.9104905191
 20
11.9522988294
 30
0.0
 10
14.9170950024
 20
11.9522988294
 30
0.0
 10
14.9303708217
 20
11.9521535109
 30
0.0
 10
14.9503705422
 20
11.9515077972
 30
0.0
 10
14.9705393547
 20
11.9504338802
 30
0.0
 10
14.9908561255
 20
11.948932889
 30
0.0
 10
15.0112997622
 20
11.94700638
 30
0.0
 10
15.0318489716
 20
11.9446563633
 30
0.0
 10
15.0524823719
 20
11.9418852836
 30
0.0
 10
15.0731784858
 20
11.9386960264
 30
0.0
 10
15.0939157718
 20
11.9350919112
 30
0.0
 10
15.1146726444
 20
11.9310766899
 30
0.0
 10
15.1354274974
 20
11.926654542
 30
0.0
 10
15.1561587259
 20
11.9218300708
 30
0.0
 10
15.1768447495
 20
11.9166082983
 30
0.0
 10
15.1974640344
 20
11.9109946602
 30
0.0
 10
15.2179951161
 20
11.9049950002
 30
0.0
 10
15.2384166218
 20
11.8986155639
 30
0.0
 10
15.2587072926
 20
11.8918629922
 30
0.0
 10
15.2788460062
 20
11.8847443146
 30
0.0
 10
15.2988117984
 20
11.8772669417
 30
0.0
 10
15.3185838852
 20
11.8694386573
 30
0.0
 10
15.3381416849
 20
11.8612676103
 30
0.0
 10
15.3574648387
 20
11.8527623064
 30
0.0
 10
15.3765332329
 20
11.8439315987
 30
0.0
 10
15.3953270193
 20
11.8347846789
 30
0.0
 10
15.4138266362
 20
11.8253310672
 30
0.0
 10
15.4320128286
 20
11.8155806026
 30
0.0
 10
15.4498666686
 20
11.8055434323
 30
0.0
 10
15.4673695748
 20
11.7952300011
 30
0.0
 10
15.4845033318
 20
11.7846510405
 30
0.0
 10
15.5012501091
 20
11.773817557
 30
0.0
 10
15.5175924801
 20
11.7627408206
 30
0.0
 10
15.5335134394
 20
11.7514323531
 30
0.0
 10
15.5489964212
 20
11.7399039154
 30
0.0
 10
15.5640253161
 20
11.7281674955
 30
0.0
 10
15.5785844878
 20
11.7162352952
 30
0.0
 10
15.5926587892
 20
11.7041197171
 30
0.0
 10
15.6062335775
 20
11.6918333519
 30
0.0
 10
15.6192947299
 20
11.6793889642
 30
0.0
 10
15.6318286569
 20
11.6667994793
 30
0.0
 10
15.6438223167
 20
11.6540779694
 30
0.0
 10
15.6552632277
 20
11.6412376392
 30
0.0
 10
15.6661394806
 20
11.6282918125
 30
0.0
 10
15.6764397502
 20
11.6152539176
 30
0.0
 10
15.6861533056
 20
11.6021374735
 30
0.0
 10
15.6952700203
 20
11.5889560755
 30
0.0
 10
15.7037803806
 20
11.575723383
 30
0.0
 10
15.7116754959
 20
11.5624531002
 30
0.0
 10
15.7189470991
 20
11.5491589832
 30
0.0
 10
15.7255875796
 20
11.5358547539
 30
0.0
 10
15.7315898923
 20
11.5225543534
 30
0.0
 10
15.736075388
 20
11.5114341043
 30
0.0
 10
15.7393337009
 20
11.5025552393
 30
0.0
 10
15.7423459851
 20
11.4937694499
 30
0.0
 10
15.7457081606
 20
11.4828126175
 30
0.0
 10
15.7491011741
 20
11.4696646242
 30
0.0
 10
15.7518310005
 20
11.4565888971
 30
0.0
 10
15.7538945764
 20
11.4435992061
 30
0.0
 10
15.7552895839
 20
11.4307090775
 30
0.0
 10
15.7560143885
 20
11.4179320408
 30
0.0
 10
15.7560680482
 20
11.4052814458
 30
0.0
 10
15.7554503967
 20
11.3927708756
 30
0.0
 10
15.7543747617
 20
11.3824552708
 30
0.0
 10
15.7531789832
 20
11.3742933827
 30
0.0
 10
15.7521167005
 20
11.3682247563
 30
0.0
 10
15.7508877906
 20
11.3622009619
 30
0.0
 10
15.7494925929
 20
11.3562234954
 30
0.0
 10
15.7479314672
 20
11.3502940033
 30
0.0
 10
15.7467802321
 20
11.34637352
 30
0.0
 10
15.7461772957
 20
11.3444224134
 30
0.0
  0
SPLINE
  5
2F5
100
AcDbEntity
  8
LAYER_CHAMFER_FEAT
100
AcDbSpline
 62
7
  6
CONTINUOUS
 70
0
 71
3
 72
69
 73
65
 74
0
 42
0.0000001
 43
0.0000001
 44
0.0000000001
 40
0.0
 40
0.0
 40
0.0
 40
0.0
 40
0.0180026611
 40
0.035733612
 40
0.0531903895
 40
0.0703714038
 40
0.0872758721
 40
0.1039039777
 40
0.1202568019
 40
0.1363364759
 40
0.1521461314
 40
0.1676900238
 40
0.1979982038
 40
0.2127817329
 40
0.2273281316
 40
0.2416476501
 40
0.2557517823
 40
0.2696533235
 40
0.2833662904
 40
0.2969059649
 40
0.3102887746
 40
0.3235322969
 40
0.3366551117
 40
0.349676746
 40
0.3626175102
 40
0.3754983788
 40
0.3883408163
 40
0.4011666094
 40
0.4139976868
 40
0.4268559305
 40
0.4397629946
 40
0.45274013
 40
0.4658080063
 40
0.4789865806
 40
0.492294928
 40
0.5057511709
 40
0.5193723262
 40
0.5331742945
 40
0.5471717346
 40
0.5613780953
 40
0.5758055296
 40
0.5904649447
 40
0.6053659659
 40
0.6359203229
 40
0.6515916178
 40
0.6675308717
 40
0.6837417754
 40
0.7002269958
 40
0.7169881264
 40
0.734025839
 40
0.7513398163
 40
0.7689289109
 40
0.786791078
 40
0.8049235228
 40
0.823322655
 40
0.8419841898
 40
0.8609031333
 40
0.8800738947
 40
0.8994903037
 40
0.9191454519
 40
0.939031873
 40
0.9591422176
 40
0.9794685879
 40
1.0
 40
1.0
 40
1.0
 40
1.0
 10
15.4585599977
 20
11.6137702893
 30
0.0
 10
15.4608113546
 20
11.6113065611
 30
0.0
 10
15.465219083
 20
11.6063600901
 30
0.0
 10
15.4715864666
 20
11.5988292943
 30
0.0
 10
15.4776545999
 20
11.5912493621
 30
0.0
 10
15.4834184241
 20
11.5836267108
 30
0.0
 10
15.4888730784
 20
11.5759676057
 30
0.0
 10
15.4940140658
 20
11.5682784739
 30
0.0
 10
15.4988370322
 20
11.5605656368
 30
0.0
 10
15.5033379733
 20
11.5528356078
 30
0.0
 10
15.5075131674
 20
11.545094545
 30
0.0
 10
15.5125976858
 20
11.5348546441
 30
0.0
 10
15.5170721614
 20
11.5245297222
 30
0.0
 10
15.5208895876
 20
11.5141512889
 30
0.0
 10
15.5233885914
 20
11.5064525316
 30
0.0
 10
15.5255448255
 20
11.4987816082
 30
0.0
 10
15.5273564385
 20
11.4911447436
 30
0.0
 10
15.5288219132
 20
11.4835483646
 30
0.0
 10
15.5299398795
 20
11.4759987872
 30
0.0
 10
15.5307094325
 20
11.4685023478
 30
0.0
 10
15.531129759
 20
11.4610653174
 30
0.0
 10
15.5312005482
 20
11.4536939529
 30
0.0
 10
15.5309215796
 20
11.446394457
 30
0.0
 10
15.5302931271
 20
11.439172987
 30
0.0
 10
15.5293155953
 20
11.4320356515
 30
0.0
 10
15.5279898364
 20
11.4249884858
 30
0.0
 10
15.5263169026
 20
11.4180374683
 30
0.0
 10
15.5242982186
 20
11.4111884883
 30
0.0
 10
15.5219354914
 20
11.4044473504
 30
0.0
 10
15.519230712
 20
11.3978197733
 30
0.0
 10
15.5161862306
 20
11.391311345
 30
0.0
 10
15.5128045973
 20
11.3849275878
 30
0.0
 10
15.5090887772
 20
11.3786738391
 30
0.0
 10
15.5050418718
 20
11.372555401
 30
0.0
 10
15.5006674224
 20
11.3665773403
 30
0.0
 10
15.4959690748
 20
11.3607447149
 30
0.0
 10
15.4909509057
 20
11.3550623162
 30
0.0
 10
15.4856170983
 20
11.349534934
 30
0.0
 10
15.4799722302
 20
11.3441670907
 30
0.0
 10
15.4740210058
 20
11.3389632805
 30
0.0
 10
15.4677685073
 20
11.3339277834
 30
0.0
 10
15.4612198331
 20
11.3290647061
 30
0.0
 10
15.4520249647
 20
11.3227638992
 30
0.0
 10
15.4423258619
 20
11.3168814595
 30
0.0
 10
15.4321783546
 20
11.3114154933
 30
0.0
 10
15.4242363318
 20
11.3074720141
 30
0.0
 10
15.416034819
 20
11.3037229055
 30
0.0
 10
15.4075804171
 20
11.3001712118
 30
0.0
 10
15.3988802584
 20
11.2968198244
 30
0.0
 10
15.3899415516
 20
11.2936715856
 30
0.0
 10
15.3807717721
 20
11.2907290219
 30
0.0
 10
15.3713785389
 20
11.2879946441
 30
0.0
 10
15.3617696938
 20
11.285470648
 30
0.0
 10
15.3519532298
 20
11.2831591822
 30
0.0
 10
15.3419373328
 20
11.2810621182
 30
0.0
 10
15.3317303457
 20
11.2791812258
 30
0.0
 10
15.321340775
 20
11.2775180466
 30
0.0
 10
15.310777267
 20
11.2760739621
 30
0.0
 10
15.3000486305
 20
11.274850192
 30
0.0
 10
15.2891638473
 20
11.2738477178
 30
0.0
 10
15.2781319469
 20
11.2730673968
 30
0.0
 10
15.2669619694
 20
11.272509849
 30
0.0
 10
15.2556635248
 20
11.2721756129
 30
0.0
 10
15.2480888266
 20
11.2721021216
 30
0.0
 10
15.2442825817
 20
11.2721021216
 30
0.0
  0
SPLINE
  5
2F6
100
AcDbEntity
  8
LAYER_FEATURE
100
AcDbSpline
 62
7
  6
CONTINUOUS
 70
0
 71
3
 72
21
 73
17
 74
0
 42
0.0000001
 43
0.0000001
 44
0.0000000001
 40
0.0
 40
0.0
 40
0.0
 40
0.0
 40
0.05941671
 40
0.1190368674
 40
0.178912434
 40
0.2390937403
 40
0.2996290549
 40
0.3605644481
 40
0.4219434391
 40
0.4838068321
 40
0.5461924877
 40
0.6091353755
 40
0.6726674161
 40
0.7368165902
 40
0.8670428097
 40
1.0
 40
1.0
 40
1.0
 40
1.0
 10
14.8408311857
 20
12.198718182
 30
0.0
 10
14.8403059655
 20
12.2002239415
 30
0.0
 10
14.8393198841
 20
12.2032641548
 30
0.0
 10
14.8380386777
 20
12.2078935428
 30
0.0
 10
14.8369543899
 20
12.2125941116
 30
0.0
 10
14.8360682086
 20
12.2173609581
 30
0.0
 10
14.8353809677
 20
12.2221892397
 30
0.0
 10
14.8348933873
 20
12.2270740274
 30
0.0
 10
14.8346059271
 20
12.2320103414
 30
0.0
 10
14.8345188675
 20
12.2369931492
 30
0.0
 10
14.8346322841
 20
12.2420173816
 30
0.0
 10
14.8349460224
 20
12.2470779159
 30
0.0
 10
14.8354597954
 20
12.2521696596
 30
0.0
 10
14.8364154088
 20
12.2590269909
 30
0.0
 10
14.8381149938
 20
12.2676549341
 30
0.0
 10
14.8399727702
 20
12.2744768368
 30
0.0
 10
14.8410263727
 20
12.2778862957
 30
0.0
  0
SPLINE
  5
2F7
100
AcDbEntity
  8
02___PRT_ALL_AXES
100
AcDbSpline
 62
7
  6
CONTINUOUS
 70
0
 71
3
 72
58
 73
54
 74
0
 42
0.0000001
 43
0.0000001
 44
0.0000000001
 40
0.0
 40
0.0
 40
0.0
 40
0.0
 40
0.010817218
 40
0.0217128024
 40
0.0327128031
 40
0.043842134
 40
0.05512412
 40
0.0665804245
 40
0.0782307425
 40
0.0900926737
 40
0.1021816911
 40
0.1145108881
 40
0.1270912154
 40
0.1399311839
 40
0.1530371501
 40
0.1664132251
 40
0.1800613642
 40
0.1939816052
 40
0.2081719334
 40
0.2226286973
 40
0.2373465286
 40
0.2523186122
 40
0.2675368362
 40
0.2829918747
 40
0.2986734905
 40
0.3145705398
 40
0.3306712559
 40
0.3469633265
 40
0.3634340639
 40
0.3800705317
 40
0.3968596565
 40
0.4137883443
 40
0.4480102266
 40
0.4826364908
 40
0.5175696147
 40
0.5527178544
 40
0.5879960946
 40
0.6233261882
 40
0.6586370959
 40
0.6938648205
 40
0.728952268
 40
0.7638491638
 40
0.7985119866
 40
0.8329039018
 40
0.8669948213
 40
0.8839220688
 40
0.900765893
 40
0.9175244464
 40
0.9341962655
 40
0.9507800545
 40
0.9672754327
 40
0.9836827702
 40
1.0
 40
1.0
 40
1.0
 40
1.0
 10
14.8400824951
 20
12.1984582056
 30
0.0
 10
14.8394483428
 20
12.1997504762
 30
0.0
 10
14.8382462202
 20
12.2023797821
 30
0.0
 10
14.8366520317
 20
12.206432709
 30
0.0
 10
14.8352624938
 20
12.2106041628
 30
0.0
 10
14.8340785906
 20
12.214891831
 30
0.0
 10
14.8331009654
 20
12.2192933348
 30
0.0
 10
14.8323302063
 20
12.2238059951
 30
0.0
 10
14.8317666976
 20
12.2284268573
 30
0.0
 10
14.831410652
 20
12.2331526638
 30
0.0
 10
14.8312621518
 20
12.2379798282
 30
0.0
 10
14.8313210147
 20
12.242904433
 30
0.0
 10
14.831586951
 20
12.2479221914
 30
0.0
 10
14.8320593786
 20
12.2530284676
 30
0.0
 10
14.832737553
 20
12.2582182433
 30
0.0
 10
14.833620482
 20
12.2634861345
 30
0.0
 10
14.8347069204
 20
12.2688264025
 30
0.0
 10
14.8359954311
 20
12.2742329359
 30
0.0
 10
14.8374842749
 20
12.279699314
 30
0.0
 10
14.83917153
 20
12.2852187747
 30
0.0
 10
14.8410550042
 20
12.2907842877
 30
0.0
 10
14.8431322897
 20
12.2963885561
 30
0.0
 10
14.8454007798
 20
12.3020240485
 30
0.0
 10
14.8478576356
 20
12.3076830589
 30
0.0
 10
14.8504998718
 20
12.3133576993
 30
0.0
 10
14.8533243038
 20
12.3190399798
 30
0.0
 10
14.8563276198
 20
12.3247218048
 30
0.0
 10
14.8595063757
 20
12.3303950252
 30
0.0
 10
14.8628570079
 20
12.3360514722
 30
0.0
 10
14.8663758778
 20
12.341682948
 30
0.0
 10
14.8700592697
 20
12.3472813437
 30
0.0
 10
14.875203034
 20
12.3547172541
 30
0.0
 10
14.882021295
 20
12.3638772215
 30
0.0
 10
14.8907693722
 20
12.3745698313
 30
0.0
 10
14.9000821705
 20
12.3849410174
 30
0.0
 10
14.9099279001
 20
12.3949300798
 30
0.0
 10
14.9202743075
 20
12.404478032
 30
0.0
 10
14.9310881666
 20
12.413527363
 30
0.0
 10
14.9423349103
 20
12.4220221439
 30
0.0
 10
14.9539781158
 20
12.4299081246
 30
0.0
 10
14.9659789921
 20
12.437132978
 30
0.0
 10
14.9782958242
 20
12.4436466749
 30
0.0
 10
14.9908836995
 20
12.4494020689
 30
0.0
 10
15.0036935585
 20
12.4543554632
 30
0.0
 10
15.014536556
 20
12.4577906871
 30
0.0
 10
15.0232687118
 20
12.4600984325
 30
0.0
 10
15.0298237223
 20
12.4616028051
 30
0.0
 10
15.0363918124
 20
12.4628814885
 30
0.0
 10
15.0429653062
 20
12.4639316341
 30
0.0
 10
15.0495362602
 20
12.4647510286
 30
0.0
 10
15.056096777
 20
12.4653378176
 30
0.0
 10
15.0626384423
 20
12.465690617
 30
0.0
 10
15.0669936056
 20
12.4657696187
 30
0.0
 10
15.0691649941
 20
12.4657696187
 30
0.0
  0
SPLINE
  5
2F8
100
AcDbEntity
  8
LAYER_FEATURE
100
AcDbSpline
 62
7
  6
CONTINUOUS
 70
0
 71
3
 72
14
 73
10
 74
0
 42
0.0000001
 43
0.0000001
 44
0.0000000001
 40
0.0
 40
0.0
 40
0.0
 40
0.0
 40
0.1209907897
 40
0.2423831371
 40
0.3645693064
 40
0.4879326053
 40
0.6128451193
 40
0.7396575793
 40
1.0
 40
1.0
 40
1.0
 40
1.0
 10
16.4271222503
 20
12.942160551
 30
0.0
 10
16.4271699805
 20
12.9423150003
 30
0.0
 10
16.4272547052
 20
12.9426278988
 30
0.0
 10
16.4273487574
 20
12.9431062197
 30
0.0
 10
16.4274097404
 20
12.9435930848
 30
0.0
 10
16.4274375172
 20
12.9440876526
 30
0.0
 10
16.4274320853
 20
12.9445891689
 30
0.0
 10
16.4273801287
 20
12.9452717164
 30
0.0
 10
16.4272916226
 20
12.9457830896
 30
0.0
 10
16.427212762
 20
12.946121877
 30
0.0
  0
SPLINE
  5
2F9
100
AcDbEntity
  8
LAYER_FEATURE
100
AcDbSpline
 62
7
  6
CONTINUOUS
 70
0
 71
3
 72
15
 73
11
 74
0
 42
0.0000001
 43
0.0000001
 44
0.0000000001
 40
0.0
 40
0.0
 40
0.0
 40
0.0
 40
0.1137800889
 40
0.2287897026
 40
0.3461935876
 40
0.4670397463
 40
0.5922183129
 40
0.7224397289
 40
0.8582603159
 40
1.0
 40
1.0
 40
1.0
 40
1.0
 10
16.3668863153
 20
13.0824869188
 30
0.0
 10
16.3669728455
 20
13.0827669419
 30
0.0
 10
16.3671109021
 20
13.0833418307
 30
0.0
 10
16.3672080161
 20
13.084230515
 30
0.0
 10
16.3671954255
 20
13.0851426024
 30
0.0
 10
16.3670734378
 20
13.086072782
 30
0.0
 10
16.3668430548
 20
13.0870160158
 30
0.0
 10
16.3665058019
 20
13.0879673501
 30
0.0
 10
16.3660637251
 20
13.0889216796
 30
0.0
 10
16.3657084972
 20
13.0895432366
 30
0.0
 10
16.3655153007
 20
13.0898530427
 30
0.0
  0
SPLINE
  5
2FA
100
AcDbEntity
  8
LAYER_FEATURE
100
AcDbSpline
 62
7
  6
CONTINUOUS
 70
0
 71
3
 72
22
 73
18
 74
0
 42
0.0000001
 43
0.0000001
 44
0.0000000001
 40
0.0
 40
0.0
 40
0.0
 40
0.0
 40
0.0528241071
 40
0.1059487714
 40
0.1596670394
 40
0.2142554411
 40
0.2699682006
 40
0.3270320442
 40
0.4458902383
 40
0.5080613724
 40
0.5721805029
 40
0.6383208037
 40
0.7065237778
 40
0.776807249
 40
0.8491723655
 40
0.9235959468
 40
1.0
 40
1.0
 40
1.0
 40
1.0
 10
16.254148138
 20
13.2195385527
 30
0.0
 10
16.2542107589
 20
13.219741179
 30
0.0
 10
16.254317582
 20
13.2201536576
 30
0.0
 10
16.2544207126
 20
13.2207872097
 30
0.0
 10
16.2544666583
 20
13.2214345838
 30
0.0
 10
16.2544553591
 20
13.222093815
 30
0.0
 10
16.2543868551
 20
13.222763068
 30
0.0
 10
16.25421744
 20
13.2236783235
 30
0.0
 10
16.2539336059
 20
13.2245953829
 30
0.0
 10
16.2535487133
 20
13.2255017263
 30
0.0
 10
16.2532012995
 20
13.2261924223
 30
0.0
 10
16.2528005151
 20
13.2268816021
 30
0.0
 10
16.2523475275
 20
13.2275674897
 30
0.0
 10
16.2518435694
 20
13.2282481534
 30
0.0
 10
16.2512900448
 20
13.2289217777
 30
0.0
 10
16.2506885298
 20
13.2295863905
 30
0.0
 10
16.2502621759
 20
13.2300167346
 30
0.0
 10
16.2500417071
 20
13.23023002
 30
0.0
  0
SPLINE
  5
2FB
100
AcDbEntity
  8
LAYER_FEATURE
100
AcDbSpline
 62
7
  6
CONTINUOUS
 70
0
 71
3
 72
20
 73
16
 74
0
 42
0.0000001
 43
0.0000001
 44
0.0000000001
 40
0.0
 40
0.0
 40
0.0
 40
0.0
 40
0.0511266465
 40
0.1034720609
 40
0.1571630045
 40
0.2123040464
 40
0.3272093336
 40
0.3871298726
 40
0.448722601
 40
0.5119991039
 40
0.5769547257
 40
0.6435715055
 40
0.7118152975
 40
0.852979578
 40
1.0
 40
1.0
 40
1.0
 40
1.0
 10
16.0900116902
 20
13.3226921881
 30
0.0
 10
16.0900465741
 20
13.3224309857
 30
0.0
 10
16.0901367809
 20
13.3219047934
 30
0.0
 10
16.0903292812
 20
13.3211173287
 30
0.0
 10
16.0905800501
 20
13.3203246805
 30
0.0
 10
16.0909968531
 20
13.3192487795
 30
0.0
 10
16.0915250076
 20
13.3181842227
 30
0.0
 10
16.0921513595
 20
13.317138556
 30
0.0
 10
16.0926817579
 20
13.3163469265
 30
0.0
 10
16.0932649393
 20
13.3155608845
 30
0.0
 10
16.0938995863
 20
13.3147820907
 30
0.0
 10
16.0945842958
 20
13.3140123311
 30
0.0
 10
16.0955729809
 20
13.3129888149
 30
0.0
 10
16.096926913
 20
13.3117443366
 30
0.0
 10
16.0980907861
 20
13.3108192854
 30
0.0
 10
16.0986991028
 20
13.3103674114
 30
0.0
  0
SPLINE
  5
2FC
100
AcDbEntity
  8
LAYER_FEATURE
100
AcDbSpline
 62
7
  6
CONTINUOUS
 70
0
 71
3
 72
24
 73
20
 74
0
 42
0.0000001
 43
0.0000001
 44
0.0000000001
 40
0.0
 40
0.0
 40
0.0
 40
0.0
 40
0.0492558157
 40
0.0989874639
 40
0.1496512536
 40
0.2016664131
 40
0.2553896855
 40
0.3111153906
 40
0.3398102519
 40
0.3690854892
 40
0.4294350225
 40
0.4922781377
 40
0.5576590901
 40
0.6255715003
 40
0.6959640955
 40
0.7687437244
 40
0.8437831143
 40
0.9209378882
 40
1.0
 40
1.0
 40
1.0
 40
1.0
 10
16.0965906278
 20
13.3439756137
 30
0.0
 10
16.0966726511
 20
13.3442410714
 30
0.0
 10
16.0968052417
 20
13.3447851229
 30
0.0
 10
16.0969054431
 20
13.3456252067
 30
0.0
 10
16.0969071318
 20
13.346486815
 30
0.0
 10
16.0968105147
 20
13.3473654738
 30
0.0
 10
16.0966162854
 20
13.3482568806
 30
0.0
 10
16.0963764139
 20
13.3489995775
 30
0.0
 10
16.096138641
 20
13.3495953831
 30
0.0
 10
16.0958644461
 20
13.3502040804
 30
0.0
 10
16.095461788
 20
13.3509651892
 30
0.0
 10
16.0948929906
 20
13.3518651451
 30
0.0
 10
16.094236471
 20
13.3527567409
 30
0.0
 10
16.0934953995
 20
13.3536357453
 30
0.0
 10
16.0926733279
 20
13.354498046
 30
0.0
 10
16.0917741948
 20
13.3553395696
 30
0.0
 10
16.0908022267
 20
13.3561563717
 30
0.0
 10
16.0897621283
 20
13.3569444904
 30
0.0
 10
16.0890348457
 20
13.3574426981
 30
0.0
 10
16.0886613158
 20
13.3576863496
 30
0.0
  0
SPLINE
  5
2FD
100
AcDbEntity
  8
02___PRT_ALL_AXES
100
AcDbSpline
 62
7
  6
CONTINUOUS
 70
0
 71
3
 72
45
 73
41
 74
0
 42
0.0000001
 43
0.0000001
 44
0.0000000001
 40
0.0
 40
0.0
 40
0.0
 40
0.0
 40
0.0123993164
 40
0.0248058136
 40
0.0372266503
 40
0.0496689465
 40
0.0621397597
 40
0.0746460665
 40
0.087194748
 40
0.0997925615
 40
0.1251594593
 40
0.1508004691
 40
0.1767639016
 40
0.2030948652
 40
0.2298349856
 40
0.2433715137
 40
0.257024232
 40
0.284692682
 40
0.3128726276
 40
0.327163681
 40
0.3415921905
 40
0.3708705154
 40
0.4007281776
 40
0.4311804132
 40
0.4622389711
 40
0.4939122645
 40
0.5262055294
 40
0.5591209845
 40
0.5926579928
 40
0.6268132171
 40
0.6615807754
 40
0.6969523964
 40
0.7329175639
 40
0.7694636596
 40
0.8065760915
 40
0.8442384058
 40
0.8824325144
 40
0.9211383906
 40
0.9603354164
 40
1.0
 40
1.0
 40
1.0
 40
1.0
 10
14.696422753
 20
12.4385646645
 30
0.0
 10
14.6970507934
 20
12.4405970083
 30
0.0
 10
14.6983670223
 20
12.4446446751
 30
0.0
 10
14.7005196832
 20
12.4506583051
 30
0.0
 10
14.7028502794
 20
12.456613215
 30
0.0
 10
14.7053581592
 20
12.4625076312
 30
0.0
 10
14.7080425985
 20
12.4683399097
 30
0.0
 10
14.7109028172
 20
12.4741083796
 30
0.0
 10
14.7139380613
 20
12.4798114453
 30
0.0
 10
14.7182266488
 20
12.4873428327
 30
0.0
 10
14.7240283875
 20
12.4965919826
 30
0.0
 10
14.7316594931
 20
12.5073764668
 30
0.0
 10
14.7399672238
 20
12.5178606645
 30
0.0
 10
14.7489416644
 20
12.5280323544
 30
0.0
 10
14.7569348798
 20
12.5362056422
 30
0.0
 10
14.7636451978
 20
12.5425761398
 30
0.0
 10
14.77062725
 20
12.5488877328
 30
0.0
 10
14.7797592339
 20
12.5565613987
 30
0.0
 10
14.7893234186
 20
12.5638702673
 30
0.0
 10
14.7972729992
 20
12.5695361918
 30
0.0
 10
14.8055005138
 20
12.5751327537
 30
0.0
 10
14.8161631895
 20
12.5818918124
 30
0.0
 10
14.829476362
 20
12.589579586
 30
0.0
 10
14.8433543984
 20
12.5968750162
 30
0.0
 10
14.8577814504
 20
12.6037698738
 30
0.0
 10
14.8727412676
 20
12.6102565085
 30
0.0
 10
14.8882169535
 20
12.6163276802
 30
0.0
 10
14.9041910536
 20
12.621976616
 30
0.0
 10
14.9206455522
 20
12.6271970045
 30
0.0
 10
14.9375618941
 20
12.6319830101
 30
0.0
 10
14.9549210024
 20
12.6363292824
 30
0.0
 10
14.9727033015
 20
12.640230957
 30
0.0
 10
14.9908887385
 20
12.6436836636
 30
0.0
 10
15.009456805
 20
12.6466835316
 30
0.0
 10
15.028386556
 20
12.6492271929
 30
0.0
 10
15.0476566496
 20
12.6513118011
 30
0.0
 10
15.0672453028
 20
12.6529350038
 30
0.0
 10
15.0871305258
 20
12.6540950128
 30
0.0
 10
15.1072896517
 20
12.6547904804
 30
0.0
 10
15.1208193337
 20
12.6549430674
 30
0.0
 10
15.1276240112
 20
12.6549430674
 30
0.0
  0
SPLINE
  5
2FE
100
AcDbEntity
  8
LAYER_CHAMFER_FEAT
100
AcDbSpline
 62
7
  6
CONTINUOUS
 70
0
 71
3
 72
62
 73
58
 74
0
 42
0.0000001
 43
0.0000001
 44
0.0000000001
 40
0.0
 40
0.0
 40
0.0
 40
0.0
 40
0.0106255205
 40
0.0212736843
 40
0.0319668975
 40
0.0427271014
 40
0.0535755462
 40
0.0645326211
 40
0.0756176526
 40
0.0868487999
 40
0.098242919
 40
0.1098154868
 40
0.1215805679
 40
0.1335507373
 40
0.1457371383
 40
0.1581494225
 40
0.1707958316
 40
0.1836832039
 40
0.1968170135
 40
0.2102014634
 40
0.2238394694
 40
0.2377328028
 40
0.2518820695
 40
0.2662868249
 40
0.280945611
 40
0.295855994
 40
0.3110146734
 40
0.3264174565
 40
0.3420593935
 40
0.3579347551
 40
0.3740371223
 40
0.3903594231
 40
0.4068939479
 40
0.4236324449
 40
0.4405660901
 40
0.4576855924
 40
0.4749811782
 40
0.4924426532
 40
0.5100594364
 40
0.5278205679
 40
0.5457147819
 40
0.5637304899
 40
0.5818558542
 40
0.6000787865
 40
0.6367663568
 40
0.6736944962
 40
0.7107607938
 40
0.747861689
 40
0.7848933342
 40
0.8217524546
 40
0.8583372206
 40
0.8945480936
 40
0.9302888625
 40
0.9479546871
 40
0.9654689305
 40
0.9828214435
 40
1.0
 40
1.0
 40
1.0
 40
1.0
 10
14.7680666939
 20
11.6949513224
 30
0.0
 10
14.767384529
 20
11.6927438169
 30
0.0
 10
14.7661431573
 20
11.688284549
 30
0.0
 10
14.7646580892
 20
11.6814903272
 30
0.0
 10
14.7635505292
 20
11.6745946086
 30
0.0
 10
14.7628217558
 20
11.6676049787
 30
0.0
 10
14.7624723628
 20
11.6605287731
 30
0.0
 10
14.7625027386
 20
11.6533734845
 30
0.0
 10
14.7629126827
 20
11.6461466464
 30
0.0
 10
14.7637017153
 20
11.6388558522
 30
0.0
 10
14.764868906
 20
11.6315087402
 30
0.0
 10
14.7664129034
 20
11.624112976
 30
0.0
 10
14.7683320671
 20
11.616676284
 30
0.0
 10
14.7706242286
 20
11.6092063749
 30
0.0
 10
14.7732869971
 20
11.6017110316
 30
0.0
 10
14.7763174717
 20
11.5941980073
 30
0.0
 10
14.7797124641
 20
11.5866750985
 30
0.0
 10
14.7834683959
 20
11.5791501034
 30
0.0
 10
14.7875812801
 20
11.5716307928
 30
0.0
 10
14.7920468593
 20
11.5641249891
 30
0.0
 10
14.7968603972
 20
11.5566404241
 30
0.0
 10
14.8020169194
 20
11.5491848895
 30
0.0
 10
14.8075110087
 20
11.5417660842
 30
0.0
 10
14.8133369489
 20
11.5343917058
 30
0.0
 10
14.8194886842
 20
11.5270694142
 30
0.0
 10
14.8259597753
 20
11.519806772
 30
0.0
 10
14.8327435316
 20
11.5126113606
 30
0.0
 10
14.8398328475
 20
11.5054906009
 30
0.0
 10
14.8472203824
 20
11.4984519263
 30
0.0
 10
14.8548984299
 20
11.4915026246
 30
0.0
 10
14.8628590032
 20
11.4846499164
 30
0.0
 10
14.8710938365
 20
11.4779009449
 30
0.0
 10
14.8795943335
 20
11.4712626853
 30
0.0
 10
14.8883516848
 20
11.4647420887
 30
0.0
 10
14.8973567463
 20
11.4583458876
 30
0.0
 10
14.9066001712
 20
11.4520807694
 30
0.0
 10
14.9160723313
 20
11.4459532355
 30
0.0
 10
14.9257633655
 20
11.4399696526
 30
0.0
 10
14.9356632055
 20
11.4341362756
 30
0.0
 10
14.9457615236
 20
11.4284591299
 30
0.0
 10
14.9560478393
 20
11.4229441721
 30
0.0
 10
14.9665114122
 20
11.4175971034
 30
0.0
 10
14.9771414116
 20
11.4124234921
 30
0.0
 10
14.9915533334
 20
11.405749249
 30
0.0
 10
15.0099122624
 20
11.3978774159
 30
0.0
 10
15.0323772314
 20
11.3892265372
 30
0.0
 10
15.0552327521
 20
11.3813856714
 30
0.0
 10
15.0783836541
 20
11.3743874803
 30
0.0
 10
15.1017338279
 20
11.3682610158
 30
0.0
 10
15.1251862381
 20
11.3630317345
 30
0.0
 10
15.148643545
 20
11.3587213469
 30
0.0
 10
15.1720080747
 20
11.3553477809
 30
0.0
 10
15.1913952664
 20
11.3533209994
 30
0.0
 10
15.2067758701
 20
11.3521846571
 30
0.0
 10
15.2181837087
 20
11.3515772248
 30
0.0
 10
15.229495782
 20
11.3512120373
 30
0.0
 10
15.2370047549
 20
11.351129821
 30
0.0
 10
15.2407402073
 20
11.351129821
 30
0.0
  0
SPLINE
  5
2FF
100
AcDbEntity
  8
LAYER_CHAMFER_FEAT
100
AcDbSpline
 62
7
  6
CONTINUOUS
 70
0
 71
3
 72
39
 73
35
 74
0
 42
0.0000001
 43
0.0000001
 44
0.0000000001
 40
0.0
 40
0.0
 40
0.0
 40
0.0
 40
0.0248034971
 40
0.0496643315
 40
0.074639196
 40
0.0997834844
 40
0.1251507428
 40
0.1507921209
 40
0.1767559163
 40
0.2030872645
 40
0.2298277621
 40
0.2570153681
 40
0.2846842166
 40
0.312864552
 40
0.3415828162
 40
0.3708615537
 40
0.4007196421
 40
0.4311723173
 40
0.462231303
 40
0.4939050606
 40
0.5261987795
 40
0.5591147058
 40
0.5926521997
 40
0.6268078954
 40
0.6615759588
 40
0.6969480815
 40
0.7329137672
 40
0.7694603623
 40
0.8065733326
 40
0.8442363108
 40
0.882430644
 40
0.9211370595
 40
0.9603358424
 40
1.0
 40
1.0
 40
1.0
 40
1.0
 10
15.4846323208
 20
11.4735157958
 30
0.0
 10
15.4839217428
 20
11.4712163449
 30
0.0
 10
15.4823631864
 20
11.4666528305
 30
0.0
 10
15.4796233359
 20
11.4599444334
 30
0.0
 10
15.4764833049
 20
11.4533768742
 30
0.0
 10
15.4729469394
 20
11.4469579678
 30
0.0
 10
15.4690183126
 20
11.4406949831
 30
0.0
 10
15.4647020163
 20
11.4345950783
 30
0.0
 10
15.4600031161
 20
11.4286651252
 30
0.0
 10
15.454927005
 20
11.4229118663
 30
0.0
 10
15.4494796029
 20
11.4173417197
 30
0.0
 10
15.4436671485
 20
11.4119609526
 30
0.0
 10
15.4374963031
 20
11.4067755842
 30
0.0
 10
15.4309741425
 20
11.4017913595
 30
0.0
 10
15.424108053
 20
11.397013889
 30
0.0
 10
15.4169058715
 20
11.3924484342
 30
0.0
 10
15.4093757411
 20
11.3881001078
 30
0.0
 10
15.4015261846
 20
11.3839737532
 30
0.0
 10
15.393366091
 20
11.3800739266
 30
0.0
 10
15.3849046511
 20
11.3764050322
 30
0.0
 10
15.3761514375
 20
11.372971103
 30
0.0
 10
15.3671163123
 20
11.3697760041
 30
0.0
 10
15.3578094669
 20
11.3668233057
 30
0.0
 10
15.3482414048
 20
11.3641162721
 30
0.0
 10
15.3384229018
 20
11.3616579877
 30
0.0
 10
15.3283650412
 20
11.3594511496
 30
0.0
 10
15.3180791619
 20
11.3574982629
 30
0.0
 10
15.3075768615
 20
11.3558015129
 30
0.0
 10
15.2968699797
 20
11.3543627737
 30
0.0
 10
15.2859706208
 20
11.3531837206
 30
0.0
 10
15.2748910879
 20
11.3522655988
 30
0.0
 10
15.2636437056
 20
11.3516094797
 30
0.0
 10
15.2522414654
 20
11.3512161456
 30
0.0
 10
15.2445889106
 20
11.351129821
 30
0.0
 10
15.2407402073
 20
11.351129821
 30
0.0
  0
SPLINE
  5
300
100
AcDbEntity
  8
LAYER_FEATURE
100
AcDbSpline
 62
7
  6
CONTINUOUS
 70
0
 71
3
 72
15
 73
11
 74
0
 42
0.0000001
 43
0.0000001
 44
0.0000000001
 40
0.0
 40
0.0
 40
0.0
 40
0.0
 40
0.1392834321
 40
0.2741770867
 40
0.4047990267
 40
0.5312942288
 40
0.6538378691
 40
0.7726369353
 40
0.8879321637
 40
1.0
 40
1.0
 40
1.0
 40
1.0
 10
15.8279127263
 20
11.7039047263
 30
0.0
 10
15.827204365
 20
11.7030560766
 30
0.0
 10
15.8257786312
 20
11.7014113244
 30
0.0
 10
15.8235773007
 20
11.6990700774
 30
0.0
 10
15.8213497071
 20
11.696896608
 30
0.0
 10
15.8190977488
 20
11.6948928866
 30
0.0
 10
15.8168233315
 20
11.6930606789
 30
0.0
 10
15.8145283379
 20
11.6914016103
 30
0.0
 10
15.8122148166
 20
11.6899172796
 30
0.0
 10
15.8106402232
 20
11.6890332236
 30
0.0
 10
15.809851333
 20
11.6886224367
 30
0.0
  0
SPLINE
  5
301
100
AcDbEntity
  8
02___PRT_ALL_AXES
100
AcDbSpline
 62
7
  6
CONTINUOUS
 70
0
 71
3
 72
46
 73
42
 74
0
 42
0.0000001
 43
0.0000001
 44
0.0000000001
 40
0.0
 40
0.0
 40
0.0
 40
0.0
 40
0.0396646483
 40
0.0788612849
 40
0.1175671854
 40
0.1557611379
 40
0.1934233521
 40
0.2305356754
 40
0.2670816663
 40
0.3030467321
 40
0.338418251
 40
0.3731857074
 40
0.407340831
 40
0.4408777425
 40
0.4737931045
 40
0.5060862774
 40
0.5377594789
 40
0.5688179452
 40
0.5992700914
 40
0.6291276683
 40
0.6584059106
 40
0.6728343776
 40
0.6871253912
 40
0.7153052548
 40
0.7429736232
 40
0.7701607636
 40
0.7969008079
 40
0.8232316968
 40
0.8491950546
 40
0.8620540748
 40
0.8748384063
 40
0.8875541859
 40
0.9002077257
 40
0.9128055042
 40
0.9253541484
 40
0.9378604198
 40
0.9503311968
 40
0.962773457
 40
0.9751942582
 40
0.9876007193
 40
1.0
 40
1.0
 40
1.0
 40
1.0
 10
14.9104905191
 20
11.9522988294
 30
0.0
 10
14.9036858109
 20
11.9522988294
 30
0.0
 10
14.8901561453
 20
11.9521462482
 30
0.0
 10
14.8699970131
 20
11.9514507704
 30
0.0
 10
14.8501118213
 20
11.9502907739
 30
0.0
 10
14.8305231517
 20
11.9486675629
 30
0.0
 10
14.8112530648
 20
11.9465829557
 30
0.0
 10
14.7923233126
 20
11.9440392928
 30
0.0
 10
14.7737552456
 20
11.9410394267
 30
0.0
 10
14.7555698078
 20
11.9375867214
 30
0.0
 10
14.7377875086
 20
11.9336850467
 30
0.0
 10
14.7204284013
 20
11.9293387729
 30
0.0
 10
14.7035120606
 20
11.9245527652
 30
0.0
 10
14.687057562
 20
11.9193323771
 30
0.0
 10
14.6710834606
 20
11.9136834431
 30
0.0
 10
14.6556077738
 20
11.9076122725
 30
0.0
 10
14.6406479571
 20
11.9011256372
 30
0.0
 10
14.6262209066
 20
11.8942307779
 30
0.0
 10
14.6123428717
 20
11.8869353463
 30
0.0
 10
14.5990296981
 20
11.879247573
 30
0.0
 10
14.5883670213
 20
11.8724885189
 30
0.0
 10
14.5801395052
 20
11.8668919513
 30
0.0
 10
14.5721899341
 20
11.8612260412
 30
0.0
 10
14.5626256608
 20
11.853917089
 30
0.0
 10
14.5517157014
 20
11.8447493965
 30
0.0
 10
14.5414392658
 20
11.8352361982
 30
0.0
 10
14.5318082248
 20
11.825388157
 30
0.0
 10
14.5228337803
 20
11.8152165122
 30
0.0
 10
14.5158883238
 20
11.8064514175
 30
0.0
 10
14.5106771559
 20
11.7992929676
 30
0.0
 10
14.5069511502
 20
11.7938676115
 30
0.0
 10
14.5033963952
 20
11.7883705093
 30
0.0
 10
14.5000138696
 20
11.7828031707
 30
0.0
 10
14.4968045443
 20
11.7771671856
 30
0.0
 10
14.4937693331
 20
11.7714641466
 30
0.0
 10
14.4909091023
 20
11.7656956712
 30
0.0
 10
14.4882246645
 20
11.7598633949
 30
0.0
 10
14.4857167908
 20
11.7539689755
 30
0.0
 10
14.4833861833
 20
11.7480140701
 30
0.0
 10
14.4812335367
 20
11.7420004349
 30
0.0
 10
14.4799172981
 20
11.7379527713
 30
0.0
 10
14.4792892576
 20
11.7359204275
 30
0.0
  0
SPLINE
  5
302
100
AcDbEntity
  8
LAYER_FEATURE
100
AcDbSpline
 62
7
  6
CONTINUOUS
 70
0
 71
3
 72
46
 73
42
 74
0
 42
0.0000001
 43
0.0000001
 44
0.0000000001
 40
0.0
 40
0.0
 40
0.0
 40
0.0
 40
0.0475517155
 40
0.0938180973
 40
0.138742701
 40
0.1822849036
 40
0.2244077556
 40
0.2650791153
 40
0.3042752232
 40
0.3419802734
 40
0.3781872852
 40
0.4128998122
 40
0.4461327175
 40
0.477914185
 40
0.5082872336
 40
0.5373115075
 40
0.5650656943
 40
0.5916489764
 40
0.6171829974
 40
0.6418127374
 40
0.6538436366
 40
0.6657133507
 40
0.6774461712
 40
0.6890674561
 40
0.7006035532
 40
0.7120815302
 40
0.7235289495
 40
0.7349736692
 40
0.7464435587
 40
0.757966266
 40
0.7695689887
 40
0.7812781861
 40
0.7931194422
 40
0.8051173161
 40
0.8296680189
 40
0.8551078095
 40
0.8815837849
 40
0.9092199076
 40
0.9381174945
 40
0.968356987
 40
1.0
 40
1.0
 40
1.0
 40
1.0
 10
15.7814485286
 20
11.9944321502
 30
0.0
 10
15.7819993085
 20
11.9962144743
 30
0.0
 10
15.7831279936
 20
11.999718153
 30
0.0
 10
15.7849285561
 20
12.0048553107
 30
0.0
 10
15.7868110415
 20
12.0097951344
 30
0.0
 10
15.7887720908
 20
12.0145288725
 30
0.0
 10
15.7908083039
 20
12.0190484467
 30
0.0
 10
15.7929162117
 20
12.0233460053
 30
0.0
 10
15.795092135
 20
12.0274141098
 30
0.0
 10
15.7973323377
 20
12.0312457416
 30
0.0
 10
15.7996330152
 20
12.0348342786
 30
0.0
 10
15.8019902173
 20
12.0381735565
 30
0.0
 10
15.8044000066
 20
12.0412577984
 30
0.0
 10
15.8068583399
 20
12.0440816888
 30
0.0
 10
15.8093611424
 20
12.0466403355
 30
0.0
 10
15.8119043596
 20
12.0489292121
 30
0.0
 10
15.8144838099
 20
12.0509442481
 30
0.0
 10
15.817095409
 20
12.0526816832
 30
0.0
 10
15.8197346949
 20
12.0541380504
 30
0.0
 10
15.8219713485
 20
12.0551227056
 30
0.0
 10
15.8237653423
 20
12.055762075
 30
0.0
 10
15.8251041977
 20
12.0561662184
 30
0.0
 10
15.8264461343
 20
12.0564984409
 30
0.0
 10
15.8277905883
 20
12.0567585569
 30
0.0
 10
15.82913694
 20
12.0569464503
 30
0.0
 10
15.8304845803
 20
12.057062047
 30
0.0
 10
15.8318328978
 20
12.0571052564
 30
0.0
 10
15.8331812741
 20
12.0570760547
 30
0.0
 10
15.8345290944
 20
12.0569744893
 30
0.0
 10
15.8358757446
 20
12.0568005937
 30
0.0
 10
15.8372206101
 20
12.0565544335
 30
0.0
 10
15.8385630819
 20
12.0562361746
 30
0.0
 10
15.8399025894
 20
12.0558459541
 30
0.0
 10
15.8416973145
 20
12.0552252948
 30
0.0
 10
15.8439353614
 20
12.0542640478
 30
0.0
 10
15.8465770952
 20
12.0528350284
 30
0.0
 10
15.849191587
 20
12.0511246725
 30
0.0
 10
15.851774328
 20
12.0491363623
 30
0.0
 10
15.8543212362
 20
12.0468737987
 30
0.0
 10
15.8568280959
 20
12.0443411633
 30
0.0
 10
15.8584329393
 20
12.0425176023
 30
0.0
 10
15.859228413
 20
12.0415645871
 30
0.0
  0
SPLINE
  5
303
100
AcDbEntity
  8
LAYER_FEATURE
100
AcDbSpline
 62
7
  6
CONTINUOUS
 70
0
 71
3
 72
15
 73
11
 74
0
 42
0.0000001
 43
0.0000001
 44
0.0000000001
 40
0.0
 40
0.0
 40
0.0
 40
0.0
 40
0.1098100488
 40
0.2230315484
 40
0.3402205249
 40
0.4618578401
 40
0.5883504852
 40
0.7200342974
 40
0.8571806281
 40
1.0
 40
1.0
 40
1.0
 40
1.0
 10
15.8048999614
 20
12.0965328806
 30
0.0
 10
15.8059074482
 20
12.096174244
 30
0.0
 10
15.8079225617
 20
12.0953553869
 30
0.0
 10
15.8108824312
 20
12.0938590211
 30
0.0
 10
15.8138171617
 20
12.0920802627
 30
0.0
 10
15.816722529
 20
12.0900220252
 30
0.0
 10
15.8195947707
 20
12.0876873595
 30
0.0
 10
15.8224301465
 20
12.0850796882
 30
0.0
 10
15.8252248082
 20
12.0822027647
 30
0.0
 10
15.827021451
 20
12.0801501529
 30
0.0
 10
15.8279127268
 20
12.0790823553
 30
0.0
  0
SPLINE
  5
304
100
AcDbEntity
  8
LAYER_FEATURE
100
AcDbSpline
 62
7
  6
CONTINUOUS
 70
0
 71
3
 72
78
 73
74
 74
0
 42
0.0000001
 43
0.0000001
 44
0.0000000001
 40
0.0
 40
0.0
 40
0.0
 40
0.0
 40
0.0176367147
 40
0.0357018449
 40
0.0541702323
 40
0.0730192045
 40
0.0922240316
 40
0.1117584832
 40
0.1315956303
 40
0.1517077217
 40
0.1720661836
 40
0.1926417586
 40
0.2134046583
 40
0.2343245591
 40
0.2553707427
 40
0.2765121701
 40
0.2977175406
 40
0.3189554073
 40
0.3401942266
 40
0.3614024639
 40
0.3825486511
 40
0.403601489
 40
0.4245299162
 40
0.4453031802
 40
0.4658909627
 40
0.4862633973
 40
0.5063912229
 40
0.5262458405
 40
0.5457993736
 40
0.5650248567
 40
0.5838962171
 40
0.6023884687
 40
0.6204778134
 40
0.6381416778
 40
0.6553589967
 40
0.6721102083
 40
0.6883774854
 40
0.7041449614
 40
0.7193987853
 40
0.7341275424
 40
0.7483223849
 40
0.761977357
 40
0.7750898729
 40
0.7876609441
 40
0.7996958435
 40
0.8112045837
 40
0.8222024929
 40
0.8327110721
 40
0.8427585395
 40
0.8523806595
 40
0.8616213312
 40
0.8705328554
 40
0.8748851527
 40
0.8791786188
 40
0.8834220587
 40
0.8876246724
 40
0.8917959881
 40
0.8959458189
 40
0.9000841674
 40
0.9042211338
 40
0.9083668372
 40
0.9125313109
 40
0.9167244235
 40
0.9209558048
 40
0.9252347409
 40
0.9295701347
 40
0.9384413141
 40
0.9476338086
 40
0.9572011467
 40
0.967188331
 40
0.9776321808
 40
0.9885619766
 40
1.0
 40
1.0
 40
1.0
 40
1.0
 10
15.7814485286
 20
11.9944321502
 30
0.0
 10
15.7808823424
 20
11.992599971
 30
0.0
 10
15.7797816699
 20
11.9888769164
 30
0.0
 10
15.7782422122
 20
11.9831911589
 30
0.0
 10
15.7767966235
 20
11.977344935
 30
0.0
 10
15.7754474628
 20
11.9713486618
 30
0.0
 10
15.7741970328
 20
11.9652127028
 30
0.0
 10
15.7730475733
 20
11.9589477805
 30
0.0
 10
15.7720010745
 20
11.952564871
 30
0.0
 10
15.771059372
 20
11.9460751288
 30
0.0
 10
15.7702241355
 20
11.9394898988
 30
0.0
 10
15.769496801
 20
11.9328207029
 30
0.0
 10
15.7688786703
 20
11.9260792049
 30
0.0
 10
15.768370815
 20
11.9192771979
 30
0.0
 10
15.7679741181
 20
11.9124265821
 30
0.0
 10
15.7676892997
 20
11.9055393417
 30
0.0
 10
15.7675168306
 20
11.8986275269
 30
0.0
 10
15.7674570322
 20
11.8917032305
 30
0.0
 10
15.7675100089
 20
11.8847785671
 30
0.0
 10
15.7676756495
 20
11.8778656522
 30
0.0
 10
15.7679536923
 20
11.870976581
 30
0.0
 10
15.7683436245
 20
11.8641234057
 30
0.0
 10
15.7688447711
 20
11.8573181163
 30
0.0
 10
15.7694562646
 20
11.8505726184
 30
0.0
 10
15.7701770066
 20
11.8438987108
 30
0.0
 10
15.7710057619
 20
11.8373080692
 30
0.0
 10
15.7719410596
 20
11.8308122192
 30
0.0
 10
15.7729812568
 20
11.8244225206
 30
0.0
 10
15.7741245525
 20
11.8181501487
 30
0.0
 10
15.7753689114
 20
11.8120060653
 30
0.0
 10
15.7767121772
 20
11.8060010128
 30
0.0
 10
15.7781519898
 20
11.8001454836
 30
0.0
 10
15.7796858113
 20
11.7944497038
 30
0.0
 10
15.781310988
 20
11.7889236258
 30
0.0
 10
15.783024644
 20
11.783576888
 30
0.0
 10
15.7848237993
 20
11.7784188206
 30
0.0
 10
15.7867053186
 20
11.7734584179
 30
0.0
 10
15.7886658913
 20
11.7687043116
 30
0.0
 10
15.7907021403
 20
11.7641647868
 30
0.0
 10
15.7928105
 20
11.7598477248
 30
0.0
 10
15.7949873219
 20
11.7557606203
 30
0.0
 10
15.7972288725
 20
11.7519105711
 30
0.0
 10
15.7995312646
 20
11.7483042243
 30
0.0
 10
15.8018906061
 20
11.7449478377
 30
0.0
 10
15.8043028861
 20
11.7418472096
 30
0.0
 10
15.806764047
 20
11.7390077022
 30
0.0
 10
15.8092700389
 20
11.7364342935
 30
0.0
 10
15.8118167101
 20
11.7341314812
 30
0.0
 10
15.8143999272
 20
11.7321034375
 30
0.0
 10
15.8170155539
 20
11.7303539325
 30
0.0
 10
15.8196590908
 20
11.7288864227
 30
0.0
 10
15.8218996595
 20
11.7278932555
 30
0.0
 10
15.8236968698
 20
11.7272475759
 30
0.0
 10
15.8250380986
 20
11.7268390531
 30
0.0
 10
15.826382452
 20
11.7265027306
 30
0.0
 10
15.8277293531
 20
11.7262387423
 30
0.0
 10
15.8290781915
 20
11.7260472584
 30
0.0
 10
15.8304283522
 20
11.7259283728
 30
0.0
 10
15.8317792154
 20
11.7258821169
 30
0.0
 10
15.8331301646
 20
11.7259085366
 30
0.0
 10
15.8344805771
 20
11.7260076367
 30
0.0
 10
15.8358298362
 20
11.7261793279
 30
0.0
 10
15.8371773308
 20
11.7264235321
 30
0.0
 10
15.8385224348
 20
11.7267401536
 30
0.0
 10
15.8398645785
 20
11.7271290155
 30
0.0
 10
15.8416628546
 20
11.7277481678
 30
0.0
 10
15.8439053554
 20
11.7287083334
 30
0.0
 10
15.8465524004
 20
11.7301371055
 30
0.0
 10
15.8491721034
 20
11.7318483671
 30
0.0
 10
15.851759973
 20
11.7338386389
 30
0.0
 10
15.8543119062
 20
11.7361042145
 30
0.0
 10
15.8568236111
 20
11.7386409345
 30
0.0
 10
15.8584314723
 20
11.7404677052
 30
0.0
 10
15.8592284138
 20
11.7414224874
 30
0.0
  0
SPLINE
  5
305
100
AcDbEntity
  8
02___PRT_ALL_AXES
100
AcDbSpline
 62
7
  6
CONTINUOUS
 70
0
 71
3
 72
23
 73
19
 74
0
 42
0.0000001
 43
0.0000001
 44
0.0000000001
 40
0.0
 40
0.0
 40
0.0
 40
0.0
 40
0.0568106508
 40
0.1135067219
 40
0.1702796291
 40
0.227325604
 40
0.2848433505
 40
0.3430314904
 40
0.4020856753
 40
0.462195737
 40
0.5235429015
 40
0.5862972273
 40
0.6506153351
 40
0.7166387772
 40
0.7844915608
 40
0.8542796996
 40
0.9260957509
 40
1.0
 40
1.0
 40
1.0
 40
1.0
 10
15.8203524487
 20
12.0984935352
 30
0.0
 10
15.8218779997
 20
12.0984935317
 30
0.0
 10
15.824927417
 20
12.0983743644
 30
0.0
 10
15.8294726192
 20
12.0978346214
 30
0.0
 10
15.8339671148
 20
12.0969343732
 30
0.0
 10
15.8383971161
 20
12.0956742068
 30
0.0
 10
15.8427495009
 20
12.0940552802
 30
0.0
 10
15.84701133
 20
12.09207946
 30
0.0
 10
15.8511700254
 20
12.0897492231
 30
0.0
 10
15.8552134032
 20
12.0870677525
 30
0.0
 10
15.8591298199
 20
12.0840390502
 30
0.0
 10
15.8629081446
 20
12.0806678193
 30
0.0
 10
15.866537861
 20
12.0769595505
 30
0.0
 10
15.8700091904
 20
12.0729206014
 30
0.0
 10
15.8733130516
 20
12.0685581273
 30
0.0
 10
15.8764412436
 20
12.0638799328
 30
0.0
 10
15.879386197
 20
12.0588950203
 30
0.0
 10
15.8811969029
 20
12.0554238209
 30
0.0
 10
15.8820711907
 20
12.0536422097
 30
0.0
  0
SPLINE
  5
306
100
AcDbEntity
  8
LAYER_FEATURE
100
AcDbSpline
 62
7
  6
CONTINUOUS
 70
0
 71
3
 72
50
 73
46
 74
0
 42
0.0000001
 43
0.0000001
 44
0.0000000001
 40
0.0
 40
0.0
 40
0.0
 40
0.0
 40
0.039664162
 40
0.0788606751
 40
0.1175661276
 40
0.1557597864
 40
0.1934216628
 40
0.2305336661
 40
0.2670793387
 40
0.3030440896
 40
0.338415299
 40
0.373182452
 40
0.407337279
 40
0.4408738999
 40
0.4737889762
 40
0.5060818669
 40
0.5377547909
 40
0.5688129856
 40
0.5992648667
 40
0.6291221848
 40
0.6584001734
 40
0.6728285099
 40
0.6871194035
 40
0.7152990201
 40
0.7429671463
 40
0.756619711
 40
0.7701560767
 40
0.7835806402
 40
0.7968980193
 40
0.8101130793
 40
0.823230911
 40
0.8362568278
 40
0.8491963703
 40
0.8620552763
 40
0.8748394978
 40
0.8875551658
 40
0.9002085953
 40
0.9128062646
 40
0.9253547986
 40
0.9378609619
 40
0.9503316295
 40
0.9627737815
 40
0.9751944744
 40
0.9876008273
 40
1.0
 40
1.0
 40
1.0
 40
1.0
 10
14.9683921568
 20
12.9794234708
 30
0.0
 10
14.9562299387
 20
12.9794234708
 30
0.0
 10
14.9320479336
 20
12.9791507499
 30
0.0
 10
14.896016915
 20
12.9779077158
 30
0.0
 10
14.860475465
 20
12.9758344001
 30
0.0
 10
14.8254640661
 20
12.9729331975
 30
0.0
 10
14.7910220454
 20
12.9692073131
 30
0.0
 10
14.7571883268
 20
12.9646609519
 30
0.0
 10
14.7240010569
 20
12.9592991999
 30
0.0
 10
14.6914976739
 20
12.9531280728
 30
0.0
 10
14.6597148328
 20
12.9461544895
 30
0.0
 10
14.6286883743
 20
12.9383862624
 30
0.0
 10
14.5984532846
 20
12.9298320874
 30
0.0
 10
14.5690436582
 20
12.9205015321
 30
0.0
 10
14.5404926612
 20
12.9104050231
 30
0.0
 10
14.5128324981
 20
12.8995538338
 30
0.0
 10
14.4860943661
 20
12.8879600718
 30
0.0
 10
14.4603084629
 20
12.8756366792
 30
0.0
 10
14.4355038288
 20
12.8625973347
 30
0.0
 10
14.4117087912
 20
12.8488567438
 30
0.0
 10
14.3926510541
 20
12.8367760926
 30
0.0
 10
14.3779457856
 20
12.8267731609
 30
0.0
 10
14.3637372394
 20
12.8166463082
 30
0.0
 10
14.3466428993
 20
12.8035829419
 30
0.0
 10
14.3303210123
 20
12.7898675182
 30
0.0
 10
14.317841815
 20
12.7785867083
 30
0.0
 10
14.3088093651
 20
12.770011607
 30
0.0
 10
14.3000654387
 20
12.7612874442
 30
0.0
 10
14.2916124959
 20
12.7524165904
 30
0.0
 10
14.2834529307
 20
12.7434015838
 30
0.0
 10
14.2755890561
 20
12.7342449633
 30
0.0
 10
14.2680231334
 20
12.7249492933
 30
0.0
 10
14.2607572691
 20
12.7155172359
 30
0.0
 10
14.2537935866
 20
12.7059514112
 30
0.0
 10
14.2471340146
 20
12.6962545647
 30
0.0
 10
14.2407804876
 20
12.6864294104
 30
0.0
 10
14.2347348026
 20
12.6764787395
 30
0.0
 10
14.2289986667
 20
12.6664053776
 30
0.0
 10
14.223573758
 20
12.6562121546
 30
0.0
 10
14.2184615624
 20
12.645901993
 30
0.0
 10
14.213663602
 20
12.6354777808
 30
0.0
 10
14.2091811925
 20
12.6249425112
 30
0.0
 10
14.2050156307
 20
12.6142991265
 30
0.0
 10
14.2011681436
 20
12.6035507731
 30
0.0
 10
14.198815585
 20
12.596316263
 30
0.0
 10
14.1976930686
 20
12.5926837935
 30
0.0
  0
SPLINE
  5
307
100
AcDbEntity
  8
02___PRT_ALL_AXES
100
AcDbSpline
 62
7
  6
CONTINUOUS
 70
0
 71
3
 72
74
 73
70
 74
0
 42
0.0000001
 43
0.0000001
 44
0.0000000001
 40
0.0
 40
0.0
 40
0.0
 40
0.0
 40
0.0171786976
 40
0.0345304009
 40
0.0520442821
 40
0.0697099607
 40
0.0875162551
 40
0.1054518118
 40
0.1235049603
 40
0.141663769
 40
0.1599160825
 40
0.1782495425
 40
0.196651618
 40
0.2151096329
 40
0.2336107946
 40
0.2521422207
 40
0.270690966
 40
0.2892440489
 40
0.3077884791
 40
0.3263112847
 40
0.344799538
 40
0.363240383
 40
0.3816210627
 40
0.3999289471
 40
0.4181515596
 40
0.4362766053
 40
0.4542919987
 40
0.472185895
 40
0.4899467181
 40
0.5075631898
 40
0.5250243606
 40
0.5423196421
 40
0.5594388415
 40
0.5763721931
 40
0.5931103923
 40
0.6096446319
 40
0.6259666416
 40
0.6420687277
 40
0.6579438116
 40
0.673585472
 40
0.6889879892
 40
0.7041463955
 40
0.7190565221
 40
0.733715048
 40
0.7481195529
 40
0.762268572
 40
0.7761616565
 40
0.7897994285
 40
0.8031836384
 40
0.8163172232
 40
0.8292043658
 40
0.8418505524
 40
0.8542626209
 40
0.8603837229
 40
0.8664495035
 40
0.878419468
 40
0.8901843372
 40
0.9017567047
 40
0.9131506229
 40
0.9243815731
 40
0.935466412
 40
0.9464232913
 40
0.9572715479
 40
0.9680315615
 40
0.9787245879
 40
0.9840533377
 40
0.9893736123
 40
0.9946882237
 40
1.0
 40
1.0
 40
1.0
 40
1.0
 10
15.1276240112
 20
12.6549430674
 30
0.0
 10
15.1342284613
 20
12.6549430674
 30
0.0
 10
15.1475042986
 20
12.6547977429
 30
0.0
 10
15.1675040142
 20
12.654152039
 30
0.0
 10
15.1876728601
 20
12.6530781116
 30
0.0
 10
15.2079896134
 20
12.6515771286
 30
0.0
 10
15.2284332551
 20
12.6496506194
 30
0.0
 10
15.2489824638
 20
12.6473006006
 30
0.0
 10
15.2696158638
 20
12.6445295201
 30
0.0
 10
15.2903119779
 20
12.6413402632
 30
0.0
 10
15.311049264
 20
12.6377361504
 30
0.0
 10
15.3318061367
 20
12.6337209292
 30
0.0
 10
15.3525609893
 20
12.6292987787
 30
0.0
 10
15.3732922176
 20
12.6244743063
 30
0.0
 10
15.3939782413
 20
12.6192525346
 30
0.0
 10
15.4145975267
 20
12.6136388985
 30
0.0
 10
15.4351286081
 20
12.6076392378
 30
0.0
 10
15.455550113
 20
12.6012597994
 30
0.0
 10
15.4758407836
 20
12.5945072275
 30
0.0
 10
15.4959794978
 20
12.5873885515
 30
0.0
 10
15.5159452909
 20
12.5799111808
 30
0.0
 10
15.5357173774
 20
12.5720828954
 30
0.0
 10
15.5552751762
 20
12.5639118469
 30
0.0
 10
15.57459833
 20
12.555406543
 30
0.0
 10
15.5936667252
 20
12.546575837
 30
0.0
 10
15.6124605124
 20
12.5374289186
 30
0.0
 10
15.6309601282
 20
12.527975305
 30
0.0
 10
15.6491463194
 20
12.518224839
 30
0.0
 10
15.6670001593
 20
12.5081876688
 30
0.0
 10
15.6845030666
 20
12.4978742391
 30
0.0
 10
15.701636824
 20
12.4872952792
 30
0.0
 10
15.7183835996
 20
12.4764617937
 30
0.0
 10
15.7347259693
 20
12.4653850564
 30
0.0
 10
15.7506469293
 20
12.4540765896
 30
0.0
 10
15.7661299132
 20
12.4425481539
 30
0.0
 10
15.7811588085
 20
12.4308117342
 30
0.0
 10
15.7957179785
 20
12.4188795323
 30
0.0
 10
15.8097922793
 20
12.4067639538
 30
0.0
 10
15.823367069
 20
12.3944775894
 30
0.0
 10
15.8364282237
 20
12.3820332034
 30
0.0
 10
15.84896215
 20
12.3694437179
 30
0.0
 10
15.8609558073
 20
12.3567222066
 30
0.0
 10
15.8723967175
 20
12.3438818762
 30
0.0
 10
15.8832729719
 20
12.3309360503
 30
0.0
 10
15.8935732435
 20
12.3178981566
 30
0.0
 10
15.9032867966
 20
12.3047817114
 30
0.0
 10
15.9124035085
 20
12.2916003125
 30
0.0
 10
15.9209138686
 20
12.2783676201
 30
0.0
 10
15.9288089865
 20
12.2650973383
 30
0.0
 10
15.936080592
 20
12.251803222
 30
0.0
 10
15.9427210703
 20
12.2384989918
 30
0.0
 10
15.9487233806
 20
12.2251985907
 30
0.0
 10
15.9532088788
 20
12.2140783428
 30
0.0
 10
15.9564671902
 20
12.2051994767
 30
0.0
 10
15.95947948
 20
12.1964136887
 30
0.0
 10
15.9628416549
 20
12.1854568558
 30
0.0
 10
15.9662346654
 20
12.172308862
 30
0.0
 10
15.9689644898
 20
12.1592331352
 30
0.0
 10
15.9710280666
 20
12.1462434432
 30
0.0
 10
15.9724230784
 20
12.1333533188
 30
0.0
 10
15.9731478792
 20
12.1205762672
 30
0.0
 10
15.9732015455
 20
12.1079257268
 30
0.0
 10
15.9725838522
 20
12.0954149574
 30
0.0
 10
15.971295374
 20
12.0830574294
 30
0.0
 10
15.969661613
 20
12.0728855663
 30
0.0
 10
15.9680212816
 20
12.0648452285
 30
0.0
 10
15.9666260833
 20
12.0588677262
 30
0.0
 10
15.9650649607
 20
12.0529382431
 30
0.0
 10
15.9639137208
 20
12.0490177589
 30
0.0
 10
15.9633107845
 20
12.0470666523
 30
0.0
  0
SPLINE
  5
308
100
AcDbEntity
  8
LAYER_FEATURE
100
AcDbSpline
 62
7
  6
CONTINUOUS
 70
0
 71
3
 72
50
 73
46
 74
0
 42
0.0000001
 43
0.0000001
 44
0.0000000001
 40
0.0
 40
0.0
 40
0.0
 40
0.0
 40
0.039664162
 40
0.0788606751
 40
0.1175661276
 40
0.1557597864
 40
0.1934216628
 40
0.2305336661
 40
0.2670793387
 40
0.3030440896
 40
0.338415299
 40
0.373182452
 40
0.407337279
 40
0.4408738999
 40
0.4737889762
 40
0.5060818669
 40
0.5377547909
 40
0.5688129856
 40
0.5992648667
 40
0.6291221848
 40
0.6584001734
 40
0.6728285099
 40
0.6871194035
 40
0.7152990201
 40
0.7429671463
 40
0.756619711
 40
0.7701560767
 40
0.7835806402
 40
0.7968980193
 40
0.8101130793
 40
0.823230911
 40
0.8362568278
 40
0.8491963703
 40
0.8620552763
 40
0.8748394978
 40
0.8875551658
 40
0.9002085953
 40
0.9128062646
 40
0.9253547986
 40
0.9378609619
 40
0.9503316295
 40
0.9627737815
 40
0.9751944744
 40
0.9876008273
 40
1.0
 40
1.0
 40
1.0
 40
1.0
 10
15.2276451892
 20
13.818366591
 30
0.0
 10
15.215482971
 20
13.818366591
 30
0.0
 10
15.191300966
 20
13.8180938701
 30
0.0
 10
15.1552699474
 20
13.816850836
 30
0.0
 10
15.1197284974
 20
13.8147775203
 30
0.0
 10
15.0847170984
 20
13.8118763177
 30
0.0
 10
15.0502750778
 20
13.8081504334
 30
0.0
 10
15.0164413592
 20
13.8036040721
 30
0.0
 10
14.9832540893
 20
13.7982423201
 30
0.0
 10
14.9507507063
 20
13.792071193
 30
0.0
 10
14.9189678652
 20
13.7850976097
 30
0.0
 10
14.8879414067
 20
13.7773293826
 30
0.0
 10
14.8577063169
 20
13.7687752076
 30
0.0
 10
14.8282966906
 20
13.7594446523
 30
0.0
 10
14.7997456936
 20
13.7493481433
 30
0.0
 10
14.7720855305
 20
13.738496954
 30
0.0
 10
14.7453473985
 20
13.726903192
 30
0.0
 10
14.7195614952
 20
13.7145797994
 30
0.0
 10
14.6947568612
 20
13.7015404549
 30
0.0
 10
14.6709618236
 20
13.687799864
 30
0.0
 10
14.6519040865
 20
13.6757192128
 30
0.0
 10
14.637198818
 20
13.6657162811
 30
0.0
 10
14.6229902718
 20
13.6555894284
 30
0.0
 10
14.6058959317
 20
13.6425260621
 30
0.0
 10
14.5895740447
 20
13.6288106384
 30
0.0
 10
14.5770948474
 20
13.6175298285
 30
0.0
 10
14.5680623975
 20
13.6089547272
 30
0.0
 10
14.5593184711
 20
13.6002305644
 30
0.0
 10
14.5508655283
 20
13.5913597106
 30
0.0
 10
14.5427059631
 20
13.582344704
 30
0.0
 10
14.5348420884
 20
13.5731880835
 30
0.0
 10
14.5272761657
 20
13.5638924135
 30
0.0
 10
14.5200103015
 20
13.5544603561
 30
0.0
 10
14.513046619
 20
13.5448945314
 30
0.0
 10
14.506387047
 20
13.5351976849
 30
0.0
 10
14.5000335199
 20
13.5253725306
 30
0.0
 10
14.493987835
 20
13.5154218597
 30
0.0
 10
14.488251699
 20
13.5053484978
 30
0.0
 10
14.4828267904
 20
13.4951552748
 30
0.0
 10
14.4777145948
 20
13.4848451132
 30
0.0
 10
14.4729166343
 20
13.474420901
 30
0.0
 10
14.4684342249
 20
13.4638856314
 30
0.0
 10
14.464268663
 20
13.4532422467
 30
0.0
 10
14.4604211759
 20
13.4424938933
 30
0.0
 10
14.4580686173
 20
13.4352593832
 30
0.0
 10
14.456946101
 20
13.4316269137
 30
0.0
  0
SPLINE
  5
309
100
AcDbEntity
  8
LAYER_FEATURE
100
AcDbSpline
 62
7
  6
CONTINUOUS
 70
0
 71
3
 72
112
 73
108
 74
0
 42
0.0000001
 43
0.0000001
 44
0.0000000001
 40
0.0
 40
0.0
 40
0.0
 40
0.0
 40
0.0090857585
 40
0.0182381187
 40
0.0274537994
 40
0.0367301324
 40
0.0554529721
 40
0.0743832805
 40
0.0934963421
 40
0.1127665889
 40
0.1321677707
 40
0.1516730682
 40
0.1712552169
 40
0.1908866267
 40
0.2105395001
 40
0.2301859494
 40
0.2497981141
 40
0.2693482774
 40
0.2888089848
 40
0.3081531618
 40
0.3273542352
 40
0.3463862557
 40
0.3652240235
 40
0.383843218
 40
0.4022205313
 40
0.4203338071
 40
0.438162186
 40
0.4469637089
 40
0.4556868572
 40
0.4643294598
 40
0.4728894542
 40
0.4813648944
 40
0.4897539602
 40
0.4980549536
 40
0.5062663194
 40
0.5143866335
 40
0.5224146291
 40
0.5303491845
 40
0.5381893453
 40
0.5459343219
 40
0.5535834997
 40
0.5611364507
 40
0.5685929305
 40
0.5759529021
 40
0.5832165243
 40
0.5903841803
 40
0.5974564667
 40
0.6044342166
 40
0.6113184976
 40
0.6181106229
 40
0.6248121617
 40
0.6379496205
 40
0.6443914193
 40
0.6507515519
 40
0.6570329326
 40
0.663238761
 40
0.6693725147
 40
0.6754379501
 40
0.681439101
 40
0.6873802656
 40
0.6932660076
 40
0.6991011334
 40
0.7048906891
 40
0.7106399338
 40
0.7163543267
 40
0.7220395002
 40
0.727701236
 40
0.7333454387
 40
0.7389781036
 40
0.7446052887
 40
0.7502330805
 40
0.7558675621
 40
0.7615147819
 40
0.7671807194
 40
0.7728712568
 40
0.7785921487
 40
0.7843489941
 40
0.7901472153
 40
0.795992029
 40
0.8018884362
 40
0.807841195
 40
0.8138548175
 40
0.8199335499
 40
0.8260813706
 40
0.8323019818
 40
0.8385988041
 40
0.8449749824
 40
0.8514333743
 40
0.8646054543
 40
0.8713249016
 40
0.8781352688
 40
0.8850380726
 40
0.8920345783
 40
0.8991258039
 40
0.9063125375
 40
0.9135953297
 40
0.9209745209
 40
0.9284502284
 40
0.9360223742
 40
0.9436906768
 40
0.9514546693
 40
0.9593137036
 40
0.9672669542
 40
0.9753134356
 40
0.9834519939
 40
0.9916813324
 40
1.0
 40
1.0
 40
1.0
 40
1.0
 10
15.0268569188
 20
12.9273066383
 30
0.0
 10
15.0341857589
 20
12.9273066383
 30
0.0
 10
15.048897407
 20
12.9271921354
 30
0.0
 10
15.071037359
 20
12.9266815846
 30
0.0
 10
15.0933208051
 20
12.9258317655
 30
0.0
 10
15.1232981888
 20
12.9242421433
 30
0.0
 10
15.1610521511
 20
12.9214036274
 30
0.0
 10
15.2066014445
 20
12.9166636576
 30
0.0
 10
15.252437582
 20
12.9105895276
 30
0.0
 10
15.2984636877
 20
12.9031940638
 30
0.0
 10
15.3445828028
 20
12.8944928551
 30
0.0
 10
15.390697675
 20
12.8845042474
 30
0.0
 10
15.4367110787
 20
12.8732493005
 30
0.0
 10
15.4825259911
 20
12.8607517448
 30
0.0
 10
15.5280458071
 20
12.8470379336
 30
0.0
 10
15.5731745425
 20
12.8321367849
 30
0.0
 10
15.6178170384
 20
12.8160797202
 30
0.0
 10
15.6618791627
 20
12.7989005974
 30
0.0
 10
15.7052680108
 20
12.7806356386
 30
0.0
 10
15.7478921017
 20
12.7613233527
 30
0.0
 10
15.7896615732
 20
12.7410044526
 30
0.0
 10
15.83048837
 20
12.7197217686
 30
0.0
 10
15.8702864394
 20
12.6975201506
 30
0.0
 10
15.908971882
 20
12.6744463951
 30
0.0
 10
15.9464632479
 20
12.6505490582
 30
0.0
 10
15.9826812697
 20
12.6258786535
 30
0.0
 10
16.0118619451
 20
12.6046289919
 30
0.0
 10
16.0344972847
 20
12.5872822019
 30
0.0
 10
16.0510367368
 20
12.5741670413
 30
0.0
 10
16.0672022746
 20
12.5608987159
 30
0.0
 10
16.0829854096
 20
12.5474841696
 30
0.0
 10
16.0983777978
 20
12.5339304832
 30
0.0
 10
16.1133713365
 20
12.5202448195
 30
0.0
 10
16.1279580879
 20
12.5064343633
 30
0.0
 10
16.1421303897
 20
12.4925064351
 30
0.0
 10
16.1558807257
 20
12.4784683333
 30
0.0
 10
16.1692018778
 20
12.4643274984
 30
0.0
 10
16.1820867845
 20
12.4500913485
 30
0.0
 10
16.1945286682
 20
12.4357674083
 30
0.0
 10
16.206520953
 20
12.4213632153
 30
0.0
 10
16.2180573026
 20
12.4068863529
 30
0.0
 10
16.2291316475
 20
12.3923444651
 30
0.0
 10
16.2397381043
 20
12.377745181
 30
0.0
 10
16.2498711158
 20
12.3630962255
 30
0.0
 10
16.2595252766
 20
12.348405273
 30
0.0
 10
16.2686955334
 20
12.3336800934
 30
0.0
 10
16.2773769915
 20
12.3189284144
 30
0.0
 10
16.2855650933
 20
12.3041580004
 30
0.0
 10
16.2932554588
 20
12.289376694
 30
0.0
 10
16.3004441177
 20
12.2745919959
 30
0.0
 10
16.3092954557
 20
12.2550167279
 30
0.0
 10
16.3172022786
 20
12.2353317514
 30
0.0
 10
16.3241081592
 20
12.2155780349
 30
0.0
 10
16.3287359258
 20
12.2008941951
 30
0.0
 10
16.3328429106
 20
12.1862539329
 30
0.0
 10
16.3364270121
 20
12.1716647845
 30
0.0
 10
16.3394862593
 20
12.1571344947
 30
0.0
 10
16.3420189812
 20
12.1426707209
 30
0.0
 10
16.3440238255
 20
12.128281117
 30
0.0
 10
16.3454996235
 20
12.1139732846
 30
0.0
 10
16.346445618
 20
12.0997548089
 30
0.0
 10
16.3468611789
 20
12.0856332192
 30
0.0
 10
16.3467461153
 20
12.0716160131
 30
0.0
 10
16.346100382
 20
12.0577106348
 30
0.0
 10
16.3449243225
 20
12.0439244785
 30
0.0
 10
16.3432185124
 20
12.0302648809
 30
0.0
 10
16.3409838155
 20
12.0167391211
 30
0.0
 10
16.3382214382
 20
12.0033544005
 30
0.0
 10
16.3349327729
 20
11.9901178692
 30
0.0
 10
16.3311196388
 20
11.9770365671
 30
0.0
 10
16.3267839854
 20
11.9641174931
 30
0.0
 10
16.3219282034
 20
11.9513675093
 30
0.0
 10
16.3165548331
 20
11.9387934297
 30
0.0
 10
16.3106667935
 20
11.9264019326
 30
0.0
 10
16.3042672313
 20
11.9141996113
 30
0.0
 10
16.297359569
 20
11.902192955
 30
0.0
 10
16.2899475477
 20
11.8903883095
 30
0.0
 10
16.2820350898
 20
11.8787919625
 30
0.0
 10
16.2736264966
 20
11.8674100026
 30
0.0
 10
16.2647262037
 20
11.8562484909
 30
0.0
 10
16.2553390258
 20
11.845313267
 30
0.0
 10
16.2454699287
 20
11.8346101314
 30
0.0
 10
16.2351241999
 20
11.8241446905
 30
0.0
 10
16.2243073407
 20
11.813922456
 30
0.0
 10
16.2130250813
 20
11.8039488012
 30
0.0
 10
16.2012834817
 20
11.7942289622
 30
0.0
 10
16.1890885643
 20
11.7847679664
 30
0.0
 10
16.1721231293
 20
11.7724250625
 30
0.0
 10
16.1543740127
 20
11.7607054728
 30
0.0
 10
16.1359106409
 20
11.7496105824
 30
0.0
 10
16.1215513811
 20
11.7415156992
 30
0.0
 10
16.1067813293
 20
11.733707485
 30
0.0
 10
16.0916080287
 20
11.7261898876
 30
0.0
 10
16.0760395701
 20
11.7189668596
 30
0.0
 10
16.0600841314
 20
11.7120422266
 30
0.0
 10
16.0437501576
 20
11.7054195656
 30
0.0
 10
16.0270462428
 20
11.6991024128
 30
0.0
 10
16.0099812165
 20
11.6930940277
 30
0.0
 10
15.9925640661
 20
11.687397609
 30
0.0
 10
15.9748039854
 20
11.6820161212
 30
0.0
 10
15.9567103386
 20
11.6769523984
 30
0.0
 10
15.9382926661
 20
11.6722091146
 30
0.0
 10
15.9195606855
 20
11.6677887303
 30
0.0
 10
15.9005242741
 20
11.6636936174
 30
0.0
 10
15.8811934583
 20
11.6599258688
 30
0.0
 10
15.8615785095
 20
11.6564875392
 30
0.0
 10
15.8483894981
 20
11.6544270551
 30
0.0
 10
15.8417507456
 20
11.6534512654
 30
0.0
  0
SPLINE
  5
30A
100
AcDbEntity
  8
LAYER_FEATURE
100
AcDbSpline
 62
7
  6
CONTINUOUS
 70
0
 71
3
 72
84
 73
80
 74
0
 42
0.0000001
 43
0.0000001
 44
0.0000000001
 40
0.0
 40
0.0
 40
0.0
 40
0.0
 40
0.0203226262
 40
0.0404293387
 40
0.0603097171
 40
0.0799551551
 40
0.0993569789
 40
0.1185072536
 40
0.1373986981
 40
0.1560246766
 40
0.1743792878
 40
0.1924573994
 40
0.2102546878
 40
0.2277676871
 40
0.2449938468
 40
0.2619315834
 40
0.2785803273
 40
0.2949405777
 40
0.3110139678
 40
0.3268033162
 40
0.3423126764
 40
0.3575473925
 40
0.3725141581
 40
0.3798998882
 40
0.3872217782
 40
0.4016783087
 40
0.4158954344
 40
0.4298855962
 40
0.4436627113
 40
0.4572421585
 40
0.4706407489
 40
0.483876671
 40
0.4969694043
 40
0.5099396117
 40
0.5163860552
 40
0.5228100904
 40
0.52921457
 40
0.5356023887
 40
0.5419764827
 40
0.5483398178
 40
0.5546953855
 40
0.5610461959
 40
0.5673952695
 40
0.5737456317
 40
0.5801003042
 40
0.5864622992
 40
0.5928346112
 40
0.5992202102
 40
0.6056220376
 40
0.612042994
 40
0.6184859392
 40
0.6249536837
 40
0.6314489794
 40
0.6379745227
 40
0.6511257813
 40
0.6644286794
 40
0.6779021554
 40
0.6915638176
 40
0.6984707788
 40
0.7054307401
 40
0.7195159563
 40
0.7338336142
 40
0.7410837339
 40
0.7483962679
 40
0.7632127679
 40
0.7782927546
 40
0.7936437071
 40
0.8092717385
 40
0.8251816432
 40
0.8413769403
 40
0.8578599311
 40
0.8746317611
 40
0.8916924735
 40
0.9090410562
 40
0.9266755031
 40
0.944592871
 40
0.9627893275
 40
0.9812601936
 40
1.0
 40
1.0
 40
1.0
 40
1.0
 10
15.0268569188
 20
12.9273066383
 30
0.0
 10
15.0172185526
 20
12.9273066383
 30
0.0
 10
14.9980435969
 20
12.9271104063
 30
0.0
 10
14.969452545
 20
12.9262171074
 30
0.0
 10
14.9412077843
 20
12.9247271184
 30
0.0
 10
14.9133359025
 20
12.9226418918
 30
0.0
 10
14.8858625645
 20
12.9199633
 30
0.0
 10
14.858813333
 20
12.9166938413
 30
0.0
 10
14.8322133018
 20
12.9128365427
 30
0.0
 10
14.8060871537
 20
12.9083949521
 30
0.0
 10
14.7804591357
 20
12.9033731686
 30
0.0
 10
14.7553530215
 20
12.8977758404
 30
0.0
 10
14.7307921032
 20
12.8916081319
 30
0.0
 10
14.7067991718
 20
12.8848757179
 30
0.0
 10
14.6833964861
 20
12.8775848052
 30
0.0
 10
14.6606057529
 20
12.8697421207
 30
0.0
 10
14.6384481185
 20
12.8613548828
 30
0.0
 10
14.6169441533
 20
12.8524307931
 30
0.0
 10
14.5961138113
 20
12.8429780623
 30
0.0
 10
14.5759764439
 20
12.8330053939
 30
0.0
 10
14.5565507129
 20
12.8225219092
 30
0.0
 10
14.5378548723
 20
12.8115373429
 30
0.0
 10
14.5228318155
 20
12.8019322046
 30
0.0
 10
14.5112017261
 20
12.7940056524
 30
0.0
 10
14.4999284999
 20
12.7859900929
 30
0.0
 10
14.4863158977
 20
12.7756793639
 30
0.0
 10
14.4707062061
 20
12.7627953969
 30
0.0
 10
14.4559062608
 20
12.7494650201
 30
0.0
 10
14.441930121
 20
12.7357006172
 30
0.0
 10
14.4287909199
 20
12.7215148354
 30
0.0
 10
14.4165011041
 20
12.7069208086
 30
0.0
 10
14.4050722653
 20
12.6919319868
 30
0.0
 10
14.3945154209
 20
12.6765625985
 30
0.0
 10
14.3864363043
 20
12.6634220652
 30
0.0
 10
14.3804255684
 20
12.6527406009
 30
0.0
 10
14.3761499808
 20
12.6446593941
 30
0.0
 10
14.3720990687
 20
12.6364943376
 30
0.0
 10
14.368273785
 20
12.6282472495
 30
0.0
 10
14.3646749954
 20
12.6199200893
 30
0.0
 10
14.3613035454
 20
12.6115147899
 30
0.0
 10
14.3581602572
 20
12.6030333015
 30
0.0
 10
14.355245815
 20
12.5944776215
 30
0.0
 10
14.3525609358
 20
12.585849733
 30
0.0
 10
14.3501062468
 20
12.5771516514
 30
0.0
 10
14.3478822829
 20
12.5683854163
 30
0.0
 10
14.3458896141
 20
12.5595530607
 30
0.0
 10
14.3441286701
 20
12.550656655
 30
0.0
 10
14.342599851
 20
12.5416982756
 30
0.0
 10
14.3413035562
 20
12.5326800061
 30
0.0
 10
14.3402400318
 20
12.5236039599
 30
0.0
 10
14.3394095475
 20
12.5144722449
 30
0.0
 10
14.3388123077
 20
12.5052870098
 30
0.0
 10
14.3384484054
 20
12.496050328
 30
0.0
 10
14.3382740176
 20
12.4836378761
 30
0.0
 10
14.338644536
 20
12.4679940164
 30
0.0
 10
14.3400224507
 20
12.4491005346
 30
0.0
 10
14.3423331693
 20
12.430054676
 30
0.0
 10
14.3450243669
 20
12.41412925
 30
0.0
 10
14.3476348323
 20
12.40133603
 30
0.0
 10
14.3505747859
 20
12.3884083323
 30
0.0
 10
14.3548346873
 20
12.3721810928
 30
0.0
 10
14.3598220071
 20
12.3560188268
 30
0.0
 10
14.3642615255
 20
12.3430604058
 30
0.0
 10
14.3690436532
 20
12.3299722722
 30
0.0
 10
14.3755957938
 20
12.3135813821
 30
0.0
 10
14.3843228159
 20
12.2939712404
 30
0.0
 10
14.3939402346
 20
12.2743526086
 30
0.0
 10
14.4044389497
 20
12.2547438418
 30
0.0
 10
14.4158091741
 20
12.2351630182
 30
0.0
 10
14.4280402775
 20
12.215628257
 30
0.0
 10
14.4411208469
 20
12.1961576145
 30
0.0
 10
14.4550387032
 20
12.1767691029
 30
0.0
 10
14.4697809101
 20
12.1574806697
 30
0.0
 10
14.4853337489
 20
12.138310161
 30
0.0
 10
14.5016827616
 20
12.1192753186
 30
0.0
 10
14.5188127547
 20
12.100393782
 30
0.0
 10
14.5367078652
 20
12.0816830147
 30
0.0
 10
14.5553513209
 20
12.063160483
 30
0.0
 10
14.5681767396
 20
12.0510349996
 30
0.0
 10
14.5747076376
 20
12.0450068714
 30
0.0
  0
SPLINE
  5
30B
100
AcDbEntity
  8
LAYER_FEATURE
100
AcDbSpline
 62
7
  6
CONTINUOUS
 70
0
 71
3
 72
82
 73
78
 74
0
 42
0.0000001
 43
0.0000001
 44
0.0000000001
 40
0.0
 40
0.0
 40
0.0
 40
0.0
 40
0.0171785869
 40
0.0345301334
 40
0.0520438937
 40
0.0697094391
 40
0.0875155986
 40
0.1054510217
 40
0.1235040346
 40
0.1416627076
 40
0.1599148845
 40
0.1782482068
 40
0.1966501442
 40
0.2151080209
 40
0.2336090442
 40
0.2521403314
 40
0.2706889375
 40
0.2892418815
 40
0.3077861729
 40
0.3263088395
 40
0.344796954
 40
0.363237661
 40
0.3816182035
 40
0.3999259508
 40
0.4181484262
 40
0.4362733354
 40
0.4542885943
 40
0.4721823575
 40
0.4899430476
 40
0.5075593862
 40
0.5250204254
 40
0.542315578
 40
0.5594346503
 40
0.5763678752
 40
0.5931059476
 40
0.6096400626
 40
0.6259619507
 40
0.6420639173
 40
0.6579388824
 40
0.6735804243
 40
0.6889828256
 40
0.704141119
 40
0.7190511346
 40
0.7337095508
 40
0.7481139469
 40
0.7622628597
 40
0.7761558405
 40
0.7897935106
 40
0.8031776201
 40
0.8163111063
 40
0.8291981524
 40
0.8418442444
 40
0.8542562197
 40
0.8603772761
 40
0.8664430108
 40
0.8784128859
 40
0.8901776673
 40
0.8959874291
 40
0.901750764
 40
0.9074694753
 40
0.9131454513
 40
0.9187806752
 40
0.9243772098
 40
0.9299372058
 40
0.9354628943
 40
0.9409565818
 40
0.9464206534
 40
0.9518575593
 40
0.9572698189
 40
0.9626600106
 40
0.9680307667
 40
0.973384771
 40
0.9787247471
 40
0.9840534573
 40
0.9893736919
 40
0.9946882635
 40
1.0
 40
1.0
 40
1.0
 40
1.0
 10
14.9683921568
 20
12.9794234708
 30
0.0
 10
14.9801965032
 20
12.9794234708
 30
0.0
 10
15.0039248036
 20
12.9791637303
 30
0.0
 10
15.0396709027
 20
12.9780096406
 30
0.0
 10
15.0757192806
 20
12.9760901801
 30
0.0
 10
15.1120320351
 20
12.9734074249
 30
0.0
 10
15.1485715746
 20
12.9699641174
 30
0.0
 10
15.1852997981
 20
12.9657638612
 30
0.0
 10
15.2221784999
 20
12.9608110237
 30
0.0
 10
15.2591692919
 20
12.9551107661
 30
0.0
 10
15.2962336716
 20
12.9486690232
 30
0.0
 10
15.3333330598
 20
12.9414924992
 30
0.0
 10
15.3704288378
 20
12.9335886604
 30
0.0
 10
15.4074823905
 20
12.9249657331
 30
0.0
 10
15.4444551471
 20
12.9156326984
 30
0.0
 10
15.48130862
 20
12.9055992731
 30
0.0
 10
15.5180044452
 20
12.8948759014
 30
0.0
 10
15.554504422
 20
12.8834737435
 30
0.0
 10
15.5907705523
 20
12.8714046653
 30
0.0
 10
15.6267650847
 20
12.8586812352
 30
0.0
 10
15.6624505504
 20
12.8453167002
 30
0.0
 10
15.6977898019
 20
12.8313249726
 30
0.0
 10
15.7327460516
 20
12.8167206156
 30
0.0
 10
15.7672829099
 20
12.801518827
 30
0.0
 10
15.8013644274
 20
12.7857354329
 30
0.0
 10
15.8349551308
 20
12.7693868649
 30
0.0
 10
15.8680200577
 20
12.7524901392
 30
0.0
 10
15.9005247925
 20
12.7350628406
 30
0.0
 10
15.9324355018
 20
12.7171231017
 30
0.0
 10
15.963718974
 20
12.6986895906
 30
0.0
 10
15.9943426553
 20
12.679781492
 30
0.0
 10
16.0242746784
 20
12.6604184788
 30
0.0
 10
16.0534838956
 20
12.6406206943
 30
0.0
 10
16.0819399104
 20
12.6204087291
 30
0.0
 10
16.1096131113
 20
12.5998036011
 30
0.0
 10
16.136474709
 20
12.5788267407
 30
0.0
 10
16.1624967585
 20
12.5574999576
 30
0.0
 10
16.1876521869
 20
12.5358454193
 30
0.0
 10
16.2119148209
 20
12.5138856284
 30
0.0
 10
16.235259413
 20
12.4916433958
 30
0.0
 10
16.2576616776
 20
12.469141826
 30
0.0
 10
16.279098308
 20
12.4464042852
 30
0.0
 10
16.2995469966
 20
12.4234543746
 30
0.0
 10
16.3189864563
 20
12.4003159078
 30
0.0
 10
16.3373964397
 20
12.3770128827
 30
0.0
 10
16.3547577671
 20
12.3535694627
 30
0.0
 10
16.3710523446
 20
12.3300099499
 30
0.0
 10
16.3862631704
 20
12.3063587579
 30
0.0
 10
16.4003743537
 20
12.2826403805
 30
0.0
 10
16.4133711132
 20
12.2588794029
 30
0.0
 10
16.4252398421
 20
12.235100349
 30
0.0
 10
16.4359679545
 20
12.2113281406
 30
0.0
 10
16.4439850185
 20
12.1914525794
 30
0.0
 10
16.4498087006
 20
12.1755831217
 30
0.0
 10
16.4551926563
 20
12.1598799868
 30
0.0
 10
16.4612019371
 20
12.140296713
 30
0.0
 10
16.4662767204
 20
12.1206316659
 30
0.0
 10
16.4697352756
 20
12.1049710218
 30
0.0
 10
16.4720215904
 20
12.093309711
 30
0.0
 10
16.4740103894
 20
12.0816872763
 30
0.0
 10
16.4757011089
 20
12.07010667
 30
0.0
 10
16.4770933569
 20
12.0585709392
 30
0.0
 10
16.4781867101
 20
12.0470830788
 30
0.0
 10
16.4789808968
 20
12.0356460908
 30
0.0
 10
16.4794757143
 20
12.024262959
 30
0.0
 10
16.4796709764
 20
12.0129366531
 30
0.0
 10
16.4795666879
 20
12.0016701328
 30
0.0
 10
16.4791628073
 20
11.9904663402
 30
0.0
 10
16.4784594675
 20
11.9793282039
 30
0.0
 10
16.4774568469
 20
11.9682586337
 30
0.0
 10
16.4761551615
 20
11.9572605287
 30
0.0
 10
16.4745548081
 20
11.9463367589
 30
0.0
 10
16.4726561342
 20
11.9354901889
 30
0.0
 10
16.4704596806
 20
11.9247236584
 30
0.0
 10
16.4679659986
 20
11.9140399563
 30
0.0
 10
16.4651757452
 20
11.9034419959
 30
0.0
 10
16.4631181158
 20
11.8964347951
 30
0.0
 10
16.4620404689
 20
11.8929475233
 30
0.0
  0
SPLINE
  5
30C
100
AcDbEntity
  8
LAYER_CUT_FEAT
100
AcDbSpline
 62
7
  6
CONTINUOUS
 70
0
 71
3
 72
25
 73
21
 74
0
 42
0.0000001
 43
0.0000001
 44
0.0000000001
 40
0.0
 40
0.0
 40
0.0
 40
0.0
 40
0.069690427
 40
0.1381401825
 40
0.2053844017
 40
0.2714704727
 40
0.3364503916
 40
0.4003835352
 40
0.4633365395
 40
0.5253828726
 40
0.5866028801
 40
0.6470834123
 40
0.7069173935
 40
0.7662033209
 40
0.825044568
 40
0.8835485713
 40
0.9127112009
 40
0.9418312034
 40
0.97092273
 40
1.0
 40
1.0
 40
1.0
 40
1.0
 10
16.0261888802
 20
12.2428156584
 30
0.0
 10
16.0285451907
 20
12.2380140025
 30
0.0
 10
16.0330421725
 20
12.2284096387
 30
0.0
 10
16.0391764708
 20
12.2138850783
 30
0.0
 10
16.0446323361
 20
12.1993870438
 30
0.0
 10
16.0494043278
 20
12.1849297572
 30
0.0
 10
16.0534878019
 20
12.1705268229
 30
0.0
 10
16.0568787092
 20
12.1561920406
 30
0.0
 10
16.0595736577
 20
12.1419391132
 30
0.0
 10
16.0615698837
 20
12.1277816856
 30
0.0
 10
16.0628653342
 20
12.1137333564
 30
0.0
 10
16.063458606
 20
12.0998076382
 30
0.0
 10
16.063348954
 20
12.0860179856
 30
0.0
 10
16.0625363347
 20
12.0723776712
 30
0.0
 10
16.0610214907
 20
12.0589001737
 30
0.0
 10
16.0591728955
 20
12.0478029476
 30
0.0
 10
16.0573451594
 20
12.0390271448
 30
0.0
 10
16.0558016099
 20
12.0325004673
 30
0.0
 10
16.0540843558
 20
12.0260242044
 30
0.0
 10
16.0528238105
 20
12.0217408063
 30
0.0
 10
16.0521649215
 20
12.0196086473
 30
0.0
  0
SPLINE
  5
30D
100
AcDbEntity
  8
LAYER_FEATURE
100
AcDbSpline
 62
7
  6
CONTINUOUS
 70
0
 71
3
 72
19
 73
15
 74
0
 42
0.0000001
 43
0.0000001
 44
0.0000000001
 40
0.0
 40
0.0
 40
0.0
 40
0.0
 40
0.1446895186
 40
0.2825891151
 40
0.3490915242
 40
0.4140188052
 40
0.4774431773
 40
0.5394511293
 40
0.6595908685
 40
0.7755057739
 40
0.8322941959
 40
0.8885129393
 40
0.944351001
 40
1.0
 40
1.0
 40
1.0
 40
1.0
 10
14.7284857643
 20
13.2788951474
 30
0.0
 10
14.7280785362
 20
13.2787536979
 30
0.0
 10
14.7272937
 20
13.2784457229
 30
0.0
 10
14.7263617623
 20
13.2779801908
 30
0.0
 10
14.7256723947
 20
13.2775688543
 30
0.0
 10
14.7251896777
 20
13.277245825
 30
0.0
 10
14.7247358557
 20
13.2769051295
 30
0.0
 10
14.7241763677
 20
13.2764331322
 30
0.0
 10
14.7235489501
 20
13.2758013109
 30
0.0
 10
14.7230172047
 20
13.2751060226
 30
0.0
 10
14.7226608203
 20
13.2745239202
 30
0.0
 10
14.7224286324
 20
13.2740771478
 30
0.0
 10
14.7222302272
 20
13.2736181156
 30
0.0
 10
14.7221206481
 20
13.2733041779
 30
0.0
 10
14.7220716966
 20
13.2731457656
 30
0.0
  0
SPLINE
  5
30E
100
AcDbEntity
  8
LAYER_FEATURE
100
AcDbSpline
 62
7
  6
CONTINUOUS
 70
0
 71
3
 72
23
 73
19
 74
0
 42
0.0000001
 43
0.0000001
 44
0.0000000001
 40
0.0
 40
0.0
 40
0.0
 40
0.0
 40
0.0762201856
 40
0.1513543348
 40
0.2251460167
 40
0.297388328
 40
0.3678784785
 40
0.4364357458
 40
0.5029060433
 40
0.5671636555
 40
0.6291168878
 40
0.6887121539
 40
0.7459396965
 40
0.8008402978
 40
0.8535084737
 40
0.9040987031
 40
0.9528386229
 40
1.0
 40
1.0
 40
1.0
 40
1.0
 10
14.7941798802
 20
13.3981699234
 30
0.0
 10
14.7937012147
 20
13.3982494276
 30
0.0
 10
14.7927472639
 20
13.3983874013
 30
0.0
 10
14.7913207556
 20
13.3985311734
 30
0.0
 10
14.7899144841
 20
13.3986097193
 30
0.0
 10
14.7885356209
 20
13.3986226613
 30
0.0
 10
14.7871910119
 20
13.3985699304
 30
0.0
 10
14.7858874096
 20
13.3984517828
 30
0.0
 10
14.7846313426
 20
13.3982687869
 30
0.0
 10
14.7834290874
 20
13.3980218341
 30
0.0
 10
14.7822866467
 20
13.3977121347
 30
0.0
 10
14.7812097274
 20
13.3973411681
 30
0.0
 10
14.7802037103
 20
13.3969107055
 30
0.0
 10
14.7792736321
 20
13.3964227948
 30
0.0
 10
14.7784242029
 20
13.3958797475
 30
0.0
 10
14.7776597071
 20
13.3952840602
 30
0.0
 10
14.7769843099
 20
13.3946386773
 30
0.0
 10
14.7765900776
 20
13.3941705373
 30
0.0
 10
14.7764103809
 20
13.3939300196
 30
0.0
  0
SPLINE
  5
30F
100
AcDbEntity
  8
LAYER_FEATURE
100
AcDbSpline
 62
7
  6
CONTINUOUS
 70
0
 71
3
 72
14
 73
10
 74
0
 42
0.0000001
 43
0.0000001
 44
0.0000000001
 40
0.0
 40
0.0
 40
0.0
 40
0.0
 40
0.2638003981
 40
0.3912512934
 40
0.5161698526
 40
0.6390072019
 40
0.7602469735
 40
0.8803990519
 40
1.0
 40
1.0
 40
1.0
 40
1.0
 10
14.8453904087
 20
13.4635360935
 30
0.0
 10
14.8450591608
 20
13.4632778983
 30
0.0
 10
14.8445910631
 20
13.4628630493
 30
0.0
 10
14.8440382517
 20
13.462254258
 30
0.0
 10
14.8436703412
 20
13.4617828737
 30
0.0
 10
14.8433454648
 20
13.4612926997
 30
0.0
 10
14.8430643162
 20
13.4607848055
 30
0.0
 10
14.8428276162
 20
13.4602604104
 30
0.0
 10
14.8426997039
 20
13.4599002283
 30
0.0
 10
14.842643483
 20
13.4597183046
 30
0.0
  0
SPLINE
  5
310
100
AcDbEntity
  8
LAYER_FEATURE
100
AcDbSpline
 62
7
  6
CONTINUOUS
 70
0
 71
3
 72
23
 73
19
 74
0
 42
0.0000001
 43
0.0000001
 44
0.0000000001
 40
0.0
 40
0.0
 40
0.0
 40
0.0
 40
0.0707377905
 40
0.1413443696
 40
0.2115604599
 40
0.2811628569
 40
0.3499217409
 40
0.4176168305
 40
0.4840409117
 40
0.5490001938
 40
0.6123184541
 40
0.6738395395
 40
0.7334310054
 40
0.7909890168
 40
0.8464399829
 40
0.8997461595
 40
0.9509204174
 40
1.0
 40
1.0
 40
1.0
 40
1.0
 10
14.9059378985
 20
13.4919749882
 30
0.0
 10
14.9054654028
 20
13.4921295415
 30
0.0
 10
14.9045148917
 20
13.4924191867
 30
0.0
 10
14.9030758412
 20
13.4927945324
 30
0.0
 10
14.9016303859
 20
13.4931089145
 30
0.0
 10
14.9001859075
 20
13.4933607539
 30
0.0
 10
14.8987495962
 20
13.4935487969
 30
0.0
 10
14.8973286832
 20
13.4936720965
 30
0.0
 10
14.8959303052
 20
13.4937300239
 30
0.0
 10
14.8945614753
 20
13.4937222857
 30
0.0
 10
14.8932290569
 20
13.4936489258
 30
0.0
 10
14.8919397248
 20
13.4935102895
 30
0.0
 10
14.8906999288
 20
13.493307051
 30
0.0
 10
14.8895158634
 20
13.4930402068
 30
0.0
 10
14.8883934591
 20
13.4927110538
 30
0.0
 10
14.8873382499
 20
13.4923211476
 30
0.0
 10
14.8863556769
 20
13.4918723896
 30
0.0
 10
14.8857396649
 20
13.4915283678
 30
0.0
 10
14.8854463764
 20
13.4913468396
 30
0.0
  0
SPLINE
  5
311
100
AcDbEntity
  8
LAYER_FEATURE
100
AcDbSpline
 62
7
  6
CONTINUOUS
 70
0
 71
3
 72
23
 73
19
 74
0
 42
0.0000001
 43
0.0000001
 44
0.0000000001
 40
0.0
 40
0.0
 40
0.0
 40
0.0
 40
0.0694916436
 40
0.1388807503
 40
0.2079508312
 40
0.2765149656
 40
0.3443798328
 40
0.4113588469
 40
0.4772747954
 40
0.5419596861
 40
0.6052577555
 40
0.667027113
 40
0.7271421558
 40
0.7854970007
 40
0.8420060581
 40
0.8966078991
 40
0.9492770731
 40
1.0
 40
1.0
 40
1.0
 40
1.0
 10
14.9350578449
 20
13.4824498514
 30
0.0
 10
14.9356175678
 20
13.482266766
 30
0.0
 10
14.9367431605
 20
13.4819218008
 30
0.0
 10
14.9384466134
 20
13.4814687526
 30
0.0
 10
14.9401582969
 20
13.4810819619
 30
0.0
 10
14.941870787
 20
13.4807630816
 30
0.0
 10
14.9435768428
 20
13.4805134603
 30
0.0
 10
14.9452691675
 20
13.4803341656
 30
0.0
 10
14.9469405393
 20
13.4802259705
 30
0.0
 10
14.9485838348
 20
13.4801893379
 30
0.0
 10
14.95019205
 20
13.4802244173
 30
0.0
 10
14.9517583349
 20
13.4803310762
 30
0.0
 10
14.9532760261
 20
13.4805088728
 30
0.0
 10
14.9547386713
 20
13.4807570603
 30
0.0
 10
14.9561400398
 20
13.4810746042
 30
0.0
 10
14.9574742513
 20
13.4814602111
 30
0.0
 10
14.9587354867
 20
13.4819122713
 30
0.0
 10
14.9595392382
 20
13.4822632871
 30
0.0
 10
14.9599264917
 20
13.4824498514
 30
0.0
  0
SPLINE
  5
312
100
AcDbEntity
  8
LAYER_FEATURE
100
AcDbSpline
 62
7
  6
CONTINUOUS
 70
0
 71
3
 72
18
 73
14
 74
0
 42
0.0000001
 43
0.0000001
 44
0.0000000001
 40
0.0
 40
0.0
 40
0.0
 40
0.0
 40
0.1439412433
 40
0.2813138499
 40
0.4123908568
 40
0.5377122645
 40
0.6580249539
 40
0.7166328765
 40
0.774378127
 40
0.8314168876
 40
0.8879156305
 40
0.9440497605
 40
1.0
 40
1.0
 40
1.0
 40
1.0
 10
14.9876106382
 20
13.5405657665
 30
0.0
 10
14.9872226371
 20
13.5404223253
 30
0.0
 10
14.9864749255
 20
13.5401119296
 30
0.0
 10
14.985423278
 20
13.5395619458
 30
0.0
 10
14.9844744636
 20
13.5389415636
 30
0.0
 10
14.9836348762
 20
13.5382546601
 30
0.0
 10
14.9830254784
 20
13.5376243645
 30
0.0
 10
14.982601015
 20
13.5370924134
 30
0.0
 10
14.9823158806
 20
13.5366832984
 30
0.0
 10
14.9820617375
 20
13.5362613066
 30
0.0
 10
14.9818390329
 20
13.5358270846
 30
0.0
 10
14.9816481136
 20
13.5353813998
 30
0.0
 10
14.9815421756
 20
13.5350768737
 30
0.0
 10
14.9814947044
 20
13.5349232479
 30
0.0
  0
SPLINE
  5
313
100
AcDbEntity
  8
LAYER_FEATURE
100
AcDbSpline
 62
7
  6
CONTINUOUS
 70
0
 71
3
 72
11
 73
7
 74
0
 42
0.0000001
 43
0.0000001
 44
0.0000000001
 40
0.0
 40
0.0
 40
0.0
 40
0.0
 40
0.2456966125
 40
0.494275547
 40
0.7457181761
 40
1.0
 40
1.0
 40
1.0
 40
1.0
 10
14.9876106382
 20
13.5405657665
 30
0.0
 10
14.9919689086
 20
13.542176988
 30
0.0
 10
15.0007708588
 20
13.5453263788
 30
0.0
 10
15.0141442863
 20
13.5498061293
 30
0.0
 10
15.0277592513
 20
13.5540670029
 30
0.0
 10
15.0369414202
 20
13.5567454624
 30
0.0
 10
15.0415704908
 20
13.5580483324
 30
0.0
  0
SPLINE
  5
314
100
AcDbEntity
  8
LAYER_FEATURE
100
AcDbSpline
 62
7
  6
CONTINUOUS
 70
0
 71
3
 72
23
 73
19
 74
0
 42
0.0000001
 43
0.0000001
 44
0.0000000001
 40
0.0
 40
0.0
 40
0.0
 40
0.0
 40
0.064882183
 40
0.1304585824
 40
0.1964929042
 40
0.2627735963
 40
0.3290746792
 40
0.3951706275
 40
0.460839563
 40
0.5258630671
 40
0.5900297016
 40
0.6531369322
 40
0.7149936035
 40
0.7754237294
 40
0.8342667811
 40
0.8913817377
 40
0.9466610178
 40
1.0
 40
1.0
 40
1.0
 40
1.0
 10
15.0633875725
 20
13.5550219183
 30
0.0
 10
15.0629537448
 20
13.5552418604
 30
0.0
 10
15.0620717639
 20
13.5556652616
 30
0.0
 10
15.0607179027
 20
13.5562466888
 30
0.0
 10
15.0593314097
 20
13.5567755547
 30
0.0
 10
15.0579193713
 20
13.5572491841
 30
0.0
 10
15.0564888207
 20
13.5576652177
 30
0.0
 10
15.0550469659
 20
13.55802156
 30
0.0
 10
15.0536010565
 20
13.5583164118
 30
0.0
 10
15.0521583569
 20
13.5585482927
 30
0.0
 10
15.0507261187
 20
13.5587160476
 30
0.0
 10
15.0493115354
 20
13.5588188221
 30
0.0
 10
15.0479217056
 20
13.5588560966
 30
0.0
 10
15.0465636023
 20
13.558827687
 30
0.0
 10
15.0452440494
 20
13.5587337286
 30
0.0
 10
15.0439695853
 20
13.558574673
 30
0.0
 10
15.0427467231
 20
13.5583512874
 30
0.0
 10
15.0419553971
 20
13.5581566657
 30
0.0
 10
15.0415704908
 20
13.5580483324
 30
0.0
  0
SPLINE
  5
315
100
AcDbEntity
  8
LAYER_FEATURE
100
AcDbSpline
 62
7
  6
CONTINUOUS
 70
0
 71
3
 72
23
 73
19
 74
0
 42
0.0000001
 43
0.0000001
 44
0.0000000001
 40
0.0
 40
0.0
 40
0.0
 40
0.0
 40
0.0640731605
 40
0.1287928298
 40
0.1939614003
 40
0.2594020731
 40
0.3249256935
 40
0.3903429334
 40
0.455466727
 40
0.5201117811
 40
0.584097198
 40
0.6472478036
 40
0.7093958197
 40
0.7703836253
 40
0.8300635101
 40
0.888300565
 40
0.9449840844
 40
1.0
 40
1.0
 40
1.0
 40
1.0
 10
15.0899577926
 20
13.5415513407
 30
0.0
 10
15.0904714562
 20
13.5412909234
 30
0.0
 10
15.0915145139
 20
13.5407879981
 30
0.0
 10
15.0931133706
 20
13.5400919923
 30
0.0
 10
15.0947490359
 20
13.5394528874
 30
0.0
 10
15.0964144103
 20
13.5388734315
 30
0.0
 10
15.0981024487
 20
13.5383560759
 30
0.0
 10
15.0998059274
 20
13.5379030341
 30
0.0
 10
15.1015175718
 20
13.5375162476
 30
0.0
 10
15.1032300773
 20
13.5371973661
 30
0.0
 10
15.1049361314
 20
13.5369477414
 30
0.0
 10
15.1066284537
 20
13.5367684492
 30
0.0
 10
15.1082998278
 20
13.5366602564
 30
0.0
 10
15.1099431251
 20
13.5366236201
 30
0.0
 10
15.1115513256
 20
13.5366587007
 30
0.0
 10
15.113117649
 20
13.5367653576
 30
0.0
 10
15.1146352987
 20
13.5369431628
 30
0.0
 10
15.1156256895
 20
13.5371112058
 30
0.0
 10
15.1161107282
 20
13.5372074593
 30
0.0
  0
SPLINE
  5
316
100
AcDbEntity
  8
LAYER_FEATURE
100
AcDbSpline
 62
7
  6
CONTINUOUS
 70
0
 71
3
 72
23
 73
19
 74
0
 42
0.0000001
 43
0.0000001
 44
0.0000000001
 40
0.0
 40
0.0
 40
0.0
 40
0.0
 40
0.0771839987
 40
0.1523545598
 40
0.2254081364
 40
0.2963007289
 40
0.3650111145
 40
0.4315363904
 40
0.4959041729
 40
0.5581753266
 40
0.6184453459
 40
0.6768448366
 40
0.7335437605
 40
0.7887491737
 40
0.8427060093
 40
0.8956922293
 40
0.9480148176
 40
1.0
 40
1.0
 40
1.0
 40
1.0
 10
15.1699566611
 20
13.5835259237
 30
0.0
 10
15.1696229965
 20
13.5834843226
 30
0.0
 10
15.1689660328
 20
13.5833880313
 30
0.0
 10
15.1680016208
 20
13.5832012894
 30
0.0
 10
15.1670739505
 20
13.5829745884
 30
0.0
 10
15.166186052
 20
13.582708693
 30
0.0
 10
15.1653406856
 20
13.5824044108
 30
0.0
 10
15.1645405211
 20
13.5820626759
 30
0.0
 10
15.1637881103
 20
13.5816845381
 30
0.0
 10
15.1630858573
 20
13.5812711417
 30
0.0
 10
15.1624359909
 20
13.5808237766
 30
0.0
 10
15.161840638
 20
13.5803437669
 30
0.0
 10
15.1613017116
 20
13.5798326296
 30
0.0
 10
15.160821045
 20
13.579291897
 30
0.0
 10
15.1604002205
 20
13.5787233159
 30
0.0
 10
15.1600407259
 20
13.5781286432
 30
0.0
 10
15.1597438076
 20
13.5775099251
 30
0.0
 10
15.1595880658
 20
13.577082109
 30
0.0
 10
15.1595211967
 20
13.5768657354
 30
0.0
  0
SPLINE
  5
317
100
AcDbEntity
  8
LAYER_FEATURE
100
AcDbSpline
 62
7
  6
CONTINUOUS
 70
0
 71
3
 72
23
 73
19
 74
0
 42
0.0000001
 43
0.0000001
 44
0.0000000001
 40
0.0
 40
0.0
 40
0.0
 40
0.0
 40
0.0592090827
 40
0.1197986818
 40
0.1815768317
 40
0.2443649083
 40
0.3079623207
 40
0.3721605741
 40
0.4367465671
 40
0.5015023477
 40
0.5662085141
 40
0.6306461531
 40
0.6945988093
 40
0.7578558991
 40
0.8202124896
 40
0.8814726396
 40
0.9414633993
 40
1.0
 40
1.0
 40
1.0
 40
1.0
 10
15.2557989669
 20
13.5830141698
 30
0.0
 10
15.2554340911
 20
13.5832852093
 30
0.0
 10
15.2546818724
 20
13.5838150472
 30
0.0
 10
15.2535051268
 20
13.5845630855
 30
0.0
 10
15.2522717488
 20
13.5852705247
 30
0.0
 10
15.2509880487
 20
13.5859337785
 30
0.0
 10
15.2496604143
 20
13.5865495474
 30
0.0
 10
15.2482955323
 20
13.5871147309
 30
0.0
 10
15.2469002624
 20
13.5876264809
 30
0.0
 10
15.2454816165
 20
13.5880822269
 30
0.0
 10
15.2440467311
 20
13.588479687
 30
0.0
 10
15.2426028183
 20
13.5888168529
 30
0.0
 10
15.2411571332
 20
13.5890920291
 30
0.0
 10
15.2397169451
 20
13.589303839
 30
0.0
 10
15.2382895058
 20
13.5894512153
 30
0.0
 10
15.236881916
 20
13.5895334232
 30
0.0
 10
15.2355013593
 20
13.5895500138
 30
0.0
 10
15.2345916191
 20
13.5895168754
 30
0.0
 10
15.2341431239
 20
13.5894889013
 30
0.0
  0
SPLINE
  5
318
100
AcDbEntity
  8
LAYER_FEATURE
100
AcDbSpline
 62
7
  6
CONTINUOUS
 70
0
 71
3
 72
23
 73
19
 74
0
 42
0.0000001
 43
0.0000001
 44
0.0000000001
 40
0.0
 40
0.0
 40
0.0
 40
0.0
 40
0.0588506095
 40
0.1189780247
 40
0.1802215831
 40
0.2424324819
 40
0.3054436442
 40
0.3690812811
 40
0.4331674362
 40
0.4975194942
 40
0.5619527596
 40
0.6262818582
 40
0.690322096
 40
0.7538920238
 40
0.8168129192
 40
0.8789112801
 40
0.9400304901
 40
1.0
 40
1.0
 40
1.0
 40
1.0
 10
15.2780087442
 20
13.566516149
 30
0.0
 10
15.2784405568
 20
13.566195387
 30
0.0
 10
15.2793287381
 20
13.5655671135
 30
0.0
 10
15.2807143797
 20
13.5646754245
 30
0.0
 10
15.2821628966
 20
13.5638274233
 30
0.0
 10
15.2836679946
 20
13.5630267638
 30
0.0
 10
15.2852233124
 20
13.5622768285
 30
0.0
 10
15.2868221974
 20
13.5615808244
 30
0.0
 10
15.288457825
 20
13.5609417294
 30
0.0
 10
15.2901232143
 20
13.5603622699
 30
0.0
 10
15.2918112504
 20
13.5598449114
 30
0.0
 10
15.2935147272
 20
13.5593918724
 30
0.0
 10
15.2952263745
 20
13.5590050876
 30
0.0
 10
15.2969388809
 20
13.5586862023
 30
0.0
 10
15.2986449203
 20
13.5584365814
 30
0.0
 10
15.3003372802
 20
13.5582572806
 30
0.0
 10
15.3020086259
 20
13.5581491028
 30
0.0
 10
15.3031155493
 20
13.5581244144
 30
0.0
 10
15.3036636893
 20
13.5581244144
 30
0.0
  0
SPLINE
  5
319
100
AcDbEntity
  8
LAYER_FEATURE
100
AcDbSpline
 62
7
  6
CONTINUOUS
 70
0
 71
3
 72
24
 73
20
 74
0
 42
0.0000001
 43
0.0000001
 44
0.0000000001
 40
0.0
 40
0.0
 40
0.0
 40
0.0
 40
0.0784482223
 40
0.1550130196
 40
0.2295190356
 40
0.3018448077
 40
0.371883666
 40
0.4395600352
 40
0.5048342035
 40
0.5677047256
 40
0.6282138981
 40
0.6576149291
 40
0.6864638211
 40
0.7425719947
 40
0.7967486202
 40
0.8492469274
 40
0.9003747122
 40
0.9504971461
 40
1.0
 40
1.0
 40
1.0
 40
1.0
 10
15.341264241
 20
13.5581244144
 30
0.0
 10
15.3418006269
 20
13.5581244144
 30
0.0
 10
15.3428606913
 20
13.5581475499
 30
0.0
 10
15.3444269518
 20
13.5582541909
 30
0.0
 10
15.3459446784
 20
13.5584319938
 30
0.0
 10
15.3474073068
 20
13.5586801806
 30
0.0
 10
15.3488086907
 20
13.5589977313
 30
0.0
 10
15.3501428623
 20
13.5593833274
 30
0.0
 10
15.3514041681
 20
13.559835398
 30
0.0
 10
15.3525871995
 20
13.56035207
 30
0.0
 10
15.3535124678
 20
13.5608393524
 30
0.0
 10
15.354207246
 20
13.561260035
 30
0.0
 10
15.354859119
 20
13.5616921674
 30
0.0
 10
15.3556182882
 20
13.5622676612
 30
0.0
 10
15.356441299
 20
13.5630194074
 30
0.0
 10
15.35716421
 20
13.5638228569
 30
0.0
 10
15.3577836824
 20
13.5646746923
 30
0.0
 10
15.3582966481
 20
13.5655710716
 30
0.0
 10
15.3585670718
 20
13.566198168
 30
0.0
 10
15.3586830557
 20
13.566516149
 30
0.0
  0
SPLINE
  5
31A
100
AcDbEntity
  8
LAYER_FEATURE
100
AcDbSpline
 62
7
  6
CONTINUOUS
 70
0
 71
3
 72
23
 73
19
 74
0
 42
0.0000001
 43
0.0000001
 44
0.0000000001
 40
0.0
 40
0.0
 40
0.0
 40
0.0
 40
0.0788997641
 40
0.1560443537
 40
0.2312026925
 40
0.3042044441
 40
0.3748938943
 40
0.4431494714
 40
0.5088896002
 40
0.5720759576
 40
0.6327205487
 40
0.69089101
 40
0.7467170745
 40
0.8003966597
 40
0.8521964751
 40
0.9024525364
 40
0.9515739768
 40
1.0
 40
1.0
 40
1.0
 40
1.0
 10
15.3800018972
 20
13.5894889013
 30
0.0
 10
15.3795370005
 20
13.5895162257
 30
0.0
 10
15.3786161803
 20
13.5895496129
 30
0.0
 10
15.3772510993
 20
13.5895345686
 30
0.0
 10
15.3759231242
 20
13.5894538916
 30
0.0
 10
15.3746390172
 20
13.589308008
 30
0.0
 10
15.3734051349
 20
13.5890976227
 30
0.0
 10
15.3722276583
 20
13.5888237619
 30
0.0
 10
15.3711124716
 20
13.5884877421
 30
0.0
 10
15.3700651404
 20
13.5880911762
 30
0.0
 10
15.3690908969
 20
13.5876359669
 30
0.0
 10
15.368194641
 20
13.587124253
 30
0.0
 10
15.3673809201
 20
13.586558439
 30
0.0
 10
15.366653925
 20
13.5859411934
 30
0.0
 10
15.3660175145
 20
13.585275468
 30
0.0
 10
15.3654751278
 20
13.5845644316
 30
0.0
 10
15.3650299725
 20
13.5838118441
 30
0.0
 10
15.3647986726
 20
13.5832826951
 30
0.0
 10
15.3647007277
 20
13.5830141698
 30
0.0
  0
SPLINE
  5
31B
100
AcDbEntity
  8
LAYER_FEATURE
100
AcDbSpline
 62
7
  6
CONTINUOUS
 70
0
 71
3
 72
23
 73
19
 74
0
 42
0.0000001
 43
0.0000001
 44
0.0000000001
 40
0.0
 40
0.0
 40
0.0
 40
0.0
 40
0.0539415962
 40
0.1097771665
 40
0.1673897118
 40
0.2266613845
 40
0.2874424519
 40
0.3495651864
 40
0.4128477873
 40
0.4770945694
 40
0.5420996769
 40
0.6076494672
 40
0.673524412
 40
0.7395025806
 40
0.8053594221
 40
0.8708709498
 40
0.935828496
 40
1.0
 40
1.0
 40
1.0
 40
1.0
 10
15.4700595633
 20
13.5740441169
 30
0.0
 10
15.4697897092
 20
13.5743480894
 30
0.0
 10
15.469220551
 20
13.5749492186
 30
0.0
 10
15.4683007185
 20
13.575813232
 30
0.0
 10
15.4673041214
 20
13.5766513102
 30
0.0
 10
15.466235875
 20
13.5774592066
 30
0.0
 10
15.4651012821
 20
13.5782329244
 30
0.0
 10
15.4639060491
 20
13.5789685799
 30
0.0
 10
15.4626561726
 20
13.5796624773
 30
0.0
 10
15.4613579282
 20
13.5803111362
 30
0.0
 10
15.4600178439
 20
13.5809113078
 30
0.0
 10
15.4586426508
 20
13.5814599658
 30
0.0
 10
15.4572392582
 20
13.5819543528
 30
0.0
 10
15.4558147265
 20
13.582391989
 30
0.0
 10
15.4543762331
 20
13.5827706688
 30
0.0
 10
15.452930943
 20
13.5830885063
 30
0.0
 10
15.451486228
 20
13.5833438536
 30
0.0
 10
15.4505213726
 20
13.5834725353
 30
0.0
 10
15.4500407688
 20
13.5835259237
 30
0.0
  0
SPLINE
  5
31C
100
AcDbEntity
  8
LAYER_FEATURE
100
AcDbSpline
 62
7
  6
CONTINUOUS
 70
0
 71
3
 72
23
 73
19
 74
0
 42
0.0000001
 43
0.0000001
 44
0.0000000001
 40
0.0
 40
0.0
 40
0.0
 40
0.0
 40
0.0539988321
 40
0.1097527214
 40
0.1671648015
 40
0.2261387362
 40
0.2865519127
 40
0.3482668712
 40
0.4111343509
 40
0.4749931661
 40
0.5396730629
 40
0.6049965098
 40
0.6707800527
 40
0.736836989
 40
0.8029769185
 40
0.8690081955
 40
0.9347502923
 40
1.0
 40
1.0
 40
1.0
 40
1.0
 10
15.4863953382
 20
13.5556429658
 30
0.0
 10
15.486714557
 20
13.5552833873
 30
0.0
 10
15.487385077
 20
13.5545715635
 30
0.0
 10
15.488463474
 20
13.5535446046
 30
0.0
 10
15.4896265208
 20
13.5525452057
 30
0.0
 10
15.490869146
 20
13.5515776731
 30
0.0
 10
15.4921861092
 20
13.5506460732
 30
0.0
 10
15.4935717841
 20
13.5497543785
 30
0.0
 10
15.4950202658
 20
13.5489063926
 30
0.0
 10
15.4965253776
 20
13.5481057274
 30
0.0
 10
15.4980806925
 20
13.5473557896
 30
0.0
 10
15.4996795762
 20
13.5466597886
 30
0.0
 10
15.501315207
 20
13.5460206948
 30
0.0
 10
15.5029805965
 20
13.5454412315
 30
0.0
 10
15.5046686183
 20
13.544923879
 30
0.0
 10
15.5063721315
 20
13.5444708257
 30
0.0
 10
15.5080837577
 20
13.5440840587
 30
0.0
 10
15.5092307903
 20
13.5438704602
 30
0.0
 10
15.5098039507
 20
13.5437752609
 30
0.0
  0
SPLINE
  5
31D
100
AcDbEntity
  8
LAYER_FEATURE
100
AcDbSpline
 62
7
  6
CONTINUOUS
 70
0
 71
3
 72
23
 73
19
 74
0
 42
0.0000001
 43
0.0000001
 44
0.0000000001
 40
0.0
 40
0.0
 40
0.0
 40
0.0
 40
0.0747137372
 40
0.1484632891
 40
0.2210340692
 40
0.2922513914
 40
0.3619421895
 40
0.4299494862
 40
0.4961357083
 40
0.5603834316
 40
0.622599369
 40
0.6827170188
 40
0.7407005013
 40
0.7965492918
 40
0.8503001102
 40
0.9020318368
 40
0.9518773206
 40
1.0
 40
1.0
 40
1.0
 40
1.0
 10
15.5493463036
 20
13.5372074593
 30
0.0
 10
15.5499136143
 20
13.5371132316
 30
0.0
 10
15.5510446638
 20
13.5369477522
 30
0.0
 10
15.5527369632
 20
13.5367684469
 30
0.0
 10
15.5544083738
 20
13.5366602539
 30
0.0
 10
15.5560516542
 20
13.53662362
 30
0.0
 10
15.5576598704
 20
13.5366587032
 30
0.0
 10
15.5592261579
 20
13.5367653599
 30
0.0
 10
15.5607438477
 20
13.5369431537
 30
0.0
 10
15.5622064901
 20
13.5371913446
 30
0.0
 10
15.5636078732
 20
13.5375088906
 30
0.0
 10
15.5649420447
 20
13.53789449
 30
0.0
 10
15.5662033414
 20
13.5383465593
 30
0.0
 10
15.567386409
 20
13.5388632445
 30
0.0
 10
15.5684861908
 20
13.5394424363
 30
0.0
 10
15.56949804
 20
13.54008184
 30
0.0
 10
15.5704174039
 20
13.5407787763
 30
0.0
 10
15.5709751725
 20
13.5412882426
 30
0.0
 10
15.5712359044
 20
13.5415513407
 30
0.0
  0
SPLINE
  5
31E
100
AcDbEntity
  8
LAYER_FEATURE
100
AcDbSpline
 62
7
  6
CONTINUOUS
 70
0
 71
3
 72
23
 73
19
 74
0
 42
0.0000001
 43
0.0000001
 44
0.0000000001
 40
0.0
 40
0.0
 40
0.0
 40
0.0
 40
0.0744591763
 40
0.1481711209
 40
0.220874625
 40
0.2923530285
 40
0.3623895817
 40
0.4307847129
 40
0.4973601311
 40
0.5619599637
 40
0.6244557677
 40
0.6847499497
 40
0.7427807067
 40
0.7985281487
 40
0.8520171717
 40
0.9033240141
 40
0.9525909358
 40
1.0
 40
1.0
 40
1.0
 40
1.0
 10
15.6034321109
 20
13.5580483324
 30
0.0
 10
15.6029518509
 20
13.5581542463
 30
0.0
 10
15.6019916995
 20
13.5583454117
 30
0.0
 10
15.6005498329
 20
13.5585702079
 30
0.0
 10
15.5991191707
 20
13.5587307451
 30
0.0
 10
15.5977070132
 20
13.558826229
 30
0.0
 10
15.5963203795
 20
13.5588561828
 30
0.0
 10
15.5949662409
 20
13.5588204518
 30
0.0
 10
15.5936513871
 20
13.5587191992
 30
0.0
 10
15.5923823975
 20
13.5585529189
 30
0.0
 10
15.5911656172
 20
13.5583224339
 30
0.0
 10
15.5900071275
 20
13.5580288513
 30
0.0
 10
15.5889127122
 20
13.5576735859
 30
0.0
 10
15.5878878331
 20
13.5572583463
 30
0.0
 10
15.5869376377
 20
13.5567851161
 30
0.0
 10
15.5860668443
 20
13.5562560826
 30
0.0
 10
15.5852800626
 20
13.5556738291
 30
0.0
 10
15.5848057433
 20
13.5552443363
 30
0.0
 10
15.5845853258
 20
13.5550219183
 30
0.0
  0
SPLINE
  5
31F
100
AcDbEntity
  8
LAYER_FEATURE
100
AcDbSpline
 62
7
  6
CONTINUOUS
 70
0
 71
3
 72
23
 73
19
 74
0
 42
0.0000001
 43
0.0000001
 44
0.0000000001
 40
0.0
 40
0.0
 40
0.0
 40
0.0
 40
0.0495166357
 40
0.1011363697
 40
0.1548743459
 40
0.2107243322
 40
0.2686320703
 40
0.328509922
 40
0.3902422419
 40
0.4536867944
 40
0.5186794649
 40
0.5850377062
 40
0.6525629238
 40
0.7210445057
 40
0.7902600771
 40
0.859978959
 40
0.9299781413
 40
1.0
 40
1.0
 40
1.0
 40
1.0
 10
15.6915678562
 20
13.528723054
 30
0.0
 10
15.6914130137
 20
13.5290385896
 30
0.0
 10
15.6910687275
 20
13.529669615
 30
0.0
 10
15.6904681813
 20
13.5305915627
 30
0.0
 10
15.6897759
 20
13.5315038489
 30
0.0
 10
15.6889954997
 20
13.5324018598
 30
0.0
 10
15.6881308609
 20
13.5332812129
 30
0.0
 10
15.6871863339
 20
13.5341375299
 30
0.0
 10
15.6861666485
 20
13.5349665418
 30
0.0
 10
15.6850769171
 20
13.5357641127
 30
0.0
 10
15.6839226123
 20
13.5365262619
 30
0.0
 10
15.6827095205
 20
13.5372491609
 30
0.0
 10
15.6814437288
 20
13.5379291849
 30
0.0
 10
15.6801316011
 20
13.538562925
 30
0.0
 10
15.6787797446
 20
13.5391471898
 30
0.0
 10
15.6773948897
 20
13.5396790706
 30
0.0
 10
15.6759840944
 20
13.5401558291
 30
0.0
 10
15.6750300539
 20
13.5404356408
 30
0.0
 10
15.6745503579
 20
13.5405657665
 30
0.0
  0
SPLINE
  5
320
100
AcDbEntity
  8
LAYER_FEATURE
100
AcDbSpline
 62
7
  6
CONTINUOUS
 70
0
 71
3
 72
23
 73
19
 74
0
 42
0.0000001
 43
0.0000001
 44
0.0000000001
 40
0.0
 40
0.0
 40
0.0
 40
0.0
 40
0.0499505767
 40
0.1018546277
 40
0.1557297879
 40
0.2115776802
 40
0.269360448
 40
0.3290127311
 40
0.3904458274
 40
0.4535485435
 40
0.5181908652
 40
0.584226622
 40
0.65149528
 40
0.7198251019
 40
0.7890331296
 40
0.8589279201
 40
0.9293229342
 40
1.0
 40
1.0
 40
1.0
 40
1.0
 10
15.7009163726
 20
13.5096727805
 30
0.0
 10
15.7010994977
 20
13.5092996106
 30
0.0
 10
15.7015033402
 20
13.5085532958
 30
0.0
 10
15.7022013028
 20
13.5074601836
 30
0.0
 10
15.7029999934
 20
13.5063767747
 30
0.0
 10
15.7038958678
 20
13.505307735
 30
0.0
 10
15.7048851392
 20
13.5042575029
 30
0.0
 10
15.705963577
 20
13.5032305235
 30
0.0
 10
15.7071265917
 20
13.5022311463
 30
0.0
 10
15.7083692293
 20
13.5012636059
 30
0.0
 10
15.7096861888
 20
13.500332004
 30
0.0
 10
15.7110718634
 20
13.4994403125
 30
0.0
 10
15.7125203483
 20
13.4985923273
 30
0.0
 10
15.7140254596
 20
13.4977916583
 30
0.0
 10
15.7155807613
 20
13.4970417287
 30
0.0
 10
15.717179679
 20
13.496345708
 30
0.0
 10
15.7188152929
 20
13.4957066345
 30
0.0
 10
15.7199243768
 20
13.4953207245
 30
0.0
 10
15.7204833941
 20
13.4951378698
 30
0.0
  0
SPLINE
  5
321
100
AcDbEntity
  8
LAYER_FEATURE
100
AcDbSpline
 62
7
  6
CONTINUOUS
 70
0
 71
3
 72
23
 73
19
 74
0
 42
0.0000001
 43
0.0000001
 44
0.0000000001
 40
0.0
 40
0.0
 40
0.0
 40
0.0
 40
0.0694916436
 40
0.1388807503
 40
0.2079508312
 40
0.2765149656
 40
0.3443798328
 40
0.4113588469
 40
0.4772747954
 40
0.5419596861
 40
0.6052577555
 40
0.667027113
 40
0.7271421558
 40
0.7854970007
 40
0.8420060581
 40
0.8966078991
 40
0.9492770731
 40
1.0
 40
1.0
 40
1.0
 40
1.0
 10
15.7592728022
 20
13.4824498514
 30
0.0
 10
15.7598325251
 20
13.482266766
 30
0.0
 10
15.7609581178
 20
13.4819218008
 30
0.0
 10
15.7626615707
 20
13.4814687526
 30
0.0
 10
15.7643732542
 20
13.4810819619
 30
0.0
 10
15.7660857443
 20
13.4807630816
 30
0.0
 10
15.7677918001
 20
13.4805134603
 30
0.0
 10
15.7694841248
 20
13.4803341656
 30
0.0
 10
15.7711554966
 20
13.4802259705
 30
0.0
 10
15.7727987921
 20
13.4801893379
 30
0.0
 10
15.7744070073
 20
13.4802244173
 30
0.0
 10
15.7759732922
 20
13.4803310762
 30
0.0
 10
15.7774909833
 20
13.4805088728
 30
0.0
 10
15.7789536286
 20
13.4807570603
 30
0.0
 10
15.7803549971
 20
13.4810746042
 30
0.0
 10
15.7816892086
 20
13.4814602111
 30
0.0
 10
15.782950444
 20
13.4819122713
 30
0.0
 10
15.7837541955
 20
13.4822632871
 30
0.0
 10
15.784141449
 20
13.4824498514
 30
0.0
  0
SPLINE
  5
322
100
AcDbEntity
  8
LAYER_FEATURE
100
AcDbSpline
 62
7
  6
CONTINUOUS
 70
0
 71
3
 72
23
 73
19
 74
0
 42
0.0000001
 43
0.0000001
 44
0.0000000001
 40
0.0
 40
0.0
 40
0.0
 40
0.0
 40
0.0687372277
 40
0.1376405428
 40
0.2064561324
 40
0.2749622577
 40
0.3429277173
 40
0.4101275154
 40
0.4763462183
 40
0.5413780548
 40
0.6050307724
 40
0.6671278505
 40
0.7275116403
 40
0.786047779
 40
0.8426262506
 40
0.8971663666
 40
0.9496311855
 40
1.0
 40
1.0
 40
1.0
 40
1.0
 10
15.8250209022
 20
13.4913468396
 30
0.0
 10
15.8245580285
 20
13.4915250653
 30
0.0
 10
15.8236237118
 20
13.4918629212
 30
0.0
 10
15.8222029262
 20
13.4923122859
 30
0.0
 10
15.8207666363
 20
13.4927031148
 30
0.0
 10
15.8193221792
 20
13.4930334383
 30
0.0
 10
15.817876748
 20
13.4933016115
 30
0.0
 10
15.816437623
 20
13.4935062839
 30
0.0
 10
15.8150120362
 20
13.4936464191
 30
0.0
 10
15.8136071432
 20
13.4937213127
 30
0.0
 10
15.8122299957
 20
13.4937305969
 30
0.0
 10
15.8108875003
 20
13.4936742087
 30
0.0
 10
15.8095863812
 20
13.493552419
 30
0.0
 10
15.8083331495
 20
13.4933658297
 30
0.0
 10
15.8071340878
 20
13.493115353
 30
0.0
 10
15.8059951154
 20
13.4928021847
 30
0.0
 10
15.804922075
 20
13.4924278534
 30
0.0
 10
15.8042403174
 20
13.4921327358
 30
0.0
 10
15.8039128789
 20
13.4919749882
 30
0.0
  0
SPLINE
  5
323
100
AcDbEntity
  8
LAYER_FEATURE
100
AcDbSpline
 62
7
  6
CONTINUOUS
 70
0
 71
3
 72
23
 73
19
 74
0
 42
0.0000001
 43
0.0000001
 44
0.0000000001
 40
0.0
 40
0.0
 40
0.0
 40
0.0
 40
0.0471899147
 40
0.0960724696
 40
0.1468865257
 40
0.1998277889
 40
0.2550211089
 40
0.3125343995
 40
0.3723851101
 40
0.4345433683
 40
0.4989385046
 40
0.5654644955
 40
0.6339837997
 40
0.7043327639
 40
0.7763231272
 40
0.8497464064
 40
0.9243915945
 40
1.0
 40
1.0
 40
1.0
 40
1.0
 10
15.9052284213
 20
13.4501395365
 30
0.0
 10
15.9052000143
 20
13.4504427091
 30
0.0
 10
15.9051069856
 20
13.4510570785
 30
0.0
 10
15.9048673722
 20
13.4519756675
 30
0.0
 10
15.9045268697
 20
13.4529014127
 30
0.0
 10
15.9040874637
 20
13.4538295516
 30
0.0
 10
15.9035514739
 20
13.4547556102
 30
0.0
 10
15.9029216813
 20
13.4556750293
 30
0.0
 10
15.9022012844
 20
13.4565832879
 30
0.0
 10
15.9013939197
 20
13.4574759077
 30
0.0
 10
15.9005036534
 20
13.4583484778
 30
0.0
 10
15.8995349418
 20
13.4591966532
 30
0.0
 10
15.8984926389
 20
13.4600162091
 30
0.0
 10
15.8973819782
 20
13.4608030558
 30
0.0
 10
15.8962085434
 20
13.4615532458
 30
0.0
 10
15.8949781651
 20
13.4622630559
 30
0.0
 10
15.8936971061
 20
13.4629288458
 30
0.0
 10
15.8928182266
 20
13.4633390019
 30
0.0
 10
15.8923719337
 20
13.4635360935
 30
0.0
  0
SPLINE
  5
324
100
AcDbEntity
  8
LAYER_FEATURE
100
AcDbSpline
 62
7
  6
CONTINUOUS
 70
0
 71
3
 72
23
 73
19
 74
0
 42
0.0000001
 43
0.0000001
 44
0.0000000001
 40
0.0
 40
0.0
 40
0.0
 40
0.0
 40
0.0479823041
 40
0.0975308809
 40
0.1488587289
 40
0.2021458073
 40
0.2575143902
 40
0.3150401719
 40
0.3747569981
 40
0.4366588753
 40
0.5007049605
 40
0.5668237612
 40
0.6349161074
 40
0.7048594602
 40
0.7765089634
 40
0.8497010069
 40
0.9242680538
 40
1.0
 40
1.0
 40
1.0
 40
1.0
 10
15.9069525932
 20
13.4317383853
 30
0.0
 10
15.9069862012
 20
13.4313797065
 30
0.0
 10
15.9070927495
 20
13.4306537646
 30
0.0
 10
15.9073619219
 20
13.4295674411
 30
0.0
 10
15.90774146
 20
13.4284723906
 30
0.0
 10
15.9082294909
 20
13.4273734193
 30
0.0
 10
15.9088238241
 20
13.4262750478
 30
0.0
 10
15.9095218323
 20
13.4251818852
 30
0.0
 10
15.9103204954
 20
13.4240985076
 30
0.0
 10
15.9112163802
 20
13.4230294573
 30
0.0
 10
15.9122056472
 20
13.4219792241
 30
0.0
 10
15.9132840858
 20
13.4209522478
 30
0.0
 10
15.9144471038
 20
13.4199528708
 30
0.0
 10
15.9156897399
 20
13.4189853267
 30
0.0
 10
15.9170066881
 20
13.4180537348
 30
0.0
 10
15.9183923925
 20
13.4171620186
 30
0.0
 10
15.9198408629
 20
13.4163140573
 30
0.0
 10
15.9208374221
 20
13.4157839099
 30
0.0
 10
15.9213445637
 20
13.415526799
 30
0.0
  0
SPLINE
  5
325
100
AcDbEntity
  8
LAYER_FEATURE
100
AcDbSpline
 62
7
  6
CONTINUOUS
 70
0
 71
3
 72
23
 73
19
 74
0
 42
0.0000001
 43
0.0000001
 44
0.0000000001
 40
0.0
 40
0.0
 40
0.0
 40
0.0
 40
0.0640731605
 40
0.1287928298
 40
0.1939614003
 40
0.2594020731
 40
0.3249256935
 40
0.3903429334
 40
0.455466727
 40
0.5201117811
 40
0.584097198
 40
0.6472478036
 40
0.7093958197
 40
0.7703836253
 40
0.8300635101
 40
0.888300565
 40
0.9449840844
 40
1.0
 40
1.0
 40
1.0
 40
1.0
 10
15.9567375929
 20
13.3975832313
 30
0.0
 10
15.9572512565
 20
13.397322814
 30
0.0
 10
15.9582943142
 20
13.3968198887
 30
0.0
 10
15.9598931709
 20
13.3961238829
 30
0.0
 10
15.9615288362
 20
13.395484778
 30
0.0
 10
15.9631942106
 20
13.394905322
 30
0.0
 10
15.964882249
 20
13.3943879664
 30
0.0
 10
15.9665857277
 20
13.3939349246
 30
0.0
 10
15.9682973721
 20
13.3935481381
 30
0.0
 10
15.9700098777
 20
13.3932292566
 30
0.0
 10
15.9717159317
 20
13.392979632
 30
0.0
 10
15.9734082541
 20
13.3928003398
 30
0.0
 10
15.9750796282
 20
13.392692147
 30
0.0
 10
15.9767229254
 20
13.3926555106
 30
0.0
 10
15.978331126
 20
13.3926905912
 30
0.0
 10
15.9798974493
 20
13.3927972481
 30
0.0
 10
15.9814150991
 20
13.3929750534
 30
0.0
 10
15.9824054898
 20
13.3931430963
 30
0.0
 10
15.9828905286
 20
13.3932393498
 30
0.0
  0
SPLINE
  5
326
100
AcDbEntity
  8
LAYER_FEATURE
100
AcDbSpline
 62
7
  6
CONTINUOUS
 70
0
 71
3
 72
23
 73
19
 74
0
 42
0.0000001
 43
0.0000001
 44
0.0000000001
 40
0.0
 40
0.0
 40
0.0
 40
0.0
 40
0.0629112921
 40
0.1267674458
 40
0.1913447394
 40
0.2564404218
 40
0.3218348264
 40
0.3873059188
 40
0.4526324785
 40
0.5175938445
 40
0.5819733485
 40
0.6455601935
 40
0.708151699
 40
0.7695569008
 40
0.8295965914
 40
0.8881070452
 40
0.9449538714
 40
1.0
 40
1.0
 40
1.0
 40
1.0
 10
16.0296673613
 20
13.3939300196
 30
0.0
 10
16.0292538561
 20
13.3941692359
 30
0.0
 10
16.0284096386
 20
13.3946324996
 30
0.0
 10
16.0271064313
 20
13.3952759137
 30
0.0
 10
16.0257620552
 20
13.3958704904
 30
0.0
 10
16.0243833833
 20
13.3964132188
 30
0.0
 10
16.0229772817
 20
13.3969013958
 30
0.0
 10
16.0215508351
 20
13.3973325623
 30
0.0
 10
16.0201112156
 20
13.397704543
 30
0.0
 10
16.0186656577
 20
13.3980154696
 30
0.0
 10
16.0172214306
 20
13.3982637894
 30
0.0
 10
16.015785791
 20
13.3984482436
 30
0.0
 10
16.0143659479
 20
13.3985679038
 30
0.0
 10
16.0129690318
 20
13.3986221744
 30
0.0
 10
16.011602068
 20
13.3986107784
 30
0.0
 10
16.0102718415
 20
13.3985337651
 30
0.0
 10
16.0089851454
 20
13.3983914904
 30
0.0
 10
16.0081465723
 20
13.398251285
 30
0.0
 10
16.0077365767
 20
13.3981699234
 30
0.0
  0
SPLINE
  5
327
100
AcDbEntity
  8
LAYER_FEATURE
100
AcDbSpline
 62
7
  6
CONTINUOUS
 70
0
 71
3
 72
23
 73
19
 74
0
 42
0.0000001
 43
0.0000001
 44
0.0000000001
 40
0.0
 40
0.0
 40
0.0
 40
0.0
 40
0.0588506095
 40
0.1189780247
 40
0.1802215831
 40
0.2424324819
 40
0.3054436442
 40
0.3690812811
 40
0.4331674362
 40
0.4975194942
 40
0.5619527596
 40
0.6262818582
 40
0.690322096
 40
0.7538920238
 40
0.8168129192
 40
0.8789112801
 40
0.9400304901
 40
1.0
 40
1.0
 40
1.0
 40
1.0
 10
16.1282837766
 20
13.2883911189
 30
0.0
 10
16.1287155892
 20
13.2880703569
 30
0.0
 10
16.1296037705
 20
13.2874420833
 30
0.0
 10
16.1309894121
 20
13.2865503943
 30
0.0
 10
16.132437929
 20
13.2857023932
 30
0.0
 10
16.133943027
 20
13.2849017336
 30
0.0
 10
16.1354983448
 20
13.2841517983
 30
0.0
 10
16.1370972298
 20
13.2834557943
 30
0.0
 10
16.1387328574
 20
13.2828166993
 30
0.0
 10
16.1403982467
 20
13.2822372398
 30
0.0
 10
16.1420862828
 20
13.2817198812
 30
0.0
 10
16.1437897596
 20
13.2812668422
 30
0.0
 10
16.1455014069
 20
13.2808800574
 30
0.0
 10
16.1472139133
 20
13.2805611722
 30
0.0
 10
16.1489199527
 20
13.2803115513
 30
0.0
 10
16.1506123126
 20
13.2801322504
 30
0.0
 10
16.1522836583
 20
13.2800240727
 30
0.0
 10
16.1533905817
 20
13.2799993843
 30
0.0
 10
16.1539387217
 20
13.2799993843
 30
0.0
  0
SPLINE
  5
328
100
AcDbEntity
  8
LAYER_FEATURE
100
AcDbSpline
 62
7
  6
CONTINUOUS
 70
0
 71
3
 72
23
 73
19
 74
0
 42
0.0000001
 43
0.0000001
 44
0.0000000001
 40
0.0
 40
0.0
 40
0.0
 40
0.0
 40
0.0573514895
 40
0.1162820674
 40
0.1766210145
 40
0.2382065916
 40
0.3008521351
 40
0.3643599701
 40
0.428524849
 40
0.4931337901
 40
0.5579695305
 40
0.622812566
 40
0.6874430493
 40
0.7516441829
 40
0.8152019508
 40
0.8779083565
 40
0.9395756209
 40
1.0
 40
1.0
 40
1.0
 40
1.0
 10
16.2034251702
 20
13.2724366675
 30
0.0
 10
16.2030900903
 20
13.2727211731
 30
0.0
 10
16.2023949225
 20
13.2732796616
 30
0.0
 10
16.2012977503
 20
13.2740734732
 30
0.0
 10
16.2001365584
 20
13.274831442
 30
0.0
 10
16.1989172915
 20
13.2755497252
 30
0.0
 10
16.1976460127
 20
13.2762247539
 30
0.0
 10
16.1963291223
 20
13.2768531316
 30
0.0
 10
16.1949732358
 20
13.2774316942
 30
0.0
 10
16.1935851659
 20
13.277957536
 30
0.0
 10
16.1921718952
 20
13.278428023
 30
0.0
 10
16.1907405266
 20
13.2788407796
 30
0.0
 10
16.189298253
 20
13.2791937304
 30
0.0
 10
16.187852329
 20
13.2794851075
 30
0.0
 10
16.1864100378
 20
13.2797134426
 30
0.0
 10
16.1849785589
 20
13.2798775988
 30
0.0
 10
16.1835651965
 20
13.2799767106
 30
0.0
 10
16.1826292933
 20
13.2799993843
 30
0.0
 10
16.182166171
 20
13.2799993843
 30
0.0
  0
SPLINE
  5
329
100
AcDbEntity
  8
LAYER_FEATURE
100
AcDbSpline
 62
7
  6
CONTINUOUS
 70
0
 71
3
 72
23
 73
19
 74
0
 42
0.0000001
 43
0.0000001
 44
0.0000000001
 40
0.0
 40
0.0
 40
0.0
 40
0.0
 40
0.0539988321
 40
0.1097527214
 40
0.1671648015
 40
0.2261387362
 40
0.2865519127
 40
0.3482668712
 40
0.4111343509
 40
0.4749931661
 40
0.5396730629
 40
0.6049965098
 40
0.6707800527
 40
0.736836989
 40
0.8029769185
 40
0.8690081955
 40
0.9347502923
 40
1.0
 40
1.0
 40
1.0
 40
1.0
 10
16.2622207644
 20
13.1623147761
 30
0.0
 10
16.2625399832
 20
13.1619551976
 30
0.0
 10
16.2632105031
 20
13.1612433738
 30
0.0
 10
16.2642889002
 20
13.1602164149
 30
0.0
 10
16.265451947
 20
13.159217016
 30
0.0
 10
16.2666945722
 20
13.1582494834
 30
0.0
 10
16.2680115354
 20
13.1573178835
 30
0.0
 10
16.2693972103
 20
13.1564261888
 30
0.0
 10
16.2708456919
 20
13.1555782029
 30
0.0
 10
16.2723508037
 20
13.1547775378
 30
0.0
 10
16.2739061187
 20
13.1540275999
 30
0.0
 10
16.2755050024
 20
13.153331599
 30
0.0
 10
16.2771406332
 20
13.1526925051
 30
0.0
 10
16.2788060226
 20
13.1521130418
 30
0.0
 10
16.2804940445
 20
13.1515956893
 30
0.0
 10
16.2821975576
 20
13.151142636
 30
0.0
 10
16.2839091838
 20
13.1507558691
 30
0.0
 10
16.2850562164
 20
13.1505422705
 30
0.0
 10
16.2856293768
 20
13.1504470712
 30
0.0
  0
SPLINE
  5
32A
100
AcDbEntity
  8
LAYER_FEATURE
100
AcDbSpline
 62
7
  6
CONTINUOUS
 70
0
 71
3
 72
23
 73
19
 74
0
 42
0.0000001
 43
0.0000001
 44
0.0000000001
 40
0.0
 40
0.0
 40
0.0
 40
0.0
 40
0.0522961465
 40
0.10660327
 40
0.1628411579
 40
0.2209225978
 40
0.2807239009
 40
0.3420989489
 40
0.4048835079
 40
0.4688957262
 40
0.5339400915
 40
0.5998100893
 40
0.6662901907
 40
0.7331594572
 40
0.8001914238
 40
0.8671573248
 40
0.9338412156
 40
1.0
 40
1.0
 40
1.0
 40
1.0
 10
16.3344530213
 20
13.1351463547
 30
0.0
 10
16.3342205751
 20
13.1354568275
 30
0.0
 10
16.3337242143
 20
13.1360731027
 30
0.0
 10
16.3329074425
 20
13.1369636812
 30
0.0
 10
16.3320081621
 20
13.1378337628
 30
0.0
 10
16.3310310022
 20
13.1386789418
 30
0.0
 10
16.3299808102
 20
13.1394950519
 30
0.0
 10
16.3288628654
 20
13.1402780049
 30
0.0
 10
16.327682772
 20
13.1410238749
 30
0.0
 10
16.3264464522
 20
13.1417289258
 30
0.0
 10
16.32516012
 20
13.1423896282
 30
0.0
 10
16.3238302331
 20
13.1430026542
 30
0.0
 10
16.3224634712
 20
13.1435649242
 30
0.0
 10
16.3210667096
 20
13.1440736176
 30
0.0
 10
16.3196469855
 20
13.1445261707
 30
0.0
 10
16.3182113703
 20
13.1449203297
 30
0.0
 10
16.3167671848
 20
13.1452540576
 30
0.0
 10
16.3157985982
 20
13.1454361033
 30
0.0
 10
16.3153145732
 20
13.1455164977
 30
0.0
  0
SPLINE
  5
32B
100
AcDbEntity
  8
LAYER_FEATURE
100
AcDbSpline
 62
7
  6
CONTINUOUS
 70
0
 71
3
 72
10
 73
6
 74
0
 42
0.0000001
 43
0.0000001
 44
0.0000000001
 40
0.0
 40
0.0
 40
0.0
 40
0.0
 40
0.2544429655
 40
0.5059351865
 40
1.0
 40
1.0
 40
1.0
 40
1.0
 10
16.3344530213
 20
13.1351463547
 30
0.0
 10
16.3372454554
 20
13.1314165669
 30
0.0
 10
16.3427233971
 20
13.1239439548
 30
0.0
 10
16.3532413866
 20
13.1089533154
 30
0.0
 10
16.3607280099
 20
13.0975298515
 30
0.0
 10
16.3655153007
 20
13.0898530427
 30
0.0
  0
SPLINE
  5
32C
100
AcDbEntity
  8
LAYER_FEATURE
100
AcDbSpline
 62
7
  6
CONTINUOUS
 70
0
 71
3
 72
21
 73
17
 74
0
 42
0.0000001
 43
0.0000001
 44
0.0000000001
 40
0.0
 40
0.0
 40
0.0
 40
0.0
 40
0.1032685694
 40
0.1577477527
 40
0.2140900315
 40
0.2722473092
 40
0.3321498336
 40
0.3937074214
 40
0.4568118824
 40
0.5213390126
 40
0.5871509294
 40
0.6540981967
 40
0.7220217508
 40
0.790752289
 40
0.8601148974
 40
1.0
 40
1.0
 40
1.0
 40
1.0
 10
16.3497876616
 20
13.0272433311
 30
0.0
 10
16.3501902235
 20
13.0265151563
 30
0.0
 10
16.3508879548
 20
13.0254469611
 30
0.0
 10
16.3519585453
 20
13.0240938388
 30
0.0
 10
16.3528638726
 20
13.0230758899
 30
0.0
 10
16.3538534021
 20
13.0220773684
 30
0.0
 10
16.3549233346
 20
13.0211020095
 30
0.0
 10
16.3560694336
 20
13.0201536563
 30
0.0
 10
16.3572872213
 20
13.0192360249
 30
0.0
 10
16.3585719015
 20
13.018352704
 30
0.0
 10
16.3599184225
 20
13.0175071542
 30
0.0
 10
16.3613215073
 20
13.0167027076
 30
0.0
 10
16.3627756163
 20
13.0159425283
 30
0.0
 10
16.3642750602
 20
13.0152295751
 30
0.0
 10
16.3663323423
 20
13.0143433748
 30
0.0
 10
16.3679167798
 20
13.0137615808
 30
0.0
 10
16.3689879933
 20
13.0134111868
 30
0.0
  0
SPLINE
  5
32D
100
AcDbEntity
  8
LAYER_FEATURE
100
AcDbSpline
 62
7
  6
CONTINUOUS
 70
0
 71
3
 72
22
 73
18
 74
0
 42
0.0000001
 43
0.0000001
 44
0.0000000001
 40
0.0
 40
0.0
 40
0.0
 40
0.0
 40
0.0987396268
 40
0.151318191
 40
0.2060825641
 40
0.263027915
 40
0.3221087993
 40
0.3832451659
 40
0.446324409
 40
0.5112066449
 40
0.5777287347
 40
0.6457070362
 40
0.7149417864
 40
0.7852176703
 40
0.8563075013
 40
0.927988719
 40
1.0
 40
1.0
 40
1.0
 40
1.0
 10
16.4138215831
 20
12.9914151889
 30
0.0
 10
16.4135922293
 20
12.9920561048
 30
0.0
 10
16.4131439791
 20
12.9930056526
 30
0.0
 10
16.4123915522
 20
12.9942115267
 30
0.0
 10
16.4117226441
 20
12.9951268773
 30
0.0
 10
16.4109647273
 20
12.9960289743
 30
0.0
 10
16.4101214987
 20
12.9969135988
 30
0.0
 10
16.4091972215
 20
12.9977762875
 30
0.0
 10
16.4081965201
 20
12.998612771
 30
0.0
 10
16.4071244223
 20
12.999418879
 30
0.0
 10
16.4059862968
 20
13.0001905732
 30
0.0
 10
16.4047878512
 20
13.0009239896
 30
0.0
 10
16.4035351079
 20
13.0016154556
 30
0.0
 10
16.4022343723
 20
13.0022614919
 30
0.0
 10
16.4008921169
 20
13.0028588844
 30
0.0
 10
16.39951518
 20
13.0034045616
 30
0.0
 10
16.3985797889
 20
13.0037317081
 30
0.0
 10
16.3981079397
 20
13.00388605
 30
0.0
  0
SPLINE
  5
32E
100
AcDbEntity
  8
LAYER_FEATURE
100
AcDbSpline
 62
7
  6
CONTINUOUS
 70
0
 71
3
 72
23
 73
19
 74
0
 42
0.0000001
 43
0.0000001
 44
0.0000000001
 40
0.0
 40
0.0
 40
0.0
 40
0.0
 40
0.0473006908
 40
0.0959362354
 40
0.146237577
 40
0.1984920823
 40
0.2529111215
 40
0.3096412627
 40
0.368769563
 40
0.4303265621
 40
0.4942931806
 40
0.5606068869
 40
0.6291662457
 40
0.6998370374
 40
0.7724544527
 40
0.846828031
 40
0.9227601019
 40
1.0
 40
1.0
 40
1.0
 40
1.0
 10
16.4361220194
 20
12.8510382117
 30
0.0
 10
16.4361373394
 20
12.8513315716
 30
0.0
 10
16.436132474
 20
12.8519289678
 30
0.0
 10
16.4360218227
 20
12.8528321605
 30
0.0
 10
16.4358085313
 20
12.8537483205
 30
0.0
 10
16.4354939942
 20
12.8546726265
 30
0.0
 10
16.4350799965
 20
12.8556005868
 30
0.0
 10
16.4345687733
 20
12.8565276247
 30
0.0
 10
16.4339629789
 20
12.8574491944
 30
0.0
 10
16.4332657097
 20
12.8583607722
 30
0.0
 10
16.4324805007
 20
12.8592578744
 30
0.0
 10
16.4316112904
 20
12.8601360546
 30
0.0
 10
16.4306624373
 20
12.8609909554
 30
0.0
 10
16.4296387065
 20
12.8618183235
 30
0.0
 10
16.4285452422
 20
12.8626140184
 30
0.0
 10
16.4273874728
 20
12.863374099
 30
0.0
 10
16.4261712882
 20
12.8640946735
 30
0.0
 10
16.4253318915
 20
12.8645430098
 30
0.0
 10
16.4249040394
 20
12.8647599224
 30
0.0
  0
SPLINE
  5
32F
100
AcDbEntity
  8
LAYER_FEATURE
100
AcDbSpline
 62
7
  6
CONTINUOUS
 70
0
 71
3
 72
82
 73
78
 74
0
 42
0.0000001
 43
0.0000001
 44
0.0000000001
 40
0.0
 40
0.0
 40
0.0
 40
0.0
 40
0.0171785869
 40
0.0345301334
 40
0.0520438937
 40
0.0697094391
 40
0.0875155986
 40
0.1054510217
 40
0.1235040346
 40
0.1416627076
 40
0.1599148845
 40
0.1782482068
 40
0.1966501442
 40
0.2151080209
 40
0.2336090442
 40
0.2521403314
 40
0.2706889375
 40
0.2892418815
 40
0.3077861729
 40
0.3263088395
 40
0.344796954
 40
0.363237661
 40
0.3816182035
 40
0.3999259508
 40
0.4181484262
 40
0.4362733354
 40
0.4542885943
 40
0.4721823575
 40
0.4899430476
 40
0.5075593862
 40
0.5250204254
 40
0.542315578
 40
0.5594346503
 40
0.5763678752
 40
0.5931059476
 40
0.6096400626
 40
0.6259619507
 40
0.6420639173
 40
0.6579388824
 40
0.6735804243
 40
0.6889828256
 40
0.704141119
 40
0.7190511346
 40
0.7337095508
 40
0.7481139469
 40
0.7622628597
 40
0.7761558405
 40
0.7897935106
 40
0.8031776201
 40
0.8163111063
 40
0.8291981524
 40
0.8418442444
 40
0.8542562197
 40
0.8603772761
 40
0.8664430108
 40
0.8784128859
 40
0.8901776673
 40
0.8959874291
 40
0.901750764
 40
0.9074694753
 40
0.9131454513
 40
0.9187806752
 40
0.9243772098
 40
0.9299372058
 40
0.9354628943
 40
0.9409565818
 40
0.9464206534
 40
0.9518575593
 40
0.9572698189
 40
0.9626600106
 40
0.9680307667
 40
0.973384771
 40
0.9787247471
 40
0.9840534573
 40
0.9893736919
 40
0.9946882635
 40
1.0
 40
1.0
 40
1.0
 40
1.0
 10
15.2276451892
 20
13.818366591
 30
0.0
 10
15.2394495355
 20
13.818366591
 30
0.0
 10
15.263177836
 20
13.8181068505
 30
0.0
 10
15.2989239351
 20
13.8169527608
 30
0.0
 10
15.3349723129
 20
13.8150333003
 30
0.0
 10
15.3712850675
 20
13.8123505451
 30
0.0
 10
15.407824607
 20
13.8089072376
 30
0.0
 10
15.4445528304
 20
13.8047069814
 30
0.0
 10
15.4814315323
 20
13.7997541439
 30
0.0
 10
15.5184223243
 20
13.7940538863
 30
0.0
 10
15.555486704
 20
13.7876121434
 30
0.0
 10
15.5925860921
 20
13.7804356194
 30
0.0
 10
15.6296818702
 20
13.7725317807
 30
0.0
 10
15.6667354229
 20
13.7639088533
 30
0.0
 10
15.7037081795
 20
13.7545758186
 30
0.0
 10
15.7405616523
 20
13.7445423933
 30
0.0
 10
15.7772574776
 20
13.7338190216
 30
0.0
 10
15.8137574543
 20
13.7224168638
 30
0.0
 10
15.8500235847
 20
13.7103477855
 30
0.0
 10
15.8860181171
 20
13.6976243554
 30
0.0
 10
15.9217035827
 20
13.6842598204
 30
0.0
 10
15.9570428342
 20
13.6702680928
 30
0.0
 10
15.991999084
 20
13.6556637359
 30
0.0
 10
16.0265359422
 20
13.6404619472
 30
0.0
 10
16.0606174597
 20
13.6246785531
 30
0.0
 10
16.0942081632
 20
13.6083299851
 30
0.0
 10
16.1272730901
 20
13.5914332594
 30
0.0
 10
16.1597778249
 20
13.5740059608
 30
0.0
 10
16.1916885342
 20
13.5560662219
 30
0.0
 10
16.2229720064
 20
13.5376327108
 30
0.0
 10
16.2535956877
 20
13.5187246122
 30
0.0
 10
16.2835277108
 20
13.4993615991
 30
0.0
 10
16.312736928
 20
13.4795638145
 30
0.0
 10
16.3411929428
 20
13.4593518493
 30
0.0
 10
16.3688661437
 20
13.4387467214
 30
0.0
 10
16.3957277414
 20
13.4177698609
 30
0.0
 10
16.4217497909
 20
13.3964430778
 30
0.0
 10
16.4469052192
 20
13.3747885395
 30
0.0
 10
16.4711678532
 20
13.3528287486
 30
0.0
 10
16.4945124454
 20
13.330586516
 30
0.0
 10
16.5169147099
 20
13.3080849462
 30
0.0
 10
16.5383513403
 20
13.2853474054
 30
0.0
 10
16.5588000289
 20
13.2623974948
 30
0.0
 10
16.5782394887
 20
13.239259028
 30
0.0
 10
16.5966494721
 20
13.2159560029
 30
0.0
 10
16.6140107994
 20
13.1925125829
 30
0.0
 10
16.630305377
 20
13.1689530701
 30
0.0
 10
16.6455162028
 20
13.1453018781
 30
0.0
 10
16.659627386
 20
13.1215835007
 30
0.0
 10
16.6726241455
 20
13.0978225231
 30
0.0
 10
16.6844928745
 20
13.0740434692
 30
0.0
 10
16.6952209869
 20
13.0502712608
 30
0.0
 10
16.7032380509
 20
13.0303956996
 30
0.0
 10
16.7090617329
 20
13.0145262419
 30
0.0
 10
16.7144456887
 20
12.998823107
 30
0.0
 10
16.7204549695
 20
12.9792398333
 30
0.0
 10
16.7255297527
 20
12.9595747861
 30
0.0
 10
16.728988308
 20
12.943914142
 30
0.0
 10
16.7312746228
 20
12.9322528312
 30
0.0
 10
16.7332634218
 20
12.9206303966
 30
0.0
 10
16.7349541412
 20
12.9090497902
 30
0.0
 10
16.7363463893
 20
12.8975140594
 30
0.0
 10
16.7374397425
 20
12.886026199
 30
0.0
 10
16.7382339292
 20
12.874589211
 30
0.0
 10
16.7387287467
 20
12.8632060792
 30
0.0
 10
16.7389240088
 20
12.8518797733
 30
0.0
 10
16.7388197202
 20
12.840613253
 30
0.0
 10
16.7384158396
 20
12.8294094604
 30
0.0
 10
16.7377124999
 20
12.8182713241
 30
0.0
 10
16.7367098792
 20
12.8072017539
 30
0.0
 10
16.7354081938
 20
12.7962036489
 30
0.0
 10
16.7338078404
 20
12.7852798792
 30
0.0
 10
16.7319091666
 20
12.7744333091
 30
0.0
 10
16.729712713
 20
12.7636667786
 30
0.0
 10
16.7272190309
 20
12.7529830766
 30
0.0
 10
16.7244287775
 20
12.7423851161
 30
0.0
 10
16.7223711482
 20
12.7353779153
 30
0.0
 10
16.7212935013
 20
12.7318906435
 30
0.0
  0
SPLINE
  5
330
100
AcDbEntity
  8
02___PRT_ALL_AXES
100
AcDbSpline
 62
7
  6
CONTINUOUS
 70
0
 71
3
 72
23
 73
19
 74
0
 42
0.0000001
 43
0.0000001
 44
0.0000000001
 40
0.0
 40
0.0
 40
0.0
 40
0.0
 40
0.0664934019
 40
0.1323443961
 40
0.197570346
 40
0.2621924783
 40
0.3262359135
 40
0.3897276367
 40
0.4526954453
 40
0.515166903
 40
0.5771685544
 40
0.6387255493
 40
0.6998614712
 40
0.7605985884
 40
0.820958469
 40
0.8809628451
 40
0.9406347558
 40
1.0
 40
1.0
 40
1.0
 40
1.0
 10
15.0691649941
 20
12.4657696187
 30
0.0
 10
15.073040863
 20
12.4657696187
 30
0.0
 10
15.0807576553
 20
12.4655197762
 30
0.0
 10
15.0922261125
 20
12.4643851623
 30
0.0
 10
15.1034855059
 20
12.4625006204
 30
0.0
 10
15.1144882107
 20
12.459879408
 30
0.0
 10
15.1251887728
 20
12.4565396746
 30
0.0
 10
15.1355433023
 20
12.4525039199
 30
0.0
 10
15.1455099624
 20
12.4477984908
 30
0.0
 10
15.1550490248
 20
12.4424530066
 30
0.0
 10
15.1641229019
 20
12.43649982
 30
0.0
 10
15.1726960622
 20
12.4299735239
 30
0.0
 10
15.1807348869
 20
12.4229105388
 30
0.0
 10
15.1882075042
 20
12.415348762
 30
0.0
 10
15.1950835738
 20
12.407327406
 30
0.0
 10
15.2013342767
 20
12.3988865555
 30
0.0
 10
15.2069316874
 20
12.3900681668
 30
0.0
 10
15.2102189536
 20
12.3839493699
 30
0.0
 10
15.2117433923
 20
12.380842883
 30
0.0
  0
SPLINE
  5
331
100
AcDbEntity
  8
LAYER_FEATURE
100
AcDbSpline
 62
7
  6
CONTINUOUS
 70
0
 71
3
 72
25
 73
21
 74
0
 42
0.0000001
 43
0.0000001
 44
0.0000000001
 40
0.0
 40
0.0
 40
0.0
 40
0.0
 40
0.069690427
 40
0.1381401825
 40
0.2053844017
 40
0.2714704727
 40
0.3364503916
 40
0.4003835352
 40
0.4633365395
 40
0.5253828726
 40
0.5866028801
 40
0.6470834123
 40
0.7069173935
 40
0.7662033209
 40
0.825044568
 40
0.8835485713
 40
0.9127112009
 40
0.9418312034
 40
0.97092273
 40
1.0
 40
1.0
 40
1.0
 40
1.0
 10
16.0388973622
 20
12.2839403211
 30
0.0
 10
16.0412536727
 20
12.2791386652
 30
0.0
 10
16.0457506544
 20
12.2695343015
 30
0.0
 10
16.0518849528
 20
12.255009741
 30
0.0
 10
16.0573408181
 20
12.2405117065
 30
0.0
 10
16.0621128098
 20
12.22605442
 30
0.0
 10
16.0661962838
 20
12.2116514857
 30
0.0
 10
16.0695871912
 20
12.1973167033
 30
0.0
 10
16.0722821397
 20
12.183063776
 30
0.0
 10
16.0742783657
 20
12.1689063484
 30
0.0
 10
16.0755738162
 20
12.1548580192
 30
0.0
 10
16.076167088
 20
12.140932301
 30
0.0
 10
16.076057436
 20
12.1271426483
 30
0.0
 10
16.0752448167
 20
12.113502334
 30
0.0
 10
16.0737299726
 20
12.1000248365
 30
0.0
 10
16.0718813775
 20
12.0889276104
 30
0.0
 10
16.0700536413
 20
12.0801518075
 30
0.0
 10
16.0685100919
 20
12.0736251301
 30
0.0
 10
16.0667928378
 20
12.0671488671
 30
0.0
 10
16.0655322924
 20
12.0628654691
 30
0.0
 10
16.0648734035
 20
12.06073331
 30
0.0
  0
SPLINE
  5
332
100
AcDbEntity
  8
02___PRT_ALL_AXES
100
AcDbSpline
 62
7
  6
CONTINUOUS
 70
0
 71
3
 72
23
 73
19
 74
0
 42
0.0000001
 43
0.0000001
 44
0.0000000001
 40
0.0
 40
0.0
 40
0.0
 40
0.0
 40
0.05075851
 40
0.1032986359
 40
0.1576255933
 40
0.2137285595
 40
0.2715751764
 40
0.3311168181
 40
0.3922891747
 40
0.4550142781
 40
0.5192022058
 40
0.5847525374
 40
0.6515556449
 40
0.7194938057
 40
0.7884420837
 40
0.8582688384
 40
0.9288361359
 40
1.0
 40
1.0
 40
1.0
 40
1.0
 10
15.8820711907
 20
12.0536422097
 30
0.0
 10
15.8831793167
 20
12.0513840863
 30
0.0
 10
15.8852916393
 20
12.0467172893
 30
0.0
 10
15.88810305
 20
12.0394255917
 30
0.0
 10
15.8906061139
 20
12.0317434439
 30
0.0
 10
15.8927971244
 20
12.023694174
 30
0.0
 10
15.8946747529
 20
12.015301415
 30
0.0
 10
15.8962398215
 20
12.0065897667
 30
0.0
 10
15.8974952062
 20
11.9975842609
 30
0.0
 10
15.8984457386
 20
11.9883102689
 30
0.0
 10
15.8990980192
 20
11.9787932966
 30
0.0
 10
15.8994602519
 20
11.9690588522
 30
0.0
 10
15.8995420702
 20
11.9591323456
 30
0.0
 10
15.8993543633
 20
11.9490390212
 30
0.0
 10
15.8989091233
 20
11.9388039387
 30
0.0
 10
15.898219272
 20
11.9284519652
 30
0.0
 10
15.8972985108
 20
11.9180078942
 30
0.0
 10
15.896542924
 20
11.911024586
 30
0.0
 10
15.8961313948
 20
11.9075221156
 30
0.0
  0
SPLINE
  5
333
100
AcDbEntity
  8
02___PRT_ALL_AXES
100
AcDbSpline
 62
7
  6
CONTINUOUS
 70
0
 71
3
 72
38
 73
34
 74
0
 42
0.0000001
 43
0.0000001
 44
0.0000000001
 40
0.0
 40
0.0
 40
0.0
 40
0.0
 40
0.0990283808
 40
0.1467137755
 40
0.1931538573
 40
0.2383316622
 40
0.2822326029
 40
0.3248431412
 40
0.3661527186
 40
0.4061527158
 40
0.4448362639
 40
0.4821999067
 40
0.5182421112
 40
0.5529641432
 40
0.586370935
 40
0.6184700083
 40
0.6492729817
 40
0.6787957978
 40
0.7070584659
 40
0.7340868262
 40
0.7599126032
 40
0.7845740724
 40
0.8081178596
 40
0.8305992975
 40
0.8520838028
 40
0.8726484584
 40
0.8923826
 40
0.9113889169
 40
0.9297838236
 40
0.9476968507
 40
0.9652692866
 40
0.9826516025
 40
1.0
 40
1.0
 40
1.0
 40
1.0
 10
15.8563143155
 20
11.7378705021
 30
0.0
 10
15.8555668843
 20
11.7357822852
 30
0.0
 10
15.8544373194
 20
11.7326963737
 30
0.0
 10
15.8528987146
 20
11.7286530942
 30
0.0
 10
15.851762884
 20
11.7257471462
 30
0.0
 10
15.850630676
 20
11.7229309366
 30
0.0
 10
15.8495020528
 20
11.7202058926
 30
0.0
 10
15.8483769606
 20
11.7175733472
 30
0.0
 10
15.8472552654
 20
11.7150345776
 30
0.0
 10
15.8461367922
 20
11.7125907838
 30
0.0
 10
15.8450213283
 20
11.7102430869
 30
0.0
 10
15.8439085999
 20
11.7079925535
 30
0.0
 10
15.8427983009
 20
11.7058401725
 30
0.0
 10
15.8416900837
 20
11.7037868713
 30
0.0
 10
15.8405835617
 20
11.7018335203
 30
0.0
 10
15.8394783126
 20
11.6999809248
 30
0.0
 10
15.8383738821
 20
11.6982298373
 30
0.0
 10
15.8372697894
 20
11.6965809541
 30
0.0
 10
15.836165511
 20
11.6950349251
 30
0.0
 10
15.83506051
 20
11.6935923479
 30
0.0
 10
15.8339542186
 20
11.6922537755
 30
0.0
 10
15.8328460277
 20
11.6910197354
 30
0.0
 10
15.8317353294
 20
11.6898907031
 30
0.0
 10
15.8306214746
 20
11.6888671404
 30
0.0
 10
15.8295037893
 20
11.6879495059
 30
0.0
 10
15.8283816153
 20
11.6871382209
 30
0.0
 10
15.827254266
 20
11.6864337454
 30
0.0
 10
15.8261210884
 20
11.6858365481
 30
0.0
 10
15.8249814869
 20
11.6853470771
 30
0.0
 10
15.8238349287
 20
11.6849658331
 30
0.0
 10
15.8226809543
 20
11.6846932474
 30
0.0
 10
15.8215193679
 20
11.6845296657
 30
0.0
 10
15.8207410025
 20
11.6844935417
 30
0.0
 10
15.8203524484
 20
11.6844935436
 30
0.0
  0
SPLINE
  5
334
100
AcDbEntity
  8
LAYER_FEATURE
100
AcDbSpline
 62
7
  6
CONTINUOUS
 70
0
 71
3
 72
80
 73
76
 74
0
 42
0.0000001
 43
0.0000001
 44
0.0000000001
 40
0.0
 40
0.0
 40
0.0
 40
0.0
 40
0.0053540951
 40
0.0107128794
 40
0.016081022
 40
0.0214631515
 40
0.0268638371
 40
0.0322875688
 40
0.0377387418
 40
0.0432216367
 40
0.0487404097
 40
0.0542990715
 40
0.0599014853
 40
0.0655513439
 40
0.0712521754
 40
0.07700732
 40
0.0828199416
 40
0.0886930052
 40
0.1006301234
 40
0.1128399033
 40
0.119052965
 40
0.1253402259
 40
0.1381426334
 40
0.151259008
 40
0.164697309
 40
0.1784628146
 40
0.1925582771
 40
0.2069840819
 40
0.2217384055
 40
0.2368173707
 40
0.2522151956
 40
0.2679243357
 40
0.2839356192
 40
0.3002383748
 40
0.3168205523
 40
0.3336688366
 40
0.3507687562
 40
0.3681047851
 40
0.3856604406
 40
0.4034183764
 40
0.4213604721
 40
0.439467919
 40
0.4577213032
 40
0.4761006864
 40
0.4945856844
 40
0.5131555442
 40
0.5317892195
 40
0.5504654449
 40
0.5691628103
 40
0.5878598337
 40
0.606535034
 40
0.6251670045
 40
0.6437344859
 40
0.6622164399
 40
0.6805921239
 40
0.6988411669
 40
0.7169436459
 40
0.734880165
 40
0.7526319362
 40
0.7701808623
 40
0.7875096234
 40
0.8046017656
 40
0.8214417953
 40
0.838015276
 40
0.8543089312
 40
0.8703107528
 40
0.8860101153
 40
0.9013978968
 40
0.9164666065
 40
0.9312105218
 40
0.9456258252
 40
0.959710771
 40
0.9734657916
 40
0.9868937745
 40
1.0
 40
1.0
 40
1.0
 40
1.0
 10
14.620277098
 20
12.5071473323
 30
0.0
 10
14.6211579892
 20
12.5099978884
 30
0.0
 10
14.6230237407
 20
12.515670194
 30
0.0
 10
14.6261297334
 20
12.5240777906
 30
0.0
 10
14.6295422939
 20
12.532382703
 30
0.0
 10
14.6332599152
 20
12.5405812041
 30
0.0
 10
14.6372809976
 20
12.5486698065
 30
0.0
 10
14.6416037856
 20
12.5566450291
 30
0.0
 10
14.6462264283
 20
12.5645034373
 30
0.0
 10
14.6511468925
 20
12.5722416788
 30
0.0
 10
14.6563630873
 20
12.5798564107
 30
0.0
 10
14.66187271
 20
12.5873444066
 30
0.0
 10
14.6676734307
 20
12.594702424
 30
0.0
 10
14.6737626883
 20
12.6019273641
 30
0.0
 10
14.6801379169
 20
12.6090160958
 30
0.0
 10
14.6867962947
 20
12.6159656347
 30
0.0
 10
14.6937350757
 20
12.62277302
 30
0.0
 10
14.7034082082
 20
12.6317038701
 30
0.0
 10
14.7162027231
 20
12.6424967721
 30
0.0
 10
14.7297402216
 20
12.6526586502
 30
0.0
 10
14.7410789532
 20
12.6604737076
 30
0.0
 10
14.7528975725
 20
12.6681658196
 30
0.0
 10
14.768316853
 20
12.6773654398
 30
0.0
 10
14.7876890432
 20
12.6876647912
 30
0.0
 10
14.8080081447
 20
12.6972729994
 30
0.0
 10
14.8292391149
 20
12.7061737716
 30
0.0
 10
14.8513458341
 20
12.7143522544
 30
0.0
 10
14.8742905909
 20
12.7217947065
 30
0.0
 10
14.8980342922
 20
12.728488624
 30
0.0
 10
14.9225364789
 20
12.7344227382
 30
0.0
 10
14.9477554004
 20
12.7395870475
 30
0.0
 10
14.9736480785
 20
12.7439728371
 30
0.0
 10
15.0001703793
 20
12.7475726987
 30
0.0
 10
15.0272770858
 20
12.7503805473
 30
0.0
 10
15.0549219749
 20
12.7523916349
 30
0.0
 10
15.0830578954
 20
12.7536025621
 30
0.0
 10
15.1116368488
 20
12.7540112858
 30
0.0
 10
15.1406100718
 20
12.7536171259
 30
0.0
 10
15.1699281197
 20
12.7524207675
 30
0.0
 10
15.1995409515
 20
12.7504242616
 30
0.0
 10
15.2293980167
 20
12.7476310227
 30
0.0
 10
15.2594483413
 20
12.7440458237
 30
0.0
 10
15.2896406168
 20
12.7396747887
 30
0.0
 10
15.3199232875
 20
12.7345253832
 30
0.0
 10
15.3502446398
 20
12.7286064016
 30
0.0
 10
15.3805528911
 20
12.7219279526
 30
0.0
 10
15.4107962789
 20
12.7145014423
 30
0.0
 10
15.4409231497
 20
12.7063395544
 30
0.0
 10
15.470882048
 20
12.6974562292
 30
0.0
 10
15.5006218046
 20
12.687866639
 30
0.0
 10
15.5300916247
 20
12.6775871626
 30
0.0
 10
15.5592411749
 20
12.6666353571
 30
0.0
 10
15.5880206701
 20
12.6550299273
 30
0.0
 10
15.6163809585
 20
12.6427906936
 30
0.0
 10
15.6442736064
 20
12.6299385577
 30
0.0
 10
15.6716509812
 20
12.6164954665
 30
0.0
 10
15.6984663331
 20
12.6024843736
 30
0.0
 10
15.7246738755
 20
12.5879291999
 30
0.0
 10
15.7502288631
 20
12.5728547913
 30
0.0
 10
15.775087669
 20
12.5572868755
 30
0.0
 10
15.7992078588
 20
12.5412520166
 30
0.0
 10
15.8225482629
 20
12.5247775687
 30
0.0
 10
15.8450690469
 20
12.5078916271
 30
0.0
 10
15.8667317787
 20
12.4906229791
 30
0.0
 10
15.8874994932
 20
12.4730010523
 30
0.0
 10
15.907336754
 20
12.4550558625
 30
0.0
 10
15.9262097119
 20
12.43681796
 30
0.0
 10
15.9440861592
 20
12.4183183754
 30
0.0
 10
15.9609355836
 20
12.3995885627
 30
0.0
 10
15.9767292073
 20
12.3806603493
 30
0.0
 10
15.9914400536
 20
12.3615658577
 30
0.0
 10
16.0050429154
 20
12.3423375364
 30
0.0
 10
16.0175145973
 20
12.3230077896
 30
0.0
 10
16.0288333129
 20
12.3036100412
 30
0.0
 10
16.0356798917
 20
12.2904968366
 30
0.0
 10
16.0388973622
 20
12.2839403211
 30
0.0
  0
SPLINE
  5
335
100
AcDbEntity
  8
LAYER_FEATURE
100
AcDbSpline
 62
7
  6
CONTINUOUS
 70
0
 71
3
 72
72
 73
68
 74
0
 42
0.0000001
 43
0.0000001
 44
0.0000000001
 40
0.0
 40
0.0
 40
0.0
 40
0.0
 40
0.0146663235
 40
0.0219124677
 40
0.0291008564
 40
0.0433088312
 40
0.0573045066
 40
0.0642278994
 40
0.0711038722
 40
0.0847210521
 40
0.0981773775
 40
0.1114948454
 40
0.124697522
 40
0.1378112241
 40
0.1508631595
 40
0.1638815198
 40
0.1768950384
 40
0.1899325273
 40
0.2030224107
 40
0.2161922747
 40
0.229468446
 40
0.24287561
 40
0.2564364972
 40
0.2701716264
 40
0.2840991034
 40
0.298234473
 40
0.3125906508
 40
0.327177896
 40
0.3420038176
 40
0.357073408
 40
0.3723891353
 40
0.3879510437
 40
0.4037568602
 40
0.4198021079
 40
0.4360802557
 40
0.4525828597
 40
0.4692996964
 40
0.486218895
 40
0.5033270945
 40
0.5206095865
 40
0.538050447
 40
0.5556326688
 40
0.57333831
 40
0.5911486279
 40
0.6090442062
 40
0.6270050846
 40
0.6450108979
 40
0.663041003
 40
0.681074603
 40
0.6990908794
 40
0.7170691242
 40
0.734988864
 40
0.7528299871
 40
0.770572881
 40
0.7881985631
 40
0.8056888067
 40
0.8230262742
 40
0.8401946655
 40
0.8571788492
 40
0.8739649943
 40
0.8905407121
 40
0.9068952188
 40
0.9388981258
 40
0.954542286
 40
0.9699405527
 40
0.9850930354
 40
1.0
 40
1.0
 40
1.0
 40
1.0
 10
14.8665295645
 20
12.3036209484
 30
0.0
 10
14.8658790417
 20
12.3015158557
 30
0.0
 10
14.8649890667
 20
12.2983443843
 30
0.0
 10
14.8639811605
 20
12.2940899266
 30
0.0
 10
14.8631052814
 20
12.2898765595
 30
0.0
 10
14.8622419986
 20
12.2846271155
 30
0.0
 10
14.8616883369
 20
12.2793758393
 30
0.0
 10
14.8614373956
 20
12.2752071835
 30
0.0
 10
14.8613143254
 20
12.2710897164
 30
0.0
 10
14.8613958761
 20
12.2659866033
 30
0.0
 10
14.8618744376
 20
12.2599335628
 30
0.0
 10
14.8627323436
 20
12.2539852143
 30
0.0
 10
14.8639676408
 20
12.2481561607
 30
0.0
 10
14.8655774018
 20
12.2424605612
 30
0.0
 10
14.867557773
 20
12.236912315
 30
0.0
 10
14.8699039784
 20
12.231524964
 30
0.0
 10
14.8726103288
 20
12.226311668
 30
0.0
 10
14.8756701959
 20
12.221285134
 30
0.0
 10
14.8790760793
 20
12.2164575955
 30
0.0
 10
14.8828196316
 20
12.2118407786
 30
0.0
 10
14.8868916858
 20
12.2074458735
 30
0.0
 10
14.8912822539
 20
12.2032834743
 30
0.0
 10
14.8959805991
 20
12.1993635858
 30
0.0
 10
14.9009752667
 20
12.195695606
 30
0.0
 10
14.9062541124
 20
12.1922883124
 30
0.0
 10
14.9118043114
 20
12.1891498105
 30
0.0
 10
14.9176124178
 20
12.1862875568
 30
0.0
 10
14.9236643945
 20
12.1837083476
 30
0.0
 10
14.9299456398
 20
12.1814183081
 30
0.0
 10
14.9364410057
 20
12.1794228427
 30
0.0
 10
14.9431348497
 20
12.1777266635
 30
0.0
 10
14.9500110677
 20
12.1763337796
 30
0.0
 10
14.9570531256
 20
12.1752474886
 30
0.0
 10
14.9642440903
 20
12.1744703305
 30
0.0
 10
14.9715666783
 20
12.1740041201
 30
0.0
 10
14.9790032941
 20
12.1738499414
 30
0.0
 10
14.9865360675
 20
12.1740081437
 30
0.0
 10
14.9941468962
 20
12.1744783033
 30
0.0
 10
15.001817491
 20
12.1752592614
 30
0.0
 10
15.0095294183
 20
12.1763491251
 30
0.0
 10
15.017264141
 20
12.1777452711
 30
0.0
 10
15.0250030692
 20
12.1794443158
 30
0.0
 10
15.0327276009
 20
12.1814421594
 30
0.0
 10
15.0404191664
 20
12.1837339942
 30
0.0
 10
15.0480592696
 20
12.1863143151
 30
0.0
 10
15.0556295448
 20
12.1891769001
 30
0.0
 10
15.0631117912
 20
12.1923148581
 30
0.0
 10
15.0704880163
 20
12.1957206457
 30
0.0
 10
15.0777404765
 20
12.1993860832
 30
0.0
 10
15.0848517368
 20
12.2033023451
 30
0.0
 10
15.0918046984
 20
12.2074600119
 30
0.0
 10
15.0985826381
 20
12.2118490925
 30
0.0
 10
15.1051692477
 20
12.2164590474
 30
0.0
 10
15.111548693
 20
12.2212787867
 30
0.0
 10
15.1177056342
 20
12.2262967259
 30
0.0
 10
15.1236252594
 20
12.2315008121
 30
0.0
 10
15.1292933205
 20
12.2368785553
 30
0.0
 10
15.1346961871
 20
12.2424170249
 30
0.0
 10
15.1398208761
 20
12.2481029399
 30
0.0
 10
15.144655003
 20
12.2539225795
 30
0.0
 10
15.1491870925
 20
12.2598622545
 30
0.0
 10
15.1547711093
 20
12.2678632756
 30
0.0
 10
15.1597584823
 20
12.2761017692
 30
0.0
 10
15.1640862432
 20
12.2845295894
 30
0.0
 10
15.1669590515
 20
12.2908500857
 30
0.0
 10
15.1694756251
 20
12.2972014506
 30
0.0
 10
15.1709237693
 20
12.3014813159
 30
0.0
 10
15.1715849657
 20
12.3036209484
 30
0.0
  0
SPLINE
  5
336
100
AcDbEntity
  8
LAYER_FEATURE
100
AcDbSpline
 62
7
  6
CONTINUOUS
 70
0
 71
3
 72
37
 73
33
 74
0
 42
0.0000001
 43
0.0000001
 44
0.0000000001
 40
0.0
 40
0.0
 40
0.0
 40
0.0
 40
0.0272320291
 40
0.0549120075
 40
0.0830414253
 40
0.1116199289
 40
0.1700822989
 40
0.1999584494
 40
0.230238706
 40
0.2609033564
 40
0.2919297822
 40
0.3232927246
 40
0.3549645335
 40
0.3869154233
 40
0.4191137308
 40
0.4515261623
 40
0.4841180367
 40
0.5168535254
 40
0.5496958915
 40
0.5826077332
 40
0.6155512192
 40
0.6484883221
 40
0.6813810518
 40
0.7141916921
 40
0.7468830403
 40
0.7794186394
 40
0.8117630236
 40
0.8438819415
 40
0.8757425985
 40
0.9073140581
 40
0.9385667823
 40
1.0
 40
1.0
 40
1.0
 40
1.0
 10
14.8410263727
 20
12.2778862957
 30
0.0
 10
14.8418528752
 20
12.2805608588
 30
0.0
 10
14.8436630424
 20
12.2859106839
 30
0.0
 10
14.8468087746
 20
12.2938498855
 30
0.0
 10
14.8503997714
 20
12.3017504881
 30
0.0
 10
14.8558094842
 20
12.3122852689
 30
0.0
 10
14.862043683
 20
12.3225833952
 30
0.0
 10
14.8690237146
 20
12.3325846631
 30
0.0
 10
14.8746888331
 20
12.3400092519
 30
0.0
 10
14.8807314843
 20
12.3472838064
 30
0.0
 10
14.8871373392
 20
12.3543912051
 30
0.0
 10
14.8938909252
 20
12.3613142903
 30
0.0
 10
14.9009760094
 20
12.368036462
 30
0.0
 10
14.9083755378
 20
12.374541573
 30
0.0
 10
14.9160717112
 20
12.3808140004
 30
0.0
 10
14.9240460185
 20
12.3868386739
 30
0.0
 10
14.9322792828
 20
12.3926011144
 30
0.0
 10
14.9407517054
 20
12.3980874685
 30
0.0
 10
14.949442907
 20
12.4032845528
 30
0.0
 10
14.9583319847
 20
12.4081798762
 30
0.0
 10
14.9673975618
 20
12.4127616692
 30
0.0
 10
14.9766178389
 20
12.4170189131
 30
0.0
 10
14.9859706462
 20
12.4209413636
 30
0.0
 10
14.9954334929
 20
12.4245195876
 30
0.0
 10
15.0049836238
 20
12.4277449806
 30
0.0
 10
15.0145980798
 20
12.4306097824
 30
0.0
 10
15.0242537382
 20
12.4331070943
 30
0.0
 10
15.0339274171
 20
12.4352308972
 30
0.0
 10
15.0435957568
 20
12.4369760698
 30
0.0
 10
15.0532359083
 20
12.4383384079
 30
0.0
 10
15.0659454365
 20
12.439632464
 30
0.0
 10
15.0754786105
 20
12.440034966
 30
0.0
 10
15.0817937274
 20
12.440034966
 30
0.0
  0
SPLINE
  5
337
100
AcDbEntity
  8
LAYER_FEATURE
100
AcDbSpline
 62
7
  6
CONTINUOUS
 70
0
 71
3
 72
27
 73
23
 74
0
 42
0.0000001
 43
0.0000001
 44
0.0000000001
 40
0.0
 40
0.0
 40
0.0
 40
0.0
 40
0.1401647465
 40
0.2085867178
 40
0.2758417385
 40
0.3419102625
 40
0.374500706
 40
0.4067938071
 40
0.4704888279
 40
0.5330268642
 40
0.563877982
 40
0.5944565907
 40
0.6548199672
 40
0.7141983854
 40
0.7726816467
 40
0.8303749489
 40
0.8589669321
 40
0.8874073345
 40
0.9157130163
 40
0.943901529
 40
0.9719909835
 40
1.0
 40
1.0
 40
1.0
 40
1.0
 10
15.0817937274
 20
12.440034966
 30
0.0
 10
15.088726614
 20
12.440034966
 30
0.0
 10
15.0990543361
 20
12.4395563649
 30
0.0
 10
15.1126009928
 20
12.4378951597
 30
0.0
 10
15.122434155
 20
12.4361683578
 30
0.0
 10
15.1304334411
 20
12.4343162113
 30
0.0
 10
15.1366776561
 20
12.4325917033
 30
0.0
 10
15.1427582065
 20
12.4307253224
 30
0.0
 10
15.1501525017
 20
12.4281020599
 30
0.0
 10
15.1573111664
 20
12.425068375
 30
0.0
 10
15.162839563
 20
12.4224138859
 30
0.0
 10
15.1681857487
 20
12.4196355299
 30
0.0
 10
15.1746157688
 20
12.4158908744
 30
0.0
 10
15.1819267817
 20
12.4109534154
 30
0.0
 10
15.1887772835
 20
12.4056063214
 30
0.0
 10
15.1941010291
 20
12.4008075302
 30
0.0
 10
15.198103009
 20
12.3967829432
 30
0.0
 10
15.200968168
 20
12.3936819156
 30
0.0
 10
15.2037033544
 20
12.3904919639
 30
0.0
 10
15.2063065437
 20
12.3872155002
 30
0.0
 10
15.2087756627
 20
12.383855113
 30
0.0
 10
15.2103330743
 20
12.3815576814
 30
0.0
 10
15.2110884163
 20
12.3803963142
 30
0.0
  0
SPLINE
  5
338
100
AcDbEntity
  8
LAYER_FEATURE
100
AcDbSpline
 62
7
  6
CONTINUOUS
 70
0
 71
3
 72
72
 73
68
 74
0
 42
0.0000001
 43
0.0000001
 44
0.0000000001
 40
0.0
 40
0.0
 40
0.0
 40
0.0
 40
0.0149069646
 40
0.0300594473
 40
0.045457714
 40
0.0611018742
 40
0.0931047812
 40
0.1094592879
 40
0.1260350057
 40
0.1428211508
 40
0.1598053345
 40
0.1769737258
 40
0.1943111933
 40
0.2118014369
 40
0.229427119
 40
0.2471700129
 40
0.265011136
 40
0.2829308758
 40
0.3009091206
 40
0.318925397
 40
0.336958997
 40
0.3549891021
 40
0.3729949154
 40
0.3909557938
 40
0.4088513721
 40
0.42666169
 40
0.4443673312
 40
0.461949553
 40
0.4793904135
 40
0.4966729055
 40
0.513781105
 40
0.5307003036
 40
0.5474171403
 40
0.5639197443
 40
0.5801978921
 40
0.5962431398
 40
0.6120489563
 40
0.6276108647
 40
0.642926592
 40
0.6579961824
 40
0.672822104
 40
0.6874093492
 40
0.701765527
 40
0.7159008966
 40
0.7298283736
 40
0.7435635028
 40
0.75712439
 40
0.770531554
 40
0.7838077253
 40
0.7969775893
 40
0.8100674727
 40
0.8231049616
 40
0.8361184802
 40
0.8491368405
 40
0.8621887759
 40
0.875302478
 40
0.8885051546
 40
0.9018226225
 40
0.9152789479
 40
0.9288961278
 40
0.9357721006
 40
0.9426954934
 40
0.9566911688
 40
0.9708991436
 40
0.9780875323
 40
0.9853336765
 40
1.0
 40
1.0
 40
1.0
 40
1.0
 10
14.8665295645
 20
12.3036209484
 30
0.0
 10
14.867190761
 20
12.3057605809
 30
0.0
 10
14.8686389052
 20
12.3100404462
 30
0.0
 10
14.8711554788
 20
12.3163918111
 30
0.0
 10
14.8740282871
 20
12.3227123073
 30
0.0
 10
14.8783560479
 20
12.3311401276
 30
0.0
 10
14.883343421
 20
12.3393786212
 30
0.0
 10
14.8889274378
 20
12.3473796422
 30
0.0
 10
14.8934595273
 20
12.3533193173
 30
0.0
 10
14.8982936542
 20
12.3591389569
 30
0.0
 10
14.9034183432
 20
12.3648248719
 30
0.0
 10
14.9088212098
 20
12.3703633415
 30
0.0
 10
14.9144892709
 20
12.3757410847
 30
0.0
 10
14.9204088961
 20
12.3809451708
 30
0.0
 10
14.9265658373
 20
12.38596311
 30
0.0
 10
14.9329452826
 20
12.3907828493
 30
0.0
 10
14.9395318922
 20
12.3953928043
 30
0.0
 10
14.9463098319
 20
12.3997818849
 30
0.0
 10
14.9532627935
 20
12.4039395517
 30
0.0
 10
14.9603740538
 20
12.4078558135
 30
0.0
 10
14.967626514
 20
12.4115212511
 30
0.0
 10
14.9750027391
 20
12.4149270386
 30
0.0
 10
14.9824849855
 20
12.4180649967
 30
0.0
 10
14.9900552607
 20
12.4209275816
 30
0.0
 10
14.9976953639
 20
12.4235079026
 30
0.0
 10
15.0053869294
 20
12.4257997374
 30
0.0
 10
15.0131114611
 20
12.427797581
 30
0.0
 10
15.0208503893
 20
12.4294966257
 30
0.0
 10
15.028585112
 20
12.4308927716
 30
0.0
 10
15.0362970393
 20
12.4319826354
 30
0.0
 10
15.0439676341
 20
12.4327635934
 30
0.0
 10
15.0515784628
 20
12.433233753
 30
0.0
 10
15.0591112362
 20
12.4333919553
 30
0.0
 10
15.066547852
 20
12.4332377766
 30
0.0
 10
15.0738704399
 20
12.4327715662
 30
0.0
 10
15.0810614047
 20
12.4319944082
 30
0.0
 10
15.0881034626
 20
12.4309081172
 30
0.0
 10
15.0949796806
 20
12.4295152333
 30
0.0
 10
15.1016735245
 20
12.427819054
 30
0.0
 10
15.1081688905
 20
12.4258235887
 30
0.0
 10
15.1144501358
 20
12.4235335492
 30
0.0
 10
15.1205021125
 20
12.4209543399
 30
0.0
 10
15.1263102189
 20
12.4180920862
 30
0.0
 10
15.1318604179
 20
12.4149535843
 30
0.0
 10
15.1371392636
 20
12.4115462908
 30
0.0
 10
15.1421339311
 20
12.407878311
 30
0.0
 10
15.1468322764
 20
12.4039584225
 30
0.0
 10
15.1512228445
 20
12.3997960233
 30
0.0
 10
15.1552948987
 20
12.3954011182
 30
0.0
 10
15.159038451
 20
12.3907843012
 30
0.0
 10
15.1624443344
 20
12.3859567627
 30
0.0
 10
15.1655042015
 20
12.3809302288
 30
0.0
 10
15.1682105519
 20
12.3757169327
 30
0.0
 10
15.1705567573
 20
12.3703295817
 30
0.0
 10
15.1725371285
 20
12.3647813355
 30
0.0
 10
15.1741468895
 20
12.3590857361
 30
0.0
 10
15.1753821867
 20
12.3532566824
 30
0.0
 10
15.1762400927
 20
12.347308334
 30
0.0
 10
15.1767186542
 20
12.3412552935
 30
0.0
 10
15.1768002049
 20
12.3361521804
 30
0.0
 10
15.1766771347
 20
12.3320347132
 30
0.0
 10
15.1764261934
 20
12.3278660575
 30
0.0
 10
15.1758725317
 20
12.3226147812
 30
0.0
 10
15.1750092489
 20
12.3173653373
 30
0.0
 10
15.1741333698
 20
12.3131519701
 30
0.0
 10
15.1731254636
 20
12.3088975125
 30
0.0
 10
15.1722354886
 20
12.3057260411
 30
0.0
 10
15.1715849657
 20
12.3036209484
 30
0.0
  0
ENDSEC
  0
SECTION
  2
OBJECTS
  0
DICTIONARY
  5
C
100
AcDbDictionary
280
0
281
1
  3
ACAD_GROUP
350
D
  3
ACAD_MLINESTYLE
350
17
  3
ACAD_LAYOUT
350
1A
  3
ACAD_PLOTSETTINGS
350
19
  3
ACAD_PLOTSTYLENAME
350
E
  0
DICTIONARY
  5
D
102
{ACAD_REACTORS
330
C
102
}
100
AcDbDictionary
280
0
281
1
  0
ACDBDICTIONARYWDFLT
  5
E
102
{ACAD_REACTORS
330
C
102
}
100
AcDbDictionary
281
1
  3
Normal
350
F
100
AcDbDictionaryWithDefault
340
F
  0
DICTIONARY
  5
17
102
{ACAD_REACTORS
330
C
102
}
100
AcDbDictionary
280
0
281
1
  3
Standard
350
18
  0
DICTIONARY
  5
19
102
{ACAD_REACTORS
330
C
102
}
100
AcDbDictionary
281
1
  0
DICTIONARY
  5
1A
102
{ACAD_REACTORS
330
C
102
}
100
AcDbDictionary
281
1
  3
Model
350
339
  3
Layout1
350
33A
  0
ACDBPLACEHOLDER
  5
F
102
{ACAD_REACTORS
330
E
102
}
  0
MLINESTYLE
  5
18
102
{ACAD_REACTORS
330
17
102
}
100
AcDbMlineStyle
  2
STANDARD
 70
0
  3

 62
256
 51
90.0
 52
90.0
 71
2
 49
0.5
 62
256
  6
BYLAYER
 49
-0.5
 62
256
  6
BYLAYER
  0
LAYOUT
  5
339
102
{ACAD_REACTORS
330
1A
102
}
100
AcDbPlotSettings
  1

  2
none_device
  4
ANSI_C_(22.00_x_17.00_Inches)
  6

 40
0.0
 41
0.0
 42
0.0
 43
0.0
 44
558.8
 45
431.8
 46
0.0
 47
0.0
 48
0.0
 49
0.0
140
0.0
141
0.0
142
1.0
143
1.0
 70
1024
 72
0
 73
0
 74
0
  7

 75
0
147
1.0
148
0.0
149
0.0
100
AcDbLayout
  1
Model
 70
0
 71
0
 10
0.0
 20
0.0
 11
22.0
 21
17.0
 12
0.0
 22
0.0
 32
0.0
 14
0.0
 24
0.0
 34
0.0
 15
0.0
 25
0.0
 35
0.0
146
0.0
 13
0.0
 23
0.0
 33
0.0
 16
1.0
 26
0.0
 36
0.0
 17
0.0
 27
1.0
 37
0.0
 76
0
330
222
345
0
346
0
  0
LAYOUT
  5
33A
102
{ACAD_REACTORS
330
1A
102
}
100
AcDbPlotSettings
  1

  2
none_device
  4
ANSI_C_(22.00_x_17.00_Inches)
  6

 40
0.0
 41
0.0
 42
0.0
 43
0.0
 44
558.8
 45
431.8
 46
0.0
 47
0.0
 48
0.0
 49
0.0
140
0.0
141
0.0
142
1.0
143
1.0
 70
0
 72
0
 73
0
 74
0
  7

 75
0
147
1.0
148
0.0
149
0.0
100
AcDbLayout
  1
Layout1
 70
0
 71
1
 10
0.0
 20
0.0
 11
22.0
 21
17.0
 12
0.0
 22
0.0
 32
0.0
 14
0.0
 24
0.0
 34
0.0
 15
0.0
 25
0.0
 35
0.0
146
0.0
 13
0.0
 23
0.0
 33
0.0
 16
1.0
 26
0.0
 36
0.0
 17
0.0
 27
1.0
 37
0.0
 76
0
330
223
345
0
346
0
  0
ENDSEC
  0
EOF