999
DXF file: _cgs_temp_output.dxf
999
Pro/ENGINEER 2016360 by Parametric Technology Corporation
  0
SECTION
  2
HEADER
  9
$ACADVER
  1
AC1021
  9
$DWGCODEPAGE
  3
ANSI_1252
  9
$EXTMAX
 10
22.0
 20
17.0
 30
0.0
  9
$EXTMIN
 10
0.0
 20
0.0
 30
0.0
  9
$LIMMIN
 10
0.0
 20
0.0
  9
$LIMMAX
 10
22.0
 20
17.0
  9
$VIEWCTR
 10
11.0
 20
8.5
  9
$VIEWSIZE
 40
17.0
  9
$CLAYER
  8
0
  9
$LTSCALE
 40
1.21
  9
$CELTYPE
  6
BYLAYER
  9
$DIMSCALE
 40
1.0
  9
$DIMASZ
 40
0.1875
  9
$DIMEXO
 40
0.0625
  9
$DIMDLI
 40
0.836
  9
$DIMEXE
 40
0.125
  9
$DIMCEN
 40
0.198
  9
$DIMLFAC
 40
1.0
  9
$DIMBLK
  1
_CLOSED
  9
$DIMALT
 70
0
  9
$DIMALTF
 40
25.4
  9
$DIMTXT
 40
0.15625
  9
$DIMTOL
 70
0
  9
$DIMLIM
 70
0
  9
$DIMTFAC
 40
1.0
  9
$DIMGAP
 40
0.09
  9
$DIMDSEP
 70
46
  9
$AUNITS
 70
0
  9
$PDMODE
 70
3
  9
$PDSIZE
 40
0.3125
  9
$HANDSEED
  5
336
  9
$TILEMODE
 70
1
  9
$MEASUREMENT
 70
0
  9
$INSUNITS
 70
1
  0
ENDSEC
  0
SECTION
  2
CLASSES
  0
CLASS
  1
ACDBDICTIONARYWDFLT
  2
AcDbDictionaryWithDefault
  3
AutoCAD 2000
 90
0
 91
1
280
0
281
0
  0
CLASS
  1
ACDBPLACEHOLDER
  2
AcDbPlaceHolder
  3
AutoCAD 2000
 90
0
 91
1
280
0
281
0
  0
CLASS
  1
LAYOUT
  2
AcDbLayout
  3
AutoCAD 2000
 90
0
 91
0
280
0
281
0
  0
ENDSEC
  0
SECTION
  2
TABLES
  0
TABLE
  2
VPORT
  5
8
100
AcDbSymbolTable
 70
2
  0
VPORT
  5
1F4
100
AcDbSymbolTableRecord
100
AcDbViewportTableRecord
  2
*ACTIVE
 70
0
 10
0.0
 20
0.0
 11
1.0
 21
1.0
 12
11.0
 22
8.5
 13
0.0
 23
0.0
 14
1.0
 24
1.0
 15
0.0
 25
0.0
 16
0.0
 26
0.0
 36
1.0
 17
0.0
 27
0.0
 37
0.0
 40
17.0
 41
1.2941176471
 42
50.0
 43
0.0
 44
0.0
 50
0.0
 51
0.0
 71
0
 72
100
 73
1
 74
1
 75
0
 76
0
 77
0
 78
0
  0
ENDTAB
  0
TABLE
  2
LTYPE
  5
5
100
AcDbSymbolTable
 70
6
  0
LTYPE
  5
14
100
AcDbSymbolTableRecord
100
AcDbLinetypeTableRecord
  2
BYBLOCK
 70
0
  3

 72
65
 73
0
 40
0.0
  0
LTYPE
  5
15
100
AcDbSymbolTableRecord
100
AcDbLinetypeTableRecord
  2
BYLAYER
 70
0
  3

 72
65
 73
0
 40
0.0
  0
LTYPE
  5
16
100
AcDbSymbolTableRecord
100
AcDbLinetypeTableRecord
  2
CONTINUOUS
 70
64
  3
Solid line
 72
65
 73
0
 40
0.0
  0
LTYPE
  5
1F5
100
AcDbSymbolTableRecord
100
AcDbLinetypeTableRecord
  2
CENTER
 70
64
  3
____ _ ____ _ ____ _ ____ _ ____ _ ____ _ ____
 72
65
 73
4
 40
0.6
 49
0.375
 74
0
 49
-0.075
 74
0
 49
0.075
 74
0
 49
-0.075
 74
0
  0
LTYPE
  5
1F6
100
AcDbSymbolTableRecord
100
AcDbLinetypeTableRecord
  2
HIDDEN
 70
64
  3
- - - - - - - - - - - - - - - - - - - -
 72
65
 73
2
 40
0.2
 49
0.1
 74
0
 49
-0.1
 74
0
  0
LTYPE
  5
1F7
100
AcDbSymbolTableRecord
100
AcDbLinetypeTableRecord
  2
PHANTOM
 70
64
  3
_____ _ _ _____ _ _ _____ _ _ _____
 72
65
 73
6
 40
0.8
 49
0.45
 74
0
 49
-0.05
 74
0
 49
0.1
 74
0
 49
-0.05
 74
0
 49
0.1
 74
0
 49
-0.05
 74
0
  0
LTYPE
  5
1F8
100
AcDbSymbolTableRecord
100
AcDbLinetypeTableRecord
  2
DOT
 70
64
  3
. . . . . . . . . . . . . . . . . . . .
 72
65
 73
2
 40
0.2
 49
0.1
 74
0
 49
-0.1
 74
0
  0
LTYPE
  5
1F9
100
AcDbSymbolTableRecord
100
AcDbLinetypeTableRecord
  2
DASHED
 70
64
  3
- - - - - - - - - - - - - - - - - - - -
 72
65
 73
2
 40
0.2
 49
0.1
 74
0
 49
-0.1
 74
0
  0
ENDTAB
  0
TABLE
  2
LAYER
  5
2
100
AcDbSymbolTable
 70
36
  0
LAYER
  5
10
100
AcDbSymbolTableRecord
100
AcDbLayerTableRecord
  2
0
 70
0
 62
7
  6
CONTINUOUS
370
-3
390
F
  0
LAYER
  5
1FA
100
AcDbSymbolTableRecord
100
AcDbLayerTableRecord
  2
DEFAULT_1
 70
0
 62
7
  6
CENTER
370
-3
390
F
  0
LAYER
  5
1FB
100
AcDbSymbolTableRecord
100
AcDbLayerTableRecord
  2
DEFAULT_2
 70
0
 62
8
  6
HIDDEN
370
-3
390
F
  0
LAYER
  5
1FC
100
AcDbSymbolTableRecord
100
AcDbLayerTableRecord
  2
DEFAULT_3
 70
0
 62
7
  6
PHANTOM
370
-3
390
F
  0
LAYER
  5
1FD
100
AcDbSymbolTableRecord
100
AcDbLayerTableRecord
  2
01_ALL_DTM_PLN
 70
0
 62
7
  6
CONTINUOUS
370
-3
390
F
  0
LAYER
  5
1FE
100
AcDbSymbolTableRecord
100
AcDbLayerTableRecord
  2
01__ASM_ALL_DTM_PLN
 70
0
 62
7
  6
CONTINUOUS
370
-3
390
F
  0
LAYER
  5
1FF
100
AcDbSymbolTableRecord
100
AcDbLayerTableRecord
  2
01__ASM_DEF_DTM_PLN
 70
0
 62
7
  6
CONTINUOUS
370
-3
390
F
  0
LAYER
  5
200
100
AcDbSymbolTableRecord
100
AcDbLayerTableRecord
  2
01___PRT_ALL_DTM_PLN
 70
0
 62
7
  6
CONTINUOUS
370
-3
390
F
  0
LAYER
  5
201
100
AcDbSymbolTableRecord
100
AcDbLayerTableRecord
  2
01___PRT_DEF_DTM_PLN
 70
0
 62
7
  6
CONTINUOUS
370
-3
390
F
  0
LAYER
  5
202
100
AcDbSymbolTableRecord
100
AcDbLayerTableRecord
  2
02_ALL_AXES
 70
0
 62
7
  6
CONTINUOUS
370
-3
390
F
  0
LAYER
  5
203
100
AcDbSymbolTableRecord
100
AcDbLayerTableRecord
  2
02__ASM_ALL_AXES
 70
0
 62
7
  6
CONTINUOUS
370
-3
390
F
  0
LAYER
  5
204
100
AcDbSymbolTableRecord
100
AcDbLayerTableRecord
  2
02___PRT_ALL_AXES
 70
0
 62
7
  6
CONTINUOUS
370
-3
390
F
  0
LAYER
  5
205
100
AcDbSymbolTableRecord
100
AcDbLayerTableRecord
  2
03_ALL_CURVES
 70
0
 62
7
  6
CONTINUOUS
370
-3
390
F
  0
LAYER
  5
206
100
AcDbSymbolTableRecord
100
AcDbLayerTableRecord
  2
03__ASM_ALL_CURVES
 70
0
 62
7
  6
CONTINUOUS
370
-3
390
F
  0
LAYER
  5
207
100
AcDbSymbolTableRecord
100
AcDbLayerTableRecord
  2
03___PRT_ALL_CURVES
 70
0
 62
7
  6
CONTINUOUS
370
-3
390
F
  0
LAYER
  5
208
100
AcDbSymbolTableRecord
100
AcDbLayerTableRecord
  2
04_ALL_DTM_PNT
 70
0
 62
7
  6
CONTINUOUS
370
-3
390
F
  0
LAYER
  5
209
100
AcDbSymbolTableRecord
100
AcDbLayerTableRecord
  2
04__ASM_ALL_DTM_PNT
 70
0
 62
7
  6
CONTINUOUS
370
-3
390
F
  0
LAYER
  5
20A
100
AcDbSymbolTableRecord
100
AcDbLayerTableRecord
  2
04___PRT_ALL_DTM_PNT
 70
0
 62
7
  6
CONTINUOUS
370
-3
390
F
  0
LAYER
  5
20B
100
AcDbSymbolTableRecord
100
AcDbLayerTableRecord
  2
05_ALL_DTM_CSYS
 70
0
 62
7
  6
CONTINUOUS
370
-3
390
F
  0
LAYER
  5
20C
100
AcDbSymbolTableRecord
100
AcDbLayerTableRecord
  2
05__ASM_ALL_DTM_CSYS
 70
0
 62
7
  6
CONTINUOUS
370
-3
390
F
  0
LAYER
  5
20D
100
AcDbSymbolTableRecord
100
AcDbLayerTableRecord
  2
05__ASM_DEF_DTM_CSYS
 70
0
 62
7
  6
CONTINUOUS
370
-3
390
F
  0
LAYER
  5
20E
100
AcDbSymbolTableRecord
100
AcDbLayerTableRecord
  2
05___PRT_ALL_DTM_CSYS
 70
0
 62
7
  6
CONTINUOUS
370
-3
390
F
  0
LAYER
  5
20F
100
AcDbSymbolTableRecord
100
AcDbLayerTableRecord
  2
05___PRT_DEF_DTM_CSYS
 70
0
 62
7
  6
CONTINUOUS
370
-3
390
F
  0
LAYER
  5
210
100
AcDbSymbolTableRecord
100
AcDbLayerTableRecord
  2
06_ALL_SURFS
 70
0
 62
7
  6
CONTINUOUS
370
-3
390
F
  0
LAYER
  5
211
100
AcDbSymbolTableRecord
100
AcDbLayerTableRecord
  2
06__ASM_ALL_SURFS
 70
0
 62
7
  6
CONTINUOUS
370
-3
390
F
  0
LAYER
  5
212
100
AcDbSymbolTableRecord
100
AcDbLayerTableRecord
  2
06___PRT_ALL_SURFS
 70
0
 62
7
  6
CONTINUOUS
370
-3
390
F
  0
LAYER
  5
213
100
AcDbSymbolTableRecord
100
AcDbLayerTableRecord
  2
07__ASM_ALL_SKELETONS
 70
0
 62
7
  6
CONTINUOUS
370
-3
390
F
  0
LAYER
  5
214
100
AcDbSymbolTableRecord
100
AcDbLayerTableRecord
  2
LAYER_AXIS
 70
0
 62
7
  6
CONTINUOUS
370
-3
390
F
  0
LAYER
  5
215
100
AcDbSymbolTableRecord
100
AcDbLayerTableRecord
  2
LAYER_CHAMFER_FEAT
 70
0
 62
7
  6
CONTINUOUS
370
-3
390
F
  0
LAYER
  5
216
100
AcDbSymbolTableRecord
100
AcDbLayerTableRecord
  2
LAYER_CUT_FEAT
 70
0
 62
7
  6
CONTINUOUS
370
-3
390
F
  0
LAYER
  5
217
100
AcDbSymbolTableRecord
100
AcDbLayerTableRecord
  2
LAYER_DATUM
 70
0
 62
7
  6
CONTINUOUS
370
-3
390
F
  0
LAYER
  5
218
100
AcDbSymbolTableRecord
100
AcDbLayerTableRecord
  2
LAYER_DIM
 70
0
 62
7
  6
CONTINUOUS
370
-3
390
F
  0
LAYER
  5
219
100
AcDbSymbolTableRecord
100
AcDbLayerTableRecord
  2
LAYER_FEATURE
 70
0
 62
7
  6
CONTINUOUS
370
-3
390
F
  0
LAYER
  5
21A
100
AcDbSymbolTableRecord
100
AcDbLayerTableRecord
  2
LAYER_GEOM_FEAT
 70
0
 62
7
  6
CONTINUOUS
370
-3
390
F
  0
LAYER
  5
21B
100
AcDbSymbolTableRecord
100
AcDbLayerTableRecord
  2
LAYER_NOGEOM_FEAT
 70
0
 62
7
  6
CONTINUOUS
370
-3
390
F
  0
LAYER
  5
21C
100
AcDbSymbolTableRecord
100
AcDbLayerTableRecord
  2
LAYER_PARAMETER_DIM
 70
0
 62
7
  6
CONTINUOUS
370
-3
390
F
  0
LAYER
  5
21D
100
AcDbSymbolTableRecord
100
AcDbLayerTableRecord
  2
LAYER_PROTRUSION_FEAT
 70
0
 62
7
  6
CONTINUOUS
370
-3
390
F
  0
LAYER
  5
21E
100
AcDbSymbolTableRecord
100
AcDbLayerTableRecord
  2
LAYER_QUILT
 70
0
 62
7
  6
CONTINUOUS
370
-3
390
F
  0
LAYER
  5
21F
100
AcDbSymbolTableRecord
100
AcDbLayerTableRecord
  2
LAYER_ROUND_FEAT
 70
0
 62
7
  6
CONTINUOUS
370
-3
390
F
  0
ENDTAB
  0
TABLE
  2
STYLE
  5
3
100
AcDbSymbolTable
 70
1
  0
STYLE
  5
11
100
AcDbSymbolTableRecord
100
AcDbTextStyleTableRecord
  2
STANDARD
 70
0
 40
0.0
 41
0.8
 50
0.0
 71
0
 42
0.2
  3
txt
  4

  0
STYLE
  5
220
100
AcDbSymbolTableRecord
100
AcDbTextStyleTableRecord
  2
TEXTSTYLE_1
 70
0
 40
0.0
 41
0.8
 50
0.0
 71
0
 42
0.2
  3
gdt
  4

  0
ENDTAB
  0
TABLE
  2
VIEW
  5
6
100
AcDbSymbolTable
 70
0
  0
ENDTAB
  0
TABLE
  2
UCS
  5
7
100
AcDbSymbolTable
 70
0
  0
ENDTAB
  0
TABLE
  2
APPID
  5
9
100
AcDbSymbolTable
 70
1
  0
APPID
  5
221
100
AcDbSymbolTableRecord
100
AcDbRegAppTableRecord
  2
ACAD
 70
0
  0
ENDTAB
  0
TABLE
  2
BLOCK_RECORD
  5
1
100
AcDbSymbolTable
 70
0
  0
BLOCK_RECORD
  5
222
100
AcDbSymbolTableRecord
100
AcDbBlockTableRecord
  2
*Model_Space
  0
BLOCK_RECORD
  5
223
100
AcDbSymbolTableRecord
100
AcDbBlockTableRecord
  2
*Paper_Space
  0
ENDTAB
  0
TABLE
  2
DIMSTYLE
  5
A
100
AcDbSymbolTable
 70
1
100
AcDbDimStyleTable
 71
0
  0
DIMSTYLE
105
224
100
AcDbSymbolTableRecord
100
AcDbDimStyleTableRecord
  2
STANDARD
 70
0
  3

  4

 40
1.0
 41
0.1875
 42
0.0625
 43
0.38
 44
0.125
 45
0.0
 46
0.0
 47
0.0001
 48
0.0001
140
0.15625
141
0.09
142
0.0
143
25.4
144
1.0
145
0.0
146
1.0
147
0.09
 71
0.0
 72
0.0
 73
1
 74
1
 75
0
 76
0
 77
0
 78
4
 79
1
170
0
171
3
172
0
173
0
174
0
175
0
176
0
177
0
178
0
270
2
179
4
271
4
272
4
273
2
274
2
275
0
280
0
281
0
282
0
283
1
284
4
285
0
286
0
287
3
288
0
340
11
278
46
  0
ENDTAB
  0
ENDSEC
  0
SECTION
  2
BLOCKS
  0
BLOCK
  5
20
100
AcDbEntity
  8
0
100
AcDbBlockBegin
  2
*Model_Space
 70
0
 10
0.0
 20
0.0
 30
0.0
  3
*Model_Space
  1

  0
ENDBLK
  5
21
100
AcDbEntity
  8
0
100
AcDbBlockEnd
  0
BLOCK
  5
1C
100
AcDbEntity
  8
0
100
AcDbBlockBegin
  2
*Paper_Space
 70
0
 10
0.0
 20
0.0
 30
0.0
  3
*Paper_Space
  1

  0
ENDBLK
  5
1D
100
AcDbEntity
  8
0
100
AcDbBlockEnd
  0
ENDSEC
  0
SECTION
  2
ENTITIES
  0
MTEXT
  5
225
100
AcDbEntity
  8
0
100
AcDbMText
 62
7
  6
CONTINUOUS
  7
STANDARD
 71
1
 72
1
 10
15.9560215477
 20
0.9479130325
 30
0.0
 11
1.0
 21
0.0
 31
0.0
 44
0.9
  1
SCALE: 1:3.000
 40
0.3
 41
3.36
  0
LINE
  5
226
100
AcDbEntity
  8
0
100
AcDbLine
 62
7
  6
CONTINUOUS
 10
0.0
 20
0.0
 11
0.0
 21
17.0
  0
LINE
  5
227
100
AcDbEntity
  8
0
100
AcDbLine
 62
7
  6
CONTINUOUS
 10
0.0
 20
0.0
 11
22.0
 21
0.0
  0
LINE
  5
228
100
AcDbEntity
  8
0
100
AcDbLine
 62
7
  6
CONTINUOUS
 10
0.0
 20
17.0
 11
22.0
 21
17.0
  0
LINE
  5
229
100
AcDbEntity
  8
0
100
AcDbLine
 62
7
  6
CONTINUOUS
 10
22.0
 20
0.0
 11
22.0
 21
17.0
  0
LINE
  5
22A
100
AcDbEntity
  8
LAYER_FEATURE
100
AcDbLine
 62
7
  6
CONTINUOUS
 10
5.9647672762
 20
6.1051198968
 11
5.928903244
 21
6.0692558646
  0
LINE
  5
22B
100
AcDbEntity
  8
LAYER_FEATURE
100
AcDbLine
 62
7
  6
CONTINUOUS
 10
6.7153672762
 20
5.3545198968
 11
6.6795678786
 21
5.3187204992
  0
LINE
  5
22C
100
AcDbEntity
  8
LAYER_FEATURE
100
AcDbLine
 62
7
  6
CONTINUOUS
 10
6.2959672762
 20
6.1051198968
 11
6.3318313083
 21
6.0692558646
  0
LINE
  5
22D
100
AcDbEntity
  8
LAYER_FEATURE
100
AcDbLine
 62
7
  6
CONTINUOUS
 10
6.7153672762
 20
5.6857198968
 11
6.6795678786
 21
5.7215192943
  0
LINE
  5
22E
100
AcDbEntity
  8
LAYER_FEATURE
100
AcDbLine
 62
7
  6
CONTINUOUS
 10
6.7153672762
 20
5.6857198968
 11
6.7153672762
 21
5.3545198968
  0
LINE
  5
22F
100
AcDbEntity
  8
LAYER_FEATURE
100
AcDbLine
 62
7
  6
CONTINUOUS
 10
5.9647672762
 20
6.1051198968
 11
6.2959672762
 21
6.1051198968
  0
LINE
  5
230
100
AcDbEntity
  8
LAYER_FEATURE
100
AcDbLine
 62
7
  6
CONTINUOUS
 10
4.9608720839
 20
12.3705477814
 11
4.9608720839
 21
12.4455477814
  0
LINE
  5
231
100
AcDbEntity
  8
LAYER_FEATURE
100
AcDbLine
 62
7
  6
CONTINUOUS
 10
4.9608720839
 20
13.4625477814
 11
4.9608720839
 21
13.5375477814
  0
LINE
  5
232
100
AcDbEntity
  8
02___PRT_ALL_AXES
100
AcDbLine
 62
7
  6
CONTINUOUS
 10
5.4858721003
 20
11.6625477814
 11
6.6558720675
 21
11.6625477814
  0
LINE
  5
233
100
AcDbEntity
  8
02___PRT_ALL_AXES
100
AcDbLine
 62
7
  6
CONTINUOUS
 10
5.2608720839
 20
12.5190477814
 11
5.2608720839
 21
13.3890477814
  0
LINE
  5
234
100
AcDbEntity
  8
LAYER_CUT_FEAT
100
AcDbLine
 62
7
  6
CONTINUOUS
 10
5.283617887
 20
13.3890477814
 11
5.283617887
 21
12.5190477814
  0
LINE
  5
235
100
AcDbEntity
  8
LAYER_CUT_FEAT
100
AcDbLine
 62
7
  6
CONTINUOUS
 10
5.3676458883
 20
13.3890477814
 11
5.3676458883
 21
12.5190477814
  0
LINE
  5
236
100
AcDbEntity
  8
LAYER_CUT_FEAT
100
AcDbLine
 62
7
  6
CONTINUOUS
 10
6.011116331
 20
11.9130477814
 11
6.1306278367
 21
11.9130477814
  0
LINE
  5
237
100
AcDbEntity
  8
02___PRT_ALL_AXES
100
AcDbLine
 62
7
  6
CONTINUOUS
 10
5.4858720839
 20
11.6625477814
 11
5.4858720839
 21
12.3705477814
  0
LINE
  5
238
100
AcDbEntity
  8
LAYER_CUT_FEAT
100
AcDbLine
 62
7
  6
CONTINUOUS
 10
5.5069437986
 20
13.3890477814
 11
5.5069437986
 21
12.5190477814
  0
LINE
  5
239
100
AcDbEntity
  8
LAYER_CUT_FEAT
100
AcDbLine
 62
7
  6
CONTINUOUS
 10
6.1306278367
 20
12.1200477814
 11
6.011116331
 21
12.1200477814
  0
LINE
  5
23A
100
AcDbEntity
  8
LAYER_CUT_FEAT
100
AcDbLine
 62
7
  6
CONTINUOUS
 10
5.6902265297
 20
13.3890477814
 11
5.6902265297
 21
12.5190477814
  0
LINE
  5
23B
100
AcDbEntity
  8
LAYER_CUT_FEAT
100
AcDbLine
 62
7
  6
CONTINUOUS
 10
5.9513605781
 20
12.0165477814
 11
6.011116331
 21
11.9130477814
  0
LINE
  5
23C
100
AcDbEntity
  8
LAYER_FEATURE
100
AcDbLine
 62
7
  6
CONTINUOUS
 10
7.0578308958
 20
13.4077385249
 11
7.1808720839
 21
13.4625477814
  0
LINE
  5
23D
100
AcDbEntity
  8
LAYER_FEATURE
100
AcDbLine
 62
7
  6
CONTINUOUS
 10
4.9608720839
 20
12.4455477814
 11
5.0839132719
 21
12.5003570379
  0
LINE
  5
23E
100
AcDbEntity
  8
LAYER_FEATURE
100
AcDbLine
 62
7
  6
CONTINUOUS
 10
4.9608720839
 20
12.3705477814
 11
7.1808720839
 21
12.3705477814
  0
LINE
  5
23F
100
AcDbEntity
  8
LAYER_CUT_FEAT
100
AcDbLine
 62
7
  6
CONTINUOUS
 10
6.1903835896
 20
12.0165477814
 11
6.1306278367
 21
12.1200477814
  0
LINE
  5
240
100
AcDbEntity
  8
LAYER_FEATURE
100
AcDbLine
 62
7
  6
CONTINUOUS
 10
4.9608720839
 20
12.4455477814
 11
7.1808720839
 21
12.4455477814
  0
LINE
  5
241
100
AcDbEntity
  8
LAYER_FEATURE
100
AcDbLine
 62
7
  6
CONTINUOUS
 10
6.9699385907
 20
12.5190477814
 11
5.171805577
 21
12.5190477814
  0
LINE
  5
242
100
AcDbEntity
  8
LAYER_CUT_FEAT
100
AcDbLine
 62
7
  6
CONTINUOUS
 10
6.011116331
 20
12.1200477814
 11
5.9513605781
 21
12.0165477814
  0
LINE
  5
243
100
AcDbEntity
  8
LAYER_FEATURE
100
AcDbLine
 62
7
  6
CONTINUOUS
 10
6.6455990695
 20
12.1924207958
 11
6.6558720839
 21
12.1821477814
  0
LINE
  5
244
100
AcDbEntity
  8
LAYER_CUT_FEAT
100
AcDbLine
 62
7
  6
CONTINUOUS
 10
6.451517638
 20
13.3890477814
 11
6.451517638
 21
12.5190477814
  0
LINE
  5
245
100
AcDbEntity
  8
LAYER_CUT_FEAT
100
AcDbLine
 62
7
  6
CONTINUOUS
 10
6.1306278367
 20
11.9130477814
 11
6.1903835896
 21
12.0165477814
  0
LINE
  5
246
100
AcDbEntity
  8
LAYER_FEATURE
100
AcDbLine
 62
7
  6
CONTINUOUS
 10
7.1808720839
 20
12.4455477814
 11
7.0578308958
 21
12.5003570379
  0
LINE
  5
247
100
AcDbEntity
  8
LAYER_FEATURE
100
AcDbLine
 62
7
  6
CONTINUOUS
 10
5.0839132719
 20
13.4077385249
 11
4.9608720839
 21
13.4625477814
  0
LINE
  5
248
100
AcDbEntity
  8
LAYER_CUT_FEAT
100
AcDbLine
 62
7
  6
CONTINUOUS
 10
6.6348003691
 20
13.3890477814
 11
6.6348003691
 21
12.5190477814
  0
LINE
  5
249
100
AcDbEntity
  8
02___PRT_ALL_AXES
100
AcDbLine
 62
7
  6
CONTINUOUS
 10
6.6558720839
 20
11.6625477814
 11
6.6558720839
 21
11.8095477814
  0
LINE
  5
24A
100
AcDbEntity
  8
LAYER_FEATURE
100
AcDbLine
 62
7
  6
CONTINUOUS
 10
6.6558720839
 20
11.8509478588
 11
6.6558720839
 21
12.1821477039
  0
LINE
  5
24B
100
AcDbEntity
  8
02___PRT_ALL_AXES
100
AcDbLine
 62
7
  6
CONTINUOUS
 10
6.6558720839
 20
12.2235477814
 11
6.6558720839
 21
12.3705477814
  0
LINE
  5
24C
100
AcDbEntity
  8
LAYER_CUT_FEAT
100
AcDbLine
 62
7
  6
CONTINUOUS
 10
6.7740982794
 20
13.3890477814
 11
6.7740982794
 21
12.5190477814
  0
LINE
  5
24D
100
AcDbEntity
  8
LAYER_CUT_FEAT
100
AcDbLine
 62
7
  6
CONTINUOUS
 10
6.8581262807
 20
13.3890477814
 11
6.8581262807
 21
12.5190477814
  0
LINE
  5
24E
100
AcDbEntity
  8
02___PRT_ALL_AXES
100
AcDbLine
 62
7
  6
CONTINUOUS
 10
6.8808720839
 20
12.5190477814
 11
6.8808720839
 21
13.3890477814
  0
LINE
  5
24F
100
AcDbEntity
  8
LAYER_FEATURE
100
AcDbLine
 62
7
  6
CONTINUOUS
 10
6.9699385907
 20
13.3890477814
 11
5.171805577
 21
13.3890477814
  0
LINE
  5
250
100
AcDbEntity
  8
LAYER_FEATURE
100
AcDbLine
 62
7
  6
CONTINUOUS
 10
4.9608720839
 20
13.4625477814
 11
7.1808720839
 21
13.4625477814
  0
LINE
  5
251
100
AcDbEntity
  8
LAYER_FEATURE
100
AcDbLine
 62
7
  6
CONTINUOUS
 10
6.6455990675
 20
11.840674765
 11
6.6558720839
 21
11.8509477814
  0
LINE
  5
252
100
AcDbEntity
  8
LAYER_FEATURE
100
AcDbLine
 62
7
  6
CONTINUOUS
 10
4.9608720839
 20
13.5375477814
 11
7.1808720839
 21
13.5375477814
  0
LINE
  5
253
100
AcDbEntity
  8
LAYER_FEATURE
100
AcDbLine
 62
7
  6
CONTINUOUS
 10
7.1808720839
 20
12.3705477814
 11
7.1808720839
 21
12.4455477814
  0
LINE
  5
254
100
AcDbEntity
  8
LAYER_FEATURE
100
AcDbLine
 62
7
  6
CONTINUOUS
 10
7.1808720839
 20
13.4625477814
 11
7.1808720839
 21
13.5375477814
  0
LINE
  5
255
100
AcDbEntity
  8
LAYER_FEATURE
100
AcDbLine
 62
7
  6
CONTINUOUS
 10
16.4978552569
 20
4.3506247044
 11
16.4228552569
 21
4.3506247044
  0
LINE
  5
256
100
AcDbEntity
  8
LAYER_FEATURE
100
AcDbLine
 62
7
  6
CONTINUOUS
 10
15.4058552569
 20
4.3506247044
 11
15.3308552569
 21
4.3506247044
  0
LINE
  5
257
100
AcDbEntity
  8
02___PRT_ALL_AXES
100
AcDbLine
 62
7
  6
CONTINUOUS
 10
14.6228552569
 20
6.0456247044
 11
14.6228552569
 21
4.8756247044
  0
LINE
  5
258
100
AcDbEntity
  8
LAYER_FEATURE
100
AcDbLine
 62
7
  6
CONTINUOUS
 10
14.8009854804
 20
6.0353549279
 11
14.8112552569
 21
6.0456247044
  0
LINE
  5
259
100
AcDbEntity
  8
LAYER_CUT_FEAT
100
AcDbLine
 62
7
  6
CONTINUOUS
 10
16.3493552569
 20
4.6544027587
 11
15.4793552569
 21
4.6544027587
  0
LINE
  5
25A
100
AcDbEntity
  8
LAYER_CUT_FEAT
100
AcDbLine
 62
7
  6
CONTINUOUS
 10
14.8733552569
 20
5.5203804573
 11
14.8733552569
 21
5.4008689516
  0
LINE
  5
25B
100
AcDbEntity
  8
LAYER_CUT_FEAT
100
AcDbLine
 62
7
  6
CONTINUOUS
 10
16.3493552569
 20
4.7079369822
 11
15.4793552569
 21
4.7079369822
  0
LINE
  5
25C
100
AcDbEntity
  8
LAYER_CUT_FEAT
100
AcDbLine
 62
7
  6
CONTINUOUS
 10
16.3493552569
 20
4.8207481935
 11
15.4793552569
 21
4.8207481935
  0
LINE
  5
25D
100
AcDbEntity
  8
02___PRT_ALL_AXES
100
AcDbLine
 62
7
  6
CONTINUOUS
 10
15.3308552569
 20
4.8756247044
 11
14.6228552569
 21
4.8756247044
  0
LINE
  5
25E
100
AcDbEntity
  8
LAYER_CUT_FEAT
100
AcDbLine
 62
7
  6
CONTINUOUS
 10
15.0803552569
 20
5.4008689516
 11
15.0803552569
 21
5.5203804573
  0
LINE
  5
25F
100
AcDbEntity
  8
LAYER_CUT_FEAT
100
AcDbLine
 62
7
  6
CONTINUOUS
 10
16.3493552569
 20
4.9836970991
 11
15.4793552569
 21
4.9836970991
  0
LINE
  5
260
100
AcDbEntity
  8
LAYER_CUT_FEAT
100
AcDbLine
 62
7
  6
CONTINUOUS
 10
14.9768552569
 20
5.5801362102
 11
14.8733552569
 21
5.5203804573
  0
LINE
  5
261
100
AcDbEntity
  8
LAYER_CUT_FEAT
100
AcDbLine
 62
7
  6
CONTINUOUS
 10
14.8733552569
 20
5.4008689516
 11
14.9768552569
 21
5.3411131987
  0
LINE
  5
262
100
AcDbEntity
  8
LAYER_FEATURE
100
AcDbLine
 62
7
  6
CONTINUOUS
 10
15.3308552569
 20
6.5706247044
 11
15.3308552569
 21
4.3506247044
  0
LINE
  5
263
100
AcDbEntity
  8
LAYER_CUT_FEAT
100
AcDbLine
 62
7
  6
CONTINUOUS
 10
14.9768552569
 20
5.3411131987
 11
15.0803552569
 21
5.4008689516
  0
LINE
  5
264
100
AcDbEntity
  8
LAYER_CUT_FEAT
100
AcDbLine
 62
7
  6
CONTINUOUS
 10
15.0803552569
 20
5.5203804573
 11
14.9768552569
 21
5.5801362102
  0
LINE
  5
265
100
AcDbEntity
  8
LAYER_FEATURE
100
AcDbLine
 62
7
  6
CONTINUOUS
 10
15.4058552569
 20
6.5706247044
 11
15.4058552569
 21
4.3506247044
  0
LINE
  5
266
100
AcDbEntity
  8
LAYER_FEATURE
100
AcDbLine
 62
7
  6
CONTINUOUS
 10
15.4793552569
 20
4.5615581976
 11
15.4793552569
 21
6.3596912113
  0
LINE
  5
267
100
AcDbEntity
  8
LAYER_FEATURE
100
AcDbLine
 62
7
  6
CONTINUOUS
 10
15.1527250333
 20
6.0353549281
 11
15.1424552569
 21
6.0456247044
  0
LINE
  5
268
100
AcDbEntity
  8
LAYER_FEATURE
100
AcDbLine
 62
7
  6
CONTINUOUS
 10
15.4606645134
 20
4.4736658925
 11
15.4058552569
 21
4.3506247044
  0
LINE
  5
269
100
AcDbEntity
  8
LAYER_FEATURE
100
AcDbLine
 62
7
  6
CONTINUOUS
 10
16.4228552569
 20
6.5706247044
 11
16.3680460005
 21
6.4475835164
  0
LINE
  5
26A
100
AcDbEntity
  8
LAYER_FEATURE
100
AcDbLine
 62
7
  6
CONTINUOUS
 10
15.4606645134
 20
6.4475835164
 11
15.4058552569
 21
6.5706247044
  0
LINE
  5
26B
100
AcDbEntity
  8
LAYER_FEATURE
100
AcDbLine
 62
7
  6
CONTINUOUS
 10
16.4228552569
 20
4.3506247044
 11
16.3680460005
 21
4.4736658925
  0
LINE
  5
26C
100
AcDbEntity
  8
LAYER_CUT_FEAT
100
AcDbLine
 62
7
  6
CONTINUOUS
 10
16.3493552569
 20
5.9375523098
 11
15.4793552569
 21
5.9375523098
  0
LINE
  5
26D
100
AcDbEntity
  8
02___PRT_ALL_AXES
100
AcDbLine
 62
7
  6
CONTINUOUS
 10
15.3308552569
 20
6.0456247044
 11
15.1838552569
 21
6.0456247044
  0
LINE
  5
26E
100
AcDbEntity
  8
02___PRT_ALL_AXES
100
AcDbLine
 62
7
  6
CONTINUOUS
 10
14.7698552569
 20
6.0456247044
 11
14.6228552569
 21
6.0456247044
  0
LINE
  5
26F
100
AcDbEntity
  8
LAYER_FEATURE
100
AcDbLine
 62
7
  6
CONTINUOUS
 10
14.8112553225
 20
6.0456247044
 11
15.1424551914
 21
6.0456247044
  0
LINE
  5
270
100
AcDbEntity
  8
LAYER_CUT_FEAT
100
AcDbLine
 62
7
  6
CONTINUOUS
 10
16.3493552569
 20
6.1005012154
 11
15.4793552569
 21
6.1005012154
  0
LINE
  5
271
100
AcDbEntity
  8
LAYER_CUT_FEAT
100
AcDbLine
 62
7
  6
CONTINUOUS
 10
16.3493552569
 20
6.2133124267
 11
15.4793552569
 21
6.2133124267
  0
LINE
  5
272
100
AcDbEntity
  8
LAYER_FEATURE
100
AcDbLine
 62
7
  6
CONTINUOUS
 10
16.3493552569
 20
4.5615581976
 11
16.3493552569
 21
6.3596912113
  0
LINE
  5
273
100
AcDbEntity
  8
LAYER_FEATURE
100
AcDbLine
 62
7
  6
CONTINUOUS
 10
16.4228552569
 20
6.5706247044
 11
16.4228552569
 21
4.3506247044
  0
LINE
  5
274
100
AcDbEntity
  8
LAYER_CUT_FEAT
100
AcDbLine
 62
7
  6
CONTINUOUS
 10
16.3493552569
 20
6.2668466502
 11
15.4793552569
 21
6.2668466502
  0
LINE
  5
275
100
AcDbEntity
  8
LAYER_FEATURE
100
AcDbLine
 62
7
  6
CONTINUOUS
 10
16.4978552569
 20
6.5706247044
 11
16.4978552569
 21
4.3506247044
  0
LINE
  5
276
100
AcDbEntity
  8
LAYER_FEATURE
100
AcDbLine
 62
7
  6
CONTINUOUS
 10
16.4978552569
 20
6.5706247044
 11
16.4228552569
 21
6.5706247044
  0
LINE
  5
277
100
AcDbEntity
  8
LAYER_FEATURE
100
AcDbLine
 62
7
  6
CONTINUOUS
 10
15.4058552569
 20
6.5706247044
 11
15.3308552569
 21
6.5706247044
  0
LINE
  5
278
100
AcDbEntity
  8
LAYER_FEATURE
100
AcDbLine
 62
7
  6
CONTINUOUS
 10
14.2693496316
 20
12.4955834328
 11
14.2875046059
 21
12.554332951
  0
LINE
  5
279
100
AcDbEntity
  8
LAYER_FEATURE
100
AcDbLine
 62
7
  6
CONTINUOUS
 10
14.5336860568
 20
13.3509764181
 11
14.5518410311
 21
13.4097259364
  0
LINE
  5
27A
100
AcDbEntity
  8
LAYER_FEATURE
100
AcDbLine
 62
7
  6
CONTINUOUS
 10
14.9934987314
 20
13.3541539232
 11
14.9942289761
 21
13.3545562851
  0
LINE
  5
27B
100
AcDbEntity
  8
LAYER_CUT_FEAT
100
AcDbLine
 62
7
  6
CONTINUOUS
 10
14.8070740871
 20
13.2182487678
 11
14.7028290985
 21
12.880911861
  0
LINE
  5
27C
100
AcDbEntity
  8
LAYER_CUT_FEAT
100
AcDbLine
 62
7
  6
CONTINUOUS
 10
14.8816426445
 20
13.3277457498
 11
14.7467063072
 21
12.8910916021
  0
LINE
  5
27D
100
AcDbEntity
  8
LAYER_FEATURE
100
AcDbLine
 62
7
  6
CONTINUOUS
 10
14.8071952869
 20
13.218605983
 11
14.8070741605
 21
13.2182487451
  0
LINE
  5
27E
100
AcDbEntity
  8
LAYER_CUT_FEAT
100
AcDbLine
 62
7
  6
CONTINUOUS
 10
14.6820914364
 20
12.3680365683
 11
14.6998833111
 21
12.4256110962
  0
LINE
  5
27F
100
AcDbEntity
  8
LAYER_CUT_FEAT
100
AcDbLine
 62
7
  6
CONTINUOUS
 10
15.0108717753
 20
13.4084124028
 11
14.8563449227
 21
12.9083633246
  0
LINE
  5
280
100
AcDbEntity
  8
LAYER_CUT_FEAT
100
AcDbLine
 62
7
  6
CONTINUOUS
 10
15.8194519846
 20
11.8162715812
 11
15.754612615
 21
11.8162715812
  0
LINE
  5
281
100
AcDbEntity
  8
02___PRT_ALL_AXES
100
AcDbLine
 62
7
  6
CONTINUOUS
 10
14.5995626179
 20
11.7859831108
 11
14.7709455749
 21
12.3405785628
  0
LINE
  5
282
100
AcDbEntity
  8
LAYER_FEATURE
100
AcDbLine
 62
7
  6
CONTINUOUS
 10
15.5933364716
 20
13.4169609129
 11
15.6071464992
 21
13.4299491759
  0
LINE
  5
283
100
AcDbEntity
  8
LAYER_FEATURE
100
AcDbLine
 62
7
  6
CONTINUOUS
 10
15.8032830094
 20
13.3533553335
 11
15.8238388794
 21
13.3619798047
  0
LINE
  5
284
100
AcDbEntity
  8
LAYER_CUT_FEAT
100
AcDbLine
 62
7
  6
CONTINUOUS
 10
15.8262778426
 20
11.934490688
 11
15.7447870028
 21
11.934490688
  0
LINE
  5
285
100
AcDbEntity
  8
LAYER_CUT_FEAT
100
AcDbLine
 62
7
  6
CONTINUOUS
 10
14.955648412
 20
12.2542029559
 11
14.9872202452
 21
12.1898663242
  0
LINE
  5
286
100
AcDbEntity
  8
LAYER_FEATURE
100
AcDbLine
 62
7
  6
CONTINUOUS
 10
14.8882187576
 20
12.1473118765
 11
14.8881845877
 21
12.1473939681
  0
LINE
  5
287
100
AcDbEntity
  8
LAYER_FEATURE
100
AcDbLine
 62
7
  6
CONTINUOUS
 10
14.8882155017
 20
12.1473104868
 11
14.8881845877
 21
12.1473939681
  0
LINE
  5
288
100
AcDbEntity
  8
LAYER_CUT_FEAT
100
AcDbLine
 62
7
  6
CONTINUOUS
 10
14.955648412
 20
12.2542029559
 11
14.9856332407
 21
12.1731286208
  0
LINE
  5
289
100
AcDbEntity
  8
LAYER_CUT_FEAT
100
AcDbLine
 62
7
  6
CONTINUOUS
 10
15.1842921036
 20
13.4537135945
 11
15.0182740322
 21
12.9164789183
  0
LINE
  5
28A
100
AcDbEntity
  8
LAYER_CUT_FEAT
100
AcDbLine
 62
7
  6
CONTINUOUS
 10
15.0357409696
 20
12.3352772911
 11
15.0673128028
 21
12.2709406593
  0
LINE
  5
28B
100
AcDbEntity
  8
LAYER_CUT_FEAT
100
AcDbLine
 62
7
  6
CONTINUOUS
 10
14.9872202452
 20
12.1898663242
 11
14.9934105787
 21
12.1731286208
  0
LINE
  5
28C
100
AcDbEntity
  8
LAYER_FEATURE
100
AcDbLine
 62
7
  6
CONTINUOUS
 10
15.3820187585
 20
13.4440061785
 11
15.3879641376
 21
13.4603060014
  0
LINE
  5
28D
100
AcDbEntity
  8
LAYER_CUT_FEAT
100
AcDbLine
 62
7
  6
CONTINUOUS
 10
14.9856332407
 20
12.1731286208
 11
15.095710627
 21
12.1731286208
  0
LINE
  5
28E
100
AcDbEntity
  8
LAYER_CUT_FEAT
100
AcDbLine
 62
7
  6
CONTINUOUS
 10
15.1758031846
 20
12.2542029559
 11
15.1458183559
 21
12.3352772911
  0
LINE
  5
28F
100
AcDbEntity
  8
LAYER_CUT_FEAT
100
AcDbLine
 62
7
  6
CONTINUOUS
 10
15.1696128511
 20
12.2709406593
 11
15.0673128028
 21
12.2709406593
  0
LINE
  5
290
100
AcDbEntity
  8
LAYER_CUT_FEAT
100
AcDbLine
 62
7
  6
CONTINUOUS
 10
15.0357409696
 20
12.3352772911
 11
14.955648412
 21
12.2542029559
  0
LINE
  5
291
100
AcDbEntity
  8
LAYER_CUT_FEAT
100
AcDbLine
 62
7
  6
CONTINUOUS
 10
15.0673128028
 20
12.2709406593
 11
14.9872202452
 21
12.1898663242
  0
LINE
  5
292
100
AcDbEntity
  8
LAYER_CUT_FEAT
100
AcDbLine
 62
7
  6
CONTINUOUS
 10
15.1458183559
 20
12.3352772911
 11
15.0357409696
 21
12.3352772911
  0
LINE
  5
293
100
AcDbEntity
  8
LAYER_CUT_FEAT
100
AcDbLine
 62
7
  6
CONTINUOUS
 10
15.095710627
 20
12.1731286208
 11
15.1758031846
 21
12.2542029559
  0
LINE
  5
294
100
AcDbEntity
  8
LAYER_FEATURE
100
AcDbLine
 62
7
  6
CONTINUOUS
 10
15.7789452375
 20
12.0781499443
 11
15.8102609245
 21
12.0406321803
  0
LINE
  5
295
100
AcDbEntity
  8
LAYER_CUT_FEAT
100
AcDbLine
 62
7
  6
CONTINUOUS
 10
15.7397141009
 20
11.846631561
 11
15.7761701137
 21
11.7723420177
  0
LINE
  5
296
100
AcDbEntity
  8
LAYER_CUT_FEAT
100
AcDbLine
 62
7
  6
CONTINUOUS
 10
15.8262778426
 20
11.934490688
 11
15.7898218299
 21
12.0087802313
  0
LINE
  5
297
100
AcDbEntity
  8
LAYER_CUT_FEAT
100
AcDbLine
 62
7
  6
CONTINUOUS
 10
15.746539959
 20
11.9648506677
 11
15.7397141009
 21
11.846631561
  0
LINE
  5
298
100
AcDbEntity
  8
LAYER_FEATURE
100
AcDbLine
 62
7
  6
CONTINUOUS
 10
15.9222202435
 20
13.3172760721
 11
15.9218270855
 21
13.2994898202
  0
LINE
  5
299
100
AcDbEntity
  8
LAYER_CUT_FEAT
100
AcDbLine
 62
7
  6
CONTINUOUS
 10
15.8194519846
 20
11.8162715812
 11
15.8262778426
 21
11.934490688
  0
LINE
  5
29A
100
AcDbEntity
  8
LAYER_CUT_FEAT
100
AcDbLine
 62
7
  6
CONTINUOUS
 10
16.1039456382
 20
13.2058483782
 11
15.9345604283
 21
12.6577176381
  0
LINE
  5
29B
100
AcDbEntity
  8
02___PRT_ALL_AXES
100
AcDbLine
 62
7
  6
CONTINUOUS
 10
15.7174050057
 20
11.4405436861
 11
15.8099981699
 21
11.7401752754
  0
LINE
  5
29C
100
AcDbEntity
  8
02___PRT_ALL_AXES
100
AcDbLine
 62
7
  6
CONTINUOUS
 10
15.8461613259
 20
11.8571992911
 11
15.8887879627
 21
11.9951391382
  0
LINE
  5
29D
100
AcDbEntity
  8
LAYER_CUT_FEAT
100
AcDbLine
 62
7
  6
CONTINUOUS
 10
16.2448685838
 20
13.0763918615
 11
16.0841492068
 21
12.5563037669
  0
LINE
  5
29E
100
AcDbEntity
  8
LAYER_CUT_FEAT
100
AcDbLine
 62
7
  6
CONTINUOUS
 10
15.7898218299
 20
12.0087802313
 11
15.746539959
 21
11.9648506677
  0
LINE
  5
29F
100
AcDbEntity
  8
LAYER_FEATURE
100
AcDbLine
 62
7
  6
CONTINUOUS
 10
15.7130717728
 20
13.4015910828
 11
15.7209705393
 21
13.3827909868
  0
LINE
  5
2A0
100
AcDbEntity
  8
LAYER_CUT_FEAT
100
AcDbLine
 62
7
  6
CONTINUOUS
 10
15.9776421012
 20
11.9676811326
 11
15.9954339759
 21
12.0252556605
  0
LINE
  5
2A1
100
AcDbEntity
  8
LAYER_CUT_FEAT
100
AcDbLine
 62
7
  6
CONTINUOUS
 10
16.3332625502
 20
12.9374636072
 11
16.187978792
 21
12.4673251932
  0
LINE
  5
2A2
100
AcDbEntity
  8
LAYER_FEATURE
100
AcDbLine
 62
7
  6
CONTINUOUS
 10
15.9948497521
 20
13.2583423861
 11
16.0204861501
 21
13.2619043622
  0
LINE
  5
2A3
100
AcDbEntity
  8
LAYER_FEATURE
100
AcDbLine
 62
7
  6
CONTINUOUS
 10
16.1525171016
 20
13.1396194546
 11
16.1811571191
 21
13.1378303655
  0
LINE
  5
2A4
100
AcDbEntity
  8
LAYER_FEATURE
100
AcDbLine
 62
7
  6
CONTINUOUS
 10
14.8416022394
 20
13.2619043622
 11
14.8605790966
 21
13.2595840836
  0
LINE
  5
2A5
100
AcDbEntity
  8
LAYER_FEATURE
100
AcDbLine
 62
7
  6
CONTINUOUS
 10
16.2635117868
 20
13.0068047649
 11
16.2928351799
 21
12.9998095518
  0
LINE
  5
2A6
100
AcDbEntity
  8
LAYER_FEATURE
100
AcDbLine
 62
7
  6
CONTINUOUS
 10
14.9400297217
 20
13.3619798047
 11
14.9690501432
 21
13.3533553335
  0
LINE
  5
2A7
100
AcDbEntity
  8
LAYER_FEATURE
100
AcDbLine
 62
7
  6
CONTINUOUS
 10
16.3188416784
 20
12.8706581732
 11
16.3464728402
 21
12.8590235468
  0
LINE
  5
2A8
100
AcDbEntity
  8
LAYER_FEATURE
100
AcDbLine
 62
7
  6
CONTINUOUS
 10
15.0900130563
 20
13.4299491759
 11
15.1165705114
 21
13.4169609129
  0
LINE
  5
2A9
100
AcDbEntity
  8
LAYER_FEATURE
100
AcDbLine
 62
7
  6
CONTINUOUS
 10
15.2794014854
 20
13.4603060014
 11
15.301344447
 21
13.4440061785
  0
LINE
  5
2AA
100
AcDbEntity
  8
LAYER_FEATURE
100
AcDbLine
 62
7
  6
CONTINUOUS
 10
15.4928518849
 20
13.4505909519
 11
15.5084026648
 21
13.4323000837
  0
LINE
  5
2AB
100
AcDbEntity
  8
LAYER_CUT_FEAT
100
AcDbLine
 62
7
  6
CONTINUOUS
 10
16.3619663838
 20
12.8003187563
 11
16.241915987
 21
12.4118355297
  0
LINE
  5
2AC
100
AcDbEntity
  8
LAYER_CUT_FEAT
100
AcDbLine
 62
7
  6
CONTINUOUS
 10
16.3457485512
 20
12.7131058481
 11
16.2498533554
 21
12.4027888806
  0
LINE
  5
2AD
100
AcDbEntity
  8
LAYER_FEATURE
100
AcDbLine
 62
7
  6
CONTINUOUS
 10
15.7789452375
 20
11.7029723047
 11
15.8102609245
 21
11.7404900686
  0
LINE
  5
2AE
100
AcDbEntity
  8
LAYER_CUT_FEAT
100
AcDbLine
 62
7
  6
CONTINUOUS
 10
15.7761701137
 20
11.7723420177
 11
15.8194519846
 21
11.8162715812
  0
LINE
  5
2AF
100
AcDbEntity
  8
LAYER_FEATURE
100
AcDbLine
 62
7
  6
CONTINUOUS
 10
15.3269993921
 20
13.4356144439
 11
15.3645999438
 21
13.4356144439
  0
LINE
  5
2B0
100
AcDbEntity
  8
LAYER_FEATURE
100
AcDbLine
 62
7
  6
CONTINUOUS
 10
15.5315247639
 20
13.4201533158
 11
15.5711105742
 21
13.4130040601
  0
LINE
  5
2B1
100
AcDbEntity
  8
LAYER_FEATURE
100
AcDbLine
 62
7
  6
CONTINUOUS
 10
15.7396865775
 20
13.3678732445
 11
15.7780506394
 21
13.3541539232
  0
LINE
  5
2B2
100
AcDbEntity
  8
LAYER_FEATURE
100
AcDbLine
 62
7
  6
CONTINUOUS
 10
15.9346208006
 20
13.2830096503
 11
15.9686550861
 21
13.2638317212
  0
LINE
  5
2B3
100
AcDbEntity
  8
LAYER_FEATURE
100
AcDbLine
 62
7
  6
CONTINUOUS
 10
16.1005350219
 20
13.1724376769
 11
16.1274822756
 21
13.1493548219
  0
LINE
  5
2B4
100
AcDbEntity
  8
LAYER_FEATURE
100
AcDbLine
 62
7
  6
CONTINUOUS
 10
16.2317812924
 20
13.0340413708
 11
16.2416649735
 21
13.0199974627
  0
LINE
  5
2B5
100
AcDbEntity
  8
LAYER_FEATURE
100
AcDbLine
 62
7
  6
CONTINUOUS
 10
15.1426798914
 20
13.4130040601
 11
15.1738245677
 21
13.4198406359
  0
LINE
  5
2B6
100
AcDbEntity
  8
LAYER_FEATURE
100
AcDbLine
 62
7
  6
CONTINUOUS
 10
16.3903839059
 20
11.8401342681
 11
16.4085388801
 21
11.8988837864
  0
LINE
  5
2B7
100
AcDbEntity
  8
LAYER_FEATURE
100
AcDbLine
 62
7
  6
CONTINUOUS
 10
16.654720331
 20
12.6955272535
 11
16.6728753053
 21
12.7542767717
  0
CIRCLE
  5
2B8
100
AcDbEntity
  8
LAYER_FEATURE
100
AcDbCircle
 62
7
  6
CONTINUOUS
 10
6.1303672762
 20
5.5201198968
 40
1.11
  0
CIRCLE
  5
2B9
100
AcDbEntity
  8
LAYER_FEATURE
100
AcDbCircle
 62
7
  6
CONTINUOUS
 10
6.1303672762
 20
5.5201198968
 40
0.945
  0
CIRCLE
  5
2BA
100
AcDbEntity
  8
LAYER_CUT_FEAT
100
AcDbCircle
 62
7
  6
CONTINUOUS
 10
6.1303672762
 20
5.5201198968
 40
0.678
  0
CIRCLE
  5
2BB
100
AcDbEntity
  8
02___PRT_ALL_AXES
100
AcDbCircle
 62
7
  6
CONTINUOUS
 10
6.1303672762
 20
5.5201198968
 40
0.585
  0
CIRCLE
  5
2BC
100
AcDbEntity
  8
LAYER_CHAMFER_FEAT
100
AcDbCircle
 62
7
  6
CONTINUOUS
 10
6.1303672762
 20
5.5201198968
 40
0.3234375
  0
CIRCLE
  5
2BD
100
AcDbEntity
  8
LAYER_CHAMFER_FEAT
100
AcDbCircle
 62
7
  6
CONTINUOUS
 10
6.1303672762
 20
5.5201198968
 40
0.28125
  0
ARC
  5
2BE
100
AcDbEntity
  8
LAYER_FEATURE
100
AcDbCircle
 62
7
  6
CONTINUOUS
 10
6.9699385907
 20
12.3030477814
 40
0.216
100
AcDbArc
 50
65.9892009361
 51
90.0
  0
ARC
  5
2BF
100
AcDbEntity
  8
LAYER_FEATURE
100
AcDbCircle
 62
7
  6
CONTINUOUS
 10
5.171805577
 20
12.3030477814
 40
0.216
100
AcDbArc
 50
90.0
 51
114.0107990639
  0
ARC
  5
2C0
100
AcDbEntity
  8
LAYER_FEATURE
100
AcDbCircle
 62
7
  6
CONTINUOUS
 10
6.9699385907
 20
13.6050477814
 40
0.216
100
AcDbArc
 50
270.0
 51
294.0107990639
  0
ARC
  5
2C1
100
AcDbEntity
  8
LAYER_FEATURE
100
AcDbCircle
 62
7
  6
CONTINUOUS
 10
5.171805577
 20
13.6050477814
 40
0.216
100
AcDbArc
 50
245.9892009361
 51
270.0
  0
CIRCLE
  5
2C2
100
AcDbEntity
  8
02___PRT_ALL_AXES
100
AcDbCircle
 62
7
  6
CONTINUOUS
 10
6.0708720839
 20
12.0165477814
 40
0.207
  0
CIRCLE
  5
2C3
100
AcDbEntity
  8
LAYER_FEATURE
100
AcDbCircle
 62
7
  6
CONTINUOUS
 10
6.0708720839
 20
12.0165477814
 40
0.1656
  0
ARC
  5
2C4
100
AcDbEntity
  8
LAYER_FEATURE
100
AcDbCircle
 62
7
  6
CONTINUOUS
 10
15.2633552569
 20
4.5615581976
 40
0.216
100
AcDbArc
 50
335.9892009361
 51
360.0
  0
ARC
  5
2C5
100
AcDbEntity
  8
LAYER_FEATURE
100
AcDbCircle
 62
7
  6
CONTINUOUS
 10
15.2633552569
 20
6.3596912113
 40
0.216
100
AcDbArc
 50
0.0
 51
24.0107990639
  0
ARC
  5
2C6
100
AcDbEntity
  8
LAYER_FEATURE
100
AcDbCircle
 62
7
  6
CONTINUOUS
 10
16.5653552569
 20
4.5615581976
 40
0.216
100
AcDbArc
 50
180.0
 51
204.0107990639
  0
ARC
  5
2C7
100
AcDbEntity
  8
LAYER_FEATURE
100
AcDbCircle
 62
7
  6
CONTINUOUS
 10
16.5653552569
 20
6.3596912113
 40
0.216
100
AcDbArc
 50
155.9892009361
 51
180.0
  0
CIRCLE
  5
2C8
100
AcDbEntity
  8
02___PRT_ALL_AXES
100
AcDbCircle
 62
7
  6
CONTINUOUS
 10
14.9768552569
 20
5.4606247044
 40
0.207
  0
CIRCLE
  5
2C9
100
AcDbEntity
  8
LAYER_FEATURE
100
AcDbCircle
 62
7
  6
CONTINUOUS
 10
14.9768552569
 20
5.4606247044
 40
0.1656
  0
ARC
  5
2CA
100
AcDbEntity
  8
LAYER_FEATURE
100
AcDbCircle
 62
7
  6
CONTINUOUS
 10
15.2975004604
 20
12.0636019728
 40
1.4079659948
100
AcDbArc
 50
73.5349181167
 51
76.4898107268
  0
ARC
  5
2CB
100
AcDbEntity
  8
LAYER_FEATURE
100
AcDbCircle
 62
7
  6
CONTINUOUS
 10
15.3207094806
 20
12.1194995436
 40
1.3474561621
100
AcDbArc
 50
64.0419556696
 51
67.0846823181
  0
ARC
  5
2CC
100
AcDbEntity
  8
LAYER_FEATURE
100
AcDbCircle
 62
7
  6
CONTINUOUS
 10
15.3230941605
 20
12.2212857602
 40
1.2480730645
100
AcDbArc
 50
83.1070638193
 51
86.3092846066
  0
ARC
  5
2CD
100
AcDbEntity
  8
LAYER_FEATURE
100
AcDbCircle
 62
7
  6
CONTINUOUS
 10
15.4468979041
 20
12.3385579875
 40
1.0943594679
100
AcDbArc
 50
53.5299042805
 51
57.0254441482
  0
ARC
  5
2CE
100
AcDbEntity
  8
LAYER_FEATURE
100
AcDbCircle
 62
7
  6
CONTINUOUS
 10
15.321270045
 20
12.528683763
 40
0.9402456994
100
AcDbArc
 50
93.88358465
 51
97.7514581992
  0
ARC
  5
2CF
100
AcDbEntity
  8
LAYER_CUT_FEAT
100
AcDbCircle
 62
7
  6
CONTINUOUS
 10
15.0711094224
 20
12.3474717065
 40
0.4074473768
100
AcDbArc
 50
206.156510261
 51
208.4732195111
  0
ARC
  5
2D0
100
AcDbEntity
  8
LAYER_FEATURE
100
AcDbCircle
 62
7
  6
CONTINUOUS
 10
15.0608703817
 20
13.1245782605
 40
0.2705414684
100
AcDbArc
 50
150.7843040152
 51
159.6621700964
  0
ARC
  5
2D1
100
AcDbEntity
  8
LAYER_FEATURE
100
AcDbCircle
 62
7
  6
CONTINUOUS
 10
15.16700966
 20
12.2719451614
 40
0.1082587725
100
AcDbArc
 50
29.0140037721
 51
31.9211272745
  0
ARC
  5
2D2
100
AcDbEntity
  8
LAYER_FEATURE
100
AcDbCircle
 62
7
  6
CONTINUOUS
 10
14.9896448612
 20
12.184914365
 40
0.1081756287
100
AcDbArc
 50
200.3417370086
 51
203.1922011502
  0
SPLINE
  5
2D3
100
AcDbEntity
  8
02___PRT_ALL_AXES
100
AcDbSpline
 62
7
  6
CONTINUOUS
 70
0
 71
3
 72
29
 73
25
 74
0
 42
0.0000001
 43
0.0000001
 44
0.0000000001
 40
0.0
 40
0.0
 40
0.0
 40
0.0
 40
0.0397946588
 40
0.0872485024
 40
0.1500637277
 40
0.1864138627
 40
0.2256102919
 40
0.2673089235
 40
0.3111520755
 40
0.3567613914
 40
0.4037318757
 40
0.4516304489
 40
0.5000000004
 40
0.5483695518
 40
0.596268125
 40
0.6432386094
 40
0.6888479252
 40
0.7326910773
 40
0.7743897087
 40
0.8135861379
 40
0.849936273
 40
0.9127514981
 40
0.9602053416
 40
1.0
 40
1.0
 40
1.0
 40
1.0
 10
6.6558720839
 20
11.8095477814
 30
0.0
 10
6.654000687
 20
11.8148365113
 30
0.0
 10
6.6500198988
 20
11.8264752937
 30
0.0
 10
6.6436614325
 20
11.8466545559
 30
0.0
 10
6.6380924864
 20
11.8665655832
 30
0.0
 10
6.6334299798
 20
11.8855070446
 30
0.0
 10
6.6298779588
 20
11.901651311
 30
0.0
 10
6.6265731101
 20
11.9189252078
 30
0.0
 10
6.6236469969
 20
11.9371840874
 30
0.0
 10
6.6212220562
 20
11.9562662538
 30
0.0
 10
6.6194047755
 20
11.975990573
 30
0.0
 10
6.6182786447
 20
11.9961565294
 30
0.0
 10
6.6178971463
 20
12.0165477815
 30
0.0
 10
6.6182786447
 20
12.0369390337
 30
0.0
 10
6.6194047756
 20
12.0571049901
 30
0.0
 10
6.6212220562
 20
12.0768293092
 30
0.0
 10
6.623646997
 20
12.0959114757
 30
0.0
 10
6.6265731101
 20
12.1141703552
 30
0.0
 10
6.6298779589
 20
12.131444252
 30
0.0
 10
6.6334299799
 20
12.1475885184
 30
0.0
 10
6.6380924865
 20
12.1665299798
 30
0.0
 10
6.6436614326
 20
12.1864410071
 30
0.0
 10
6.6500198988
 20
12.2066202692
 30
0.0
 10
6.654000687
 20
12.2182590515
 30
0.0
 10
6.6558720839
 20
12.2235477814
 30
0.0
  0
SPLINE
  5
2D4
100
AcDbEntity
  8
02___PRT_ALL_AXES
100
AcDbSpline
 62
7
  6
CONTINUOUS
 70
0
 71
3
 72
29
 73
25
 74
0
 42
0.0000001
 43
0.0000001
 44
0.0000000001
 40
0.0
 40
0.0
 40
0.0
 40
0.0
 40
0.0397946203
 40
0.0872484733
 40
0.1500637277
 40
0.1864138802
 40
0.2256103327
 40
0.267308975
 40
0.3111521427
 40
0.3567614446
 40
0.4037319297
 40
0.4516304745
 40
0.5000000002
 40
0.5483695258
 40
0.5962680705
 40
0.6432385556
 40
0.6888478576
 40
0.7326910252
 40
0.7743896675
 40
0.81358612
 40
0.8499362725
 40
0.9127515269
 40
0.9602053799
 40
1.0
 40
1.0
 40
1.0
 40
1.0
 10
15.1838552569
 20
6.0456247044
 30
0.0
 10
15.1785665311
 20
6.0437533125
 30
0.0
 10
15.166927752
 20
6.0397725274
 30
0.0
 10
15.1467484914
 20
6.0334140562
 30
0.0
 10
15.1268374564
 20
6.027845108
 30
0.0
 10
15.1078959858
 20
6.0231825971
 30
0.0
 10
15.0917517117
 20
6.0196305778
 30
0.0
 10
15.0744778087
 20
6.0163257237
 30
0.0
 10
15.0562189261
 20
6.0133996189
 30
0.0
 10
15.0371367613
 20
6.0109746624
 30
0.0
 10
15.0174124458
 20
6.0091574018
 30
0.0
 10
14.9972464975
 20
6.008031273
 30
0.0
 10
14.9768552569
 20
6.0076497433
 30
0.0
 10
14.9564640162
 20
6.008031273
 30
0.0
 10
14.9362980679
 20
6.0091574018
 30
0.0
 10
14.9165737525
 20
6.0109746624
 30
0.0
 10
14.8974915877
 20
6.0133996189
 30
0.0
 10
14.8792327051
 20
6.0163257237
 30
0.0
 10
14.8619588021
 20
6.0196305778
 30
0.0
 10
14.845814528
 20
6.0231825971
 30
0.0
 10
14.8268730574
 20
6.0278451081
 30
0.0
 10
14.8069620224
 20
6.0334140563
 30
0.0
 10
14.7867827619
 20
6.0397725275
 30
0.0
 10
14.7751439827
 20
6.0437533125
 30
0.0
 10
14.7698552569
 20
6.0456247044
 30
0.0
  0
SPLINE
  5
2D5
100
AcDbEntity
  8
LAYER_CHAMFER_FEAT
100
AcDbSpline
 62
7
  6
CONTINUOUS
 70
0
 71
3
 72
29
 73
25
 74
0
 42
0.0000001
 43
0.0000001
 44
0.0000000001
 40
0.0
 40
0.0
 40
0.0
 40
0.0
 40
0.073957116
 40
0.1461167841
 40
0.2164831511
 40
0.2850749932
 40
0.3519266703
 40
0.4170891352
 40
0.4806309427
 40
0.5426389129
 40
0.6032186032
 40
0.6624945231
 40
0.6916918439
 40
0.7206184591
 40
0.7492951063
 40
0.7777434625
 40
0.8059862232
 40
0.8340469932
 40
0.861950135
 40
0.8897207913
 40
0.9173846911
 40
0.9449680611
 40
0.9724975395
 40
1.0
 40
1.0
 40
1.0
 40
1.0
 10
14.9939604325
 20
11.8089818258
 30
0.0
 10
14.9909372604
 20
11.8080579875
 30
0.0
 10
14.9850007464
 20
11.8061107526
 30
0.0
 10
14.976338834
 20
11.8028477308
 30
0.0
 10
14.968044731
 20
11.7992842668
 30
0.0
 10
14.9601344937
 20
11.7954271026
 30
0.0
 10
14.9526232291
 20
11.7912834387
 30
0.0
 10
14.9455253813
 20
11.786861001
 30
0.0
 10
14.9388546243
 20
11.7821680784
 30
0.0
 10
14.9326238174
 20
11.7772133922
 30
0.0
 10
14.9268452485
 20
11.772006412
 30
0.0
 10
14.9223934117
 20
11.7674417875
 30
0.0
 10
14.9190756352
 20
11.7636759488
 30
0.0
 10
14.9167193164
 20
11.7608091235
 30
0.0
 10
14.9144838512
 20
11.7578873229
 30
0.0
 10
14.9123703236
 20
11.754911887
 30
0.0
 10
14.9103797683
 20
11.7518842563
 30
0.0
 10
14.9085131152
 20
11.7488059049
 30
0.0
 10
14.9067713255
 20
11.7456782829
 30
0.0
 10
14.9051552102
 20
11.7425029182
 30
0.0
 10
14.9036655517
 20
11.7392813468
 30
0.0
 10
14.9023031155
 20
11.7360150869
 30
0.0
 10
14.901068528
 20
11.7327058059
 30
0.0
 10
14.9003309492
 20
11.7304714694
 30
0.0
 10
14.8999838746
 20
11.729348325
 30
0.0
  0
SPLINE
  5
2D6
100
AcDbEntity
  8
02___PRT_ALL_AXES
100
AcDbSpline
 62
7
  6
CONTINUOUS
 70
0
 71
3
 72
70
 73
66
 74
0
 42
0.0000001
 43
0.0000001
 44
0.0000000001
 40
0.0
 40
0.0
 40
0.0
 40
0.0
 40
0.0134339841
 40
0.0273963579
 40
0.0418632622
 40
0.0568117386
 40
0.0722166763
 40
0.0880518068
 40
0.1042901762
 40
0.1209041631
 40
0.1378657551
 40
0.1551467015
 40
0.172718735
 40
0.190553695
 40
0.208623681
 40
0.2269011498
 40
0.2453589925
 40
0.2639706481
 40
0.2827100921
 40
0.3015519182
 40
0.320471327
 40
0.3394441406
 40
0.3584467968
 40
0.3774563305
 40
0.3964503876
 40
0.4154071709
 40
0.434305471
 40
0.4531246017
 40
0.4718444685
 40
0.4904455427
 40
0.5089088606
 40
0.5272161335
 40
0.5453497102
 40
0.5632927117
 40
0.5810290776
 40
0.5985436403
 40
0.6158222867
 40
0.6328519897
 40
0.6661142118
 40
0.682331786
 40
0.6982616329
 40
0.7138977864
 40
0.7292359079
 40
0.7590022932
 40
0.7875639159
 40
0.8014024942
 40
0.8149497677
 40
0.8282117107
 40
0.8411954418
 40
0.8539091612
 40
0.866361998
 40
0.8785640256
 40
0.8905261802
 40
0.9022602103
 40
0.9137787542
 40
0.9250952939
 40
0.9362242287
 40
0.9471809502
 40
0.9526005058
 40
0.9579832668
 40
0.9686459597
 40
0.9791891737
 40
0.9844229257
 40
0.9896344188
 40
1.0
 40
1.0
 40
1.0
 40
1.0
 10
15.7328882428
 20
11.7284124542
 30
0.0
 10
15.7320517329
 20
11.7301170823
 30
0.0
 10
15.7303726388
 20
11.7336066041
 30
0.0
 10
15.7278817808
 20
11.7389741068
 30
0.0
 10
15.7253737972
 20
11.7445690745
 30
0.0
 10
15.7228539889
 20
11.7503816417
 30
0.0
 10
15.7203279846
 20
11.756401803
 30
0.0
 10
15.7178017802
 20
11.762619124
 30
0.0
 10
15.7152816751
 20
11.7690229291
 30
0.0
 10
15.7127742623
 20
11.7756023899
 30
0.0
 10
15.7102863481
 20
11.7823465434
 30
0.0
 10
15.7078249724
 20
11.7892443808
 30
0.0
 10
15.7053973602
 20
11.7962848869
 30
0.0
 10
15.7030108678
 20
11.8034570796
 30
0.0
 10
15.7006730193
 20
11.8107500619
 30
0.0
 10
15.6983914289
 20
11.8181530277
 30
0.0
 10
15.6961738079
 20
11.8256552904
 30
0.0
 10
15.6940279648
 20
11.8332462911
 30
0.0
 10
15.6919617462
 20
11.84091559
 30
0.0
 10
15.6899830749
 20
11.8486528668
 30
0.0
 10
15.6880998968
 20
11.8564478979
 30
0.0
 10
15.6863201874
 20
11.8642905371
 30
0.0
 10
15.6846519321
 20
11.8721706861
 30
0.0
 10
15.6831031012
 20
11.8800782644
 30
0.0
 10
15.681681645
 20
11.8880031746
 30
0.0
 10
15.6803954324
 20
11.8959352644
 30
0.0
 10
15.6792522809
 20
11.9038642919
 30
0.0
 10
15.6782598365
 20
11.9117798849
 30
0.0
 10
15.6774256035
 20
11.919671516
 30
0.0
 10
15.6767568699
 20
11.9275284702
 30
0.0
 10
15.6762605833
 20
11.9353398211
 30
0.0
 10
15.6759434393
 20
11.9430944219
 30
0.0
 10
15.6758116201
 20
11.9507808968
 30
0.0
 10
15.6758708371
 20
11.9583876446
 30
0.0
 10
15.6761262899
 20
11.9659028728
 30
0.0
 10
15.6765823694
 20
11.9733145594
 30
0.0
 10
15.6772428706
 20
11.9806107687
 30
0.0
 10
15.6783908412
 20
11.990093239
 30
0.0
 10
15.6799590409
 20
11.9993705876
 30
0.0
 10
15.6819729149
 20
12.0083954707
 30
0.0
 10
15.6836799756
 20
12.0149317205
 30
0.0
 10
15.6855943403
 20
12.021280703
 30
0.0
 10
15.6883906876
 20
12.0293997534
 30
0.0
 10
15.6923685941
 20
12.0390358116
 30
0.0
 10
15.6970660428
 20
12.0481067393
 30
0.0
 10
15.7011840673
 20
12.0548606842
 30
0.0
 10
15.704405221
 20
12.0596208578
 30
0.0
 10
15.7077820023
 20
12.0641217452
 30
0.0
 10
15.7113046874
 20
12.0683573574
 30
0.0
 10
15.7149629683
 20
12.0723222616
 30
0.0
 10
15.7187462886
 20
12.0760115508
 30
0.0
 10
15.7226437056
 20
12.0794209264
 30
0.0
 10
15.7266440786
 20
12.0825465629
 30
0.0
 10
15.7307361333
 20
12.0853850323
 30
0.0
 10
15.7349084101
 20
12.0879333713
 30
0.0
 10
15.7391494683
 20
12.0901889049
 30
0.0
 10
15.743447647
 20
12.0921492431
 30
0.0
 10
15.7470809687
 20
12.0935402947
 30
0.0
 10
15.7500029559
 20
12.0945013487
 30
0.0
 10
15.7529144221
 20
12.0953563393
 30
0.0
 10
15.7565702188
 20
12.0962396885
 30
0.0
 10
15.7602558312
 20
12.0968755266
 30
0.0
 10
15.7632015694
 20
12.0972311494
 30
0.0
 10
15.7661325417
 20
12.0974843184
 30
0.0
 10
15.7683352332
 20
12.0975611261
 30
0.0
 10
15.7698003489
 20
12.097561124
 30
0.0
  0
SPLINE
  5
2D7
100
AcDbEntity
  8
02___PRT_ALL_AXES
100
AcDbSpline
 62
7
  6
CONTINUOUS
 70
0
 71
3
 72
38
 73
34
 74
0
 42
0.0000001
 43
0.0000001
 44
0.0000000001
 40
0.0
 40
0.0
 40
0.0
 40
0.0
 40
0.0397259828
 40
0.0789617204
 40
0.1176760352
 40
0.1558462558
 40
0.193451753
 40
0.2304728821
 40
0.2668925931
 40
0.3026969067
 40
0.3378747259
 40
0.3724177661
 40
0.4063211606
 40
0.439583066
 40
0.4722054136
 40
0.5041932946
 40
0.535555844
 40
0.5663055189
 40
0.5964589993
 40
0.6260364524
 40
0.6835540111
 40
0.711565213
 40
0.7391211619
 40
0.766261836
 40
0.7930306577
 40
0.8194746814
 40
0.8456439952
 40
0.871591649
 40
0.8973730215
 40
0.9230454766
 40
0.9486677393
 40
0.9742993414
 40
1.0
 40
1.0
 40
1.0
 40
1.0
 10
15.0156180694
 20
12.0920542856
 30
0.0
 10
15.013677796
 20
12.0920542856
 30
0.0
 10
15.009821088
 20
12.0920902938
 30
0.0
 10
15.0040756223
 20
12.0922545025
 30
0.0
 10
14.9984103847
 20
12.0925285694
 30
0.0
 10
14.9928313174
 20
12.0929123512
 30
0.0
 10
14.9873438733
 20
12.0934056873
 30
0.0
 10
14.9819533606
 20
12.0940083775
 30
0.0
 10
14.9766648973
 20
12.0947201934
 30
0.0
 10
14.9714833341
 20
12.0955408612
 30
0.0
 10
14.966413261
 20
12.0964700818
 30
0.0
 10
14.9614590122
 20
12.0975075501
 30
0.0
 10
14.9566246703
 20
12.0986529209
 30
0.0
 10
14.9519140529
 20
12.099905872
 30
0.0
 10
14.9473307282
 20
12.101266038
 30
0.0
 10
14.9428780155
 20
12.1027331009
 30
0.0
 10
14.9385589857
 20
12.1043067028
 30
0.0
 10
14.9343765258
 20
12.1059865288
 30
0.0
 10
14.9303331403
 20
12.1077723097
 30
0.0
 10
14.9251793413
 20
12.1102706152
 30
0.0
 10
14.9202570876
 20
12.1130006793
 30
0.0
 10
14.9155976393
 20
12.1159687426
 30
0.0
 10
14.9122830634
 20
12.1182800105
 30
0.0
 10
14.9091197572
 20
12.1206956143
 30
0.0
 10
14.9061091702
 20
12.1232153971
 30
0.0
 10
14.9032527149
 20
12.1258390929
 30
0.0
 10
14.9005517133
 20
12.1285664797
 30
0.0
 10
14.898007373
 20
12.1313972615
 30
0.0
 10
14.8956208534
 20
12.1343311478
 30
0.0
 10
14.8933932047
 20
12.1373677507
 30
0.0
 10
14.8913254258
 20
12.1405066921
 30
0.0
 10
14.8894184696
 20
12.143747348
 30
0.0
 10
14.888257282
 20
12.1459707915
 30
0.0
 10
14.8877042865
 20
12.1470976745
 30
0.0
  0
SPLINE
  5
2D8
100
AcDbEntity
  8
LAYER_CUT_FEAT
100
AcDbSpline
 62
7
  6
CONTINUOUS
 70
0
 71
3
 72
23
 73
19
 74
0
 42
0.0000001
 43
0.0000001
 44
0.0000000001
 40
0.0
 40
0.0
 40
0.0
 40
0.0
 40
0.0696911011
 40
0.1381416596
 40
0.2053865822
 40
0.2714733313
 40
0.3364539497
 40
0.4003877696
 40
0.4633414354
 40
0.5253884247
 40
0.5866090819
 40
0.6470902533
 40
0.7069248642
 40
0.76621142
 40
0.8250532907
 40
0.8835579104
 40
0.9418358891
 40
1.0
 40
1.0
 40
1.0
 40
1.0
 10
14.7053874148
 20
12.1678588505
 30
0.0
 10
14.7032742176
 20
12.1721650936
 30
0.0
 10
14.699241211
 20
12.1807785325
 30
0.0
 10
14.6937398143
 20
12.193804527
 30
0.0
 10
14.6888468536
 20
12.2068067356
 30
0.0
 10
14.6845672137
 20
12.2197723973
 30
0.0
 10
14.6809050492
 20
12.2326893136
 30
0.0
 10
14.677863995
 20
12.2455451106
 30
0.0
 10
14.6754470997
 20
12.2583274983
 30
0.0
 10
14.6736568343
 20
12.2710242387
 30
0.0
 10
14.6724950379
 20
12.2836231376
 30
0.0
 10
14.6719629762
 20
12.296112073
 30
0.0
 10
14.6720613225
 20
12.3084789924
 30
0.0
 10
14.6727900878
 20
12.3207119402
 30
0.0
 10
14.6741486646
 20
12.3327990235
 30
0.0
 10
14.6761358877
 20
12.3447286127
 30
0.0
 10
14.6787497521
 20
12.3564886539
 30
0.0
 10
14.6809094387
 20
12.3642116303
 30
0.0
 10
14.6820914387
 20
12.3680365676
 30
0.0
  0
SPLINE
  5
2D9
100
AcDbEntity
  8
LAYER_CHAMFER_FEAT
100
AcDbSpline
 62
7
  6
CONTINUOUS
 70
0
 71
3
 72
27
 73
23
 74
0
 42
0.0000001
 43
0.0000001
 44
0.0000000001
 40
0.0
 40
0.0
 40
0.0
 40
0.0
 40
0.0738802816
 40
0.1459714146
 40
0.2162787213
 40
0.284821925
 40
0.3516361657
 40
0.4167730806
 40
0.4803015954
 40
0.5423085929
 40
0.6028994403
 40
0.6621982204
 40
0.7203473567
 40
0.7775067835
 40
0.8057743886
 40
0.8338618398
 40
0.8617933062
 40
0.8895936369
 40
0.9172883333
 40
0.9449033519
 40
0.9724650387
 40
1.0
 40
1.0
 40
1.0
 40
1.0
 10
15.4053065613
 20
11.6813327586
 30
0.0
 10
15.407255878
 20
11.6788767721
 30
0.0
 10
15.4110090652
 20
11.6739451801
 30
0.0
 10
15.4162486779
 20
11.6664049542
 30
0.0
 10
15.4210198779
 20
11.6588258426
 30
0.0
 10
15.4253134359
 20
11.651222216
 30
0.0
 10
15.4291211391
 20
11.643608283
 30
0.0
 10
15.4324356471
 20
11.6359983383
 30
0.0
 10
15.4352505175
 20
11.6284066628
 30
0.0
 10
15.4375601858
 20
11.6208475171
 30
0.0
 10
15.4393599887
 20
11.6133351648
 30
0.0
 10
15.4406462216
 20
11.6058837538
 30
0.0
 10
15.4414161345
 20
11.5985077247
 30
0.0
 10
15.4416266675
 20
11.5924122779
 30
0.0
 10
15.4415330208
 20
11.5875946399
 30
0.0
 10
15.4413336619
 20
11.5840221624
 30
0.0
 10
15.441005004
 20
11.5804791976
 30
0.0
 10
15.4405471469
 20
11.5769673882
 30
0.0
 10
15.4399603617
 20
11.5734884243
 30
0.0
 10
15.4392448953
 20
11.570043949
 30
0.0
 10
15.4384010813
 20
11.5666356812
 30
0.0
 10
15.4377531216
 20
11.5643881972
 30
0.0
 10
15.437408095
 20
11.5632716799
 30
0.0
  0
SPLINE
  5
2DA
100
AcDbEntity
  8
LAYER_FEATURE
100
AcDbSpline
 62
7
  6
CONTINUOUS
 70
0
 71
3
 72
47
 73
43
 74
0
 42
0.0000001
 43
0.0000001
 44
0.0000000001
 40
0.0
 40
0.0
 40
0.0
 40
0.0
 40
0.0099899723
 40
0.0202817032
 40
0.0308783444
 40
0.0417817906
 40
0.0529928475
 40
0.0645113781
 40
0.0763362058
 40
0.088465439
 40
0.1008962666
 40
0.1136252382
 40
0.1266481963
 40
0.1399603201
 40
0.1535562937
 40
0.1674301319
 40
0.181575465
 40
0.1959853495
 40
0.2255680528
 40
0.2561156228
 40
0.2875585209
 40
0.3198220653
 40
0.3528270769
 40
0.3864904651
 40
0.4207257765
 40
0.4554437231
 40
0.4905526774
 40
0.5259591466
 40
0.5615682357
 40
0.5972841007
 40
0.6330103997
 40
0.6686507455
 40
0.7041091514
 40
0.73929048
 40
0.7741008923
 40
0.8084483123
 40
0.8422429081
 40
0.8753975422
 40
0.9078285041
 40
0.9394552557
 40
0.9702031929
 40
1.0
 40
1.0
 40
1.0
 40
1.0
 10
15.8102609245
 20
12.0406321803
 30
0.0
 10
15.8108186659
 20
12.0399639784
 30
0.0
 10
15.8119261592
 20
12.0385864836
 30
0.0
 10
15.8135397676
 20
12.0364332378
 30
0.0
 10
15.8151290385
 20
12.0341640896
 30
0.0
 10
15.8166927113
 20
12.0317808817
 30
0.0
 10
15.8182295735
 20
12.0292854913
 30
0.0
 10
15.8197383849
 20
12.0266798829
 30
0.0
 10
15.8212179981
 20
12.0239661364
 30
0.0
 10
15.8226671987
 20
12.0211463813
 30
0.0
 10
15.8240848792
 20
12.0182228671
 30
0.0
 10
15.8254698947
 20
12.0151979013
 30
0.0
 10
15.8268211498
 20
12.0120738837
 30
0.0
 10
15.8281375908
 20
12.0088532964
 30
0.0
 10
15.8294181397
 20
12.0055386843
 30
0.0
 10
15.8306618188
 20
12.0021326907
 30
0.0
 10
15.8318676094
 20
11.9986380009
 30
0.0
 10
15.8334372522
 20
11.9938218064
 30
0.0
 10
15.8352946457
 20
11.9875974239
 30
0.0
 10
15.8373387339
 20
11.9798841373
 30
0.0
 10
15.8392105883
 20
11.9718872234
 30
0.0
 10
15.8409042408
 20
11.9636320931
 30
0.0
 10
15.842414294
 20
11.9551449046
 30
0.0
 10
15.8437359313
 20
11.9464525923
 30
0.0
 10
15.8448649401
 20
11.9375827463
 30
0.0
 10
15.8457977197
 20
11.9285635305
 30
0.0
 10
15.8465312946
 20
11.9194235883
 30
0.0
 10
15.8470633236
 20
11.9101919509
 30
0.0
 10
15.8473921081
 20
11.9008979447
 30
0.0
 10
15.8475165965
 20
11.8915710968
 30
0.0
 10
15.8474363931
 20
11.8822410403
 30
0.0
 10
15.8471517554
 20
11.8729374181
 30
0.0
 10
15.8466635923
 20
11.8636897877
 30
0.0
 10
15.8459734614
 20
11.8545275269
 30
0.0
 10
15.8450835642
 20
11.8454797396
 30
0.0
 10
15.8439967381
 20
11.8365751613
 30
0.0
 10
15.8427164484
 20
11.8278420708
 30
0.0
 10
15.841246785
 20
11.819308176
 30
0.0
 10
15.8395924271
 20
11.8110005973
 30
0.0
 10
15.8377586555
 20
11.8029455766
 30
0.0
 10
15.8357513152
 20
11.7951688498
 30
0.0
 10
15.8342773881
 20
11.7901028544
 30
0.0
 10
15.8335109049
 20
11.7876225137
 30
0.0
  0
SPLINE
  5
2DB
100
AcDbEntity
  8
LAYER_FEATURE
100
AcDbSpline
 62
7
  6
CONTINUOUS
 70
0
 71
3
 72
23
 73
19
 74
0
 42
0.0000001
 43
0.0000001
 44
0.0000000001
 40
0.0
 40
0.0
 40
0.0
 40
0.0
 40
0.0507377599
 40
0.1030494169
 40
0.1569516717
 40
0.2124540879
 40
0.2695607147
 40
0.3282698978
 40
0.3885748112
 40
0.4504644554
 40
0.5139231383
 40
0.5789318001
 40
0.645466365
 40
0.7134998287
 40
0.7830038447
 40
0.8539486725
 40
0.9262969934
 40
1.0
 40
1.0
 40
1.0
 40
1.0
 10
15.8102609244
 20
11.7404900691
 30
0.0
 10
15.8108339842
 20
11.7411766259
 30
0.0
 10
15.8119716571
 20
11.7425931146
 30
0.0
 10
15.8136278929
 20
11.7448095454
 30
0.0
 10
15.8152583727
 20
11.7471481293
 30
0.0
 10
15.8168617565
 20
11.749606852
 30
0.0
 10
15.8184367004
 20
11.7521836884
 30
0.0
 10
15.8199818999
 20
11.7548764796
 30
0.0
 10
15.8214960851
 20
11.7576829728
 30
0.0
 10
15.8229779645
 20
11.7606008388
 30
0.0
 10
15.8244263448
 20
11.7636276302
 30
0.0
 10
15.8258399666
 20
11.7667608291
 30
0.0
 10
15.8272176869
 20
11.7699977798
 30
0.0
 10
15.8285583282
 20
11.7733357864
 30
0.0
 10
15.8298607975
 20
11.776772115
 30
0.0
 10
15.831124011
 20
11.7803039342
 30
0.0
 10
15.8323468415
 20
11.7839281107
 30
0.0
 10
15.8331273574
 20
11.7863813535
 30
0.0
 10
15.8335109049
 20
11.7876225137
 30
0.0
  0
SPLINE
  5
2DC
100
AcDbEntity
  8
02___PRT_ALL_AXES
100
AcDbSpline
 62
7
  6
CONTINUOUS
 70
0
 71
3
 72
37
 73
33
 74
0
 42
0.0000001
 43
0.0000001
 44
0.0000000001
 40
0.0
 40
0.0
 40
0.0
 40
0.0
 40
0.0163210806
 40
0.0329182371
 40
0.0499272012
 40
0.0674742238
 40
0.0856737736
 40
0.10462851
 40
0.1244289599
 40
0.1451533441
 40
0.1668695219
 40
0.1896356349
 40
0.2135003471
 40
0.2385051791
 40
0.2646849063
 40
0.292067514
 40
0.3206764292
 40
0.3505303874
 40
0.3816431585
 40
0.4140256343
 40
0.4476851635
 40
0.4826252927
 40
0.5188477186
 40
0.5563512091
 40
0.595131628
 40
0.6351835902
 40
0.6764987728
 40
0.7190664076
 40
0.7628749033
 40
0.8079109809
 40
0.9016058229
 40
1.0
 40
1.0
 40
1.0
 40
1.0
 10
15.7698003489
 20
11.6835611249
 30
0.0
 10
15.7694735221
 20
11.683561126
 30
0.0
 10
15.7688139676
 20
11.6835916045
 30
0.0
 10
15.7678221923
 20
11.6837272348
 30
0.0
 10
15.7668217908
 20
11.6839529397
 30
0.0
 10
15.765812498
 20
11.6842685851
 30
0.0
 10
15.7647938546
 20
11.6846739862
 30
0.0
 10
15.7637654244
 20
11.6851689878
 30
0.0
 10
15.7627267606
 20
11.6857534365
 30
0.0
 10
15.761677422
 20
11.6864271622
 30
0.0
 10
15.7606170055
 20
11.687190013
 30
0.0
 10
15.7595451451
 20
11.6880418197
 30
0.0
 10
15.7584615058
 20
11.6889823805
 30
0.0
 10
15.7573658062
 20
11.6900114788
 30
0.0
 10
15.7562578072
 20
11.6911288575
 30
0.0
 10
15.7551373086
 20
11.6923342158
 30
0.0
 10
15.7540041616
 20
11.6936272155
 30
0.0
 10
15.7528582584
 20
11.6950074668
 30
0.0
 10
15.7516995348
 20
11.696474532
 30
0.0
 10
15.7505279735
 20
11.6980279214
 30
0.0
 10
15.7493435989
 20
11.699667089
 30
0.0
 10
15.7481464835
 20
11.7013914381
 30
0.0
 10
15.7469367414
 20
11.7032003109
 30
0.0
 10
15.7457145311
 20
11.7050929952
 30
0.0
 10
15.7444800613
 20
11.7070687279
 30
0.0
 10
15.7432335797
 20
11.7091266751
 30
0.0
 10
15.7419753859
 20
11.7112659421
 30
0.0
 10
15.7407058347
 20
11.7134855741
 30
0.0
 10
15.7394252977
 20
11.7157845601
 30
0.0
 10
15.7376807851
 20
11.7189967979
 30
0.0
 10
15.7354785224
 20
11.7232039559
 30
0.0
 10
15.7337562556
 20
11.72664363
 30
0.0
 10
15.7328882428
 20
11.7284124542
 30
0.0
  0
SPLINE
  5
2DD
100
AcDbEntity
  8
LAYER_FEATURE
100
AcDbSpline
 62
7
  6
CONTINUOUS
 70
0
 71
3
 72
48
 73
44
 74
0
 42
0.0000001
 43
0.0000001
 44
0.0000000001
 40
0.0
 40
0.0
 40
0.0
 40
0.0
 40
0.0125959077
 40
0.0251983157
 40
0.0378137084
 40
0.0504485355
 40
0.0631092006
 40
0.075802038
 40
0.0885333056
 40
0.1013091646
 40
0.1141356654
 40
0.1270187425
 40
0.1399641869
 40
0.1529776529
 40
0.1660646334
 40
0.179230455
 40
0.2058170135
 40
0.232778499
 40
0.2464121495
 40
0.2601527479
 40
0.287968733
 40
0.316257801
 40
0.3305888674
 40
0.3450477262
 40
0.3743581256
 40
0.404210229
 40
0.4346204773
 40
0.4656022385
 40
0.4971659176
 40
0.5293190736
 40
0.5620665438
 40
0.5954105789
 40
0.6293509731
 40
0.6638851935
 40
0.6990085036
 40
0.7347140827
 40
0.7709931499
 40
0.8078350797
 40
0.8452275118
 40
0.8831564542
 40
0.9216063804
 40
0.9605603293
 40
1.0
 40
1.0
 40
1.0
 40
1.0
 10
14.2693496377
 20
12.495583431
 30
0.0
 10
14.268357065
 20
12.4923714598
 30
0.0
 10
14.2664603637
 20
12.4859179804
 30
0.0
 10
14.2638835774
 20
12.4761587534
 30
0.0
 10
14.2615753486
 20
12.4663217947
 30
0.0
 10
14.2595362573
 20
12.4564096965
 30
0.0
 10
14.2577668633
 20
12.4464249302
 30
0.0
 10
14.2562675545
 20
12.4363700389
 30
0.0
 10
14.2550387448
 20
12.4262475572
 30
0.0
 10
14.254080731
 20
12.4160600479
 30
0.0
 10
14.2533937239
 20
12.4058100867
 30
0.0
 10
14.2529779421
 20
12.3955002634
 30
0.0
 10
14.2528334256
 20
12.3851331794
 30
0.0
 10
14.252960246
 20
12.3747114716
 30
0.0
 10
14.2533583567
 20
12.3642376998
 30
0.0
 10
14.2542535412
 20
12.3501620658
 30
0.0
 10
14.256057732
 20
12.3324398705
 30
0.0
 10
14.2587483155
 20
12.3147046984
 30
0.0
 10
14.2614330123
 20
12.3004520253
 30
0.0
 10
14.2644989619
 20
12.2860431723
 30
0.0
 10
14.2690123617
 20
12.2679489393
 30
0.0
 10
14.2743748018
 20
12.2499239877
 30
0.0
 10
14.2791878076
 20
12.2354688752
 30
0.0
 10
14.2843979908
 20
12.2208623494
 30
0.0
 10
14.2915796724
 20
12.202565844
 30
0.0
 10
14.3012043507
 20
12.1806753452
 30
0.0
 10
14.3118647317
 20
12.1587730078
 30
0.0
 10
14.3235498692
 20
12.13688103
 30
0.0
 10
14.3362479396
 20
12.1150212644
 30
0.0
 10
14.3499460835
 20
12.0932156252
 30
0.0
 10
14.3646304539
 20
12.0714859464
 30
0.0
 10
14.3802862288
 20
12.049854001
 30
0.0
 10
14.3968976243
 20
12.0283414687
 30
0.0
 10
14.4144479084
 20
12.0069699185
 30
0.0
 10
14.4329194122
 20
11.9857607869
 30
0.0
 10
14.4522935378
 20
11.9647353491
 30
0.0
 10
14.4725507864
 20
11.9439147049
 30
0.0
 10
14.4936707758
 20
11.9233197567
 30
0.0
 10
14.515632264
 20
11.9029711844
 30
0.0
 10
14.5384131513
 20
11.8828894399
 30
0.0
 10
14.5619905601
 20
11.8630946646
 30
0.0
 10
14.5863406097
 20
11.8436068739
 30
0.0
 10
14.6029728585
 20
11.830908978
 30
0.0
 10
14.6114100714
 20
11.8246146194
 30
0.0
  0
SPLINE
  5
2DE
100
AcDbEntity
  8
LAYER_FEATURE
100
AcDbSpline
 62
7
  6
CONTINUOUS
 70
0
 71
3
 72
37
 73
33
 74
0
 42
0.0000001
 43
0.0000001
 44
0.0000000001
 40
0.0
 40
0.0
 40
0.0
 40
0.0
 40
0.0273862444
 40
0.0548005404
 40
0.082270795
 40
0.1098246389
 40
0.1374892799
 40
0.1652913851
 40
0.1932569551
 40
0.2214112086
 40
0.2497784998
 40
0.2783822
 40
0.3072446602
 40
0.3363871063
 40
0.3658296209
 40
0.3955910842
 40
0.4256891415
 40
0.4561402104
 40
0.4869594227
 40
0.5181606836
 40
0.5817519462
 40
0.6141701864
 40
0.6470136232
 40
0.680290059
 40
0.7140061133
 40
0.7481673264
 40
0.7827781153
 40
0.8178418725
 40
0.8533609595
 40
0.8893367508
 40
0.9257696933
 40
1.0
 40
1.0
 40
1.0
 40
1.0
 10
14.5336860628
 20
13.3509764163
 30
0.0
 10
14.5322872388
 20
13.3464498132
 30
0.0
 10
14.5296648343
 20
13.3373362823
 30
0.0
 10
14.5262650867
 20
13.3235119415
 30
0.0
 10
14.523399842
 20
13.3095372068
 30
0.0
 10
14.5210706768
 20
13.2954193911
 30
0.0
 10
14.5192786764
 20
13.2811655529
 30
0.0
 10
14.5180247392
 20
13.2667828962
 30
0.0
 10
14.5173094733
 20
13.252278664
 30
0.0
 10
14.5171331633
 20
13.2376601604
 30
0.0
 10
14.517495915
 20
13.2229347395
 30
0.0
 10
14.5183974362
 20
13.2081097981
 30
0.0
 10
14.5198372912
 20
13.1931927831
 30
0.0
 10
14.5218146651
 20
13.1781911716
 30
0.0
 10
14.5243285432
 20
13.1631124816
 30
0.0
 10
14.5273776239
 20
13.1479642676
 30
0.0
 10
14.5309603115
 20
13.1327540856
 30
0.0
 10
14.5350747997
 20
13.117489605
 30
0.0
 10
14.5397190071
 20
13.1021782352
 30
0.0
 10
14.5466577515
 20
13.081582271
 30
0.0
 10
14.5546170478
 20
13.0610487126
 30
0.0
 10
14.5635414138
 20
13.0406194221
 30
0.0
 10
14.5707935
 20
13.0251893526
 30
0.0
 10
14.5785571745
 20
13.0097588449
 30
0.0
 10
14.5868285981
 20
12.9943352881
 30
0.0
 10
14.5956036381
 20
12.978926477
 30
0.0
 10
14.6048778617
 20
12.9635400531
 30
0.0
 10
14.6146466499
 20
12.9481836996
 30
0.0
 10
14.6249050777
 20
12.93286511
 30
0.0
 10
14.6356481039
 20
12.917591765
 30
0.0
 10
14.6507038126
 20
12.8971721448
 30
0.0
 10
14.6625701678
 20
12.8821387473
 30
0.0
 10
14.6707313754
 20
12.8722237631
 30
0.0
  0
SPLINE
  5
2DF
100
AcDbEntity
  8
LAYER_FEATURE
100
AcDbSpline
 62
7
  6
CONTINUOUS
 70
0
 71
3
 72
48
 73
44
 74
0
 42
0.0000001
 43
0.0000001
 44
0.0000000001
 40
0.0
 40
0.0
 40
0.0
 40
0.0
 40
0.0125959998
 40
0.0251985
 40
0.0378139837
 40
0.0504489018
 40
0.0631096559
 40
0.0758025808
 40
0.0885339354
 40
0.1013098773
 40
0.1141364613
 40
0.1270196169
 40
0.1399651376
 40
0.1529786784
 40
0.1660657275
 40
0.1792316184
 40
0.2058182989
 40
0.2327798918
 40
0.2464135935
 40
0.2601542336
 40
0.2879702956
 40
0.3162594221
 40
0.3305905081
 40
0.3450493859
 40
0.3743598062
 40
0.4042119162
 40
0.4346221555
 40
0.4656038907
 40
0.4971675257
 40
0.5293206221
 40
0.5620680225
 40
0.5954119774
 40
0.6293522801
 40
0.6638863971
 40
0.699009594
 40
0.7347150563
 40
0.7709940044
 40
0.8078358111
 40
0.8452281196
 40
0.8831569329
 40
0.9216067299
 40
0.9605606085
 40
1.0
 40
1.0
 40
1.0
 40
1.0
 10
16.3903838999
 20
11.84013427
 30
0.0
 10
16.3893913538
 20
11.8369223846
 30
0.0
 10
16.3873165754
 20
11.8305241231
 30
0.0
 10
16.3839383333
 20
11.8210128475
 30
0.0
 10
16.380294547
 20
11.8115888872
 30
0.0
 10
16.3763861338
 20
11.8022547356
 30
0.0
 10
16.3722140839
 20
11.7930127252
 30
0.0
 10
16.3677794827
 20
11.7838651858
 30
0.0
 10
16.3630834074
 20
11.7748144508
 30
0.0
 10
16.3581271026
 20
11.7658627786
 30
0.0
 10
16.352911787
 20
11.7570124495
 30
0.0
 10
16.3474387981
 20
11.7482656911
 30
0.0
 10
16.341709537
 20
11.7396246935
 30
0.0
 10
16.3357254305
 20
11.7310916769
 30
0.0
 10
16.3294879933
 20
11.7226687038
 30
0.0
 10
16.3208081508
 20
11.7115523383
 30
0.0
 10
16.3093206445
 20
11.697938018
 30
0.0
 10
16.2970939885
 20
11.6848130322
 30
0.0
 10
16.2868368209
 20
11.6745600312
 30
0.0
 10
16.2761768023
 20
11.664393141
 30
0.0
 10
16.2622426263
 20
11.6520000426
 30
0.0
 10
16.2476465527
 20
11.6401431149
 30
0.0
 10
16.2355180297
 20
11.6309236124
 30
0.0
 10
16.2229761623
 20
11.6218031797
 30
0.0
 10
16.206724904
 20
11.6107483418
 30
0.0
 10
16.186429105
 20
11.5981043617
 30
0.0
 10
16.1652715285
 20
11.5860348837
 30
0.0
 10
16.1432737345
 20
11.5745520608
 30
0.0
 10
16.1204578145
 20
11.5636672604
 30
0.0
 10
16.096846745
 20
11.5533913216
 30
0.0
 10
16.0724642695
 20
11.5437344684
 30
0.0
 10
16.0473349094
 20
11.5347063108
 30
0.0
 10
16.0214839275
 20
11.5263158419
 30
0.0
 10
15.9949373068
 20
11.5185714274
 30
0.0
 10
15.9677217264
 20
11.5114807963
 30
0.0
 10
15.9398645379
 20
11.5050510322
 30
0.0
 10
15.9113937429
 20
11.499288553
 30
0.0
 10
15.8823379608
 20
11.4941991146
 30
0.0
 10
15.8527263972
 20
11.4897878067
 30
0.0
 10
15.8225888351
 20
11.4860590434
 30
0.0
 10
15.7919555088
 20
11.4830165539
 30
0.0
 10
15.7608574795
 20
11.4806634064
 30
0.0
 10
15.7399619716
 20
11.479562362
 30
0.0
 10
15.7294450659
 20
11.4791252179
 30
0.0
  0
SPLINE
  5
2E0
100
AcDbEntity
  8
LAYER_FEATURE
100
AcDbSpline
 62
7
  6
CONTINUOUS
 70
0
 71
3
 72
38
 73
34
 74
0
 42
0.0000001
 43
0.0000001
 44
0.0000000001
 40
0.0
 40
0.0
 40
0.0
 40
0.0
 40
0.0273854888
 40
0.0547990348
 40
0.0822685519
 40
0.109821673
 40
0.1374856164
 40
0.1652870482
 40
0.1932519797
 40
0.2214056307
 40
0.2497723584
 40
0.2783755442
 40
0.3072375312
 40
0.3363795631
 40
0.3658217095
 40
0.3955828661
 40
0.4256806719
 40
0.4561315454
 40
0.486950628
 40
0.5181518093
 40
0.581743103
 40
0.6141614507
 40
0.6470050493
 40
0.6802817016
 40
0.7139980341
 40
0.7481595675
 40
0.7827707401
 40
0.8178349176
 40
0.8533544806
 40
0.8893307864
 40
0.9257642828
 40
0.9626544736
 40
1.0
 40
1.0
 40
1.0
 40
1.0
 10
16.654720325
 20
12.6955272553
 30
0.0
 10
16.653321339
 20
12.6910001279
 30
0.0
 10
16.6503445814
 20
12.6819949497
 30
0.0
 10
16.6453516632
 20
12.6686612119
 30
0.0
 10
16.6398324252
 20
12.6555049078
 30
0.0
 10
16.6337897648
 20
12.6425329359
 30
0.0
 10
16.6272266932
 20
12.6297517746
 30
0.0
 10
16.6201466026
 20
12.617167846
 30
0.0
 10
16.6125530288
 20
12.6047875028
 30
0.0
 10
16.604449882
 20
12.592616926
 30
0.0
 10
16.5958412331
 20
12.5806622417
 30
0.0
 10
16.5867314646
 20
12.5689294214
 30
0.0
 10
16.5771251908
 20
12.5574243269
 30
0.0
 10
16.567027246
 20
12.5461527257
 30
0.0
 10
16.5564427664
 20
12.535120203
 30
0.0
 10
16.5453770491
 20
12.524332305
 30
0.0
 10
16.5338356989
 20
12.5137943495
 30
0.0
 10
16.5218245368
 20
12.5035116489
 30
0.0
 10
16.5093494448
 20
12.4934891741
 30
0.0
 10
16.4919975181
 20
12.4803977749
 30
0.0
 10
16.4738380091
 20
12.4679338536
 30
0.0
 10
16.454940382
 20
12.4561006454
 30
0.0
 10
16.4402446761
 20
12.4474518136
 30
0.0
 10
16.4251262508
 20
12.4390913134
 30
0.0
 10
16.4095924356
 20
12.431023107
 30
0.0
 10
16.393651065
 20
12.4232512533
 30
0.0
 10
16.3773100851
 20
12.4157796197
 30
0.0
 10
16.3605776843
 20
12.4086118881
 30
0.0
 10
16.3434622058
 20
12.4017516688
 30
0.0
 10
16.3259722285
 20
12.3952023249
 30
0.0
 10
16.3081164515
 20
12.388967151
 30
0.0
 10
16.28990391
 20
12.3830492473
 30
0.0
 10
16.2776053663
 20
12.3793400707
 30
0.0
 10
16.2714000092
 20
12.3775381368
 30
0.0
  0
SPLINE
  5
2E1
100
AcDbEntity
  8
LAYER_CUT_FEAT
100
AcDbSpline
 62
7
  6
CONTINUOUS
 70
0
 71
3
 72
24
 73
20
 74
0
 42
0.0000001
 43
0.0000001
 44
0.0000000001
 40
0.0
 40
0.0
 40
0.0
 40
0.0
 40
0.0579679996
 40
0.1160556948
 40
0.1451842745
 40
0.1743870302
 40
0.203678377
 40
0.2330725167
 40
0.2922194711
 40
0.3519413417
 40
0.4123408345
 40
0.4735145735
 40
0.5355525024
 40
0.5985374275
 40
0.6625447634
 40
0.7276423661
 40
0.7938904267
 40
0.8613415292
 40
1.0
 40
1.0
 40
1.0
 40
1.0
 10
15.9776420988
 20
11.9676811333
 30
0.0
 10
15.9764281043
 20
11.9637526623
 30
0.0
 10
15.9737786605
 20
11.9559534846
 30
0.0
 10
15.9699289713
 20
11.9463960609
 30
0.0
 10
15.9665300191
 20
11.9388692394
 30
0.0
 10
15.9638175173
 20
11.9332762685
 30
0.0
 10
15.9609449881
 20
11.9277425497
 30
0.0
 10
15.9568945302
 20
11.9204305681
 30
0.0
 10
15.9514283894
 20
11.9114398021
 30
0.0
 10
15.9442549681
 20
11.900933734
 30
0.0
 10
15.9364610182
 20
11.8906981001
 30
0.0
 10
15.9280547043
 20
11.8807434576
 30
0.0
 10
15.9190446533
 20
11.8710797634
 30
0.0
 10
15.9094401528
 20
11.8617167143
 30
0.0
 10
15.8992510072
 20
11.8526636541
 30
0.0
 10
15.8884877007
 20
11.8439296964
 30
0.0
 10
15.8771608215
 20
11.8355233097
 30
0.0
 10
15.8611778327
 20
11.8246644921
 30
0.0
 10
15.848590935
 20
11.8171893473
 30
0.0
 10
15.8399563529
 20
11.8124801131
 30
0.0
  0
SPLINE
  5
2E2
100
AcDbEntity
  8
02___PRT_ALL_AXES
100
AcDbSpline
 62
7
  6
CONTINUOUS
 70
0
 71
3
 72
63
 73
59
 74
0
 42
0.0000001
 43
0.0000001
 44
0.0000000001
 40
0.0
 40
0.0
 40
0.0
 40
0.0
 40
0.014345873
 40
0.028653342
 40
0.0429239323
 40
0.0571594945
 40
0.0713622645
 40
0.0855348913
 40
0.0996805166
 40
0.1138027827
 40
0.1279058951
 40
0.1419946154
 40
0.1560743117
 40
0.1701509268
 40
0.1842309767
 40
0.1983215198
 40
0.2124300958
 40
0.2265646959
 40
0.2407336166
 40
0.2549454446
 40
0.2692088999
 40
0.2835327237
 40
0.2979256148
 40
0.3123960185
 40
0.326952126
 40
0.3416016823
 40
0.3563519005
 40
0.371209443
 40
0.3861802344
 40
0.4012695216
 40
0.4318157189
 40
0.4628788037
 40
0.478610375
 40
0.4944743987
 40
0.5104702169
 40
0.5265962849
 40
0.5428502207
 40
0.5592288054
 40
0.592340234
 40
0.6258913111
 40
0.6598269193
 40
0.6940792601
 40
0.7285681677
 40
0.7632015285
 40
0.7805412965
 40
0.7978775742
 40
0.8151958872
 40
0.832481197
 40
0.8497180461
 40
0.8668905423
 40
0.8839825221
 40
0.9009775968
 40
0.9178593411
 40
0.9346113148
 40
0.9512170223
 40
0.9676606588
 40
0.9839273247
 40
1.0
 40
1.0
 40
1.0
 40
1.0
 10
15.2593651857
 20
12.329482353
 30
0.0
 10
15.2602236559
 20
12.3277329783
 30
0.0
 10
15.2618686648
 20
12.3242042283
 30
0.0
 10
15.2641176331
 20
12.3188232352
 30
0.0
 10
15.2661406819
 20
12.3133691477
 30
0.0
 10
15.2679337565
 20
12.307850141
 30
0.0
 10
15.2694929746
 20
12.3022743422
 30
0.0
 10
15.2708147449
 20
12.2966500535
 30
0.0
 10
15.2718956141
 20
12.2909856436
 30
0.0
 10
15.2727324959
 20
12.2852895948
 30
0.0
 10
15.2733225826
 20
12.2795704564
 30
0.0
 10
15.2736633945
 20
12.2738368322
 30
0.0
 10
15.2737529555
 20
12.2680973601
 30
0.0
 10
15.2735895746
 20
12.2623606709
 30
0.0
 10
15.2731722004
 20
12.2566353582
 30
0.0
 10
15.272500184
 20
12.2509299379
 30
0.0
 10
15.2715734288
 20
12.2452528075
 30
0.0
 10
15.2703924974
 20
12.239612179
 30
0.0
 10
15.2689583544
 20
12.2340160828
 30
0.0
 10
15.2672727377
 20
12.2284722475
 30
0.0
 10
15.2653378386
 20
12.2229881231
 30
0.0
 10
15.2631564322
 20
12.2175708152
 30
0.0
 10
15.2607319439
 20
12.2122270048
 30
0.0
 10
15.2580681459
 20
12.2069630316
 30
0.0
 10
15.2551694779
 20
12.2017847172
 30
0.0
 10
15.2520407093
 20
12.1966974861
 30
0.0
 10
15.248687029
 20
12.1917062916
 30
0.0
 10
15.2451140764
 20
12.1868155944
 30
0.0
 10
15.241327595
 20
12.1820294186
 30
0.0
 10
15.2359813685
 20
12.1757670757
 30
0.0
 10
15.2287875232
 20
12.1682182498
 30
0.0
 10
15.2210315445
 20
12.1611204031
 30
0.0
 10
15.2144842589
 20
12.1556804839
 30
0.0
 10
15.2093855486
 20
12.1517046564
 30
0.0
 10
15.2041268672
 20
12.1478518065
 30
0.0
 10
15.1987151805
 20
12.1441229201
 30
0.0
 10
15.1931575449
 20
12.1405188266
 30
0.0
 10
15.1855351811
 20
12.1358641863
 30
0.0
 10
15.1756793368
 20
12.1303671286
 30
0.0
 10
15.1634283922
 20
12.1243029425
 30
0.0
 10
15.1507685252
 20
12.1187495411
 30
0.0
 10
15.1377594485
 20
12.1137094858
 30
0.0
 10
15.1244623744
 20
12.1091853833
 30
0.0
 10
15.1131983272
 20
12.1058489346
 30
0.0
 10
15.1040971804
 20
12.1034380245
 30
0.0
 10
15.0972362773
 20
12.1017602508
 30
0.0
 10
15.0903521151
 20
12.1002142063
 30
0.0
 10
15.0834533727
 20
12.098800375
 30
0.0
 10
15.0765489069
 20
12.0975192591
 30
0.0
 10
15.0696476729
 20
12.0963713405
 30
0.0
 10
15.0627587253
 20
12.0953570907
 30
0.0
 10
15.0558911759
 20
12.0944769525
 30
0.0
 10
15.049054176
 20
12.0937313282
 30
0.0
 10
15.0422569034
 20
12.0931205933
 30
0.0
 10
15.0355084885
 20
12.0926450343
 30
0.0
 10
15.0288178803
 20
12.0923049088
 30
0.0
 10
15.0221942094
 20
12.0921004289
 30
0.0
 10
15.0178012902
 20
12.0920542856
 30
0.0
 10
15.0156180694
 20
12.0920542856
 30
0.0
  0
SPLINE
  5
2E3
100
AcDbEntity
  8
02___PRT_ALL_AXES
100
AcDbSpline
 62
7
  6
CONTINUOUS
 70
0
 71
3
 72
77
 73
73
 74
0
 42
0.0000001
 43
0.0000001
 44
0.0000000001
 40
0.0
 40
0.0
 40
0.0
 40
0.0
 40
0.0053117601
 40
0.0106263555
 40
0.0159466136
 40
0.0212753476
 40
0.0266153476
 40
0.0319693755
 40
0.0373401558
 40
0.0427303714
 40
0.0481426549
 40
0.0535795857
 40
0.0645364322
 40
0.0756212373
 40
0.0868521527
 40
0.0982460359
 40
0.1098183687
 40
0.1215832029
 40
0.1335531306
 40
0.1396188924
 40
0.1457399752
 40
0.1581520058
 40
0.1707981547
 40
0.1836852589
 40
0.1968188031
 40
0.2102029713
 40
0.2238407019
 40
0.2377337451
 40
0.2518827218
 40
0.266287182
 40
0.2809456627
 40
0.2958557443
 40
0.3110141055
 40
0.3264165763
 40
0.3420581882
 40
0.3579332234
 40
0.3740352611
 40
0.3903572221
 40
0.4068914114
 40
0.4236295589
 40
0.4405628588
 40
0.4576820068
 40
0.4749772364
 40
0.4924383537
 40
0.5100547713
 40
0.5278155404
 40
0.5457093828
 40
0.5637247217
 40
0.5818497119
 40
0.6000722687
 40
0.6183800975
 40
0.6367607216
 40
0.6552015106
 40
0.6736897075
 40
0.6922124567
 40
0.7107568306
 40
0.7293098571
 40
0.7478585458
 40
0.7663899157
 40
0.7848910213
 40
0.8033489801
 40
0.8217509994
 40
0.8400844036
 40
0.8583366619
 40
0.8764954161
 40
0.8945485085
 40
0.9124840114
 40
0.9302902544
 40
0.94795586
 40
0.9654697582
 40
0.9828212563
 40
1.0
 40
1.0
 40
1.0
 40
1.0
 10
14.5995626196
 20
11.7859831102
 30
0.0
 10
14.5990306159
 20
11.784261546
 30
0.0
 10
14.5980148157
 20
11.7808022973
 30
0.0
 10
14.5966373611
 20
11.7755703895
 30
0.0
 10
14.5954062939
 20
11.770296159
 30
0.0
 10
14.5943219726
 20
11.7649810355
 30
0.0
 10
14.5933846536
 20
11.7596263994
 30
0.0
 10
14.5925946021
 20
11.7542336533
 30
0.0
 10
14.5919520014
 20
11.7488042066
 30
0.0
 10
14.5914570356
 20
11.7433394902
 30
0.0
 10
14.5911098156
 20
11.7378408866
 30
0.0
 10
14.5908432964
 20
11.7304477473
 30
0.0
 10
14.5908828239
 20
11.7211215753
 30
0.0
 10
14.5915223664
 20
11.7098478458
 30
0.0
 10
14.5927532523
 20
11.6984741685
 30
0.0
 10
14.594574055
 20
11.6870126859
 30
0.0
 10
14.5969827248
 20
11.675475277
 30
0.0
 10
14.5999765607
 20
11.6638741073
 30
0.0
 10
14.6029431848
 20
11.6542063132
 30
0.0
 10
14.6056010857
 20
11.6464541471
 30
0.0
 10
14.6084760648
 20
11.6386198533
 30
0.0
 10
14.6124338568
 20
11.6288078696
 30
0.0
 10
14.6177300148
 20
11.6170722219
 30
0.0
 10
14.6235892627
 20
11.6053331961
 30
0.0
 10
14.6300053833
 20
11.5936030928
 30
0.0
 10
14.6369716615
 20
11.5818940198
 30
0.0
 10
14.6444808027
 20
11.5702181146
 30
0.0
 10
14.6525249623
 20
11.5585874693
 30
0.0
 10
14.6610957461
 20
11.5470141362
 30
0.0
 10
14.6701842189
 20
11.5355101112
 30
0.0
 10
14.6797809125
 20
11.5240873228
 30
0.0
 10
14.6898758337
 20
11.5127576197
 30
0.0
 10
14.7004584747
 20
11.5015327579
 30
0.0
 10
14.7115178222
 20
11.4904243889
 30
0.0
 10
14.7230423686
 20
11.4794440468
 30
0.0
 10
14.7350201233
 20
11.4686031363
 30
0.0
 10
14.7474386249
 20
11.4579129205
 30
0.0
 10
14.7602849533
 20
11.4473845086
 30
0.0
 10
14.7735457433
 20
11.4370288441
 30
0.0
 10
14.7872071981
 20
11.4268566935
 30
0.0
 10
14.8012551036
 20
11.416878634
 30
0.0
 10
14.8156748426
 20
11.4071050431
 30
0.0
 10
14.8304514108
 20
11.397546087
 30
0.0
 10
14.8455694315
 20
11.3882117099
 30
0.0
 10
14.861013172
 20
11.3791116235
 30
0.0
 10
14.8767665601
 20
11.3702552966
 30
0.0
 10
14.8928132004
 20
11.3616519454
 30
0.0
 10
14.9091363917
 20
11.3533105232
 30
0.0
 10
14.9257191444
 20
11.3452397116
 30
0.0
 10
14.9425441982
 20
11.3374479107
 30
0.0
 10
14.9595940399
 20
11.3299432309
 30
0.0
 10
14.976850922
 20
11.3227334837
 30
0.0
 10
14.9942968811
 20
11.3158261742
 30
0.0
 10
15.0119137566
 20
11.3092284924
 30
0.0
 10
15.0296832098
 20
11.3029473065
 30
0.0
 10
15.0475867429
 20
11.2969891551
 30
0.0
 10
15.0656057184
 20
11.2913602407
 30
0.0
 10
15.0837213786
 20
11.2860664229
 30
0.0
 10
15.1019148652
 20
11.2811132126
 30
0.0
 10
15.1201672389
 20
11.2765057659
 30
0.0
 10
15.1384594994
 20
11.2722488792
 30
0.0
 10
15.1567726049
 20
11.2683469837
 30
0.0
 10
15.1750874926
 20
11.2648041412
 30
0.0
 10
15.1933850979
 20
11.2616240394
 30
0.0
 10
15.2116463749
 20
11.2588099888
 30
0.0
 10
15.2298523163
 20
11.2563649186
 30
0.0
 10
15.2479839721
 20
11.2542913743
 30
0.0
 10
15.2660224741
 20
11.2525915142
 30
0.0
 10
15.2839490389
 20
11.2512671093
 30
0.0
 10
15.3017450455
 20
11.2503195373
 30
0.0
 10
15.3193918586
 20
11.2497497885
 30
0.0
 10
15.3311058144
 20
11.249621567
 30
0.0
 10
15.3369333038
 20
11.249621567
 30
0.0
  0
SPLINE
  5
2E4
100
AcDbEntity
  8
02___PRT_ALL_AXES
100
AcDbSpline
 62
7
  6
CONTINUOUS
 70
0
 71
3
 72
46
 73
42
 74
0
 42
0.0000001
 43
0.0000001
 44
0.0000000001
 40
0.0
 40
0.0
 40
0.0
 40
0.0
 40
0.0123992807
 40
0.0248057419
 40
0.0372265429
 40
0.0496688033
 40
0.06213958
 40
0.0746458518
 40
0.0871944955
 40
0.0997922745
 40
0.1124458139
 40
0.1251615939
 40
0.1379459249
 40
0.1508049455
 40
0.1767683032
 40
0.203099192
 40
0.2298392362
 40
0.2570263764
 40
0.2846947449
 40
0.3128746083
 40
0.3271656229
 40
0.3415940889
 40
0.3708723311
 40
0.400729908
 40
0.4311820542
 40
0.4622405204
 40
0.493913722
 40
0.526206895
 40
0.5591222571
 40
0.5926591686
 40
0.6268142923
 40
0.6615817488
 40
0.6969532678
 40
0.7329183336
 40
0.7694643248
 40
0.8065766473
 40
0.8442388639
 40
0.8824328097
 40
0.9211387274
 40
0.9603353291
 40
1.0
 40
1.0
 40
1.0
 40
1.0
 10
15.717405004
 20
11.4405436867
 30
0.0
 10
15.7168508494
 20
11.4387504425
 30
0.0
 10
15.7156894694
 20
11.4351789723
 30
0.0
 10
15.7137900672
 20
11.4298728266
 30
0.0
 10
15.7117336559
 20
11.4246184955
 30
0.0
 10
15.7095208197
 20
11.4194175399
 30
0.0
 10
15.707152204
 20
11.414271411
 30
0.0
 10
15.7046284657
 20
11.4091815825
 30
0.0
 10
15.7019503428
 20
11.4041494866
 30
0.0
 10
15.6991185811
 20
11.3991765611
 30
0.0
 10
15.6961340032
 20
11.3942642012
 30
0.0
 10
15.6929974517
 20
11.389413819
 30
0.0
 10
15.689709802
 20
11.3846267383
 30
0.0
 10
15.6851117105
 20
11.3783104605
 30
0.0
 10
15.6789833678
 20
11.3705765526
 30
0.0
 10
15.67106474
 20
11.361601572
 30
0.0
 10
15.6625667629
 20
11.3529121239
 30
0.0
 10
15.6534993199
 20
11.3445181251
 30
0.0
 10
15.6438728849
 20
11.336428985
 30
0.0
 10
15.635433821
 20
11.3299799082
 30
0.0
 10
15.6284194918
 20
11.3249805782
 30
0.0
 10
15.6211599206
 20
11.3200424278
 30
0.0
 10
15.6117516757
 20
11.3140785578
 30
0.0
 10
15.6000047581
 20
11.307295228
 30
0.0
 10
15.5877594331
 20
11.3008580826
 30
0.0
 10
15.5750296826
 20
11.2947743831
 30
0.0
 10
15.5618298443
 20
11.2890508815
 30
0.0
 10
15.5481748265
 20
11.2836939662
 30
0.0
 10
15.5340800311
 20
11.2787096127
 30
0.0
 10
15.5195613558
 20
11.2741033879
 30
0.0
 10
15.5046351728
 20
11.2698804399
 30
0.0
 10
15.4893183133
 20
11.2660454925
 30
0.0
 10
15.4736280493
 20
11.2626028384
 30
0.0
 10
15.4575820747
 20
11.2595563338
 30
0.0
 10
15.4411984861
 20
11.2569093933
 30
0.0
 10
15.4244957634
 20
11.2546649847
 30
0.0
 10
15.4074927462
 20
11.252825626
 30
0.0
 10
15.390208624
 20
11.2513933801
 30
0.0
 10
15.3726628702
 20
11.2503698551
 30
0.0
 10
15.3548753998
 20
11.2497561969
 30
0.0
 10
15.3429374615
 20
11.249621567
 30
0.0
 10
15.3369333038
 20
11.249621567
 30
0.0
  0
SPLINE
  5
2E5
100
AcDbEntity
  8
LAYER_CHAMFER_FEAT
100
AcDbSpline
 62
7
  6
CONTINUOUS
 70
0
 71
3
 72
15
 73
11
 74
0
 42
0.0000001
 43
0.0000001
 44
0.0000000001
 40
0.0
 40
0.0
 40
0.0
 40
0.0
 40
0.1317638601
 40
0.2617725488
 40
0.3899186996
 40
0.5161210406
 40
0.6402989362
 40
0.7623789528
 40
0.8822975205
 40
1.0
 40
1.0
 40
1.0
 40
1.0
 10
15.0598218331
 20
11.8143153726
 30
0.0
 10
15.0560873875
 20
11.8143153726
 30
0.0
 10
15.0486678636
 20
11.8142212279
 30
0.0
 10
15.0376239197
 20
11.813791542
 30
0.0
 10
15.0267527144
 20
11.813074809
 30
0.0
 10
15.0160700742
 20
11.8120720915
 30
0.0
 10
15.0055911065
 20
11.8107848249
 30
0.0
 10
14.9953307792
 20
11.8092148119
 30
0.0
 10
14.9853039157
 20
11.8073642946
 30
0.0
 10
14.9787219539
 20
11.8059317705
 30
0.0
 10
14.9754746305
 20
11.8051680673
 30
0.0
  0
SPLINE
  5
2E6
100
AcDbEntity
  8
LAYER_CHAMFER_FEAT
100
AcDbSpline
 62
7
  6
CONTINUOUS
 70
0
 71
3
 72
39
 73
35
 74
0
 42
0.0000001
 43
0.0000001
 44
0.0000000001
 40
0.0
 40
0.0
 40
0.0
 40
0.0
 40
0.0305398276
 40
0.0614592177
 40
0.09272646
 40
0.1243126296
 40
0.1561858779
 40
0.1883135656
 40
0.220662363
 40
0.2531980732
 40
0.2858858946
 40
0.318690537
 40
0.351576321
 40
0.3845072986
 40
0.4174473805
 40
0.4503604477
 40
0.4832104638
 40
0.5159616034
 40
0.5485783636
 40
0.5810256747
 40
0.6132690389
 40
0.6452746463
 40
0.6770094844
 40
0.7084414828
 40
0.7395396546
 40
0.7702742047
 40
0.8006166747
 40
0.8305401226
 40
0.8600192444
 40
0.8890305203
 40
0.9175524224
 40
0.9455655835
 40
0.9730529495
 40
1.0
 40
1.0
 40
1.0
 40
1.0
 10
15.0598218331
 20
11.8143153726
 30
0.0
 10
15.0638592677
 20
11.8143153726
 30
0.0
 10
15.071984715
 20
11.8142039148
 30
0.0
 10
15.0842347567
 20
11.813710357
 30
0.0
 10
15.0966059489
 20
11.8128900579
 30
0.0
 10
15.1090778357
 20
11.8117444248
 30
0.0
 10
15.121630273
 20
11.8102752912
 30
0.0
 10
15.1342427611
 20
11.8084850677
 30
0.0
 10
15.1468947483
 20
11.8063766721
 30
0.0
 10
15.159565621
 20
11.803953522
 30
0.0
 10
15.1722347302
 20
11.8012195867
 30
0.0
 10
15.1848814294
 20
11.7981793224
 30
0.0
 10
15.197485103
 20
11.794837666
 30
0.0
 10
15.2100252112
 20
11.791200074
 30
0.0
 10
15.2224813186
 20
11.7872724847
 30
0.0
 10
15.2348331201
 20
11.7830612879
 30
0.0
 10
15.2470604815
 20
11.7785733408
 30
0.0
 10
15.2591434807
 20
11.7738159747
 30
0.0
 10
15.2710624246
 20
11.7687969403
 30
0.0
 10
15.2827978811
 20
11.7635244005
 30
0.0
 10
15.2943307319
 20
11.7580069616
 30
0.0
 10
15.3056421871
 20
11.7522536198
 30
0.0
 10
15.3167138076
 20
11.7462737348
 30
0.0
 10
15.3275275536
 20
11.7400770487
 30
0.0
 10
15.3380658161
 20
11.7336736684
 30
0.0
 10
15.3483114243
 20
11.7270740164
 30
0.0
 10
15.3582476793
 20
11.7202888249
 30
0.0
 10
15.3678584087
 20
11.7133291542
 30
0.0
 10
15.3771279626
 20
11.7062063325
 30
0.0
 10
15.3860412352
 20
11.6989319286
 30
0.0
 10
15.3945837077
 20
11.6915177877
 30
0.0
 10
15.4027415134
 20
11.6839759324
 30
0.0
 10
15.4105012399
 20
11.6763187432
 30
0.0
 10
15.4154507035
 20
11.6710923835
 30
0.0
 10
15.4178538476
 20
11.668462549
 30
0.0
  0
SPLINE
  5
2E7
100
AcDbEntity
  8
LAYER_FEATURE
100
AcDbSpline
 62
7
  6
CONTINUOUS
 70
0
 71
3
 72
50
 73
46
 74
0
 42
0.0000001
 43
0.0000001
 44
0.0000000001
 40
0.0
 40
0.0
 40
0.0
 40
0.0
 40
0.0396641793
 40
0.0788606661
 40
0.1175661307
 40
0.1557597858
 40
0.1934216622
 40
0.2305336657
 40
0.2670793388
 40
0.3030440904
 40
0.3384152998
 40
0.3731824522
 40
0.4073372782
 40
0.4408738985
 40
0.4737889752
 40
0.5060818677
 40
0.5377547925
 40
0.5688129867
 40
0.5992648666
 40
0.6291221833
 40
0.6584001714
 40
0.6728285106
 40
0.6871194029
 40
0.7152990215
 40
0.7429671481
 40
0.7566197094
 40
0.7701560775
 40
0.7835806402
 40
0.7968980187
 40
0.8101130807
 40
0.8232309096
 40
0.8362568292
 40
0.8491963692
 40
0.8620552768
 40
0.874839498
 40
0.8875551653
 40
0.9002085963
 40
0.9128062638
 40
0.9253547993
 40
0.9378609614
 40
0.9503316297
 40
0.9627737816
 40
0.9751944743
 40
0.9876008274
 40
1.0
 40
1.0
 40
1.0
 40
1.0
 10
15.0094252711
 20
12.9165954335
 30
0.0
 10
14.9980328086
 20
12.9165954335
 30
0.0
 10
14.9753813128
 20
12.9163399743
 30
0.0
 10
14.9416307375
 20
12.9151756117
 30
0.0
 10
14.9083387514
 20
12.9132335203
 30
0.0
 10
14.8755432614
 20
12.9105159366
 30
0.0
 10
14.8432811166
 20
12.9070258675
 30
0.0
 10
14.8115887724
 20
12.9027672503
 30
0.0
 10
14.780501962
 20
12.8977448511
 30
0.0
 10
14.7500557545
 20
12.8919643026
 30
0.0
 10
14.7202844857
 20
12.8854320852
 30
0.0
 10
14.6912217277
 20
12.8781555171
 30
0.0
 10
14.6629002523
 20
12.8701427443
 30
0.0
 10
14.6353519953
 20
12.8614027296
 30
0.0
 10
14.6086080228
 20
12.8519452406
 30
0.0
 10
14.5826985008
 20
12.8417808385
 30
0.0
 10
14.5576526547
 20
12.8309208595
 30
0.0
 10
14.5334987712
 20
12.8193774278
 30
0.0
 10
14.5102640529
 20
12.8071633561
 30
0.0
 10
14.4879750313
 20
12.7942924226
 30
0.0
 10
14.4701234835
 20
12.7829763642
 30
0.0
 10
14.456348921
 20
12.7736065394
 30
0.0
 10
14.4430396537
 20
12.7641206196
 30
0.0
 10
14.42702723
 20
12.751884054
 30
0.0
 10
14.4117383683
 20
12.7390367011
 30
0.0
 10
14.400049007
 20
12.7284698522
 30
0.0
 10
14.3915882226
 20
12.7204374887
 30
0.0
 10
14.3833977117
 20
12.7122654849
 30
0.0
 10
14.3754797699
 20
12.7039560732
 30
0.0
 10
14.3678366204
 20
12.6955116482
 30
0.0
 10
14.3604704774
 20
12.6869345445
 30
0.0
 10
14.3533833913
 20
12.6782272247
 30
0.0
 10
14.3465774094
 20
12.6693921186
 30
0.0
 10
14.3400544552
 20
12.6604317346
 30
0.0
 10
14.3338163759
 20
12.6513486115
 30
0.0
 10
14.3278649802
 20
12.6421452966
 30
0.0
 10
14.3222019146
 20
12.6328244264
 30
0.0
 10
14.3168288502
 20
12.6233886046
 30
0.0
 10
14.3117472653
 20
12.6138405361
 30
0.0
 10
14.3069586467
 20
12.6041829057
 30
0.0
 10
14.302464344
 20
12.5944184593
 30
0.0
 10
14.2982656287
 20
12.5845499795
 30
0.0
 10
14.2943637251
 20
12.5745802212
 30
0.0
 10
14.2907597244
 20
12.5645121523
 30
0.0
 10
14.2885560828
 20
12.5577355156
 30
0.0
 10
14.2875046119
 20
12.5543329492
 30
0.0
  0
SPLINE
  5
2E8
100
AcDbEntity
  8
LAYER_FEATURE
100
AcDbSpline
 62
7
  6
CONTINUOUS
 70
0
 71
3
 72
50
 73
46
 74
0
 42
0.0000001
 43
0.0000001
 44
0.0000000001
 40
0.0
 40
0.0
 40
0.0
 40
0.0
 40
0.0396641793
 40
0.0788606661
 40
0.1175661307
 40
0.1557597858
 40
0.1934216622
 40
0.2305336657
 40
0.2670793388
 40
0.3030440904
 40
0.3384152998
 40
0.3731824522
 40
0.4073372782
 40
0.4408738985
 40
0.4737889752
 40
0.5060818677
 40
0.5377547925
 40
0.5688129867
 40
0.5992648666
 40
0.6291221833
 40
0.6584001714
 40
0.6728285106
 40
0.6871194029
 40
0.7152990215
 40
0.7429671481
 40
0.7566197094
 40
0.7701560775
 40
0.7835806402
 40
0.7968980187
 40
0.8101130807
 40
0.8232309096
 40
0.8362568292
 40
0.8491963692
 40
0.8620552768
 40
0.874839498
 40
0.8875551653
 40
0.9002085963
 40
0.9128062638
 40
0.9253547993
 40
0.9378609614
 40
0.9503316297
 40
0.9627737816
 40
0.9751944743
 40
0.9876008274
 40
1.0
 40
1.0
 40
1.0
 40
1.0
 10
15.2737616962
 20
13.7719884188
 30
0.0
 10
15.2623692338
 20
13.7719884188
 30
0.0
 10
15.2397177379
 20
13.7717329596
 30
0.0
 10
15.2059671627
 20
13.770568597
 30
0.0
 10
15.1726751765
 20
13.7686265056
 30
0.0
 10
15.1398796866
 20
13.7659089219
 30
0.0
 10
15.1076175417
 20
13.7624188528
 30
0.0
 10
15.0759251976
 20
13.7581602356
 30
0.0
 10
15.0448383872
 20
13.7531378364
 30
0.0
 10
15.0143921797
 20
13.7473572879
 30
0.0
 10
14.9846209108
 20
13.7408250705
 30
0.0
 10
14.9555581529
 20
13.7335485024
 30
0.0
 10
14.9272366774
 20
13.7255357296
 30
0.0
 10
14.8996884205
 20
13.7167957149
 30
0.0
 10
14.872944448
 20
13.7073382259
 30
0.0
 10
14.847034926
 20
13.6971738238
 30
0.0
 10
14.8219890799
 20
13.6863138448
 30
0.0
 10
14.7978351964
 20
13.6747704131
 30
0.0
 10
14.774600478
 20
13.6625563414
 30
0.0
 10
14.7523114565
 20
13.6496854079
 30
0.0
 10
14.7344599087
 20
13.6383693495
 30
0.0
 10
14.7206853462
 20
13.6289995247
 30
0.0
 10
14.7073760788
 20
13.619513605
 30
0.0
 10
14.6913636551
 20
13.6072770393
 30
0.0
 10
14.6760747934
 20
13.5944296864
 30
0.0
 10
14.6643854321
 20
13.5838628375
 30
0.0
 10
14.6559246478
 20
13.575830474
 30
0.0
 10
14.6477341369
 20
13.5676584702
 30
0.0
 10
14.6398161951
 20
13.5593490585
 30
0.0
 10
14.6321730456
 20
13.5509046335
 30
0.0
 10
14.6248069026
 20
13.5423275298
 30
0.0
 10
14.6177198164
 20
13.5336202101
 30
0.0
 10
14.6109138345
 20
13.5247851039
 30
0.0
 10
14.6043908804
 20
13.51582472
 30
0.0
 10
14.5981528011
 20
13.5067415968
 30
0.0
 10
14.5922014053
 20
13.4975382819
 30
0.0
 10
14.5865383398
 20
13.4882174117
 30
0.0
 10
14.5811652754
 20
13.4787815899
 30
0.0
 10
14.5760836905
 20
13.4692335214
 30
0.0
 10
14.5712950719
 20
13.459575891
 30
0.0
 10
14.5668007691
 20
13.4498114446
 30
0.0
 10
14.5626020538
 20
13.4399429648
 30
0.0
 10
14.5587001502
 20
13.4299732065
 30
0.0
 10
14.5550961495
 20
13.4199051376
 30
0.0
 10
14.552892508
 20
13.4131285009
 30
0.0
 10
14.5518410371
 20
13.4097259345
 30
0.0
  0
SPLINE
  5
2E9
100
AcDbEntity
  8
LAYER_FEATURE
100
AcDbSpline
 62
7
  6
CONTINUOUS
 70
0
 71
3
 72
80
 73
76
 74
0
 42
0.0000001
 43
0.0000001
 44
0.0000000001
 40
0.0
 40
0.0
 40
0.0
 40
0.0
 40
0.017178625
 40
0.0345301896
 40
0.0520439856
 40
0.0697095611
 40
0.0875157513
 40
0.105451206
 40
0.1235042502
 40
0.1416629551
 40
0.159915164
 40
0.1782485184
 40
0.1966504877
 40
0.2151083967
 40
0.2336094524
 40
0.2521407721
 40
0.2706894106
 40
0.2892423869
 40
0.3077867108
 40
0.3263094099
 40
0.3447975567
 40
0.3632382956
 40
0.3816188701
 40
0.3999266497
 40
0.4181491573
 40
0.4362740982
 40
0.4542893881
 40
0.4721831821
 40
0.4899439035
 40
0.5075602738
 40
0.5250213437
 40
0.5423165259
 40
0.5594356272
 40
0.5763688815
 40
0.5931069843
 40
0.6096411291
 40
0.6259630453
 40
0.6420650388
 40
0.6579400309
 40
0.673581601
 40
0.6889840307
 40
0.7041423508
 40
0.7190523912
 40
0.7337108317
 40
0.7481152531
 40
0.7622641923
 40
0.7761571984
 40
0.7897948916
 40
0.8031790229
 40
0.8163125314
 40
0.8291996012
 40
0.8418457167
 40
0.8542577138
 40
0.8603787793
 40
0.8664445248
 40
0.8784144197
 40
0.8901792221
 40
0.8959889949
 40
0.9017523402
 40
0.9131461931
 40
0.9243770779
 40
0.9299370835
 40
0.935462781
 40
0.9409564793
 40
0.9464205592
 40
0.9518574755
 40
0.9572697442
 40
0.9626599452
 40
0.9680307112
 40
0.9733847242
 40
0.9787247102
 40
0.9840534294
 40
0.9893736733
 40
0.9946882542
 40
1.0
 40
1.0
 40
1.0
 40
1.0
 10
15.0094252711
 20
12.9165954335
 30
0.0
 10
15.0204825121
 20
12.9165954335
 30
0.0
 10
15.0427090187
 20
12.9163521332
 30
0.0
 10
15.0761927071
 20
12.9152710856
 30
0.0
 10
15.109959537
 20
12.9134731113
 30
0.0
 10
15.1439740184
 20
12.9109601494
 30
0.0
 10
15.1782009282
 20
12.9077347726
 30
0.0
 10
15.2126045805
 20
12.903800357
 30
0.0
 10
15.2471491874
 20
12.8991609905
 30
0.0
 10
15.28179879
 20
12.893821508
 30
0.0
 10
15.3165173229
 20
12.8877874692
 30
0.0
 10
15.3512686483
 20
12.8810651547
 30
0.0
 10
15.3860165925
 20
12.8736615607
 30
0.0
 10
15.420724984
 20
12.86558439
 30
0.0
 10
15.4553576926
 20
12.856842053
 30
0.0
 10
15.4898786669
 20
12.847443653
 30
0.0
 10
15.524251971
 20
12.8373989741
 30
0.0
 10
15.5584418227
 20
12.8267184723
 30
0.0
 10
15.5924126297
 20
12.8154132634
 30
0.0
 10
15.6261290273
 20
12.8034951137
 30
0.0
 10
15.6595559184
 20
12.7909764336
 30
0.0
 10
15.6926585073
 20
12.7778702562
 30
0.0
 10
15.7254023357
 20
12.7641902246
 30
0.0
 10
15.7577533187
 20
12.749950578
 30
0.0
 10
15.7896777796
 20
12.7351661352
 30
0.0
 10
15.8211424884
 20
12.7198522852
 30
0.0
 10
15.8521146964
 20
12.7040249701
 30
0.0
 10
15.8825621679
 20
12.687700663
 30
0.0
 10
15.9124532134
 20
12.6708963522
 30
0.0
 10
15.9417567225
 20
12.6536295232
 30
0.0
 10
15.9704421964
 20
12.6359181395
 30
0.0
 10
15.9984797852
 20
12.6177806311
 30
0.0
 10
16.0258403147
 20
12.5992358684
 30
0.0
 10
16.0524953157
 20
12.580303141
 30
0.0
 10
16.0784170525
 20
12.5610021389
 30
0.0
 10
16.1035785521
 20
12.54135293
 30
0.0
 10
16.1279536344
 20
12.5213759414
 30
0.0
 10
16.1515169427
 20
12.501091941
 30
0.0
 10
16.1742439642
 20
12.4805220084
 30
0.0
 10
16.1961110541
 20
12.4596875143
 30
0.0
 10
16.2170954595
 20
12.4386100978
 30
0.0
 10
16.2371753415
 20
12.4173116416
 30
0.0
 10
16.2563298044
 20
12.3958142547
 30
0.0
 10
16.2745389134
 20
12.3741402456
 30
0.0
 10
16.291783709
 20
12.352312096
 30
0.0
 10
16.3080462248
 20
12.3303524395
 30
0.0
 10
16.3233095044
 20
12.3082840365
 30
0.0
 10
16.337557616
 20
12.2861297539
 30
0.0
 10
16.3507756794
 20
12.2639125377
 30
0.0
 10
16.3629498561
 20
12.2416554187
 30
0.0
 10
16.3740674062
 20
12.2193813701
 30
0.0
 10
16.3841165294
 20
12.1971137324
 30
0.0
 10
16.3916261902
 20
12.1784961204
 30
0.0
 10
16.3970812695
 20
12.1636310537
 30
0.0
 10
16.4021244748
 20
12.1489217933
 30
0.0
 10
16.407753412
 20
12.1305779543
 30
0.0
 10
16.4125070055
 20
12.1121575644
 30
0.0
 10
16.4157466797
 20
12.097488035
 30
0.0
 10
16.4185911329
 20
12.0829800643
 30
0.0
 10
16.4214592418
 20
12.0649264276
 30
0.0
 10
16.4234119869
 20
12.0468820294
 30
0.0
 10
16.4244071273
 20
12.0325508363
 30
0.0
 10
16.4248706182
 20
12.0218881083
 30
0.0
 10
16.4250535483
 20
12.0112786704
 30
0.0
 10
16.4249558297
 20
12.0007252174
 30
0.0
 10
16.4245775358
 20
11.9902305263
 30
0.0
 10
16.423918701
 20
11.9797973351
 30
0.0
 10
16.4229795293
 20
11.9694283718
 30
0.0
 10
16.4217602519
 20
11.9591263466
 30
0.0
 10
16.4202611565
 20
11.9488939589
 30
0.0
 10
16.4184826805
 20
11.9387338761
 30
0.0
 10
16.4164252258
 20
11.9286487745
 30
0.0
 10
16.4140893719
 20
11.9186412566
 30
0.0
 10
16.411475732
 20
11.9087140488
 30
0.0
 10
16.4095483155
 20
11.9021503466
 30
0.0
 10
16.4085388741
 20
11.8988837882
 30
0.0
  0
SPLINE
  5
2EA
100
AcDbEntity
  8
LAYER_FEATURE
100
AcDbSpline
 62
7
  6
CONTINUOUS
 70
0
 71
3
 72
80
 73
76
 74
0
 42
0.0000001
 43
0.0000001
 44
0.0000000001
 40
0.0
 40
0.0
 40
0.0
 40
0.0
 40
0.017178625
 40
0.0345301896
 40
0.0520439856
 40
0.0697095611
 40
0.0875157513
 40
0.105451206
 40
0.1235042502
 40
0.1416629551
 40
0.159915164
 40
0.1782485184
 40
0.1966504877
 40
0.2151083967
 40
0.2336094524
 40
0.2521407721
 40
0.2706894106
 40
0.2892423869
 40
0.3077867108
 40
0.3263094099
 40
0.3447975567
 40
0.3632382956
 40
0.3816188701
 40
0.3999266497
 40
0.4181491573
 40
0.4362740982
 40
0.4542893881
 40
0.4721831821
 40
0.4899439035
 40
0.5075602738
 40
0.5250213437
 40
0.5423165259
 40
0.5594356272
 40
0.5763688815
 40
0.5931069843
 40
0.6096411291
 40
0.6259630453
 40
0.6420650388
 40
0.6579400309
 40
0.673581601
 40
0.6889840307
 40
0.7041423508
 40
0.7190523912
 40
0.7337108317
 40
0.7481152531
 40
0.7622641923
 40
0.7761571984
 40
0.7897948916
 40
0.8031790229
 40
0.8163125314
 40
0.8291996012
 40
0.8418457167
 40
0.8542577138
 40
0.8603787793
 40
0.8664445248
 40
0.8784144197
 40
0.8901792221
 40
0.8959889949
 40
0.9017523402
 40
0.9131461931
 40
0.9243770779
 40
0.9299370835
 40
0.935462781
 40
0.9409564793
 40
0.9464205592
 40
0.9518574755
 40
0.9572697442
 40
0.9626599452
 40
0.9680307112
 40
0.9733847242
 40
0.9787247102
 40
0.9840534294
 40
0.9893736733
 40
0.9946882542
 40
1.0
 40
1.0
 40
1.0
 40
1.0
 10
15.2737616962
 20
13.7719884188
 30
0.0
 10
15.2848189373
 20
13.7719884188
 30
0.0
 10
15.3070454439
 20
13.7717451185
 30
0.0
 10
15.3405291322
 20
13.7706640709
 30
0.0
 10
15.3742959621
 20
13.7688660966
 30
0.0
 10
15.4083104436
 20
13.7663531348
 30
0.0
 10
15.4425373534
 20
13.7631277579
 30
0.0
 10
15.4769410056
 20
13.7591933424
 30
0.0
 10
15.5114856126
 20
13.7545539758
 30
0.0
 10
15.5461352151
 20
13.7492144933
 30
0.0
 10
15.5808537481
 20
13.7431804546
 30
0.0
 10
15.6156050735
 20
13.73645814
 30
0.0
 10
15.6503530177
 20
13.729054546
 30
0.0
 10
15.6850614092
 20
13.7209773754
 30
0.0
 10
15.7196941178
 20
13.7122350384
 30
0.0
 10
15.754215092
 20
13.7028366383
 30
0.0
 10
15.7885883962
 20
13.6927919594
 30
0.0
 10
15.8227782479
 20
13.6821114576
 30
0.0
 10
15.8567490548
 20
13.6708062487
 30
0.0
 10
15.8904654524
 20
13.658888099
 30
0.0
 10
15.9238923436
 20
13.6463694189
 30
0.0
 10
15.9569949324
 20
13.6332632415
 30
0.0
 10
15.9897387608
 20
13.61958321
 30
0.0
 10
16.0220897438
 20
13.6053435633
 30
0.0
 10
16.0540142048
 20
13.5905591205
 30
0.0
 10
16.0854789136
 20
13.5752452705
 30
0.0
 10
16.1164511216
 20
13.5594179554
 30
0.0
 10
16.1468985931
 20
13.5430936483
 30
0.0
 10
16.1767896386
 20
13.5262893375
 30
0.0
 10
16.2060931477
 20
13.5090225085
 30
0.0
 10
16.2347786216
 20
13.4913111248
 30
0.0
 10
16.2628162104
 20
13.4731736165
 30
0.0
 10
16.2901767399
 20
13.4546288537
 30
0.0
 10
16.3168317408
 20
13.4356961263
 30
0.0
 10
16.3427534777
 20
13.4163951242
 30
0.0
 10
16.3679149773
 20
13.3967459154
 30
0.0
 10
16.3922900595
 20
13.3767689268
 30
0.0
 10
16.4158533679
 20
13.3564849264
 30
0.0
 10
16.4385803894
 20
13.3359149938
 30
0.0
 10
16.4604474793
 20
13.3150804996
 30
0.0
 10
16.4814318847
 20
13.2940030831
 30
0.0
 10
16.5015117667
 20
13.2727046269
 30
0.0
 10
16.5206662296
 20
13.25120724
 30
0.0
 10
16.5388753386
 20
13.2295332309
 30
0.0
 10
16.5561201341
 20
13.2077050813
 30
0.0
 10
16.57238265
 20
13.1857454248
 30
0.0
 10
16.5876459296
 20
13.1636770218
 30
0.0
 10
16.6018940411
 20
13.1415227392
 30
0.0
 10
16.6151121046
 20
13.119305523
 30
0.0
 10
16.6272862813
 20
13.097048404
 30
0.0
 10
16.6384038314
 20
13.0747743555
 30
0.0
 10
16.6484529545
 20
13.0525067177
 30
0.0
 10
16.6559626153
 20
13.0338891057
 30
0.0
 10
16.6614176947
 20
13.019024039
 30
0.0
 10
16.6664608999
 20
13.0043147786
 30
0.0
 10
16.6720898372
 20
12.9859709396
 30
0.0
 10
16.6768434307
 20
12.9675505497
 30
0.0
 10
16.6800831049
 20
12.9528810203
 30
0.0
 10
16.682927558
 20
12.9383730496
 30
0.0
 10
16.6857956669
 20
12.9203194129
 30
0.0
 10
16.6877484121
 20
12.9022750148
 30
0.0
 10
16.6887435524
 20
12.8879438216
 30
0.0
 10
16.6892070434
 20
12.8772810936
 30
0.0
 10
16.6893899735
 20
12.8666716557
 30
0.0
 10
16.6892922548
 20
12.8561182027
 30
0.0
 10
16.6889139609
 20
12.8456235116
 30
0.0
 10
16.6882551262
 20
12.8351903204
 30
0.0
 10
16.6873159544
 20
12.8248213572
 30
0.0
 10
16.686096677
 20
12.8145193319
 30
0.0
 10
16.6845975816
 20
12.8042869442
 30
0.0
 10
16.6828191056
 20
12.7941268614
 30
0.0
 10
16.6807616509
 20
12.7840417598
 30
0.0
 10
16.6784257971
 20
12.7740342419
 30
0.0
 10
16.6758121571
 20
12.7641070341
 30
0.0
 10
16.6738847406
 20
12.757543332
 30
0.0
 10
16.6728752993
 20
12.7542767735
 30
0.0
  0
SPLINE
  5
2EB
100
AcDbEntity
  8
LAYER_CUT_FEAT
100
AcDbSpline
 62
7
  6
CONTINUOUS
 70
0
 71
3
 72
81
 73
77
 74
0
 42
0.0000001
 43
0.0000001
 44
0.0000000001
 40
0.0
 40
0.0
 40
0.0
 40
0.0
 40
0.0053540897
 40
0.0107128684
 40
0.0160810057
 40
0.0214631295
 40
0.0268638099
 40
0.0322875356
 40
0.0377387034
 40
0.0432215925
 40
0.04874036
 40
0.0542990163
 40
0.059901424
 40
0.0655512775
 40
0.0712521022
 40
0.0770072422
 40
0.0828198563
 40
0.0886929157
 40
0.1006300216
 40
0.1128397888
 40
0.119052842
 40
0.1253400984
 40
0.131703174
 40
0.1381435135
 40
0.1512598742
 40
0.1646981609
 40
0.178463652
 40
0.1925590999
 40
0.2069848898
 40
0.2217391984
 40
0.2368181487
 40
0.2522159584
 40
0.2679250832
 40
0.283936351
 40
0.3002390904
 40
0.3168212512
 40
0.3336695185
 40
0.3507694204
 40
0.3681054313
 40
0.3856610684
 40
0.4034189856
 40
0.4213610626
 40
0.4394684907
 40
0.4577218562
 40
0.4761012206
 40
0.4945862
 40
0.5131560411
 40
0.5317896975
 40
0.550465904
 40
0.5691632504
 40
0.5878602547
 40
0.6065354358
 40
0.6251673871
 40
0.6437348493
 40
0.6622167843
 40
0.6805924495
 40
0.6988414738
 40
0.7169439344
 40
0.7348804355
 40
0.7526321889
 40
0.7701810974
 40
0.7875098409
 40
0.8046019658
 40
0.8214419783
 40
0.8380154419
 40
0.8543090803
 40
0.8703108854
 40
0.8860102317
 40
0.9013979973
 40
0.9164666914
 40
0.9312105919
 40
0.94562588
 40
0.9597108132
 40
0.9734658154
 40
0.9868937932
 40
1.0
 40
1.0
 40
1.0
 40
1.0
 10
14.6820914387
 20
12.3680365676
 30
0.0
 10
14.6828814452
 20
12.3705930185
 30
0.0
 10
14.6845547087
 20
12.3756800826
 30
0.0
 10
14.6873402248
 20
12.3832202353
 30
0.0
 10
14.6904007125
 20
12.3906682845
 30
0.0
 10
14.6937347536
 20
12.398020916
 30
0.0
 10
14.6973409769
 20
12.4052749728
 30
0.0
 10
14.7012177508
 20
12.4124273616
 30
0.0
 10
14.7053634636
 20
12.4194749761
 30
0.0
 10
14.7097762549
 20
12.4264148313
 30
0.0
 10
14.7144542735
 20
12.4332439147
 30
0.0
 10
14.7193954443
 20
12.4399593384
 30
0.0
 10
14.7245976735
 20
12.4465581993
 30
0.0
 10
14.7300586821
 20
12.4530377019
 30
0.0
 10
14.7357761387
 20
12.4593950666
 30
0.0
 10
14.7417475533
 20
12.4656275768
 30
0.0
 10
14.7479704152
 20
12.4717326271
 30
0.0
 10
14.756645542
 20
12.4797420246
 30
0.0
 10
14.7681199739
 20
12.4894213801
 30
0.0
 10
14.7802607728
 20
12.4985348129
 30
0.0
 10
14.7904295815
 20
12.5055435448
 30
0.0
 10
14.7983315451
 20
12.5106864928
 30
0.0
 10
14.8064606039
 20
12.5156827799
 30
0.0
 10
14.8176651296
 20
12.5221852847
 30
0.0
 10
14.8322309153
 20
12.529929319
 30
0.0
 10
14.8504533578
 20
12.5385460638
 30
0.0
 10
14.8694938974
 20
12.5465285427
 30
0.0
 10
14.8893197451
 20
12.5538632038
 30
0.0
 10
14.9098971905
 20
12.5605377876
 30
0.0
 10
14.9311911436
 20
12.5665410621
 30
0.0
 10
14.953165328
 20
12.5718629261
 30
0.0
 10
14.9757822982
 20
12.5764944087
 30
0.0
 10
14.9990035108
 20
12.5804276948
 30
0.0
 10
15.0227893848
 20
12.5836561406
 30
0.0
 10
15.0470993685
 20
12.5861742891
 30
0.0
 10
15.0718920076
 20
12.5879778824
 30
0.0
 10
15.0971250157
 20
12.5890638719
 30
0.0
 10
15.1227553468
 20
12.5894304256
 30
0.0
 10
15.1487392685
 20
12.5890769334
 30
0.0
 10
15.1750324378
 20
12.5880040098
 30
0.0
 10
15.201589977
 20
12.586213494
 30
0.0
 10
15.2283665508
 20
12.5837084478
 30
0.0
 10
15.2553164449
 20
12.5804931517
 30
0.0
 10
15.2823936443
 20
12.5765730978
 30
0.0
 10
15.3095519127
 20
12.571954981
 30
0.0
 10
15.3367448717
 20
12.5666466881
 30
0.0
 10
15.3639260815
 20
12.5606572851
 30
0.0
 10
15.3910491198
 20
12.5539970012
 30
0.0
 10
15.4180676627
 20
12.5466772119
 30
0.0
 10
15.4449355633
 20
12.5387104191
 30
0.0
 10
15.471606932
 20
12.53011023
 30
0.0
 10
15.4980362146
 20
12.5208913337
 30
0.0
 10
15.5241782711
 20
12.5110694758
 30
0.0
 10
15.5499884528
 20
12.5006614312
 30
0.0
 10
15.5754226794
 20
12.4896849756
 30
0.0
 10
15.6004375144
 20
12.4781588541
 30
0.0
 10
15.6249902397
 20
12.466102749
 30
0.0
 10
15.649038929
 20
12.4535372459
 30
0.0
 10
15.6725425194
 20
12.4404837973
 30
0.0
 10
15.6954608823
 20
12.4269646856
 30
0.0
 10
15.7177548915
 20
12.4130029837
 30
0.0
 10
15.7393864906
 20
12.3986225151
 30
0.0
 10
15.7603187578
 20
12.3838478116
 30
0.0
 10
15.7805159686
 20
12.3687040701
 30
0.0
 10
15.7999436562
 20
12.3532171076
 30
0.0
 10
15.8185686694
 20
12.3374133159
 30
0.0
 10
15.8363592281
 20
12.3213196137
 30
0.0
 10
15.8532849755
 20
12.3049633995
 30
0.0
 10
15.869317027
 20
12.2883725021
 30
0.0
 10
15.8844280187
 20
12.2715751303
 30
0.0
 10
15.898592141
 20
12.2545998279
 30
0.0
 10
15.9117852027
 20
12.2374754028
 30
0.0
 10
15.9239845928
 20
12.2202309566
 30
0.0
 10
15.9351695175
 20
12.2028955475
 30
0.0
 10
15.9453204272
 20
12.1854991536
 30
0.0
 10
15.9514606146
 20
12.1737388977
 30
0.0
 10
15.9543461227
 20
12.1678588505
 30
0.0
  0
SPLINE
  5
2EC
100
AcDbEntity
  8
02___PRT_ALL_AXES
100
AcDbSpline
 62
7
  6
CONTINUOUS
 70
0
 71
3
 72
23
 73
19
 74
0
 42
0.0000001
 43
0.0000001
 44
0.0000000001
 40
0.0
 40
0.0
 40
0.0
 40
0.0
 40
0.0659495712
 40
0.1313245773
 40
0.1961491732
 40
0.260449694
 40
0.3242548902
 40
0.3875935012
 40
0.4504931401
 40
0.5129791616
 40
0.5750738815
 40
0.6367961939
 40
0.6981615354
 40
0.7591821961
 40
0.8198679651
 40
0.8802271828
 40
0.9402679961
 40
1.0
 40
1.0
 40
1.0
 40
1.0
 10
15.1158335272
 20
12.4163516262
 30
0.0
 10
15.1197195143
 20
12.4163516262
 30
0.0
 10
15.1274602722
 20
12.4160936724
 30
0.0
 10
15.1389673716
 20
12.4149236253
 30
0.0
 10
15.1502716087
 20
12.4129812338
 30
0.0
 10
15.1613239122
 20
12.4102812536
 30
0.0
 10
15.172077666
 20
12.4068437976
 30
0.0
 10
15.1824881095
 20
12.4026936475
 30
0.0
 10
15.1925128504
 20
12.3978596254
 30
0.0
 10
15.2021118988
 20
12.3923738867
 30
0.0
 10
15.2112476463
 20
12.3862712714
 30
0.0
 10
15.2198847085
 20
12.3795887229
 30
0.0
 10
15.2279896933
 20
12.3723648188
 30
0.0
 10
15.2355309364
 20
12.3646393925
 30
0.0
 10
15.242478191
 20
12.356453373
 30
0.0
 10
15.2488025204
 20
12.347848374
 30
0.0
 10
15.2544756143
 20
12.3388677224
 30
0.0
 10
15.2578146377
 20
12.3326420309
 30
0.0
 10
15.2593651857
 20
12.329482353
 30
0.0
  0
SPLINE
  5
2ED
100
AcDbEntity
  8
02___PRT_ALL_AXES
100
AcDbSpline
 62
7
  6
CONTINUOUS
 70
0
 71
3
 72
46
 73
42
 74
0
 42
0.0000001
 43
0.0000001
 44
0.0000000001
 40
0.0
 40
0.0
 40
0.0
 40
0.0
 40
0.0396646709
 40
0.0788612726
 40
0.1175671903
 40
0.1557611361
 40
0.1934233527
 40
0.2305356752
 40
0.2670816664
 40
0.3030467322
 40
0.3384182512
 40
0.3731857077
 40
0.4073408314
 40
0.4408777429
 40
0.473793105
 40
0.506086278
 40
0.5377594796
 40
0.5688179458
 40
0.599270092
 40
0.6291276689
 40
0.6584059111
 40
0.6728343771
 40
0.6871253917
 40
0.7153052551
 40
0.7429736236
 40
0.7701607638
 40
0.796900808
 40
0.8232316968
 40
0.8491950545
 40
0.8620540751
 40
0.8748384061
 40
0.8875541861
 40
0.9002077255
 40
0.9128055045
 40
0.9253541482
 40
0.93786042
 40
0.9503311967
 40
0.9627734571
 40
0.9751942581
 40
0.9876007193
 40
1.0
 40
1.0
 40
1.0
 40
1.0
 10
14.9800343198
 20
11.9769052299
 30
0.0
 10
14.9740301621
 20
11.9769052299
 30
0.0
 10
14.9620922237
 20
11.9767706
 30
0.0
 10
14.9443047534
 20
11.9761569418
 30
0.0
 10
14.9267589996
 20
11.9751334168
 30
0.0
 10
14.9094748774
 20
11.973701171
 30
0.0
 10
14.8924718602
 20
11.9718618122
 30
0.0
 10
14.8757691374
 20
11.9696174036
 30
0.0
 10
14.8593855489
 20
11.9669704631
 30
0.0
 10
14.8433395743
 20
11.9639239585
 30
0.0
 10
14.8276493102
 20
11.9604813044
 30
0.0
 10
14.8123324508
 20
11.956646357
 30
0.0
 10
14.7974062678
 20
11.952423409
 30
0.0
 10
14.7828875924
 20
11.9478171842
 30
0.0
 10
14.7687927971
 20
11.9428328308
 30
0.0
 10
14.7551377793
 20
11.9374759155
 30
0.0
 10
14.7419379409
 20
11.9317524138
 30
0.0
 10
14.7292081905
 20
11.9256687143
 30
0.0
 10
14.7169628655
 20
11.9192315689
 30
0.0
 10
14.7052159479
 20
11.9124482391
 30
0.0
 10
14.695807703
 20
11.9064843691
 30
0.0
 10
14.6885481317
 20
11.9015462187
 30
0.0
 10
14.6815338026
 20
11.8965468887
 30
0.0
 10
14.6730947387
 20
11.8900978119
 30
0.0
 10
14.6634683037
 20
11.8820086718
 30
0.0
 10
14.6544008607
 20
11.8736146731
 30
0.0
 10
14.6459028835
 20
11.8649252249
 30
0.0
 10
14.6379842558
 20
11.8559502443
 30
0.0
 10
14.6318559131
 20
11.8482163364
 30
0.0
 10
14.6272578216
 20
11.8419000586
 30
0.0
 10
14.6239701719
 20
11.8371129779
 30
0.0
 10
14.6208336203
 20
11.8322625957
 30
0.0
 10
14.6178490425
 20
11.8273502359
 30
0.0
 10
14.6150172808
 20
11.8223773103
 30
0.0
 10
14.6123391579
 20
11.8173452144
 30
0.0
 10
14.6098154196
 20
11.8122553859
 30
0.0
 10
14.6074468039
 20
11.807109257
 30
0.0
 10
14.6052339677
 20
11.8019083015
 30
0.0
 10
14.6031775564
 20
11.7966539704
 30
0.0
 10
14.6012781542
 20
11.7913478246
 30
0.0
 10
14.6001167742
 20
11.7877763544
 30
0.0
 10
14.5995626196
 20
11.7859831102
 30
0.0
  0
SPLINE
  5
2EE
100
AcDbEntity
  8
LAYER_CHAMFER_FEAT
100
AcDbSpline
 62
7
  6
CONTINUOUS
 70
0
 71
3
 72
67
 73
63
 74
0
 42
0.0000001
 43
0.0000001
 44
0.0000000001
 40
0.0
 40
0.0
 40
0.0
 40
0.0
 40
0.0357308955
 40
0.0531878334
 40
0.0703689817
 40
0.0872736055
 40
0.1039018417
 40
0.120254815
 40
0.1363346173
 40
0.1676839632
 40
0.1829675878
 40
0.1979973495
 40
0.2273220665
 40
0.2416417041
 40
0.2557459598
 40
0.269647615
 40
0.283360703
 40
0.2969004881
 40
0.3102834159
 40
0.3235270472
 40
0.3366499766
 40
0.3496717195
 40
0.3626125953
 40
0.3754935726
 40
0.3883361197
 40
0.4011620218
 40
0.4139932084
 40
0.4268515614
 40
0.4397587357
 40
0.4527359806
 40
0.4658039694
 40
0.4789826542
 40
0.4922911168
 40
0.5057474719
 40
0.5193687451
 40
0.5331708292
 40
0.5471683891
 40
0.5613748707
 40
0.5758024262
 40
0.6053577781
 40
0.6205089267
 40
0.6359172217
 40
0.6515886599
 40
0.6675280379
 40
0.6837390925
 40
0.7002244392
 40
0.7169857269
 40
0.7340235697
 40
0.7513377091
 40
0.7689269385
 40
0.7867892704
 40
0.8049218583
 40
0.8233211601
 40
0.8419828387
 40
0.8609019464
 40
0.8800728805
 40
0.8994894736
 40
0.919144736
 40
0.9390312965
 40
0.9591419278
 40
0.9794685701
 40
1.0
 40
1.0
 40
1.0
 40
1.0
 10
15.4178538476
 20
11.668462549
 30
0.0
 10
15.4212051146
 20
11.6647951545
 30
0.0
 10
15.4260596072
 20
11.6592105299
 30
0.0
 10
15.4321747809
 20
11.6515719055
 30
0.0
 10
15.4364976686
 20
11.6458548477
 30
0.0
 10
15.440588673
 20
11.6401105436
 30
0.0
 10
15.4444443829
 20
11.6343436977
 30
0.0
 10
15.4480616734
 20
11.6285590042
 30
0.0
 10
15.4525244891
 20
11.6208943984
 30
0.0
 10
15.4565449937
 20
11.6131482366
 30
0.0
 10
15.4600880492
 20
11.6053393103
 30
0.0
 10
15.4632397017
 20
11.5976681543
 30
0.0
 10
15.4659192421
 20
11.5899525295
 30
0.0
 10
15.4680924479
 20
11.5822210959
 30
0.0
 10
15.469451193
 20
11.5764933773
 30
0.0
 10
15.4705502793
 20
11.5707961093
 30
0.0
 10
15.4713887714
 20
11.565133924
 30
0.0
 10
15.4719659179
 20
11.5595115935
 30
0.0
 10
15.4722811819
 20
11.5539338219
 30
0.0
 10
15.4723342547
 20
11.548405298
 30
0.0
 10
15.4721250467
 20
11.5429306758
 30
0.0
 10
15.4716536906
 20
11.5375145744
 30
0.0
 10
15.4709205564
 20
11.5321615711
 30
0.0
 10
15.4699262255
 20
11.5268761988
 30
0.0
 10
15.4686715338
 20
11.5216629337
 30
0.0
 10
15.4671575155
 20
11.5165262001
 30
0.0
 10
15.4653854722
 20
11.5114703462
 30
0.0
 10
15.4633568885
 20
11.5064996629
 30
0.0
 10
15.4610735239
 20
11.5016183434
 30
0.0
 10
15.4585373043
 20
11.4968305225
 30
0.0
 10
15.4557504325
 20
11.4921402153
 30
0.0
 10
15.4527152606
 20
11.4875513817
 30
0.0
 10
15.4494344166
 20
11.4830678417
 30
0.0
 10
15.4459106619
 20
11.4786933672
 30
0.0
 10
15.4421470315
 20
11.4744315733
 30
0.0
 10
15.4381466745
 20
11.4702860308
 30
0.0
 10
15.4339130392
 20
11.4662601606
 30
0.0
 10
15.4294495578
 20
11.4623572598
 30
0.0
 10
15.4231470545
 20
11.4572814593
 30
0.0
 10
15.416441321
 20
11.4525076189
 30
0.0
 10
15.4093764796
 20
11.4480389129
 30
0.0
 10
15.4038242172
 20
11.4447972451
 30
0.0
 10
15.3980675437
 20
11.4416964261
 30
0.0
 10
15.3921111275
 20
11.4387388413
 30
0.0
 10
15.3859599569
 20
11.4359270247
 30
0.0
 10
15.3796191731
 20
11.4332632277
 30
0.0
 10
15.3730940422
 20
11.4307497178
 30
0.0
 10
15.3663900217
 20
11.4283885071
 30
0.0
 10
15.359512679
 20
11.4261816155
 30
0.0
 10
15.3524677612
 20
11.4241308021
 30
0.0
 10
15.3452611218
 20
11.4222378329
 30
0.0
 10
15.3378987779
 20
11.4205042078
 30
0.0
 10
15.330386852
 20
11.4189314333
 30
0.0
 10
15.3227316155
 20
11.4175207433
 30
0.0
 10
15.3149394349
 20
11.4162733756
 30
0.0
 10
15.3070168014
 20
11.4151902984
 30
0.0
 10
15.298970326
 20
11.4142724843
 30
0.0
 10
15.2908067486
 20
11.4135206173
 30
0.0
 10
15.2825328183
 20
11.4129353821
 30
0.0
 10
15.2741553096
 20
11.4125172184
 30
0.0
 10
15.265681468
 20
11.4122665465
 30
0.0
 10
15.2600004524
 20
11.4122114243
 30
0.0
 10
15.2571457905
 20
11.4122114243
 30
0.0
  0
SPLINE
  5
2EF
100
AcDbEntity
  8
02___PRT_ALL_AXES
100
AcDbSpline
 62
7
  6
CONTINUOUS
 70
0
 71
3
 72
23
 73
19
 74
0
 42
0.0000001
 43
0.0000001
 44
0.0000000001
 40
0.0
 40
0.0
 40
0.0
 40
0.0
 40
0.0513566425
 40
0.1043381375
 40
0.158959304
 40
0.2152229462
 40
0.2731120121
 40
0.3325950805
 40
0.3936266859
 40
0.4561489482
 40
0.5200930789
 40
0.5853807104
 40
0.6519251823
 40
0.7196325654
 40
0.7884024997
 40
0.8581288493
 40
0.9287001716
 40
1.0
 40
1.0
 40
1.0
 40
1.0
 10
15.8331037007
 20
12.0527097948
 30
0.0
 10
15.8341292571
 20
12.0506199306
 30
0.0
 10
15.8360855261
 20
12.0463105502
 30
0.0
 10
15.8386964965
 20
12.0395913106
 30
0.0
 10
15.8410247368
 20
12.0325344115
 30
0.0
 10
15.8430673153
 20
12.0251589137
 30
0.0
 10
15.8448232754
 20
12.0174840074
 30
0.0
 10
15.8462934695
 20
12.0095296672
 30
0.0
 10
15.8474805154
 20
12.0013161652
 30
0.0
 10
15.8483886409
 20
11.9928639855
 30
0.0
 10
15.8490235685
 20
11.9841936599
 30
0.0
 10
15.8493923725
 20
11.9753256446
 30
0.0
 10
15.8495033795
 20
11.9662802262
 30
0.0
 10
15.8493659986
 20
11.9570774504
 30
0.0
 10
15.8489905671
 20
11.9477370946
 30
0.0
 10
15.8483882282
 20
11.9382786458
 30
0.0
 10
15.8475708398
 20
11.9287213892
 30
0.0
 10
15.8468939256
 20
11.9223257819
 30
0.0
 10
15.8465239287
 20
11.9191150899
 30
0.0
  0
SPLINE
  5
2F0
100
AcDbEntity
  8
02___PRT_ALL_AXES
100
AcDbSpline
 62
7
  6
CONTINUOUS
 70
0
 71
3
 72
37
 73
33
 74
0
 42
0.0000001
 43
0.0000001
 44
0.0000000001
 40
0.0
 40
0.0
 40
0.0
 40
0.0
 40
0.1000337836
 40
0.1948522472
 40
0.2402756183
 40
0.2843614014
 40
0.3271027218
 40
0.3684937837
 40
0.4085307941
 40
0.4472128267
 40
0.4845404246
 40
0.5205166076
 40
0.5551475764
 40
0.5884417153
 40
0.620410649
 40
0.6510699756
 40
0.6804387129
 40
0.708540429
 40
0.7354041639
 40
0.7610644298
 40
0.7855625201
 40
0.8089477421
 40
0.8312780043
 40
0.852621279
 40
0.8730569586
 40
0.8926766315
 40
0.9115849932
 40
0.9299001464
 40
0.9477530238
 40
0.9652858724
 40
0.9826495166
 40
1.0
 40
1.0
 40
1.0
 40
1.0
 10
15.8000005105
 20
11.7281355958
 30
0.0
 10
15.7993536496
 20
11.7263774331
 30
0.0
 10
15.7980715394
 20
11.7229608437
 30
0.0
 10
15.7964260614
 20
11.7187724876
 30
0.0
 10
15.7951198171
 20
11.7155771268
 30
0.0
 10
15.7941601487
 20
11.7132938388
 30
0.0
 10
15.7932061479
 20
11.7110902252
 30
0.0
 10
15.7922574939
 20
11.7089670841
 30
0.0
 10
15.7913138354
 20
11.7069251638
 30
0.0
 10
15.7903747732
 20
11.704965171
 30
0.0
 10
15.78943989
 20
11.703087759
 30
0.0
 10
15.7885087375
 20
11.70129354
 30
0.0
 10
15.7875808361
 20
11.6995830868
 30
0.0
 10
15.7866556858
 20
11.6979569298
 30
0.0
 10
15.7857327625
 20
11.6964155644
 30
0.0
 10
15.7848115226
 20
11.6949594489
 30
0.0
 10
15.783891399
 20
11.6935890103
 30
0.0
 10
15.7829718065
 20
11.692304647
 30
0.0
 10
15.782052149
 20
11.6911067236
 30
0.0
 10
15.781131803
 20
11.689995587
 30
0.0
 10
15.7802101295
 20
11.6889715649
 30
0.0
 10
15.7792864849
 20
11.6880349572
 30
0.0
 10
15.7783601955
 20
11.6871860672
 30
0.0
 10
15.7774305783
 20
11.6864251989
 30
0.0
 10
15.7764969593
 20
11.6857526435
 30
0.0
 10
15.7755586518
 20
11.6851687277
 30
0.0
 10
15.7746149958
 20
11.6846738026
 30
0.0
 10
15.7736653854
 20
11.6842682097
 30
0.0
 10
15.7727092746
 20
11.6839523238
 30
0.0
 10
15.7717461684
 20
11.6837265028
 30
0.0
 10
15.7707757995
 20
11.6835910135
 30
0.0
 10
15.7701252801
 20
11.6835611238
 30
0.0
 10
15.7698003489
 20
11.6835611249
 30
0.0
  0
SPLINE
  5
2F1
100
AcDbEntity
  8
LAYER_FEATURE
100
AcDbSpline
 62
7
  6
CONTINUOUS
 70
0
 71
3
 72
21
 73
17
 74
0
 42
0.0000001
 43
0.0000001
 44
0.0000000001
 40
0.0
 40
0.0
 40
0.0
 40
0.0
 40
0.0594273259
 40
0.1190420815
 40
0.1788997408
 40
0.23905403
 40
0.2995566577
 40
0.3604569526
 40
0.4218015933
 40
0.4836344237
 40
0.5459960545
 40
0.6089239937
 40
0.6724524436
 40
0.7366118169
 40
0.8669040768
 40
1.0
 40
1.0
 40
1.0
 40
1.0
 10
14.8881845877
 20
12.1473939681
 30
0.0
 10
14.8876173954
 20
12.1489275683
 30
0.0
 10
14.8865505128
 20
12.1520257373
 30
0.0
 10
14.885157909
 20
12.1567486402
 30
0.0
 10
14.8839723824
 20
12.1615484205
 30
0.0
 10
14.8829952063
 20
12.1664197787
 30
0.0
 10
14.882227415
 20
12.1713575101
 30
0.0
 10
14.8816698304
 20
12.1763562961
 30
0.0
 10
14.8813229977
 20
12.1814107659
 30
0.0
 10
14.8811873205
 20
12.18651549
 30
0.0
 10
14.8812628621
 20
12.1916649933
 30
0.0
 10
14.8815495753
 20
12.1968537368
 30
0.0
 10
14.8820471036
 20
12.2020762308
 30
0.0
 10
14.882995587
 20
12.2091123794
 30
0.0
 10
14.8847138074
 20
12.2179685267
 30
0.0
 10
14.8866136815
 20
12.22496946
 30
0.0
 10
14.8876949058
 20
12.2284683032
 30
0.0
  0
SPLINE
  5
2F2
100
AcDbEntity
  8
02___PRT_ALL_AXES
100
AcDbSpline
 62
7
  6
CONTINUOUS
 70
0
 71
3
 72
61
 73
57
 74
0
 42
0.0000001
 43
0.0000001
 44
0.0000000001
 40
0.0
 40
0.0
 40
0.0
 40
0.0
 40
0.0105465102
 40
0.0211804606
 40
0.0319301132
 40
0.0428223375
 40
0.0538824081
 40
0.0651335537
 40
0.07659697
 40
0.0882914212
 40
0.1002332786
 40
0.1124364009
 40
0.1249119953
 40
0.1376688566
 40
0.150713082
 40
0.1640484227
 40
0.1776762299
 40
0.1915955309
 40
0.2058033563
 40
0.2202946309
 40
0.2350625873
 40
0.2500988173
 40
0.2653934546
 40
0.2809354878
 40
0.2967128072
 40
0.3127125304
 40
0.3289211042
 40
0.3453245265
 40
0.3619085108
 40
0.3786586156
 40
0.3955604045
 40
0.4125995507
 40
0.4297619636
 40
0.4470338237
 40
0.4818504667
 40
0.5169495972
 40
0.552237107
 40
0.5876273532
 40
0.6230431824
 40
0.6584157586
 40
0.693684171
 40
0.7287951245
 40
0.7637026406
 40
0.7983678569
 40
0.8156014485
 40
0.8327631293
 40
0.8498500395
 40
0.8668596928
 40
0.8837900729
 40
0.9006395662
 40
0.9174070207
 40
0.9340916929
 40
0.9506929853
 40
0.9672111402
 40
0.9836472517
 40
1.0
 40
1.0
 40
1.0
 40
1.0
 10
14.8877042865
 20
12.1470976745
 30
0.0
 10
14.8870863749
 20
12.1483568422
 30
0.0
 10
14.8859160898
 20
12.1509209739
 30
0.0
 10
14.8843682474
 20
12.1548774765
 30
0.0
 10
14.8830229345
 20
12.1589558683
 30
0.0
 10
14.8818809294
 20
12.1631544331
 30
0.0
 10
14.8809428481
 20
12.1674714093
 30
0.0
 10
14.8802091213
 20
12.1719046922
 30
0.0
 10
14.8796801154
 20
12.1764518841
 30
0.0
 10
14.8793559825
 20
12.1811102391
 30
0.0
 10
14.8792367438
 20
12.1858766419
 30
0.0
 10
14.8793222522
 20
12.1907475739
 30
0.0
 10
14.8796121233
 20
12.1957191093
 30
0.0
 10
14.8801058321
 20
12.2007868686
 30
0.0
 10
14.8808025642
 20
12.2059460442
 30
0.0
 10
14.881701317
 20
12.2111913661
 30
0.0
 10
14.8828008324
 20
12.2165171233
 30
0.0
 10
14.8840995797
 20
12.2219171831
 30
0.0
 10
14.8855958187
 20
12.2273849798
 30
0.0
 10
14.8872875126
 20
12.232913585
 30
0.0
 10
14.8891724109
 20
12.238495701
 30
0.0
 10
14.8912480232
 20
12.2441237203
 30
0.0
 10
14.893511625
 20
12.2497897696
 30
0.0
 10
14.895960319
 20
12.2554857302
 30
0.0
 10
14.8985910012
 20
12.2612033187
 30
0.0
 10
14.9014004282
 20
12.2669340982
 30
0.0
 10
14.9043852218
 20
12.2726695415
 30
0.0
 10
14.9075418857
 20
12.2784010701
 30
0.0
 10
14.9108668578
 20
12.2841200777
 30
0.0
 10
14.9143564931
 20
12.2898179833
 30
0.0
 10
14.9180071216
 20
12.2954862409
 30
0.0
 10
14.9218150355
 20
12.3011163625
 30
0.0
 10
14.9257765402
 20
12.3066999918
 30
0.0
 10
14.9312726732
 20
12.3140909314
 30
0.0
 10
14.9385032369
 20
12.3231611638
 30
0.0
 10
14.9477113916
 20
12.3337014279
 30
0.0
 10
14.9574452926
 20
12.343864604
 30
0.0
 10
14.9676754279
 20
12.3535897068
 30
0.0
 10
14.9783718001
 20
12.3628174217
 30
0.0
 10
14.9895031707
 20
12.3714897932
 30
0.0
 10
15.0010364274
 20
12.3795502934
 30
0.0
 10
15.0129360251
 20
12.3869440466
 30
0.0
 10
15.0251627786
 20
12.3936179833
 30
0.0
 10
15.0356103015
 20
12.3985478737
 30
0.0
 10
15.0440892812
 20
12.4020813735
 30
0.0
 10
15.0504895557
 20
12.4045167206
 30
0.0
 10
15.0569360831
 20
12.4067369589
 30
0.0
 10
15.0634220434
 20
12.4087373885
 30
0.0
 10
15.0699402872
 20
12.4105135528
 30
0.0
 10
15.0764834246
 20
12.4120614393
 30
0.0
 10
15.083043803
 20
12.4133775588
 30
0.0
 10
15.0896135544
 20
12.414458742
 30
0.0
 10
15.0961845909
 20
12.4153025496
 30
0.0
 10
15.102748823
 20
12.4159069042
 30
0.0
 10
15.1092976213
 20
12.4162702946
 30
0.0
 10
15.1136587275
 20
12.4163516262
 30
0.0
 10
15.1158335272
 20
12.4163516262
 30
0.0
  0
SPLINE
  5
2F3
100
AcDbEntity
  8
LAYER_FEATURE
100
AcDbSpline
 62
7
  6
CONTINUOUS
 70
0
 71
3
 72
23
 73
19
 74
0
 42
0.0000001
 43
0.0000001
 44
0.0000000001
 40
0.0
 40
0.0
 40
0.0
 40
0.0
 40
0.0502086016
 40
0.1008394344
 40
0.1522987651
 40
0.2049672985
 40
0.2591737372
 40
0.315196209
 40
0.3732595647
 40
0.433532354
 40
0.496131164
 40
0.5611235818
 40
0.6285313792
 40
0.6983371674
 40
0.7704873076
 40
0.8448934732
 40
0.9214403169
 40
1.0
 40
1.0
 40
1.0
 40
1.0
 10
16.345748542
 20
12.713105851
 30
0.0
 10
16.3458250117
 20
12.7133533343
 30
0.0
 10
16.3459505934
 20
12.7138595275
 30
0.0
 10
16.3460533446
 20
12.7146400447
 30
0.0
 10
16.3460705691
 20
12.7154398204
 30
0.0
 10
16.3460023199
 20
12.7162552445
 30
0.0
 10
16.3458490598
 20
12.7170828763
 30
0.0
 10
16.3456116206
 20
12.7179192327
 30
0.0
 10
16.3452911131
 20
12.7187608524
 30
0.0
 10
16.3448890204
 20
12.7196043077
 30
0.0
 10
16.3444070807
 20
12.7204461596
 30
0.0
 10
16.3438473369
 20
12.7212829713
 30
0.0
 10
16.3432121714
 20
12.7221113523
 30
0.0
 10
16.3425042062
 20
12.7229278995
 30
0.0
 10
16.3417263972
 20
12.7237292651
 30
0.0
 10
16.3408819883
 20
12.7245121675
 30
0.0
 10
16.3399744526
 20
12.7252733737
 30
0.0
 10
16.3393375842
 20
12.7257583989
 30
0.0
 10
16.3390097896
 20
12.7259967532
 30
0.0
  0
LINE
  5
2F4
100
AcDbEntity
  8
LAYER_FEATURE
100
AcDbLine
 62
7
  6
CONTINUOUS
 10
16.3619663838
 20
12.8003187563
 11
16.3622768373
 21
12.8022827971
  0
SPLINE
  5
2F5
100
AcDbEntity
  8
LAYER_FEATURE
100
AcDbSpline
 62
7
  6
CONTINUOUS
 70
0
 71
3
 72
15
 73
11
 74
0
 42
0.0000001
 43
0.0000001
 44
0.0000000001
 40
0.0
 40
0.0
 40
0.0
 40
0.0
 40
0.1177073945
 40
0.2361730914
 40
0.3561324052
 40
0.4782722374
 40
0.6032150428
 40
0.7315226364
 40
0.8636753084
 40
1.0
 40
1.0
 40
1.0
 40
1.0
 10
16.3332625451
 20
12.9374636088
 30
0.0
 10
16.3333291578
 20
12.9376791574
 30
0.0
 10
16.333441568
 20
12.9381185347
 30
0.0
 10
16.333545462
 20
12.9387942039
 30
0.0
 10
16.3335845965
 20
12.9394852282
 30
0.0
 10
16.3335589096
 20
12.9401892329
 30
0.0
 10
16.3334685613
 20
12.9409039555
 30
0.0
 10
16.3333139262
 20
12.9416271487
 30
0.0
 10
16.3330955583
 20
12.942356401
 30
0.0
 10
16.3329110524
 20
12.9428373446
 30
0.0
 10
16.3328090233
 20
12.9430778912
 30
0.0
  0
SPLINE
  5
2F6
100
AcDbEntity
  8
LAYER_FEATURE
100
AcDbSpline
 62
7
  6
CONTINUOUS
 70
0
 71
3
 72
19
 73
15
 74
0
 42
0.0000001
 43
0.0000001
 44
0.0000000001
 40
0.0
 40
0.0
 40
0.0
 40
0.0
 40
0.0544979577
 40
0.1092310485
 40
0.1644292803
 40
0.2203131559
 40
0.277089394
 40
0.3349482456
 40
0.3940596578
 40
0.4545741235
 40
0.5802461356
 40
0.7127939146
 40
0.8526675157
 40
1.0
 40
1.0
 40
1.0
 40
1.0
 10
16.2448685836
 20
13.0763918615
 30
0.0
 10
16.2449230135
 20
13.0765679924
 30
0.0
 10
16.2450179329
 20
13.0769255724
 30
0.0
 10
16.2451172853
 20
13.0774734076
 30
0.0
 10
16.2451735187
 20
13.0780320665
 30
0.0
 10
16.245186535
 20
13.0786002785
 30
0.0
 10
16.2451563442
 20
13.0791768281
 30
0.0
 10
16.2450830147
 20
13.079760462
 30
0.0
 10
16.2449667742
 20
13.0803499636
 30
0.0
 10
16.244752227
 20
13.0811520488
 30
0.0
 10
16.2443737005
 20
13.0821647005
 30
0.0
 10
16.2437602975
 20
13.0833663538
 30
0.0
 10
16.2429876325
 20
13.0845602001
 30
0.0
 10
16.2423861145
 20
13.0853249512
 30
0.0
 10
16.2420623658
 20
13.0857038557
 30
0.0
  0
SPLINE
  5
2F7
100
AcDbEntity
  8
LAYER_FEATURE
100
AcDbSpline
 62
7
  6
CONTINUOUS
 70
0
 71
3
 72
12
 73
8
 74
0
 42
0.0000001
 43
0.0000001
 44
0.0000000001
 40
0.0
 40
0.0
 40
0.0
 40
0.0
 40
0.231888472
 40
0.3524627353
 40
0.4760880567
 40
0.7322902267
 40
1.0
 40
1.0
 40
1.0
 40
1.0
 10
16.0954341984
 20
13.1783530391
 30
0.0
 10
16.0957400807
 20
13.1778294631
 30
0.0
 10
16.0962466301
 20
13.1770572439
 30
0.0
 10
16.0969981577
 20
13.1760644277
 30
0.0
 10
16.0978325779
 20
13.175055944
 30
0.0
 10
16.0989926358
 20
13.1738199245
 30
0.0
 10
16.1000033597
 20
13.1728930955
 30
0.0
 10
16.1005350219
 20
13.1724376769
 30
0.0
  0
SPLINE
  5
2F8
100
AcDbEntity
  8
LAYER_FEATURE
100
AcDbSpline
 62
7
  6
CONTINUOUS
 70
0
 71
3
 72
23
 73
19
 74
0
 42
0.0000001
 43
0.0000001
 44
0.0000000001
 40
0.0
 40
0.0
 40
0.0
 40
0.0
 40
0.0503595572
 40
0.1011354025
 40
0.1527292411
 40
0.2055079999
 40
0.2597974393
 40
0.3158740259
 40
0.3739607478
 40
0.4342269235
 40
0.4967915426
 40
0.5617244967
 40
0.6290528079
 40
0.6987641987
 40
0.7708065078
 40
0.8451021633
 40
0.9215539865
 40
1.0
 40
1.0
 40
1.0
 40
1.0
 10
16.10394564
 20
13.2058483776
 30
0.0
 10
16.1040212303
 20
13.2060929897
 30
0.0
 10
16.1041456539
 20
13.2065931737
 30
0.0
 10
16.1042486707
 20
13.2073642724
 30
0.0
 10
16.1042681793
 20
13.2081543026
 30
0.0
 10
16.1042041217
 20
13.2089597677
 30
0.0
 10
16.1040569912
 20
13.2097773226
 30
0.0
 10
16.1038275393
 20
13.2106036095
 30
0.0
 10
16.1035168302
 20
13.2114352869
 30
0.0
 10
16.1031262732
 20
13.2122690427
 30
0.0
 10
16.1026574989
 20
13.2131015385
 30
0.0
 10
16.1021124868
 20
13.2139294753
 30
0.0
 10
16.1014934733
 20
13.2147495575
 30
0.0
 10
16.1008029685
 20
13.2155584804
 30
0.0
 10
16.1000438212
 20
13.216353038
 30
0.0
 10
16.099219036
 20
13.2171300542
 30
0.0
 10
16.0983320256
 20
13.2178863133
 30
0.0
 10
16.0977092207
 20
13.2183687733
 30
0.0
 10
16.0973886193
 20
13.218605983
 30
0.0
  0
SPLINE
  5
2F9
100
AcDbEntity
  8
02___PRT_ALL_AXES
100
AcDbSpline
 62
7
  6
CONTINUOUS
 70
0
 71
3
 72
46
 73
42
 74
0
 42
0.0000001
 43
0.0000001
 44
0.0000000001
 40
0.0
 40
0.0
 40
0.0
 40
0.0
 40
0.0123992809
 40
0.0248057417
 40
0.0372265433
 40
0.0496688029
 40
0.0621395805
 40
0.0746458516
 40
0.0871944957
 40
0.0997922748
 40
0.1124458135
 40
0.1251615943
 40
0.1379459248
 40
0.1508049455
 40
0.1767683023
 40
0.2030991908
 40
0.2298392362
 40
0.2570263777
 40
0.2846947465
 40
0.3128746091
 40
0.3271656243
 40
0.341594088
 40
0.3708723298
 40
0.4007299082
 40
0.4311820561
 40
0.4622405229
 40
0.4939137235
 40
0.5262068948
 40
0.5591222562
 40
0.5926591693
 40
0.6268142948
 40
0.6615817518
 40
0.69695327
 40
0.7329183338
 40
0.7694643244
 40
0.8065766505
 40
0.8442388555
 40
0.8824328507
 40
0.921138628
 40
0.9603355108
 40
1.0
 40
1.0
 40
1.0
 40
1.0
 10
14.7709455775
 20
12.340578562
 30
0.0
 10
14.7714997333
 20
12.3423718058
 30
0.0
 10
14.7726611161
 20
12.3459432749
 30
0.0
 10
14.7745605086
 20
12.3512494243
 30
0.0
 10
14.7766169329
 20
12.3565037501
 30
0.0
 10
14.7788297548
 20
12.3617047119
 30
0.0
 10
14.7811983835
 20
12.3668508348
 30
0.0
 10
14.7837221126
 20
12.3719406678
 30
0.0
 10
14.7864002402
 20
12.3769727612
 30
0.0
 10
14.7892320014
 20
12.3819456869
 30
0.0
 10
14.7922165763
 20
12.3868580487
 30
0.0
 10
14.7953531319
 20
12.3917084281
 30
0.0
 10
14.7986407784
 20
12.396495511
 30
0.0
 10
14.8032388717
 20
12.4028117873
 30
0.0
 10
14.8093672116
 20
12.4105456971
 30
0.0
 10
14.817285839
 20
12.4195206781
 30
0.0
 10
14.8257838178
 20
12.4282101251
 30
0.0
 10
14.8348512623
 20
12.4366041228
 30
0.0
 10
14.8444776979
 20
12.4446932621
 30
0.0
 10
14.8529167604
 20
12.4511423409
 30
0.0
 10
14.8599310905
 20
12.4561416689
 30
0.0
 10
14.8671906589
 20
12.4610798228
 30
0.0
 10
14.8765989042
 20
12.467043692
 30
0.0
 10
14.8883458227
 20
12.4738270209
 30
0.0
 10
14.9005911491
 20
12.4802641649
 30
0.0
 10
14.9133208999
 20
12.4863478639
 30
0.0
 10
14.9265207376
 20
12.4920713662
 30
0.0
 10
14.9401757542
 20
12.4974282828
 30
0.0
 10
14.9542705491
 20
12.5024126372
 30
0.0
 10
14.9687892253
 20
12.5070188606
 30
0.0
 10
14.9837154093
 20
12.5112418072
 30
0.0
 10
14.999032269
 20
12.5150767541
 30
0.0
 10
15.0147225325
 20
12.5185194087
 30
0.0
 10
15.0307685063
 20
12.5215659147
 30
0.0
 10
15.0471520948
 20
12.5242128564
 30
0.0
 10
15.0638548165
 20
12.5264572627
 30
0.0
 10
15.0808578399
 20
12.5282966232
 30
0.0
 10
15.0981419469
 20
12.5297288617
 30
0.0
 10
15.1156877289
 20
12.5307523981
 30
0.0
 10
15.1334751933
 20
12.531366047
 30
0.0
 10
15.1454131466
 20
12.5315006819
 30
0.0
 10
15.1514172768
 20
12.5315006819
 30
0.0
  0
SPLINE
  5
2FA
100
AcDbEntity
  8
LAYER_CHAMFER_FEAT
100
AcDbSpline
 62
7
  6
CONTINUOUS
 70
0
 71
3
 72
57
 73
53
 74
0
 42
0.0000001
 43
0.0000001
 44
0.0000000001
 40
0.0
 40
0.0
 40
0.0
 40
0.0
 40
0.0106256188
 40
0.0212738805
 40
0.0319671934
 40
0.0427274955
 40
0.0535760414
 40
0.0645332173
 40
0.0756183493
 40
0.0868496044
 40
0.0982438224
 40
0.1098165057
 40
0.1215816863
 40
0.1335519749
 40
0.1457384821
 40
0.1581508834
 40
0.1707974111
 40
0.1836848961
 40
0.1968188372
 40
0.2102033979
 40
0.2238415429
 40
0.2377349928
 40
0.251884399
 40
0.2662892827
 40
0.2809482055
 40
0.2958587289
 40
0.3110175433
 40
0.3264204744
 40
0.3420625499
 40
0.3579380628
 40
0.3740405751
 40
0.3903630291
 40
0.4068977052
 40
0.423636358
 40
0.4576877711
 40
0.4924432263
 40
0.5278196395
 40
0.5637281441
 40
0.6000750906
 40
0.6367630002
 40
0.6736914816
 40
0.710758122
 40
0.7478593594
 40
0.7848913463
 40
0.8217508065
 40
0.8583359131
 40
0.8945471187
 40
0.9302882157
 40
0.9479541489
 40
0.9654686376
 40
0.982821418
 40
1.0
 40
1.0
 40
1.0
 40
1.0
 10
14.8999838746
 20
11.729348325
 30
0.0
 10
14.8994722514
 20
11.7276926957
 30
0.0
 10
14.8985412274
 20
11.7243482436
 30
0.0
 10
14.897427417
 20
11.7192525791
 30
0.0
 10
14.8965967576
 20
11.7140807886
 30
0.0
 10
14.8960501688
 20
11.7088385672
 30
0.0
 10
14.8957881279
 20
11.7035314125
 30
0.0
 10
14.8958109133
 20
11.6981649468
 30
0.0
 10
14.8961183575
 20
11.6927448166
 30
0.0
 10
14.8967101548
 20
11.6872767245
 30
0.0
 10
14.8975855181
 20
11.6817663846
 30
0.0
 10
14.8987435499
 20
11.6762195696
 30
0.0
 10
14.9001828906
 20
11.6706420412
 30
0.0
 10
14.9019020382
 20
11.6650396183
 30
0.0
 10
14.9038990974
 20
11.6594181045
 30
0.0
 10
14.9061719587
 20
11.6537833382
 30
0.0
 10
14.9087182093
 20
11.6481411604
 30
0.0
 10
14.9115351415
 20
11.6424974043
 30
0.0
 10
14.9146198288
 20
11.6368579365
 30
0.0
 10
14.9179689855
 20
11.6312285652
 30
0.0
 10
14.9215791655
 20
11.6256151607
 30
0.0
 10
14.9254465345
 20
11.6200234924
 30
0.0
 10
14.9295671174
 20
11.6144594015
 30
0.0
 10
14.9339365645
 20
11.6089286106
 30
0.0
 10
14.9385503673
 20
11.6034368929
 30
0.0
 10
14.9434036905
 20
11.597989916
 30
0.0
 10
14.9484914994
 20
11.5925933488
 30
0.0
 10
14.9538084956
 20
11.5872527896
 30
0.0
 10
14.9593491376
 20
11.5819737727
 30
0.0
 10
14.9651076803
 20
11.5767618062
 30
0.0
 10
14.971078106
 20
11.5716222664
 30
0.0
 10
14.9772542294
 20
11.5665605482
 30
0.0
 10
14.9836296204
 20
11.5615818305
 30
0.0
 10
14.9924368285
 20
11.5550241373
 30
0.0
 10
15.0039061299
 20
11.5470725215
 30
0.0
 10
15.0182757144
 20
11.5379970216
 30
0.0
 10
15.0332701765
 20
11.5293714777
 30
0.0
 10
15.0488270814
 20
11.5212318008
 30
0.0
 10
15.0648819055
 20
11.5136117337
 30
0.0
 10
15.0813679671
 20
11.5065429241
 30
0.0
 10
15.098216799
 20
11.500054726
 30
0.0
 10
15.1153584127
 20
11.4941740908
 30
0.0
 10
15.1327215975
 20
11.4889254475
 30
0.0
 10
15.1502342255
 20
11.4843306002
 30
0.0
 10
15.1678235334
 20
11.4804086366
 30
0.0
 10
15.185416513
 20
11.4771758438
 30
0.0
 10
15.2029399099
 20
11.474645668
 30
0.0
 10
15.2174802939
 20
11.4731255808
 30
0.0
 10
15.2290157514
 20
11.4722733274
 30
0.0
 10
15.2375716523
 20
11.4718177491
 30
0.0
 10
15.2460557169
 20
11.4715438655
 30
0.0
 10
15.2516874422
 20
11.4714821989
 30
0.0
 10
15.2544890098
 20
11.4714821989
 30
0.0
  0
SPLINE
  5
2FB
100
AcDbEntity
  8
LAYER_CHAMFER_FEAT
100
AcDbSpline
 62
7
  6
CONTINUOUS
 70
0
 71
3
 72
39
 73
35
 74
0
 42
0.0000001
 43
0.0000001
 44
0.0000000001
 40
0.0
 40
0.0
 40
0.0
 40
0.0
 40
0.0248034972
 40
0.0496643314
 40
0.0746391968
 40
0.0997834827
 40
0.125150746
 40
0.1507921182
 40
0.1767559196
 40
0.203087265
 40
0.2298277574
 40
0.2570153763
 40
0.284684206
 40
0.3128645638
 40
0.3415828103
 40
0.3708615548
 40
0.4007196492
 40
0.4311723049
 40
0.4622313194
 40
0.4939050469
 40
0.5261987885
 40
0.5591147055
 40
0.5926521959
 40
0.6268079059
 40
0.6615759486
 40
0.6969480967
 40
0.7329137532
 40
0.7694603547
 40
0.8065733747
 40
0.8442363191
 40
0.8824305252
 40
0.9211370866
 40
0.9603361466
 40
1.0
 40
1.0
 40
1.0
 40
1.0
 10
15.437408095
 20
11.5632716799
 30
0.0
 10
15.436875162
 20
11.5615470916
 30
0.0
 10
15.4357062405
 20
11.5581244573
 30
0.0
 10
15.4336513583
 20
11.5530931571
 30
0.0
 10
15.4312963279
 20
11.5481674915
 30
0.0
 10
15.4286440642
 20
11.5433533055
 30
0.0
 10
15.4256975811
 20
11.5386560755
 30
0.0
 10
15.4224603712
 20
11.5340811379
 30
0.0
 10
15.4189361871
 20
11.52963368
 30
0.0
 10
15.4151291058
 20
11.525318735
 30
0.0
 10
15.411043562
 20
11.5211411163
 30
0.0
 10
15.4066842063
 20
11.5171055588
 30
0.0
 10
15.4020560905
 20
11.5132165088
 30
0.0
 10
15.3971644522
 20
11.509478365
 30
0.0
 10
15.3920148973
 20
11.5058952439
 30
0.0
 10
15.3866132572
 20
11.5024711587
 30
0.0
 10
15.3809656557
 20
11.4992099223
 30
0.0
 10
15.375078498
 20
11.4961151349
 30
0.0
 10
15.3689584156
 20
11.4931902944
 30
0.0
 10
15.362612347
 20
11.490438594
 30
0.0
 10
15.3560474292
 20
11.4878631688
 30
0.0
 10
15.3492710882
 20
11.4854668358
 30
0.0
 10
15.3422909551
 20
11.4832523075
 30
0.0
 10
15.3351149051
 20
11.4812220483
 30
0.0
 10
15.3277510319
 20
11.4793783127
 30
0.0
 10
15.3202076334
 20
11.4777232061
 30
0.0
 10
15.3124932272
 20
11.476258524
 30
0.0
 10
15.3046164985
 20
11.4749859692
 30
0.0
 10
15.2965863354
 20
11.4739069173
 30
0.0
 10
15.288411825
 20
11.473022622
 30
0.0
 10
15.2801021761
 20
11.4723340341
 30
0.0
 10
15.2716666181
 20
11.4718419396
 30
0.0
 10
15.2631149291
 20
11.4715469472
 30
0.0
 10
15.2573755151
 20
11.4714821989
 30
0.0
 10
15.2544890098
 20
11.4714821989
 30
0.0
  0
SPLINE
  5
2FC
100
AcDbEntity
  8
LAYER_FEATURE
100
AcDbSpline
 62
7
  6
CONTINUOUS
 70
0
 71
3
 72
15
 73
11
 74
0
 42
0.0000001
 43
0.0000001
 44
0.0000000001
 40
0.0
 40
0.0
 40
0.0
 40
0.0
 40
0.1396978052
 40
0.2748621776
 40
0.4056201113
 40
0.5321281014
 40
0.6545762641
 40
0.7731894124
 40
0.8882302023
 40
1.0
 40
1.0
 40
1.0
 40
1.0
 10
15.7789452363
 20
11.7029723114
 30
0.0
 10
15.7782160306
 20
11.7020986891
 30
0.0
 10
15.7767480863
 20
11.7004071135
 30
0.0
 10
15.7744796612
 20
11.6980033608
 30
0.0
 10
15.7721834808
 20
11.695777677
 30
0.0
 10
15.769861606
 20
11.6937322149
 30
0.0
 10
15.7675161318
 20
11.6918688736
 30
0.0
 10
15.765149091
 20
11.6901894375
 30
0.0
 10
15.7627627498
 20
11.6886956019
 30
0.0
 10
15.7611382742
 20
11.6878124237
 30
0.0
 10
15.7603245263
 20
11.6874040633
 30
0.0
  0
SPLINE
  5
2FD
100
AcDbEntity
  8
LAYER_FEATURE
100
AcDbSpline
 62
7
  6
CONTINUOUS
 70
0
 71
3
 72
48
 73
44
 74
0
 42
0.0000001
 43
0.0000001
 44
0.0000000001
 40
0.0
 40
0.0
 40
0.0
 40
0.0
 40
0.0475512739
 40
0.0938168497
 40
0.1387408043
 40
0.1822825164
 40
0.2244047946
 40
0.2650756143
 40
0.304271194
 40
0.3419757617
 40
0.3781822953
 40
0.412894337
 40
0.4461268414
 40
0.4779078635
 40
0.5082805077
 40
0.5373044245
 40
0.5650582073
 40
0.5916411708
 40
0.6171748449
 40
0.6295958434
 40
0.6418108409
 40
0.6538415903
 40
0.6657111635
 40
0.6774438126
 40
0.6890649432
 40
0.7006008974
 40
0.7120787184
 40
0.7235259859
 40
0.7349705531
 40
0.7464402895
 40
0.7579628558
 40
0.7695654147
 40
0.7812744471
 40
0.7931155735
 40
0.8051132787
 40
0.8172908509
 40
0.8296703243
 40
0.8551097432
 40
0.8815854239
 40
0.909221133
 40
0.9381183475
 40
0.9683574852
 40
1.0
 40
1.0
 40
1.0
 40
1.0
 10
15.7324810387
 20
11.9934997352
 30
0.0
 10
15.7330318207
 20
11.9952820664
 30
0.0
 10
15.7341605041
 20
11.9987857453
 30
0.0
 10
15.7359610685
 20
12.0039228998
 30
0.0
 10
15.737843551
 20
12.0088627176
 30
0.0
 10
15.739804599
 20
12.0135964569
 30
0.0
 10
15.741840816
 20
12.0181160321
 30
0.0
 10
15.7439487193
 20
12.0224135917
 30
0.0
 10
15.7461246471
 20
12.026481694
 30
0.0
 10
15.748364847
 20
12.0303133276
 30
0.0
 10
15.7506655229
 20
12.0339018654
 30
0.0
 10
15.7530227321
 20
12.0372411385
 30
0.0
 10
15.7554325119
 20
12.0403253875
 30
0.0
 10
15.7578908509
 20
12.0431492728
 30
0.0
 10
15.7603936574
 20
12.0457079193
 30
0.0
 10
15.762936855
 20
12.0479968002
 30
0.0
 10
15.765516358
 20
12.0500118374
 30
0.0
 10
15.7681278034
 20
12.0517492337
 30
0.0
 10
15.7703476718
 20
12.0529740802
 30
0.0
 10
15.7721318678
 20
12.0538064506
 30
0.0
 10
15.7734627326
 20
12.0543538113
 30
0.0
 10
15.7747978664
 20
12.0548296647
 30
0.0
 10
15.7761367014
 20
12.0552338127
 30
0.0
 10
15.7774786466
 20
12.0555660221
 30
0.0
 10
15.7788230991
 20
12.0558261346
 30
0.0
 10
15.7801694489
 20
12.0560140456
 30
0.0
 10
15.7815170905
 20
12.0561296339
 30
0.0
 10
15.7828654079
 20
12.0561728303
 30
0.0
 10
15.7842137842
 20
12.0561436469
 30
0.0
 10
15.7855616055
 20
12.0560420826
 30
0.0
 10
15.786908253
 20
12.0558681657
 30
0.0
 10
15.7882531193
 20
12.0556220218
 30
0.0
 10
15.7895955988
 20
12.0553037699
 30
0.0
 10
15.7909350826
 20
12.0549135356
 30
0.0
 10
15.7922709764
 20
12.0544515471
 30
0.0
 10
15.7936027193
 20
12.0539180173
 30
0.0
 10
15.7953880327
 20
12.0531042822
 30
0.0
 10
15.7976097271
 20
12.051902588
 30
0.0
 10
15.8002240557
 20
12.0501922568
 30
0.0
 10
15.802806852
 20
12.0482039506
 30
0.0
 10
15.8053537469
 20
12.0459413874
 30
0.0
 10
15.8078605961
 20
12.0434087395
 30
0.0
 10
15.8094654538
 20
12.0415851939
 30
0.0
 10
15.8102609245
 20
12.0406321803
 30
0.0
  0
SPLINE
  5
2FE
100
AcDbEntity
  8
LAYER_FEATURE
100
AcDbSpline
 62
7
  6
CONTINUOUS
 70
0
 71
3
 72
15
 73
11
 74
0
 42
0.0000001
 43
0.0000001
 44
0.0000000001
 40
0.0
 40
0.0
 40
0.0
 40
0.0
 40
0.1094899534
 40
0.2223702475
 40
0.3392650963
 40
0.460714501
 40
0.5871740318
 40
0.719018778
 40
0.8565500144
 40
1.0
 40
1.0
 40
1.0
 40
1.0
 10
15.7549950651
 20
12.0959197789
 30
0.0
 10
15.7560433991
 20
12.0955787333
 30
0.0
 10
15.7581414031
 20
12.0947867669
 30
0.0
 10
15.7612240482
 20
12.0933063085
 30
0.0
 10
15.7642804352
 20
12.091520185
 30
0.0
 10
15.7673057759
 20
12.0894315821
 30
0.0
 10
15.7702958827
 20
12.0870439288
 30
0.0
 10
15.7732465499
 20
12.0843610093
 30
0.0
 10
15.7761534851
 20
12.0813870203
 30
0.0
 10
15.7780197049
 20
12.0792587787
 30
0.0
 10
15.7789452368
 20
12.0781499403
 30
0.0
  0
SPLINE
  5
2FF
100
AcDbEntity
  8
LAYER_FEATURE
100
AcDbSpline
 62
7
  6
CONTINUOUS
 70
0
 71
3
 72
80
 73
76
 74
0
 42
0.0000001
 43
0.0000001
 44
0.0000000001
 40
0.0
 40
0.0
 40
0.0
 40
0.0
 40
0.0176366946
 40
0.0357016715
 40
0.0541699459
 40
0.0730188603
 40
0.092223594
 40
0.1117579403
 40
0.1315949998
 40
0.1517069925
 40
0.1720653556
 40
0.1926408352
 40
0.2134036308
 40
0.2343234344
 40
0.255369516
 40
0.2765108411
 40
0.2977161112
 40
0.3189538745
 40
0.3401925933
 40
0.3614007262
 40
0.3825468155
 40
0.4035995495
 40
0.4245278759
 40
0.445301045
 40
0.4658887196
 40
0.4862610661
 40
0.5063887913
 40
0.5262433067
 40
0.5457967612
 40
0.5650221358
 40
0.5838934143
 40
0.6023855819
 40
0.6204748208
 40
0.6381386249
 40
0.6553558454
 40
0.6721069741
 40
0.6883741934
 40
0.7041415649
 40
0.7193953374
 40
0.7341240212
 40
0.7483187771
 40
0.7619737138
 40
0.7750861409
 40
0.7876571595
 40
0.7996920155
 40
0.8112006726
 40
0.8221985536
 40
0.8327070729
 40
0.8427544847
 40
0.8523765769
 40
0.8616171859
 40
0.8661116384
 40
0.8705310636
 40
0.8748833324
 40
0.8791767871
 40
0.883420206
 40
0.8876227942
 40
0.8917940931
 40
0.8959439047
 40
0.9000822322
 40
0.9042191792
 40
0.9083648606
 40
0.9125293169
 40
0.9167224114
 40
0.9209537655
 40
0.9252326847
 40
0.9295680635
 40
0.9339683703
 40
0.9384416122
 40
0.9476340644
 40
0.9572013634
 40
0.967188487
 40
0.9776323004
 40
0.9885620372
 40
1.0
 40
1.0
 40
1.0
 40
1.0
 10
15.7324810387
 20
11.9934997352
 30
0.0
 10
15.7319148504
 20
11.9916675493
 30
0.0
 10
15.7308141763
 20
11.9879444953
 30
0.0
 10
15.729274722
 20
11.9822587399
 30
0.0
 10
15.7278291342
 20
11.9764125223
 30
0.0
 10
15.7264799721
 20
11.9704162486
 30
0.0
 10
15.7252295441
 20
11.964280287
 30
0.0
 10
15.7240800813
 20
11.9580153658
 30
0.0
 10
15.7230335861
 20
11.9516324564
 30
0.0
 10
15.7220918813
 20
11.945142714
 30
0.0
 10
15.7212566437
 20
11.938557484
 30
0.0
 10
15.7205293143
 20
11.9318882878
 30
0.0
 10
15.7199111768
 20
11.9251467902
 30
0.0
 10
15.719403326
 20
11.918344783
 30
0.0
 10
15.71900663
 20
11.9114941671
 30
0.0
 10
15.7187218056
 20
11.9046069269
 30
0.0
 10
15.7185493449
 20
11.897695112
 30
0.0
 10
15.7184895394
 20
11.8907708155
 30
0.0
 10
15.7185425174
 20
11.8838461522
 30
0.0
 10
15.7187081644
 20
11.8769332373
 30
0.0
 10
15.7189861964
 20
11.8700441659
 30
0.0
 10
15.7193761378
 20
11.8631909909
 30
0.0
 10
15.7198772817
 20
11.8563857012
 30
0.0
 10
15.7204887697
 20
11.8496402032
 30
0.0
 10
15.7212095235
 20
11.8429662962
 30
0.0
 10
15.7220382663
 20
11.8363756535
 30
0.0
 10
15.7229735697
 20
11.8298798042
 30
0.0
 10
15.724013772
 20
11.8234901061
 30
0.0
 10
15.7251570545
 20
11.8172177325
 30
0.0
 10
15.7264014277
 20
11.8110736511
 30
0.0
 10
15.7277446854
 20
11.8050685972
 30
0.0
 10
15.729184495
 20
11.7992130677
 30
0.0
 10
15.7307183302
 20
11.7935172906
 30
0.0
 10
15.7323434894
 20
11.7879912086
 30
0.0
 10
15.734057157
 20
11.7826444735
 30
0.0
 10
15.7358563133
 20
11.7774864065
 30
0.0
 10
15.7377378191
 20
11.7725259997
 30
0.0
 10
15.7396984112
 20
11.7677718999
 30
0.0
 10
15.7417346452
 20
11.7632323698
 30
0.0
 10
15.743843007
 20
11.7589153082
 30
0.0
 10
15.7460198413
 20
11.7548282096
 30
0.0
 10
15.7482613712
 20
11.7509781499
 30
0.0
 10
15.7505637815
 20
11.7473718128
 30
0.0
 10
15.7529231173
 20
11.7440154236
 30
0.0
 10
15.7553353873
 20
11.7409147873
 30
0.0
 10
15.7577965677
 20
11.7380752968
 30
0.0
 10
15.7603025436
 20
11.7355018704
 30
0.0
 10
15.7628492116
 20
11.7331990691
 30
0.0
 10
15.7654324753
 20
11.7311710191
 30
0.0
 10
15.7680479422
 20
11.7294215429
 30
0.0
 10
15.7702715085
 20
11.7281872876
 30
0.0
 10
15.7720587945
 20
11.7273479303
 30
0.0
 10
15.7733919386
 20
11.7267956684
 30
0.0
 10
15.7747293971
 20
11.7263151659
 30
0.0
 10
15.7760706029
 20
11.7259066324
 30
0.0
 10
15.7774149618
 20
11.7255703075
 30
0.0
 10
15.7787618648
 20
11.7253063389
 30
0.0
 10
15.7801107011
 20
11.7251148418
 30
0.0
 10
15.7814608617
 20
11.7249959468
 30
0.0
 10
15.7828117257
 20
11.7249497098
 30
0.0
 10
15.7841626741
 20
11.7249761264
 30
0.0
 10
15.7855130882
 20
11.7250752092
 30
0.0
 10
15.7868623462
 20
11.7252469164
 30
0.0
 10
15.7882098377
 20
11.7254911258
 30
0.0
 10
15.789554951
 20
11.7258077294
 30
0.0
 10
15.7908970754
 20
11.7261965919
 30
0.0
 10
15.7922356142
 20
11.7266574823
 30
0.0
 10
15.7935699999
 20
11.7271901972
 30
0.0
 10
15.795358867
 20
11.7280032132
 30
0.0
 10
15.7975850259
 20
11.7292047281
 30
0.0
 10
15.800204576
 20
11.7309159464
 30
0.0
 10
15.8027924986
 20
11.7329062198
 30
0.0
 10
15.8053444087
 20
11.7351718033
 30
0.0
 10
15.8078561232
 20
11.7377085182
 30
0.0
 10
15.8094639819
 20
11.7395352886
 30
0.0
 10
15.8102609244
 20
11.7404900691
 30
0.0
  0
SPLINE
  5
300
100
AcDbEntity
  8
02___PRT_ALL_AXES
100
AcDbSpline
 62
7
  6
CONTINUOUS
 70
0
 71
3
 72
23
 73
19
 74
0
 42
0.0000001
 43
0.0000001
 44
0.0000000001
 40
0.0
 40
0.0
 40
0.0
 40
0.0
 40
0.0578062256
 40
0.1154325278
 40
0.1730449226
 40
0.2308166174
 40
0.2889265001
 40
0.3475570837
 40
0.4068920581
 40
0.4671136079
 40
0.5283995807
 40
0.5909206142
 40
0.6548373239
 40
0.7202981759
 40
0.7874365061
 40
0.8563687704
 40
0.9271989103
 40
1.0
 40
1.0
 40
1.0
 40
1.0
 10
15.7698003489
 20
12.097561124
 30
0.0
 10
15.7713793472
 20
12.0975611219
 30
0.0
 10
15.7745337689
 20
12.0974425944
 30
0.0
 10
15.7792343427
 20
12.0969051876
 30
0.0
 10
15.783879145
 20
12.0960084005
 30
0.0
 10
15.7884536128
 20
12.0947524495
 30
0.0
 10
15.7929438248
 20
12.0931381506
 30
0.0
 10
15.7973360015
 20
12.0911669364
 30
0.0
 10
15.8016166891
 20
12.0888408591
 30
0.0
 10
15.8057728525
 20
12.0861627729
 30
0.0
 10
15.8097919604
 20
12.08313633
 30
0.0
 10
15.8136620072
 20
12.0797659575
 30
0.0
 10
15.8173716885
 20
12.0760570007
 30
0.0
 10
15.8209104594
 20
12.0720157048
 30
0.0
 10
15.8242685408
 20
12.0676492084
 30
0.0
 10
15.8274371785
 20
12.062965421
 30
0.0
 10
15.8304083193
 20
12.0579735095
 30
0.0
 10
15.8322276425
 20
12.0544950137
 30
0.0
 10
15.8331037007
 20
12.0527097948
 30
0.0
  0
SPLINE
  5
301
100
AcDbEntity
  8
LAYER_FEATURE
100
AcDbSpline
 62
7
  6
CONTINUOUS
 70
0
 71
3
 72
50
 73
46
 74
0
 42
0.0000001
 43
0.0000001
 44
0.0000000001
 40
0.0
 40
0.0
 40
0.0
 40
0.0
 40
0.0396641793
 40
0.0788606661
 40
0.1175661307
 40
0.1557597858
 40
0.1934216622
 40
0.2305336657
 40
0.2670793388
 40
0.3030440904
 40
0.3384152998
 40
0.3731824522
 40
0.4073372782
 40
0.4408738985
 40
0.4737889752
 40
0.5060818677
 40
0.5377547925
 40
0.5688129867
 40
0.5992648666
 40
0.6291221833
 40
0.6584001714
 40
0.6728285106
 40
0.6871194029
 40
0.7152990215
 40
0.7429671481
 40
0.7566197094
 40
0.7701560775
 40
0.7835806402
 40
0.7968980187
 40
0.8101130807
 40
0.8232309096
 40
0.8362568292
 40
0.8491963692
 40
0.8620552768
 40
0.874839498
 40
0.8875551653
 40
0.9002085963
 40
0.9128062638
 40
0.9253547993
 40
0.9378609614
 40
0.9503316297
 40
0.9627737816
 40
0.9751944743
 40
0.9876008274
 40
1.0
 40
1.0
 40
1.0
 40
1.0
 10
14.9912702968
 20
12.8578459153
 30
0.0
 10
14.9798778343
 20
12.8578459153
 30
0.0
 10
14.9572263385
 20
12.8575904561
 30
0.0
 10
14.9234757633
 20
12.8564260935
 30
0.0
 10
14.8901837771
 20
12.8544840021
 30
0.0
 10
14.8573882872
 20
12.8517664184
 30
0.0
 10
14.8251261423
 20
12.8482763493
 30
0.0
 10
14.7934337982
 20
12.8440177321
 30
0.0
 10
14.7623469877
 20
12.8389953328
 30
0.0
 10
14.7319007803
 20
12.8332147844
 30
0.0
 10
14.7021295114
 20
12.826682567
 30
0.0
 10
14.6730667535
 20
12.8194059989
 30
0.0
 10
14.644745278
 20
12.8113932261
 30
0.0
 10
14.6171970211
 20
12.8026532114
 30
0.0
 10
14.5904530486
 20
12.7931957223
 30
0.0
 10
14.5645435266
 20
12.7830313203
 30
0.0
 10
14.5394976805
 20
12.7721713413
 30
0.0
 10
14.515343797
 20
12.7606279096
 30
0.0
 10
14.4921090786
 20
12.7484138379
 30
0.0
 10
14.469820057
 20
12.7355429044
 30
0.0
 10
14.4519685093
 20
12.724226846
 30
0.0
 10
14.4381939468
 20
12.7148570212
 30
0.0
 10
14.4248846794
 20
12.7053711014
 30
0.0
 10
14.4088722557
 20
12.6931345358
 30
0.0
 10
14.393583394
 20
12.6802871829
 30
0.0
 10
14.3818940327
 20
12.669720334
 30
0.0
 10
14.3734332483
 20
12.6616879705
 30
0.0
 10
14.3652427375
 20
12.6535159666
 30
0.0
 10
14.3573247957
 20
12.645206555
 30
0.0
 10
14.3496816462
 20
12.63676213
 30
0.0
 10
14.3423155032
 20
12.6281850263
 30
0.0
 10
14.335228417
 20
12.6194777065
 30
0.0
 10
14.3284224351
 20
12.6106426004
 30
0.0
 10
14.3218994809
 20
12.6016822164
 30
0.0
 10
14.3156614017
 20
12.5925990932
 30
0.0
 10
14.3097100059
 20
12.5833957783
 30
0.0
 10
14.3040469404
 20
12.5740749082
 30
0.0
 10
14.298673876
 20
12.5646390864
 30
0.0
 10
14.2935922911
 20
12.5550910178
 30
0.0
 10
14.2888036725
 20
12.5454333875
 30
0.0
 10
14.2843093697
 20
12.5356689411
 30
0.0
 10
14.2801106544
 20
12.5258004613
 30
0.0
 10
14.2762087508
 20
12.515830703
 30
0.0
 10
14.2726047501
 20
12.505762634
 30
0.0
 10
14.2704011086
 20
12.4989859974
 30
0.0
 10
14.2693496377
 20
12.495583431
 30
0.0
  0
SPLINE
  5
302
100
AcDbEntity
  8
LAYER_FEATURE
100
AcDbSpline
 62
7
  6
CONTINUOUS
 70
0
 71
3
 72
50
 73
46
 74
0
 42
0.0000001
 43
0.0000001
 44
0.0000000001
 40
0.0
 40
0.0
 40
0.0
 40
0.0
 40
0.0396641793
 40
0.0788606661
 40
0.1175661307
 40
0.1557597858
 40
0.1934216622
 40
0.2305336657
 40
0.2670793388
 40
0.3030440904
 40
0.3384152998
 40
0.3731824522
 40
0.4073372782
 40
0.4408738985
 40
0.4737889752
 40
0.5060818677
 40
0.5377547925
 40
0.5688129867
 40
0.5992648666
 40
0.6291221833
 40
0.6584001714
 40
0.6728285106
 40
0.6871194029
 40
0.7152990215
 40
0.7429671481
 40
0.7566197094
 40
0.7701560775
 40
0.7835806402
 40
0.7968980187
 40
0.8101130807
 40
0.8232309096
 40
0.8362568292
 40
0.8491963692
 40
0.8620552768
 40
0.874839498
 40
0.8875551653
 40
0.9002085963
 40
0.9128062638
 40
0.9253547993
 40
0.9378609614
 40
0.9503316297
 40
0.9627737816
 40
0.9751944743
 40
0.9876008274
 40
1.0
 40
1.0
 40
1.0
 40
1.0
 10
15.255606722
 20
13.7132389006
 30
0.0
 10
15.2442142595
 20
13.7132389006
 30
0.0
 10
15.2215627637
 20
13.7129834414
 30
0.0
 10
15.1878121884
 20
13.7118190788
 30
0.0
 10
15.1545202023
 20
13.7098769874
 30
0.0
 10
15.1217247123
 20
13.7071594037
 30
0.0
 10
15.0894625675
 20
13.7036693346
 30
0.0
 10
15.0577702233
 20
13.6994107174
 30
0.0
 10
15.0266834129
 20
13.6943883182
 30
0.0
 10
14.9962372054
 20
13.6886077697
 30
0.0
 10
14.9664659366
 20
13.6820755523
 30
0.0
 10
14.9374031786
 20
13.6747989842
 30
0.0
 10
14.9090817032
 20
13.6667862114
 30
0.0
 10
14.8815334462
 20
13.6580461967
 30
0.0
 10
14.8547894737
 20
13.6485887076
 30
0.0
 10
14.8288799517
 20
13.6384243056
 30
0.0
 10
14.8038341056
 20
13.6275643266
 30
0.0
 10
14.7796802221
 20
13.6160208949
 30
0.0
 10
14.7564455038
 20
13.6038068232
 30
0.0
 10
14.7341564822
 20
13.5909358897
 30
0.0
 10
14.7163049344
 20
13.5796198313
 30
0.0
 10
14.7025303719
 20
13.5702500065
 30
0.0
 10
14.6892211046
 20
13.5607640867
 30
0.0
 10
14.6732086809
 20
13.5485275211
 30
0.0
 10
14.6579198192
 20
13.5356801682
 30
0.0
 10
14.6462304579
 20
13.5251133193
 30
0.0
 10
14.6377696735
 20
13.5170809558
 30
0.0
 10
14.6295791626
 20
13.508908952
 30
0.0
 10
14.6216612208
 20
13.5005995403
 30
0.0
 10
14.6140180713
 20
13.4921551153
 30
0.0
 10
14.6066519283
 20
13.4835780116
 30
0.0
 10
14.5995648422
 20
13.4748706918
 30
0.0
 10
14.5927588603
 20
13.4660355857
 30
0.0
 10
14.5862359061
 20
13.4570752017
 30
0.0
 10
14.5799978268
 20
13.4479920785
 30
0.0
 10
14.5740464311
 20
13.4387887636
 30
0.0
 10
14.5683833655
 20
13.4294678935
 30
0.0
 10
14.5630103012
 20
13.4200320717
 30
0.0
 10
14.5579287162
 20
13.4104840031
 30
0.0
 10
14.5531400976
 20
13.4008263728
 30
0.0
 10
14.5486457949
 20
13.3910619264
 30
0.0
 10
14.5444470796
 20
13.3811934466
 30
0.0
 10
14.540545176
 20
13.3712236883
 30
0.0
 10
14.5369411753
 20
13.3611556194
 30
0.0
 10
14.5347375337
 20
13.3543789827
 30
0.0
 10
14.5336860628
 20
13.3509764163
 30
0.0
  0
SPLINE
  5
303
100
AcDbEntity
  8
LAYER_FEATURE
100
AcDbSpline
 62
7
  6
CONTINUOUS
 70
0
 71
3
 72
113
 73
109
 74
0
 42
0.0000001
 43
0.0000001
 44
0.0000000001
 40
0.0
 40
0.0
 40
0.0
 40
0.0
 40
0.0090795363
 40
0.0182262203
 40
0.027436722
 40
0.0367083284
 40
0.0554228237
 40
0.0743458976
 40
0.0934523554
 40
0.1127161318
 40
0.1321104657
 40
0.1516080186
 40
0.1711810027
 40
0.1908013044
 40
0.2104406073
 40
0.2300705139
 40
0.2496626668
 40
0.2691888704
 40
0.2886212127
 40
0.3079321893
 40
0.3270948283
 40
0.3460828184
 40
0.3648706402
 40
0.3834337005
 40
0.4017484722
 40
0.419792639
 40
0.4287069297
 40
0.4375458345
 40
0.4463069729
 40
0.4549880738
 40
0.4635869708
 40
0.4721016226
 40
0.4805301016
 40
0.4888706172
 40
0.4971215075
 40
0.5052812554
 40
0.5133484916
 40
0.5213219983
 40
0.5292007263
 40
0.5369837865
 40
0.5446704765
 40
0.552260269
 40
0.5597528362
 40
0.5671480462
 40
0.5744459764
 40
0.5816469237
 40
0.5887514039
 40
0.5957601746
 40
0.6026742251
 40
0.6094948036
 40
0.6228604304
 40
0.6294106555
 40
0.6358750204
 40
0.6422561231
 40
0.6485568396
 40
0.6547803423
 40
0.660930084
 40
0.6670098112
 40
0.6730235504
 40
0.6789756076
 40
0.6848705598
 40
0.6907132397
 40
0.6965087289
 40
0.7022623321
 40
0.7079795658
 40
0.7136661283
 40
0.7193278785
 40
0.7249708059
 40
0.7306010004
 40
0.7362246214
 40
0.7418478633
 40
0.747476923
 40
0.753117966
 40
0.7587770919
 40
0.764460305
 40
0.7701734807
 40
0.7759223393
 40
0.7817124202
 40
0.7875490551
 40
0.7934373547
 40
0.7993821814
 40
0.8053881461
 40
0.8114595861
 40
0.8176005647
 40
0.8238148609
 40
0.8301059649
 40
0.8364770828
 40
0.8429311261
 40
0.8494707287
 40
0.8628143328
 40
0.8696235839
 40
0.8765261391
 40
0.8835232748
 40
0.8906160121
 40
0.8978051376
 40
0.9050911936
 40
0.9124745068
 40
0.9199551772
 40
0.9275331016
 40
0.9352079727
 40
0.9429792892
 40
0.9508463689
 40
0.9588083446
 40
0.9668641882
 40
0.9750126989
 40
0.9832525293
 40
0.9915821773
 40
1.0
 40
1.0
 40
1.0
 40
1.0
 10
15.0593940796
 20
12.8128547983
 30
0.0
 10
15.0661489245
 20
12.8128547983
 30
0.0
 10
15.0797087998
 20
12.8127482622
 30
0.0
 10
15.1001159433
 20
12.8122732724
 30
0.0
 10
15.1206563758
 20
12.8114826592
 30
0.0
 10
15.1482906019
 20
12.8100037718
 30
0.0
 10
15.183094745
 20
12.8073630423
 30
0.0
 10
15.2250849507
 20
12.80295366
 30
0.0
 10
15.2673386239
 20
12.7973034964
 30
0.0
 10
15.3097647723
 20
12.790424708
 30
0.0
 10
15.3522723312
 20
12.7823320683
 30
0.0
 10
15.3947699691
 20
12.7730429626
 30
0.0
 10
15.4371663923
 20
12.7625773454
 30
0.0
 10
15.4793705147
 20
12.7509577019
 30
0.0
 10
15.5212916626
 20
12.7382089974
 30
0.0
 10
15.5628397687
 20
12.724358623
 30
0.0
 10
15.603925568
 20
12.7094363363
 30
0.0
 10
15.6444607906
 20
12.6934741969
 30
0.0
 10
15.6843583525
 20
12.6765064966
 30
0.0
 10
15.7235325445
 20
12.6585696845
 30
0.0
 10
15.7618992153
 20
12.639702288
 30
0.0
 10
15.7993759624
 20
12.6199448257
 30
0.0
 10
15.8358822805
 20
12.5993397358
 30
0.0
 10
15.8713398439
 20
12.5779312108
 30
0.0
 10
15.9056722726
 20
12.555765359
 30
0.0
 10
15.9333947394
 20
12.5366256431
 30
0.0
 10
15.954941226
 20
12.5209712366
 30
0.0
 10
15.970709885
 20
12.5091184332
 30
0.0
 10
15.9861434692
 20
12.4971130718
 30
0.0
 10
16.001233741
 20
12.4849615875
 30
0.0
 10
16.0159725524
 20
12.4726704878
 30
0.0
 10
16.0303520116
 20
12.4602464129
 30
0.0
 10
16.0443643573
 20
12.4476960001
 30
0.0
 10
16.0580020831
 20
12.435026025
 30
0.0
 10
16.0712578386
 20
12.4222432707
 30
0.0
 10
16.0841245049
 20
12.4093546128
 30
0.0
 10
16.0965951692
 20
12.3963669782
 30
0.0
 10
16.1086631088
 20
12.3832873227
 30
0.0
 10
16.1203218634
 20
12.3701226988
 30
0.0
 10
16.1315651266
 20
12.3568801377
 30
0.0
 10
16.1423868908
 20
12.3435667856
 30
0.0
 10
16.1527812992
 20
12.3301897549
 30
0.0
 10
16.162742786
 20
12.3167562483
 30
0.0
 10
16.1722659771
 20
12.3032734628
 30
0.0
 10
16.1813457429
 20
12.2897486287
 30
0.0
 10
16.1899772115
 20
12.276189021
 30
0.0
 10
16.1981557046
 20
12.2626018703
 30
0.0
 10
16.205876828
 20
12.248994561
 30
0.0
 10
16.2131364783
 20
12.2353741174
 30
0.0
 10
16.2221338878
 20
12.2173295209
 30
0.0
 10
16.2302677514
 20
12.199163323
 30
0.0
 10
16.2374847039
 20
12.1809100106
 30
0.0
 10
16.2423828059
 20
12.167334551
 30
0.0
 10
16.2467995579
 20
12.1537901159
 30
0.0
 10
16.2507325619
 20
12.1402837853
 30
0.0
 10
16.2541797069
 20
12.1268228815
 30
0.0
 10
16.2571390391
 20
12.1134146098
 30
0.0
 10
16.2596089682
 20
12.1000661994
 30
0.0
 10
16.2615880885
 20
12.0867848282
 30
0.0
 10
16.2630752906
 20
12.0735776553
 30
0.0
 10
16.2640697459
 20
12.0604518063
 30
0.0
 10
16.2645708257
 20
12.0474143656
 30
0.0
 10
16.264578277
 20
12.034472384
 30
0.0
 10
16.2640919804
 20
12.0216328643
 30
0.0
 10
16.2631122306
 20
12.0089027611
 30
0.0
 10
16.2616394651
 20
11.9962889806
 30
0.0
 10
16.2596744901
 20
11.9837983663
 30
0.0
 10
16.2572183363
 20
11.9714377022
 30
0.0
 10
16.2542723036
 20
11.9592137092
 30
0.0
 10
16.2508380224
 20
11.94713302
 30
0.0
 10
16.2469172948
 20
11.9352022178
 30
0.0
 10
16.2425123239
 20
11.9234277613
 30
0.0
 10
16.237625444
 20
11.9118160692
 30
0.0
 10
16.2322593831
 20
11.9003734176
 30
0.0
 10
16.2264170371
 20
11.8891060248
 30
0.0
 10
16.2201016176
 20
11.8780199834
 30
0.0
 10
16.2133165873
 20
11.8671212793
 30
0.0
 10
16.2060656244
 20
11.8564158165
 30
0.0
 10
16.1983527351
 20
11.8459093317
 30
0.0
 10
16.1901820712
 20
11.8356075227
 30
0.0
 10
16.1815581389
 20
11.8255158811
 30
0.0
 10
16.1724855829
 20
11.8156398655
 30
0.0
 10
16.162969365
 20
11.8059847414
 30
0.0
 10
16.1530146317
 20
11.7965556941
 30
0.0
 10
16.1426267771
 20
11.7873577767
 30
0.0
 10
16.1318114298
 20
11.7783958779
 30
0.0
 10
16.1205744477
 20
11.7696748544
 30
0.0
 10
16.1089217774
 20
11.761199214
 30
0.0
 10
16.0927317487
 20
11.7501584991
 30
0.0
 10
16.0758315122
 20
11.7397060428
 30
0.0
 10
16.0582847696
 20
11.7298405116
 30
0.0
 10
16.0446527099
 20
11.7226575042
 30
0.0
 10
16.0306461366
 20
11.715745222
 30
0.0
 10
16.0162723691
 20
11.7091071811
 30
0.0
 10
16.0015391786
 20
11.7027470174
 30
0.0
 10
15.986454489
 20
11.6966680648
 30
0.0
 10
15.9710263952
 20
11.6908736275
 30
0.0
 10
15.9552632008
 20
11.6853667634
 30
0.0
 10
15.9391733705
 20
11.6801504417
 30
0.0
 10
15.9227655519
 20
11.67522745
 30
0.0
 10
15.9060485657
 20
11.6706004067
 30
0.0
 10
15.8890313878
 20
11.666271823
 30
0.0
 10
15.8717231718
 20
11.6622439701
 30
0.0
 10
15.8541332085
 20
11.6585190578
 30
0.0
 10
15.8362709639
 20
11.6550990317
 30
0.0
 10
15.8181460106
 20
11.6519857626
 30
0.0
 10
15.7997681699
 20
11.6491809012
 30
0.0
 10
15.7874182217
 20
11.6475261834
 30
0.0
 10
15.7812039823
 20
11.6467497734
 30
0.0
  0
SPLINE
  5
304
100
AcDbEntity
  8
LAYER_FEATURE
100
AcDbSpline
 62
7
  6
CONTINUOUS
 70
0
 71
3
 72
86
 73
82
 74
0
 42
0.0000001
 43
0.0000001
 44
0.0000000001
 40
0.0
 40
0.0
 40
0.0
 40
0.0
 40
0.0202598547
 40
0.0403012135
 40
0.0601134606
 40
0.0796877628
 40
0.0990152515
 40
0.1180878373
 40
0.136898102
 40
0.1554393091
 40
0.1737054869
 40
0.1916914692
 40
0.2093929396
 40
0.2268064823
 40
0.2439296365
 40
0.2607609596
 40
0.2773000764
 40
0.2935477351
 40
0.3095058694
 40
0.3251776636
 40
0.3405676028
 40
0.3556815272
 40
0.370526687
 40
0.3778515187
 40
0.3851125487
 40
0.3994478076
 40
0.4135449427
 40
0.4205087302
 40
0.4274180925
 40
0.4410803037
 40
0.4545487658
 40
0.4678412584
 40
0.4744279691
 40
0.4809779946
 40
0.4874939345
 40
0.4939784608
 40
0.5004343197
 40
0.5068643166
 40
0.5132713183
 40
0.5196582453
 40
0.5260280623
 40
0.5323837772
 40
0.53872843
 40
0.5450650869
 40
0.5513968349
 40
0.5577267712
 40
0.5640579985
 40
0.5703936157
 40
0.5767367119
 40
0.5830903572
 40
0.5894575964
 40
0.5958414438
 40
0.6022448712
 40
0.6086708073
 40
0.6151221284
 40
0.6216016501
 40
0.6346551985
 40
0.647853724
 40
0.6612171822
 40
0.6747641834
 40
0.6885119053
 40
0.7024760312
 40
0.7166707218
 40
0.7311086024
 40
0.7384226388
 40
0.745801502
 40
0.7607575186
 40
0.775985488
 40
0.7914920727
 40
0.8072825437
 40
0.8233608325
 40
0.8397295949
 40
0.8563902698
 40
0.8733431316
 40
0.8905873483
 40
0.9081210463
 40
0.9259413663
 40
0.9440445118
 40
0.9624258016
 40
0.9810797269
 40
1.0
 40
1.0
 40
1.0
 40
1.0
 10
15.0593940796
 20
12.8128547983
 30
0.0
 10
15.0504692718
 20
12.8128547983
 30
0.0
 10
15.0327153122
 20
12.8126705389
 30
0.0
 10
15.0062456559
 20
12.8118315998
 30
0.0
 10
14.9801019371
 20
12.8104322795
 30
0.0
 10
14.9543094566
 20
12.8084739802
 30
0.0
 10
14.9288926537
 20
12.805958509
 30
0.0
 10
14.9038758541
 20
12.8028882786
 30
0.0
 10
14.8792829274
 20
12.7992662117
 30
0.0
 10
14.8551373472
 20
12.7950957409
 30
0.0
 10
14.8314621641
 20
12.7903808183
 30
0.0
 10
14.8082799694
 20
12.7851259302
 30
0.0
 10
14.7856128839
 20
12.7793360655
 30
0.0
 10
14.7634825404
 20
12.7730167102
 30
0.0
 10
14.741910061
 20
12.7661738431
 30
0.0
 10
14.7209160284
 20
12.7588139576
 30
0.0
 10
14.7005204765
 20
12.7509440226
 30
0.0
 10
14.6807428788
 20
12.7425714783
 30
0.0
 10
14.6616021222
 20
12.7337042274
 30
0.0
 10
14.6431164993
 20
12.7243506691
 30
0.0
 10
14.6253036291
 20
12.7145196037
 30
0.0
 10
14.6081807325
 20
12.704220431
 30
0.0
 10
14.5944394173
 20
12.6952158606
 30
0.0
 10
14.5838136322
 20
12.6877861492
 30
0.0
 10
14.5735226438
 20
12.6802742465
 30
0.0
 10
14.5611113854
 20
12.6706127512
 30
0.0
 10
14.5492247835
 20
12.6605130811
 30
0.0
 10
14.5401055625
 20
12.6522257947
 30
0.0
 10
14.5313138909
 20
12.6438676175
 30
0.0
 10
14.5208009774
 20
12.6331666524
 30
0.0
 10
14.5089287218
 20
12.6198861732
 30
0.0
 10
14.4996751303
 20
12.6084684753
 30
0.0
 10
14.4926865021
 20
12.5991555416
 30
0.0
 10
14.4876649732
 20
12.5921021526
 30
0.0
 10
14.4828490859
 20
12.5849610609
 30
0.0
 10
14.4782399857
 20
12.577733907
 30
0.0
 10
14.4738387517
 20
12.5704224613
 30
0.0
 10
14.4696464701
 20
12.5630284518
 30
0.0
 10
14.4656641515
 20
12.5555536524
 30
0.0
 10
14.4618927236
 20
12.54799987
 30
0.0
 10
14.4583331406
 20
12.5403688927
 30
0.0
 10
14.4549862264
 20
12.5326625675
 30
0.0
 10
14.451852786
 20
12.524882742
 30
0.0
 10
14.4489336087
 20
12.5170312702
 30
0.0
 10
14.4462293486
 20
12.5091100548
 30
0.0
 10
14.4437406879
 20
12.5011209853
 30
0.0
 10
14.4414682263
 20
12.4930659811
 30
0.0
 10
14.4394124732
 20
12.4849469853
 30
0.0
 10
14.4375739709
 20
12.4767659352
 30
0.0
 10
14.4359531243
 20
12.4685248043
 30
0.0
 10
14.4345503176
 20
12.4602255698
 30
0.0
 10
14.433365923
 20
12.4518702204
 30
0.0
 10
14.432400171
 20
12.4434607639
 30
0.0
 10
14.4316533204
 20
12.4349992319
 30
0.0
 10
14.4311255541
 20
12.4264875875
 30
0.0
 10
14.4307130738
 20
12.4150474048
 30
0.0
 10
14.4307498386
 20
12.4006218292
 30
0.0
 10
14.4316718282
 20
12.3831878875
 30
0.0
 10
14.4334706428
 20
12.3656039977
 30
0.0
 10
14.4361443863
 20
12.3478873727
 30
0.0
 10
14.4396902904
 20
12.3300549288
 30
0.0
 10
14.4441047666
 20
12.3121237057
 30
0.0
 10
14.4493833457
 20
12.2941109943
 30
0.0
 10
14.4544758174
 20
12.279111917
 30
0.0
 10
14.4589699839
 20
12.267091238
 30
0.0
 10
14.4637884349
 20
12.2549508762
 30
0.0
 10
14.4703480919
 20
12.2397546279
 30
0.0
 10
14.4790231637
 20
12.2215875996
 30
0.0
 10
14.4885284377
 20
12.203425002
 30
0.0
 10
14.4988546792
 20
12.1852843028
 30
0.0
 10
14.5099919722
 20
12.1671826948
 30
0.0
 10
14.5219296241
 20
12.1491374089
 30
0.0
 10
14.5346562066
 20
12.1311656129
 30
0.0
 10
14.5481595368
 20
12.1132844108
 30
0.0
 10
14.562426687
 20
12.0955108165
 30
0.0
 10
14.5774440161
 20
12.0778617538
 30
0.0
 10
14.5931971835
 20
12.0603540364
 30
0.0
 10
14.6096711285
 20
12.0430043538
 30
0.0
 10
14.6268501421
 20
12.0258292038
 30
0.0
 10
14.6447176773
 20
12.0088450773
 30
0.0
 10
14.6569918875
 20
11.9977375291
 30
0.0
 10
14.6632375551
 20
11.9922185752
 30
0.0
  0
SPLINE
  5
305
100
AcDbEntity
  8
LAYER_FEATURE
100
AcDbSpline
 62
7
  6
CONTINUOUS
 70
0
 71
3
 72
80
 73
76
 74
0
 42
0.0000001
 43
0.0000001
 44
0.0000000001
 40
0.0
 40
0.0
 40
0.0
 40
0.0
 40
0.017178625
 40
0.0345301896
 40
0.0520439856
 40
0.0697095611
 40
0.0875157513
 40
0.105451206
 40
0.1235042502
 40
0.1416629551
 40
0.159915164
 40
0.1782485184
 40
0.1966504877
 40
0.2151083967
 40
0.2336094524
 40
0.2521407721
 40
0.2706894106
 40
0.2892423869
 40
0.3077867108
 40
0.3263094099
 40
0.3447975567
 40
0.3632382956
 40
0.3816188701
 40
0.3999266497
 40
0.4181491573
 40
0.4362740982
 40
0.4542893881
 40
0.4721831821
 40
0.4899439035
 40
0.5075602738
 40
0.5250213437
 40
0.5423165259
 40
0.5594356272
 40
0.5763688815
 40
0.5931069843
 40
0.6096411291
 40
0.6259630453
 40
0.6420650388
 40
0.6579400309
 40
0.673581601
 40
0.6889840307
 40
0.7041423508
 40
0.7190523912
 40
0.7337108317
 40
0.7481152531
 40
0.7622641923
 40
0.7761571984
 40
0.7897948916
 40
0.8031790229
 40
0.8163125314
 40
0.8291996012
 40
0.8418457167
 40
0.8542577138
 40
0.8603787793
 40
0.8664445248
 40
0.8784144197
 40
0.8901792221
 40
0.8959889949
 40
0.9017523402
 40
0.9131461931
 40
0.9243770779
 40
0.9299370835
 40
0.935462781
 40
0.9409564793
 40
0.9464205592
 40
0.9518574755
 40
0.9572697442
 40
0.9626599452
 40
0.9680307112
 40
0.9733847242
 40
0.9787247102
 40
0.9840534294
 40
0.9893736733
 40
0.9946882542
 40
1.0
 40
1.0
 40
1.0
 40
1.0
 10
14.9912702968
 20
12.8578459153
 30
0.0
 10
15.0023275379
 20
12.8578459153
 30
0.0
 10
15.0245540445
 20
12.857602615
 30
0.0
 10
15.0580377328
 20
12.8565215674
 30
0.0
 10
15.0918045627
 20
12.854723593
 30
0.0
 10
15.1258190441
 20
12.8522106312
 30
0.0
 10
15.1600459539
 20
12.8489852543
 30
0.0
 10
15.1944496062
 20
12.8450508388
 30
0.0
 10
15.2289942132
 20
12.8404114722
 30
0.0
 10
15.2636438157
 20
12.8350719898
 30
0.0
 10
15.2983623487
 20
12.829037951
 30
0.0
 10
15.333113674
 20
12.8223156365
 30
0.0
 10
15.3678616183
 20
12.8149120425
 30
0.0
 10
15.4025700098
 20
12.8068348718
 30
0.0
 10
15.4372027184
 20
12.7980925348
 30
0.0
 10
15.4717236926
 20
12.7886941348
 30
0.0
 10
15.5060969968
 20
12.7786494559
 30
0.0
 10
15.5402868485
 20
12.767968954
 30
0.0
 10
15.5742576554
 20
12.7566637452
 30
0.0
 10
15.607974053
 20
12.7447455955
 30
0.0
 10
15.6414009442
 20
12.7322269154
 30
0.0
 10
15.674503533
 20
12.719120738
 30
0.0
 10
15.7072473614
 20
12.7054407064
 30
0.0
 10
15.7395983444
 20
12.6912010598
 30
0.0
 10
15.7715228053
 20
12.676416617
 30
0.0
 10
15.8029875141
 20
12.661102767
 30
0.0
 10
15.8339597222
 20
12.6452754519
 30
0.0
 10
15.8644071937
 20
12.6289511447
 30
0.0
 10
15.8942982392
 20
12.6121468339
 30
0.0
 10
15.9236017483
 20
12.594880005
 30
0.0
 10
15.9522872222
 20
12.5771686212
 30
0.0
 10
15.980324811
 20
12.5590311129
 30
0.0
 10
16.0076853405
 20
12.5404863501
 30
0.0
 10
16.0343403414
 20
12.5215536228
 30
0.0
 10
16.0602620783
 20
12.5022526207
 30
0.0
 10
16.0854235779
 20
12.4826034118
 30
0.0
 10
16.1097986601
 20
12.4626264232
 30
0.0
 10
16.1333619685
 20
12.4423424228
 30
0.0
 10
16.15608899
 20
12.4217724902
 30
0.0
 10
16.1779560799
 20
12.4009379961
 30
0.0
 10
16.1989404853
 20
12.3798605796
 30
0.0
 10
16.2190203672
 20
12.3585621234
 30
0.0
 10
16.2381748302
 20
12.3370647365
 30
0.0
 10
16.2563839392
 20
12.3153907274
 30
0.0
 10
16.2736287347
 20
12.2935625778
 30
0.0
 10
16.2898912506
 20
12.2716029213
 30
0.0
 10
16.3051545302
 20
12.2495345183
 30
0.0
 10
16.3194026417
 20
12.2273802356
 30
0.0
 10
16.3326207052
 20
12.2051630194
 30
0.0
 10
16.3447948819
 20
12.1829059005
 30
0.0
 10
16.355912432
 20
12.1606318519
 30
0.0
 10
16.3659615551
 20
12.1383642142
 30
0.0
 10
16.3734712159
 20
12.1197466022
 30
0.0
 10
16.3789262953
 20
12.1048815354
 30
0.0
 10
16.3839695005
 20
12.090172275
 30
0.0
 10
16.3895984378
 20
12.0718284361
 30
0.0
 10
16.3943520312
 20
12.0534080462
 30
0.0
 10
16.3975917054
 20
12.0387385167
 30
0.0
 10
16.4004361586
 20
12.0242305461
 30
0.0
 10
16.4033042675
 20
12.0061769094
 30
0.0
 10
16.4052570127
 20
11.9881325112
 30
0.0
 10
16.406252153
 20
11.9738013181
 30
0.0
 10
16.406715644
 20
11.9631385901
 30
0.0
 10
16.4068985741
 20
11.9525291522
 30
0.0
 10
16.4068008554
 20
11.9419756992
 30
0.0
 10
16.4064225615
 20
11.9314810081
 30
0.0
 10
16.4057637267
 20
11.9210478169
 30
0.0
 10
16.404824555
 20
11.9106788536
 30
0.0
 10
16.4036052776
 20
11.9003768284
 30
0.0
 10
16.4021061822
 20
11.8901444407
 30
0.0
 10
16.4003277062
 20
11.8799843578
 30
0.0
 10
16.3982702515
 20
11.8698992563
 30
0.0
 10
16.3959343977
 20
11.8598917384
 30
0.0
 10
16.3933207577
 20
11.8499645306
 30
0.0
 10
16.3913933412
 20
11.8434008284
 30
0.0
 10
16.3903838999
 20
11.84013427
 30
0.0
  0
SPLINE
  5
306
100
AcDbEntity
  8
02___PRT_ALL_AXES
100
AcDbSpline
 62
7
  6
CONTINUOUS
 70
0
 71
3
 72
75
 73
71
 74
0
 42
0.0000001
 43
0.0000001
 44
0.0000000001
 40
0.0
 40
0.0
 40
0.0
 40
0.0
 40
0.0171786892
 40
0.0345303607
 40
0.052044229
 40
0.069709889
 40
0.0875161642
 40
0.1054517028
 40
0.1235048325
 40
0.1416636226
 40
0.1599159172
 40
0.1782493581
 40
0.1966514145
 40
0.2151094104
 40
0.233610553
 40
0.2521419599
 40
0.270690686
 40
0.2892437497
 40
0.3077881608
 40
0.3263109471
 40
0.3447991812
 40
0.3632400074
 40
0.3816206683
 40
0.3999285336
 40
0.4181511268
 40
0.4362761536
 40
0.4542915291
 40
0.4721854073
 40
0.4899462114
 40
0.5075626641
 40
0.5250238169
 40
0.5423190818
 40
0.5594382638
 40
0.5763715969
 40
0.5931097777
 40
0.6096440006
 40
0.6259659951
 40
0.6420680648
 40
0.6579431309
 40
0.6735847738
 40
0.6889872759
 40
0.7041456685
 40
0.7190557797
 40
0.7337142887
 40
0.7481187774
 40
0.7622677831
 40
0.7761608551
 40
0.7897986129
 40
0.8031828071
 40
0.8163163772
 40
0.8292035078
 40
0.8418496831
 40
0.8542617384
 40
0.860382833
 40
0.8664486067
 40
0.8784185581
 40
0.8901834163
 40
0.9017557731
 40
0.9131496792
 40
0.9243806165
 40
0.9354654436
 40
0.9464223124
 40
0.9572705583
 40
0.9680305606
 40
0.9733845989
 40
0.9787246098
 40
0.9840533545
 40
0.9893736232
 40
0.9946882293
 40
1.0
 40
1.0
 40
1.0
 40
1.0
 10
15.1514172768
 20
12.5315006819
 30
0.0
 10
15.157244736
 20
12.5315006819
 30
0.0
 10
15.1689587085
 20
12.531372455
 30
0.0
 10
15.1866055167
 20
12.5308027154
 30
0.0
 10
15.2044015541
 20
12.529855133
 30
0.0
 10
15.2223281025
 20
12.5285307356
 30
0.0
 10
15.2403666097
 20
12.5268308749
 30
0.0
 10
15.2584982643
 20
12.5247573297
 30
0.0
 10
15.2767042057
 20
12.5223122582
 30
0.0
 10
15.2949654827
 20
12.5194982074
 30
0.0
 10
15.313263088
 20
12.5163181072
 30
0.0
 10
15.3315779758
 20
12.5127752662
 30
0.0
 10
15.3498910812
 20
12.5088733695
 30
0.0
 10
15.3681833414
 20
12.5046164814
 30
0.0
 10
15.386435715
 20
12.5000090347
 30
0.0
 10
15.4046292019
 20
12.4950558257
 30
0.0
 10
15.4227448625
 20
12.4897620095
 30
0.0
 10
15.4407638377
 20
12.484133094
 30
0.0
 10
15.4586673703
 20
12.4781749412
 30
0.0
 10
15.4764368234
 20
12.4718937552
 30
0.0
 10
15.4940536994
 20
12.4652960746
 30
0.0
 10
15.5114996592
 20
12.4583887665
 30
0.0
 10
15.5287565409
 20
12.4511790184
 30
0.0
 10
15.5458063818
 20
12.4436743372
 30
0.0
 10
15.5626314353
 20
12.4358825361
 30
0.0
 10
15.5792141887
 20
12.4278117255
 30
0.0
 10
15.595537381
 20
12.4194703048
 30
0.0
 10
15.6115840207
 20
12.4108669526
 30
0.0
 10
15.6273374076
 20
12.4020106244
 30
0.0
 10
15.6427811478
 20
12.3929105378
 30
0.0
 10
15.6578991693
 20
12.3835761615
 30
0.0
 10
15.6726757386
 20
12.3740172067
 30
0.0
 10
15.687095477
 20
12.3642436151
 30
0.0
 10
15.7011433809
 20
12.3542655544
 30
0.0
 10
15.7148048353
 20
12.3440934035
 30
0.0
 10
15.7280656262
 20
12.3337377398
 30
0.0
 10
15.740911956
 20
12.3232093291
 30
0.0
 10
15.7533304568
 20
12.3125191126
 30
0.0
 10
15.7653082098
 20
12.3016782011
 30
0.0
 10
15.7768327555
 20
12.2906978588
 30
0.0
 10
15.7878921041
 20
12.2795894905
 30
0.0
 10
15.7984747468
 20
12.2683646299
 30
0.0
 10
15.8085696674
 20
12.2570349262
 30
0.0
 10
15.8181663589
 20
12.245612137
 30
0.0
 10
15.8272548311
 20
12.2341081118
 30
0.0
 10
15.8358256161
 20
12.2225347792
 30
0.0
 10
15.843869778
 20
12.2109041349
 30
0.0
 10
15.8513789186
 20
12.1992282294
 30
0.0
 10
15.8583451946
 20
12.1875191557
 30
0.0
 10
15.8647613145
 20
12.1757890523
 30
0.0
 10
15.8706205639
 20
12.1640500269
 30
0.0
 10
15.8759167245
 20
12.1523143799
 30
0.0
 10
15.8798745165
 20
12.142502396
 30
0.0
 10
15.8827494934
 20
12.1346681017
 30
0.0
 10
15.8854073936
 20
12.1269159358
 30
0.0
 10
15.8883740168
 20
12.1172481417
 30
0.0
 10
15.8913678543
 20
12.1056469714
 30
0.0
 10
15.8937765273
 20
12.0941095653
 30
0.0
 10
15.8955973288
 20
12.0826480731
 30
0.0
 10
15.8968282145
 20
12.0712744303
 30
0.0
 10
15.8974677466
 20
12.0600005746
 30
0.0
 10
15.8975150942
 20
12.048838285
 30
0.0
 10
15.896970111
 20
12.0377995462
 30
0.0
 10
15.8960210185
 20
12.0286975423
 30
0.0
 10
15.8949659227
 20
12.0214958759
 30
0.0
 10
15.8940286072
 20
12.0161412069
 30
0.0
 10
15.8929442871
 20
12.0108260917
 30
0.0
 10
15.8917132163
 20
12.0055518597
 30
0.0
 10
15.8903357646
 20
12.0003199519
 30
0.0
 10
15.8893199651
 20
11.9968607028
 30
0.0
 10
15.8887879601
 20
11.995139139
 30
0.0
  0
SPLINE
  5
307
100
AcDbEntity
  8
LAYER_FEATURE
100
AcDbSpline
 62
7
  6
CONTINUOUS
 70
0
 71
3
 72
23
 73
19
 74
0
 42
0.0000001
 43
0.0000001
 44
0.0000000001
 40
0.0
 40
0.0
 40
0.0
 40
0.0
 40
0.0776123575
 40
0.153847803
 40
0.2284534657
 40
0.3012314504
 40
0.3719922784
 40
0.4405738312
 40
0.5068465433
 40
0.5707158555
 40
0.6321286584
 40
0.6910781319
 40
0.7476102158
 40
0.8018306987
 40
0.8539081415
 40
0.904078764
 40
0.9526568063
 40
1.0
 40
1.0
 40
1.0
 40
1.0
 10
14.8416022394
 20
13.2619043622
 30
0.0
 10
14.8411240817
 20
13.261962826
 30
0.0
 10
14.8401736002
 20
13.2620582331
 30
0.0
 10
14.838757329
 20
13.2621363217
 30
0.0
 10
14.8373688988
 20
13.2621478007
 30
0.0
 10
14.8360154912
 20
13.2620926317
 30
0.0
 10
14.8347039179
 20
13.2619710836
 30
0.0
 10
14.8334408559
 20
13.2617837598
 30
0.0
 10
14.8322327174
 20
13.2615315779
 30
0.0
 10
14.8310856229
 20
13.2612157772
 30
0.0
 10
14.8300053802
 20
13.2608379136
 30
0.0
 10
14.8289974712
 20
13.2603998048
 30
0.0
 10
14.8280670248
 20
13.259903554
 30
0.0
 10
14.8272188059
 20
13.2593515366
 30
0.0
 10
14.8264572413
 20
13.258746399
 30
0.0
 10
14.8257863298
 20
13.2580909795
 30
0.0
 10
14.8252099185
 20
13.257388642
 30
0.0
 10
14.8248873974
 20
13.2568862197
 30
0.0
 10
14.8247441376
 20
13.2566296614
 30
0.0
  0
SPLINE
  5
308
100
AcDbEntity
  8
LAYER_FEATURE
100
AcDbSpline
 62
7
  6
CONTINUOUS
 70
0
 71
3
 72
14
 73
10
 74
0
 42
0.0000001
 43
0.0000001
 44
0.0000000001
 40
0.0
 40
0.0
 40
0.0
 40
0.0
 40
0.260020316
 40
0.386775214
 40
0.5116888183
 40
0.6351016783
 40
0.7573751674
 40
0.8788814331
 40
1.0
 40
1.0
 40
1.0
 40
1.0
 10
14.8837485589
 20
13.3310173334
 30
0.0
 10
14.8834992283
 20
13.330784683
 30
0.0
 10
14.8831474366
 20
13.3304169921
 30
0.0
 10
14.8827308932
 20
13.329890418
 30
0.0
 10
14.8824508693
 20
13.3294855296
 30
0.0
 10
14.8822011357
 20
13.3290681426
 30
0.0
 10
14.8819820881
 20
13.3286388487
 30
0.0
 10
14.8817940738
 20
13.3281983761
 30
0.0
 10
14.8816895432
 20
13.3278975153
 30
0.0
 10
14.8816426445
 20
13.3277457498
 30
0.0
  0
SPLINE
  5
309
100
AcDbEntity
  8
LAYER_FEATURE
100
AcDbSpline
 62
7
  6
CONTINUOUS
 70
0
 71
3
 72
9
 73
5
 74
0
 42
0.0000001
 43
0.0000001
 44
0.0000000001
 40
0.0
 40
0.0
 40
0.0
 40
0.0
 40
0.4939420118
 40
1.0
 40
1.0
 40
1.0
 40
1.0
 10
14.8837485589
 20
13.3310173334
 30
0.0
 10
14.8893700379
 20
13.3362627358
 30
0.0
 10
14.9011048903
 20
13.346508071
 30
0.0
 10
14.9134546972
 20
13.3560007169
 30
0.0
 10
14.9198380789
 20
13.3606162746
 30
0.0
  0
SPLINE
  5
30A
100
AcDbEntity
  8
LAYER_FEATURE
100
AcDbSpline
 62
7
  6
CONTINUOUS
 70
0
 71
3
 72
22
 73
18
 74
0
 42
0.0000001
 43
0.0000001
 44
0.0000000001
 40
0.0
 40
0.0
 40
0.0
 40
0.0
 40
0.071925265
 40
0.1435502054
 40
0.2146094311
 40
0.2848765689
 40
0.3541203106
 40
0.4221211694
 40
0.4886752333
 40
0.5535947633
 40
0.6167126662
 40
0.6778853067
 40
0.7369966141
 40
0.7939634698
 40
0.8487378261
 40
0.9013128492
 40
1.0
 40
1.0
 40
1.0
 40
1.0
 10
14.9400297217
 20
13.3619798047
 30
0.0
 10
14.9395501183
 20
13.3621223363
 30
0.0
 10
14.9385869741
 20
13.3623872447
 30
0.0
 10
14.937132085
 20
13.3627237388
 30
0.0
 10
14.9356757448
 20
13.3629972261
 30
0.0
 10
14.9342254999
 20
13.3632063163
 30
0.0
 10
14.9327886742
 20
13.363349953
 30
0.0
 10
14.9313726067
 20
13.3634274015
 30
0.0
 10
14.9299845127
 20
13.3634382562
 30
0.0
 10
14.9286314533
 20
13.3633824569
 30
0.0
 10
14.9273203066
 20
13.3632602889
 30
0.0
 10
14.9260577393
 20
13.363072348
 30
0.0
 10
14.9248501353
 20
13.3628195496
 30
0.0
 10
14.9237036853
 20
13.3625031832
 30
0.0
 10
14.9226239594
 20
13.3621246626
 30
0.0
 10
14.9213093214
 20
13.3615521767
 30
0.0
 10
14.9203943881
 20
13.3610185187
 30
0.0
 10
14.9198380789
 20
13.3606162746
 30
0.0
  0
SPLINE
  5
30B
100
AcDbEntity
  8
LAYER_FEATURE
100
AcDbSpline
 62
7
  6
CONTINUOUS
 70
0
 71
3
 72
23
 73
19
 74
0
 42
0.0000001
 43
0.0000001
 44
0.0000000001
 40
0.0
 40
0.0
 40
0.0
 40
0.0
 40
0.0704765588
 40
0.1407019283
 40
0.2104581515
 40
0.279558548
 40
0.3478112713
 40
0.4150326541
 40
0.4810499253
 40
0.5457011679
 40
0.6088384511
 40
0.6703295953
 40
0.7300607915
 40
0.7879402288
 40
0.8438988961
 40
0.8978946922
 40
0.9499243763
 40
1.0
 40
1.0
 40
1.0
 40
1.0
 10
14.9690501432
 20
13.3533553335
 30
0.0
 10
14.9696141448
 20
13.35318772
 30
0.0
 10
14.9707465181
 20
13.352874138
 30
0.0
 10
14.9724566352
 20
13.3524690959
 30
0.0
 10
14.9741696693
 20
13.3521315425
 30
0.0
 10
14.9758781919
 20
13.3518629173
 30
0.0
 10
14.9775749806
 20
13.3516643563
 30
0.0
 10
14.9792527799
 20
13.3515367088
 30
0.0
 10
14.9809044321
 20
13.3514805282
 30
0.0
 10
14.9825229007
 20
13.3514960567
 30
0.0
 10
14.9841012911
 20
13.3515832233
 30
0.0
 10
14.9856328839
 20
13.3517416765
 30
0.0
 10
14.987111167
 20
13.3519707586
 30
0.0
 10
14.9885298603
 20
13.3522695106
 30
0.0
 10
14.9898829226
 20
13.352636691
 30
0.0
 10
14.9911646799
 20
13.3530708109
 30
0.0
 10
14.9923695283
 20
13.3535700581
 30
0.0
 10
14.9931325732
 20
13.3539521715
 30
0.0
 10
14.9934987314
 20
13.3541539232
 30
0.0
  0
SPLINE
  5
30C
100
AcDbEntity
  8
LAYER_FEATURE
100
AcDbSpline
 62
7
  6
CONTINUOUS
 70
0
 71
3
 72
15
 73
11
 74
0
 42
0.0000001
 43
0.0000001
 44
0.0000000001
 40
0.0
 40
0.0
 40
0.0
 40
0.0
 40
0.1424563784
 40
0.2787801917
 40
0.4092781565
 40
0.5345052803
 40
0.6551855525
 40
0.7722418209
 40
0.8867708722
 40
1.0
 40
1.0
 40
1.0
 40
1.0
 10
15.0164172482
 20
13.4138310076
 30
0.0
 10
15.0160661914
 20
13.4136848919
 30
0.0
 10
15.015389875
 20
13.4133721513
 30
0.0
 10
15.0144403299
 20
13.4128290432
 30
0.0
 10
15.0135836285
 20
13.412225096
 30
0.0
 10
15.0128248522
 20
13.4115635927
 30
0.0
 10
15.0121685344
 20
13.4108480026
 30
0.0
 10
15.0116187725
 20
13.4100822183
 30
0.0
 10
15.0111791945
 20
13.409270828
 30
0.0
 10
15.0109610167
 20
13.4087011634
 30
0.0
 10
15.0108717779
 20
13.408412402
 30
0.0
  0
SPLINE
  5
30D
100
AcDbEntity
  8
LAYER_FEATURE
100
AcDbSpline
 62
7
  6
CONTINUOUS
 70
0
 71
3
 72
10
 73
6
 74
0
 42
0.0000001
 43
0.0000001
 44
0.0000000001
 40
0.0
 40
0.0
 40
0.0
 40
0.0
 40
0.4936449044
 40
0.7452394845
 40
1.0
 40
1.0
 40
1.0
 40
1.0
 10
15.0164172482
 20
13.4138310076
 30
0.0
 10
15.0247764578
 20
13.4173102526
 30
0.0
 10
15.0375240895
 20
13.4222616683
 30
0.0
 10
15.0548348572
 20
13.4283272979
 30
0.0
 10
15.0636658912
 20
13.4312062066
 30
0.0
 10
15.0681236793
 20
13.4326072816
 30
0.0
  0
SPLINE
  5
30E
100
AcDbEntity
  8
LAYER_FEATURE
100
AcDbSpline
 62
7
  6
CONTINUOUS
 70
0
 71
3
 72
23
 73
19
 74
0
 42
0.0000001
 43
0.0000001
 44
0.0000000001
 40
0.0
 40
0.0
 40
0.0
 40
0.0
 40
0.0654965829
 40
0.1316218715
 40
0.1981326937
 40
0.2648120381
 40
0.3314289458
 40
0.3977537684
 40
0.4635614541
 40
0.5286314247
 40
0.5927512273
 40
0.6557185494
 40
0.717343859
 40
0.7774543768
 40
0.8358945175
 40
0.8925301798
 40
0.9472629901
 40
1.0
 40
1.0
 40
1.0
 40
1.0
 10
15.0900130563
 20
13.4299491759
 30
0.0
 10
15.0895711309
 20
13.4301653051
 30
0.0
 10
15.088673542
 20
13.4305804976
 30
0.0
 10
15.0872974763
 20
13.4311482306
 30
0.0
 10
15.0858907505
 20
13.4316616423
 30
0.0
 10
15.084460661
 20
13.4321180983
 30
0.0
 10
15.083014437
 20
13.4325152909
 30
0.0
 10
15.0815594741
 20
13.4328511897
 30
0.0
 10
15.0801031961
 20
13.4331240732
 30
0.0
 10
15.0786530277
 20
13.4333325508
 30
0.0
 10
15.0772163654
 20
13.4334755699
 30
0.0
 10
15.0758005307
 20
13.4335523889
 30
0.0
 10
15.0744127324
 20
13.4335626118
 30
0.0
 10
15.0730600342
 20
13.4335061885
 30
0.0
 10
15.0717493309
 20
13.433383397
 30
0.0
 10
15.0704872092
 20
13.4331948367
 30
0.0
 10
15.0692802173
 20
13.4329414347
 30
0.0
 10
15.0685015624
 20
13.4327260496
 30
0.0
 10
15.0681236793
 20
13.4326072816
 30
0.0
  0
SPLINE
  5
30F
100
AcDbEntity
  8
LAYER_FEATURE
100
AcDbSpline
 62
7
  6
CONTINUOUS
 70
0
 71
3
 72
23
 73
19
 74
0
 42
0.0000001
 43
0.0000001
 44
0.0000000001
 40
0.0
 40
0.0
 40
0.0
 40
0.0
 40
0.0645604386
 40
0.1297040835
 40
0.1952309033
 40
0.2609624523
 40
0.3267084414
 40
0.3922789941
 40
0.4574870871
 40
0.5221480757
 40
0.5860823358
 40
0.649116601
 40
0.7110856817
 40
0.7718352627
 40
0.8312217044
 40
0.8891149948
 40
0.9454101574
 40
1.0
 40
1.0
 40
1.0
 40
1.0
 10
15.1165705114
 20
13.4169609129
 30
0.0
 10
15.1170898994
 20
13.4167068996
 30
0.0
 10
15.1181435573
 20
13.4162171408
 30
0.0
 10
15.1197565742
 20
13.4155414958
 30
0.0
 10
15.1214038768
 20
13.4149237737
 30
0.0
 10
15.1230783155
 20
13.4143666295
 30
0.0
 10
15.124772807
 20
13.4138724205
 30
0.0
 10
15.1264800997
 20
13.4134432609
 30
0.0
 10
15.128192903
 20
13.4130809902
 30
0.0
 10
15.1299039078
 20
13.4127871536
 30
0.0
 10
15.1316058086
 20
13.4125629957
 30
0.0
 10
15.1332913437
 20
13.4124094836
 30
0.0
 10
15.1349533266
 20
13.4123272748
 30
0.0
 10
15.1365846701
 20
13.4123167157
 30
0.0
 10
15.1381784071
 20
13.4123778564
 30
0.0
 10
15.1397278204
 20
13.4125104476
 30
0.0
 10
15.1412261858
 20
13.4127139506
 30
0.0
 10
15.1422023775
 20
13.4128992409
 30
0.0
 10
15.1426798914
 20
13.4130040601
 30
0.0
  0
SPLINE
  5
310
100
AcDbEntity
  8
LAYER_FEATURE
100
AcDbSpline
 62
7
  6
CONTINUOUS
 70
0
 71
3
 72
23
 73
19
 74
0
 42
0.0000001
 43
0.0000001
 44
0.0000000001
 40
0.0
 40
0.0
 40
0.0
 40
0.0
 40
0.0769841734
 40
0.1519615448
 40
0.2248350586
 40
0.2955664108
 40
0.3641409246
 40
0.4305616943
 40
0.4948600929
 40
0.5571007412
 40
0.6173810555
 40
0.675832755
 40
0.7326245762
 40
0.7879610685
 40
0.8420825856
 40
0.8952605052
 40
0.9477938389
 40
1.0
 40
1.0
 40
1.0
 40
1.0
 10
15.1944533268
 20
13.4603379344
 30
0.0
 10
15.1941280726
 20
13.4602934434
 30
0.0
 10
15.193487824
 20
13.4601918499
 30
0.0
 10
15.1925484081
 20
13.4599985426
 30
0.0
 10
15.1916451873
 20
13.4597667674
 30
0.0
 10
15.1907810178
 20
13.4594972879
 30
0.0
 10
15.1899584985
 20
13.4591908821
 30
0.0
 10
15.1891801301
 20
13.4588484791
 30
0.0
 10
15.1884483234
 20
13.458471071
 30
0.0
 10
15.187765329
 20
13.4580597896
 30
0.0
 10
15.1871332571
 20
13.4576158492
 30
0.0
 10
15.1865540921
 20
13.4571405488
 30
0.0
 10
15.1860296496
 20
13.4566353196
 30
0.0
 10
15.1855616417
 20
13.4561016447
 30
0.0
 10
15.1851515616
 20
13.4555411853
 30
0.0
 10
15.1848008141
 20
13.4549556162
 30
0.0
 10
15.1845105494
 20
13.4543468936
 30
0.0
 10
15.1843578415
 20
13.4539262896
 30
0.0
 10
15.1842921126
 20
13.4537135917
 30
0.0
  0
SPLINE
  5
311
100
AcDbEntity
  8
LAYER_FEATURE
100
AcDbSpline
 62
7
  6
CONTINUOUS
 70
0
 71
3
 72
23
 73
19
 74
0
 42
0.0000001
 43
0.0000001
 44
0.0000000001
 40
0.0
 40
0.0
 40
0.0
 40
0.0
 40
0.0592481524
 40
0.1198867006
 40
0.1817205355
 40
0.2445680322
 40
0.3082252314
 40
0.3724801568
 40
0.4371161925
 40
0.5019118689
 40
0.5666443515
 40
0.6310914375
 40
0.6950335926
 40
0.7582574564
 40
0.8205556598
 40
0.8817302579
 40
0.941606969
 40
1.0
 40
1.0
 40
1.0
 40
1.0
 10
15.2794014854
 20
13.4603060014
 30
0.0
 10
15.2790338606
 20
13.460579083
 30
0.0
 10
15.2782758111
 20
13.4611128125
 30
0.0
 10
15.2770896427
 20
13.4618659667
 30
0.0
 10
15.2758460898
 20
13.4625778608
 30
0.0
 10
15.2745516096
 20
13.4632448323
 30
0.0
 10
15.2732127396
 20
13.4638635138
 30
0.0
 10
15.2718363234
 20
13.464430744
 30
0.0
 10
15.2704293817
 20
13.4649436215
 30
0.0
 10
15.2689990905
 20
13.4653995318
 30
0.0
 10
15.2675527519
 20
13.4657961586
 30
0.0
 10
15.2660977438
 20
13.4661314674
 30
0.0
 10
15.2646414859
 20
13.4664037473
 30
0.0
 10
15.2631914094
 20
13.466611616
 30
0.0
 10
15.2617549243
 20
13.4667540103
 30
0.0
 10
15.2603392822
 20
13.4668302096
 30
0.0
 10
15.2589518154
 20
13.4668397886
 30
0.0
 10
15.25803801
 20
13.4668012492
 30
0.0
 10
15.2575877215
 20
13.4667703991
 30
0.0
  0
SPLINE
  5
312
100
AcDbEntity
  8
LAYER_FEATURE
100
AcDbSpline
 62
7
  6
CONTINUOUS
 70
0
 71
3
 72
23
 73
19
 74
0
 42
0.0000001
 43
0.0000001
 44
0.0000000001
 40
0.0
 40
0.0
 40
0.0
 40
0.0
 40
0.0588506095
 40
0.1189780247
 40
0.1802215831
 40
0.2424324819
 40
0.3054436442
 40
0.3690812811
 40
0.4331674362
 40
0.4975194942
 40
0.5619527596
 40
0.6262818582
 40
0.690322096
 40
0.7538920238
 40
0.8168129192
 40
0.8789112801
 40
0.9400304901
 40
1.0
 40
1.0
 40
1.0
 40
1.0
 10
15.301344447
 20
13.4440061785
 30
0.0
 10
15.3017762596
 20
13.4436854165
 30
0.0
 10
15.3026644409
 20
13.443057143
 30
0.0
 10
15.3040500825
 20
13.442165454
 30
0.0
 10
15.3054985994
 20
13.4413174529
 30
0.0
 10
15.3070036974
 20
13.4405167933
 30
0.0
 10
15.3085590152
 20
13.439766858
 30
0.0
 10
15.3101579002
 20
13.4390708539
 30
0.0
 10
15.3117935278
 20
13.4384317589
 30
0.0
 10
15.3134589171
 20
13.4378522994
 30
0.0
 10
15.3151469532
 20
13.4373349409
 30
0.0
 10
15.31685043
 20
13.4368819019
 30
0.0
 10
15.3185620773
 20
13.4364951171
 30
0.0
 10
15.3202745837
 20
13.4361762319
 30
0.0
 10
15.3219806231
 20
13.4359266109
 30
0.0
 10
15.323672983
 20
13.4357473101
 30
0.0
 10
15.3253443287
 20
13.4356391323
 30
0.0
 10
15.3264512521
 20
13.4356144439
 30
0.0
 10
15.3269993921
 20
13.4356144439
 30
0.0
  0
SPLINE
  5
313
100
AcDbEntity
  8
LAYER_FEATURE
100
AcDbSpline
 62
7
  6
CONTINUOUS
 70
0
 71
3
 72
24
 73
20
 74
0
 42
0.0000001
 43
0.0000001
 44
0.0000000001
 40
0.0
 40
0.0
 40
0.0
 40
0.0
 40
0.0784482223
 40
0.1550130196
 40
0.2295190356
 40
0.3018448077
 40
0.371883666
 40
0.4395600352
 40
0.5048342035
 40
0.5677047256
 40
0.6282138981
 40
0.6576149291
 40
0.6864638211
 40
0.7425719947
 40
0.7967486202
 40
0.8492469274
 40
0.9003747122
 40
0.9504971461
 40
1.0
 40
1.0
 40
1.0
 40
1.0
 10
15.3645999438
 20
13.4356144439
 30
0.0
 10
15.3651363297
 20
13.4356144439
 30
0.0
 10
15.3661963941
 20
13.4356375794
 30
0.0
 10
15.3677626546
 20
13.4357442204
 30
0.0
 10
15.3692803812
 20
13.4359220233
 30
0.0
 10
15.3707430095
 20
13.4361702101
 30
0.0
 10
15.3721443935
 20
13.4364877608
 30
0.0
 10
15.3734785651
 20
13.4368733569
 30
0.0
 10
15.3747398709
 20
13.4373254275
 30
0.0
 10
15.3759229023
 20
13.4378420995
 30
0.0
 10
15.3768481706
 20
13.4383293819
 30
0.0
 10
15.3775429488
 20
13.4387500645
 30
0.0
 10
15.3781948218
 20
13.4391821969
 30
0.0
 10
15.378953991
 20
13.4397576907
 30
0.0
 10
15.3797770018
 20
13.4405094369
 30
0.0
 10
15.3804999128
 20
13.4413128864
 30
0.0
 10
15.3811193852
 20
13.4421647218
 30
0.0
 10
15.3816323509
 20
13.4430611011
 30
0.0
 10
15.3819027746
 20
13.4436881975
 30
0.0
 10
15.3820187585
 20
13.4440061785
 30
0.0
  0
SPLINE
  5
314
100
AcDbEntity
  8
LAYER_FEATURE
100
AcDbSpline
 62
7
  6
CONTINUOUS
 70
0
 71
3
 72
23
 73
19
 74
0
 42
0.0000001
 43
0.0000001
 44
0.0000000001
 40
0.0
 40
0.0
 40
0.0
 40
0.0
 40
0.0789279723
 40
0.1561161272
 40
0.2313279019
 40
0.3043881027
 40
0.3751361025
 40
0.4434456786
 40
0.5092309734
 40
0.572449833
 40
0.6331110437
 40
0.691279781
 40
0.747084278
 40
0.8007221386
 40
0.8524611036
 40
0.9026397113
 40
0.9516712289
 40
1.0
 40
1.0
 40
1.0
 40
1.0
 10
15.4034333703
 20
13.4667703991
 30
0.0
 10
15.4029640431
 20
13.4668005277
 30
0.0
 10
15.4020342344
 20
13.4668392065
 30
0.0
 10
15.4006553703
 20
13.4668312087
 30
0.0
 10
15.3993134468
 20
13.4667565774
 30
0.0
 10
15.3980153991
 20
13.4666157141
 30
0.0
 10
15.3967677491
 20
13.4664093095
 30
0.0
 10
15.3955768394
 20
13.4661383853
 30
0.0
 10
15.3944487097
 20
13.465804263
 30
0.0
 10
15.3933890734
 20
13.4654085698
 30
0.0
 10
15.3924033016
 20
13.4649532323
 30
0.0
 10
15.3914964239
 20
13.4644404204
 30
0.0
 10
15.390673108
 20
13.4638725772
 30
0.0
 10
15.389937655
 20
13.4632524178
 30
0.0
 10
15.3892940259
 20
13.4625829475
 30
0.0
 10
15.3887457514
 20
13.4618673965
 30
0.0
 10
15.3882961255
 20
13.461109602
 30
0.0
 10
15.3880628148
 20
13.4605765344
 30
0.0
 10
15.3879641376
 20
13.4603060014
 30
0.0
  0
SPLINE
  5
315
100
AcDbEntity
  8
LAYER_FEATURE
100
AcDbSpline
 62
7
  6
CONTINUOUS
 70
0
 71
3
 72
23
 73
19
 74
0
 42
0.0000001
 43
0.0000001
 44
0.0000000001
 40
0.0
 40
0.0
 40
0.0
 40
0.0
 40
0.0534898904
 40
0.108921957
 40
0.1661863862
 40
0.2251707797
 40
0.2857291269
 40
0.347695976
 40
0.410890543
 40
0.4751170108
 40
0.5401683897
 40
0.6058290315
 40
0.6718766063
 40
0.7380856982
 40
0.8042276381
 40
0.8700737717
 40
0.9354105484
 40
1.0
 40
1.0
 40
1.0
 40
1.0
 10
15.4928518849
 20
13.4505909519
 30
0.0
 10
15.4925897958
 20
13.4508992218
 30
0.0
 10
15.4920351545
 20
13.4515093984
 30
0.0
 10
15.4911345002
 20
13.4523873778
 30
0.0
 10
15.4901543961
 20
13.4532404203
 30
0.0
 10
15.4890999507
 20
13.4540641403
 30
0.0
 10
15.4879764751
 20
13.454854406
 30
0.0
 10
15.4867897026
 20
13.4556071931
 30
0.0
 10
15.4855456751
 20
13.4563186654
 30
0.0
 10
15.4842507307
 20
13.4569852021
 30
0.0
 10
15.4829114774
 20
13.4576034155
 30
0.0
 10
15.4815347414
 20
13.4581701428
 30
0.0
 10
15.4801275425
 20
13.4586824933
 30
0.0
 10
15.4786970654
 20
13.4591378588
 30
0.0
 10
15.477250625
 20
13.4595339103
 30
0.0
 10
15.4757955331
 20
13.4598686459
 30
0.0
 10
15.4743393218
 20
13.4601403053
 30
0.0
 10
15.4733660279
 20
13.4602794356
 30
0.0
 10
15.4728809553
 20
13.4603379344
 30
0.0
  0
SPLINE
  5
316
100
AcDbEntity
  8
LAYER_FEATURE
100
AcDbSpline
 62
7
  6
CONTINUOUS
 70
0
 71
3
 72
23
 73
19
 74
0
 42
0.0000001
 43
0.0000001
 44
0.0000000001
 40
0.0
 40
0.0
 40
0.0
 40
0.0
 40
0.0535866139
 40
0.1089609811
 40
0.1660340503
 40
0.2247160495
 40
0.2848899987
 40
0.3464231609
 40
0.4091701628
 40
0.472972929
 40
0.5376635871
 40
0.6030663121
 40
0.6689987
 40
0.7352744667
 40
0.8017030214
 40
0.868091929
 40
0.934259354
 40
1.0
 40
1.0
 40
1.0
 40
1.0
 10
15.5084026648
 20
13.4323000837
 30
0.0
 10
15.5087103556
 20
13.431938177
 30
0.0
 10
15.5093584191
 20
13.4312210941
 30
0.0
 10
15.5104049023
 20
13.4301851737
 30
0.0
 10
15.511537749
 20
13.4291752421
 30
0.0
 10
15.5127520166
 20
13.4281956506
 30
0.0
 10
15.514042585
 20
13.4272505133
 30
0.0
 10
15.5154039415
 20
13.4263438585
 30
0.0
 10
15.5168302857
 20
13.4254795519
 30
0.0
 10
15.5183155363
 20
13.4246612739
 30
0.0
 10
15.5198533516
 20
13.4238925057
 30
0.0
 10
15.5214371727
 20
13.4231765363
 30
0.0
 10
15.5230602426
 20
13.4225164211
 30
0.0
 10
15.524715627
 20
13.421914973
 30
0.0
 10
15.5263962425
 20
13.4213747664
 30
0.0
 10
15.5280949794
 20
13.4208980863
 30
0.0
 10
15.5298044806
 20
13.4204870221
 30
0.0
 10
15.5309512739
 20
13.420256889
 30
0.0
 10
15.5315247639
 20
13.4201533158
 30
0.0
  0
SPLINE
  5
317
100
AcDbEntity
  8
LAYER_FEATURE
100
AcDbSpline
 62
7
  6
CONTINUOUS
 70
0
 71
3
 72
23
 73
19
 74
0
 42
0.0000001
 43
0.0000001
 44
0.0000000001
 40
0.0
 40
0.0
 40
0.0
 40
0.0
 40
0.0742709279
 40
0.147660034
 40
0.2199513893
 40
0.2909679103
 40
0.3605332493
 40
0.4284861215
 40
0.4946835306
 40
0.5590013985
 40
0.6213384316
 40
0.6816186428
 40
0.7397950354
 40
0.7958542116
 40
0.8498181681
 40
0.9017492043
 40
0.9517618927
 40
1.0
 40
1.0
 40
1.0
 40
1.0
 10
15.5711105742
 20
13.4130040601
 30
0.0
 10
15.5716788058
 20
13.4129014366
 30
0.0
 10
15.5728125676
 20
13.4127190711
 30
0.0
 10
15.5745106993
 20
13.4125140873
 30
0.0
 10
15.5761905586
 20
13.4123799712
 30
0.0
 10
15.5778448663
 20
13.4123172814
 30
0.0
 10
15.5794666404
 20
13.4123262854
 30
0.0
 10
15.5810489563
 20
13.4124069497
 30
0.0
 10
15.5825850752
 20
13.4125589469
 30
0.0
 10
15.5840684672
 20
13.4127816443
 30
0.0
 10
15.5854928298
 20
13.4130741045
 30
0.0
 10
15.5868521121
 20
13.4134351276
 30
0.0
 10
15.5881405449
 20
13.4138632279
 30
0.0
 10
15.5893526607
 20
13.4143566455
 30
0.0
 10
15.5904832855
 20
13.4149133616
 30
0.0
 10
15.5915276538
 20
13.4155311662
 30
0.0
 10
15.5924810915
 20
13.416207475
 30
0.0
 10
15.5930632816
 20
13.4167039791
 30
0.0
 10
15.5933364716
 20
13.4169609129
 30
0.0
  0
SPLINE
  5
318
100
AcDbEntity
  8
LAYER_FEATURE
100
AcDbSpline
 62
7
  6
CONTINUOUS
 70
0
 71
3
 72
23
 73
19
 74
0
 42
0.0000001
 43
0.0000001
 44
0.0000000001
 40
0.0
 40
0.0
 40
0.0
 40
0.0
 40
0.0739237414
 40
0.1472119901
 40
0.2195985745
 40
0.2908610138
 40
0.3607755143
 40
0.429134342
 40
0.4957499039
 40
0.56045579
 40
0.6231117393
 40
0.683606979
 40
0.7418650689
 40
0.7978499832
 40
0.8515689287
 40
0.903079009
 40
0.9525023596
 40
1.0
 40
1.0
 40
1.0
 40
1.0
 10
15.6264270585
 20
13.4326072816
 30
0.0
 10
15.6259436069
 20
13.4327234081
 30
0.0
 10
15.6249759751
 20
13.4329348686
 30
0.0
 10
15.6235206976
 20
13.4331896664
 30
0.0
 10
15.6220735654
 20
13.4333797124
 30
0.0
 10
15.6206420739
 20
13.4335040482
 30
0.0
 10
15.6192334466
 20
13.4335620447
 30
0.0
 10
15.6178548726
 20
13.4335534028
 30
0.0
 10
15.6165133693
 20
13.4334781517
 30
0.0
 10
15.6152157522
 20
13.4333366628
 30
0.0
 10
15.6139686086
 20
13.4331296491
 30
0.0
 10
15.6127782661
 20
13.4328581197
 30
0.0
 10
15.6116507562
 20
13.432523405
 30
0.0
 10
15.6105917879
 20
13.4321271431
 30
0.0
 10
15.609606752
 20
13.431671259
 30
0.0
 10
15.6087006
 20
13.4311578952
 30
0.0
 10
15.6078781728
 20
13.4305895899
 30
0.0
 10
15.607379212
 20
13.4301680411
 30
0.0
 10
15.6071464992
 20
13.4299491759
 30
0.0
  0
SPLINE
  5
319
100
AcDbEntity
  8
LAYER_FEATURE
100
AcDbSpline
 62
7
  6
CONTINUOUS
 70
0
 71
3
 72
23
 73
19
 74
0
 42
0.0000001
 43
0.0000001
 44
0.0000000001
 40
0.0
 40
0.0
 40
0.0
 40
0.0
 40
0.0488380615
 40
0.0997773176
 40
0.1528663338
 40
0.2081271938
 40
0.2655291414
 40
0.3250036811
 40
0.3864504272
 40
0.4497389174
 40
0.5147137242
 40
0.5811982794
 40
0.6489975025
 40
0.7179020986
 40
0.787689
 40
0.8581250095
 40
0.928983306
 40
1.0
 40
1.0
 40
1.0
 40
1.0
 10
15.7130717728
 20
13.4015910828
 30
0.0
 10
15.7129383698
 20
13.4019085993
 30
0.0
 10
15.7126357863
 20
13.4025450027
 30
0.0
 10
15.712093293
 20
13.4034777843
 30
0.0
 10
15.7114556085
 20
13.4044037705
 30
0.0
 10
15.7107261413
 20
13.4053182084
 30
0.0
 10
15.7099085835
 20
13.4062165851
 30
0.0
 10
15.7090071151
 20
13.4070943712
 30
0.0
 10
15.7080263184
 20
13.4079471353
 30
0.0
 10
15.7069711836
 20
13.4087705667
 30
0.0
 10
15.7058470875
 20
13.4095604996
 30
0.0
 10
15.7046597465
 20
13.4103129112
 30
0.0
 10
15.7034152051
 20
13.4110239752
 30
0.0
 10
15.7021198122
 20
13.4116900757
 30
0.0
 10
15.7007801866
 20
13.4123078096
 30
0.0
 10
15.6994030953
 20
13.4128740567
 30
0.0
 10
15.6979956603
 20
13.41338586
 30
0.0
 10
15.6970418776
 20
13.4136890848
 30
0.0
 10
15.6965616036
 20
13.4138310076
 30
0.0
  0
SPLINE
  5
31A
100
AcDbEntity
  8
LAYER_FEATURE
100
AcDbSpline
 62
7
  6
CONTINUOUS
 70
0
 71
3
 72
22
 73
18
 74
0
 42
0.0000001
 43
0.0000001
 44
0.0000000001
 40
0.0
 40
0.0
 40
0.0
 40
0.0
 40
0.1006320337
 40
0.1539400341
 40
0.2092607854
 40
0.2665787371
 40
0.3258477767
 40
0.3869956408
 40
0.4499250169
 40
0.5145174389
 40
0.5806361881
 40
0.6481282375
 40
0.7168275633
 40
0.7865552624
 40
0.8571223878
 40
0.928343565
 40
1.0
 40
1.0
 40
1.0
 40
1.0
 10
15.7209705393
 20
13.3827909868
 30
0.0
 10
15.7212896154
 20
13.3820315439
 30
0.0
 10
15.7218779442
 20
13.3809099189
 30
0.0
 10
15.7228271298
 20
13.3794832473
 30
0.0
 10
15.7236527378
 20
13.3784032038
 30
0.0
 10
15.7245744638
 20
13.3773388773
 30
0.0
 10
15.7255884918
 20
13.3762945391
 30
0.0
 10
15.726690467
 20
13.3752746668
 30
0.0
 10
15.7278757052
 20
13.3742835576
 30
0.0
 10
15.7291391476
 20
13.3733254127
 30
0.0
 10
15.7304754178
 20
13.3724043114
 30
0.0
 10
15.7318788234
 20
13.3715241719
 30
0.0
 10
15.7333433739
 20
13.3706887389
 30
0.0
 10
15.7348628086
 20
13.3699015825
 30
0.0
 10
15.7364307062
 20
13.3691660284
 30
0.0
 10
15.7380402824
 20
13.3684852854
 30
0.0
 10
15.7391342688
 20
13.3680707548
 30
0.0
 10
15.7396865775
 20
13.3678732445
 30
0.0
  0
SPLINE
  5
31B
100
AcDbEntity
  8
LAYER_FEATURE
100
AcDbSpline
 62
7
  6
CONTINUOUS
 70
0
 71
3
 72
23
 73
19
 74
0
 42
0.0000001
 43
0.0000001
 44
0.0000000001
 40
0.0
 40
0.0
 40
0.0
 40
0.0
 40
0.0685025177
 40
0.1370473273
 40
0.2054200597
 40
0.2734342571
 40
0.3408958924
 40
0.4076163067
 40
0.4734147839
 40
0.5381183045
 40
0.6015644506
 40
0.6636029511
 40
0.7240979177
 40
0.7829311049
 40
0.840002282
 40
0.8952328716
 40
0.9485776419
 40
1.0
 40
1.0
 40
1.0
 40
1.0
 10
15.7780506394
 20
13.3541539232
 30
0.0
 10
15.7786048047
 20
13.3539557488
 30
0.0
 10
15.7797210544
 20
13.3535801156
 30
0.0
 10
15.7814139953
 20
13.3530800847
 30
0.0
 10
15.7831204622
 20
13.3526449302
 30
0.0
 10
15.7848330526
 20
13.3522765151
 30
0.0
 10
15.786544524
 20
13.3519763974
 30
0.0
 10
15.7882475549
 20
13.3517458607
 30
0.0
 10
15.7899348761
 20
13.3515858964
 30
0.0
 10
15.7915992938
 20
13.3514971873
 30
0.0
 10
15.7932337105
 20
13.351480104
 30
0.0
 10
15.7948311615
 20
13.3515347339
 30
0.0
 10
15.796384847
 20
13.3516608537
 30
0.0
 10
15.7978881572
 20
13.3518579314
 30
0.0
 10
15.7993346847
 20
13.3521251443
 30
0.0
 10
15.8007183545
 20
13.3524613997
 30
0.0
 10
15.8020331423
 20
13.3528652947
 30
0.0
 10
15.8028756223
 20
13.3531844092
 30
0.0
 10
15.8032830094
 20
13.3533553335
 30
0.0
  0
SPLINE
  5
31C
100
AcDbEntity
  8
LAYER_FEATURE
100
AcDbSpline
 62
7
  6
CONTINUOUS
 70
0
 71
3
 72
23
 73
19
 74
0
 42
0.0000001
 43
0.0000001
 44
0.0000000001
 40
0.0
 40
0.0
 40
0.0
 40
0.0
 40
0.0675793646
 40
0.1355045256
 40
0.2035222847
 40
0.2714096075
 40
0.33893221
 40
0.4058602393
 40
0.4719716409
 40
0.5370521844
 40
0.6008992886
 40
0.6633241837
 40
0.7241549036
 40
0.7832405878
 40
0.8404523327
 40
0.8956879834
 40
0.9488866389
 40
1.0
 40
1.0
 40
1.0
 40
1.0
 10
15.8453687689
 20
13.3606162746
 30
0.0
 10
15.8449104477
 20
13.3608101113
 30
0.0
 10
15.8439831946
 20
13.3611795398
 30
0.0
 10
15.8425689376
 20
13.3616765582
 30
0.0
 10
15.8411333219
 20
13.3621159204
 30
0.0
 10
15.8396837919
 20
13.3624953759
 30
0.0
 10
15.8382276743
 20
13.3628130066
 30
0.0
 10
15.8367724137
 20
13.3630671892
 30
0.0
 10
15.8353254341
 20
13.3632566192
 30
0.0
 10
15.8338941088
 20
13.3633803311
 30
0.0
 10
15.8324857331
 20
13.363437704
 30
0.0
 10
15.8311074788
 20
13.3634284305
 30
0.0
 10
15.8297663564
 20
13.3633525493
 30
0.0
 10
15.8284691823
 20
13.3632104425
 30
0.0
 10
15.8272225605
 20
13.3630028159
 30
0.0
 10
15.8260327423
 20
13.3627306792
 30
0.0
 10
15.8249059119
 20
13.3623953789
 30
0.0
 10
15.8241859463
 20
13.362125421
 30
0.0
 10
15.8238388794
 20
13.3619798047
 30
0.0
  0
SPLINE
  5
31D
100
AcDbEntity
  8
LAYER_FEATURE
100
AcDbSpline
 62
7
  6
CONTINUOUS
 70
0
 71
3
 72
23
 73
19
 74
0
 42
0.0000001
 43
0.0000001
 44
0.0000000001
 40
0.0
 40
0.0
 40
0.0
 40
0.0
 40
0.0471497487
 40
0.0957272753
 40
0.1460483633
 40
0.1983835639
 40
0.2529266445
 40
0.3098067905
 40
0.3690944652
 40
0.430804656
 40
0.4949039205
 40
0.5613165714
 40
0.6299291821
 40
0.7005966784
 40
0.7731444386
 40
0.8473731975
 40
0.9230776263
 40
1.0
 40
1.0
 40
1.0
 40
1.0
 10
15.9222202435
 20
13.3172760721
 30
0.0
 10
15.9222268259
 20
13.317573857
 30
0.0
 10
15.9222037399
 20
13.3181797658
 30
0.0
 10
15.9220647306
 20
13.3190936131
 30
0.0
 10
15.9218218579
 20
13.3200193449
 30
0.0
 10
15.9214766864
 20
13.3209520465
 30
0.0
 10
15.9210311673
 20
13.3218871325
 30
0.0
 10
15.9204877153
 20
13.3228199292
 30
0.0
 10
15.9198491761
 20
13.3237457946
 30
0.0
 10
15.9191188494
 20
13.3246601136
 30
0.0
 10
15.9183004849
 20
13.3255583181
 30
0.0
 10
15.917398245
 20
13.3264358855
 30
0.0
 10
15.9164167196
 20
13.3272883923
 30
0.0
 10
15.9153609103
 20
13.3281115311
 30
0.0
 10
15.9142362018
 20
13.3289011182
 30
0.0
 10
15.9130482621
 20
13.3296531826
 30
0.0
 10
15.9118032251
 20
13.3303638141
 30
0.0
 10
15.9109452661
 20
13.3308045506
 30
0.0
 10
15.9105083903
 20
13.3310173334
 30
0.0
  0
SPLINE
  5
31E
100
AcDbEntity
  8
LAYER_FEATURE
100
AcDbSpline
 62
7
  6
CONTINUOUS
 70
0
 71
3
 72
23
 73
19
 74
0
 42
0.0000001
 43
0.0000001
 44
0.0000000001
 40
0.0
 40
0.0
 40
0.0
 40
0.0
 40
0.0481206372
 40
0.0975460315
 40
0.148553114
 40
0.2013854947
 40
0.256225947
 40
0.3132057908
 40
0.3724087808
 40
0.4338729019
 40
0.4975954904
 40
0.563537814
 40
0.6316284567
 40
0.701768063
 40
0.7738308327
 40
0.8476684518
 40
0.9231254034
 40
1.0
 40
1.0
 40
1.0
 40
1.0
 10
15.9218270855
 20
13.2994898202
 30
0.0
 10
15.9218193541
 20
13.2991400602
 30
0.0
 10
15.9218427056
 20
13.2984296788
 30
0.0
 10
15.9219899894
 20
13.2973580193
 30
0.0
 10
15.9222491053
 20
13.2962725679
 30
0.0
 10
15.9226186651
 20
13.2951781679
 30
0.0
 10
15.9230969188
 20
13.2940793491
 30
0.0
 10
15.9236816866
 20
13.2929807322
 30
0.0
 10
15.9243703925
 20
13.2918869099
 30
0.0
 10
15.9251600442
 20
13.2908024564
 30
0.0
 10
15.9260472363
 20
13.2897319116
 30
0.0
 10
15.9270281841
 20
13.2886797861
 30
0.0
 10
15.9280987055
 20
13.287650516
 30
0.0
 10
15.9292542317
 20
13.286648451
 30
0.0
 10
15.9304898293
 20
13.2856778491
 30
0.0
 10
15.9318002886
 20
13.2847427907
 30
0.0
 10
15.9331799466
 20
13.2838473386
 30
0.0
 10
15.93413389
 20
13.2832840188
 30
0.0
 10
15.9346208006
 20
13.2830096503
 30
0.0
  0
SPLINE
  5
31F
100
AcDbEntity
  8
LAYER_FEATURE
100
AcDbSpline
 62
7
  6
CONTINUOUS
 70
0
 71
3
 72
23
 73
19
 74
0
 42
0.0000001
 43
0.0000001
 44
0.0000000001
 40
0.0
 40
0.0
 40
0.0
 40
0.0
 40
0.0626222359
 40
0.1260750896
 40
0.1901690886
 40
0.2547332243
 40
0.3195825918
 40
0.3845303678
 40
0.4493902461
 40
0.5139759169
 40
0.5781036492
 40
0.641593608
 40
0.7042714081
 40
0.7659707857
 40
0.8265332365
 40
0.8858107508
 40
0.9436772302
 40
1.0
 40
1.0
 40
1.0
 40
1.0
 10
15.9686550861
 20
13.2638317212
 30
0.0
 10
15.9691498045
 20
13.2635529531
 30
0.0
 10
15.9701574774
 20
13.2630121839
 30
0.0
 10
15.9717084713
 20
13.2622574983
 30
0.0
 10
15.9733037115
 20
13.2615564579
 30
0.0
 10
15.9749362725
 20
13.2609120795
 30
0.0
 10
15.9765992487
 20
13.2603270889
 30
0.0
 10
15.9782855239
 20
13.2598039889
 30
0.0
 10
15.9799878971
 20
13.2593450203
 30
0.0
 10
15.9816991024
 20
13.2589521409
 30
0.0
 10
15.9834118309
 20
13.2586270188
 30
0.0
 10
15.9851187722
 20
13.2583710518
 30
0.0
 10
15.9868126448
 20
13.2581853334
 30
0.0
 10
15.98848622
 20
13.2580706506
 30
0.0
 10
15.9901323448
 20
13.2580274959
 30
0.0
 10
15.9917440719
 20
13.2580560556
 30
0.0
 10
15.993314411
 20
13.2581562366
 30
0.0
 10
15.994343881
 20
13.2582720993
 30
0.0
 10
15.9948497521
 20
13.2583423861
 30
0.0
  0
SPLINE
  5
320
100
AcDbEntity
  8
LAYER_FEATURE
100
AcDbSpline
 62
7
  6
CONTINUOUS
 70
0
 71
3
 72
23
 73
19
 74
0
 42
0.0000001
 43
0.0000001
 44
0.0000000001
 40
0.0
 40
0.0
 40
0.0
 40
0.0
 40
0.0612320707
 40
0.1236271292
 40
0.1869713925
 40
0.2510688366
 40
0.315703944
 40
0.3806562594
 40
0.4457036805
 40
0.5106222168
 40
0.5751894762
 40
0.6391866077
 40
0.7024004681
 40
0.7646272069
 40
0.825672199
 40
0.8853536598
 40
0.9435167675
 40
1.0
 40
1.0
 40
1.0
 40
1.0
 10
16.0425211463
 20
13.2566296614
 30
0.0
 10
16.0421257227
 20
13.2568864553
 30
0.0
 10
16.0413148883
 20
13.2573859509
 30
0.0
 10
16.0400558284
 20
13.2580850675
 30
0.0
 10
16.0387476274
 20
13.2587382752
 30
0.0
 10
16.0373970751
 20
13.2593422149
 30
0.0
 10
16.0360109957
 20
13.259893835
 30
0.0
 10
16.0345964762
 20
13.2603903156
 30
0.0
 10
16.0331607338
 20
13.260829116
 30
0.0
 10
16.0317110915
 20
13.261207999
 30
0.0
 10
16.0302549493
 20
13.2615250418
 30
0.0
 10
16.0287997344
 20
13.2617786162
 30
0.0
 10
16.0273528655
 20
13.261967428
 30
0.0
 10
16.0259217214
 20
13.2620905207
 30
0.0
 10
16.0245136114
 20
13.2621472633
 30
0.0
 10
16.0231356361
 20
13.2621373657
 30
0.0
 10
16.0217949347
 20
13.2620608448
 30
0.0
 10
16.0209169357
 20
13.2619642165
 30
0.0
 10
16.0204861501
 20
13.2619043622
 30
0.0
  0
SPLINE
  5
321
100
AcDbEntity
  8
LAYER_FEATURE
100
AcDbSpline
 62
7
  6
CONTINUOUS
 70
0
 71
3
 72
23
 73
19
 74
0
 42
0.0000001
 43
0.0000001
 44
0.0000000001
 40
0.0
 40
0.0
 40
0.0
 40
0.0
 40
0.0570310866
 40
0.1155343183
 40
0.1753682496
 40
0.2363995963
 40
0.2984742711
 40
0.3614288264
 40
0.4250931236
 40
0.4892899239
 40
0.553837524
 40
0.6185512587
 40
0.6832448215
 40
0.7477328345
 40
0.8118303213
 40
0.87535515
 40
0.9381399131
 40
1.0
 40
1.0
 40
1.0
 40
1.0
 10
16.1274822756
 20
13.1493548219
 30
0.0
 10
16.1278763688
 20
13.149017244
 30
0.0
 10
16.1286920269
 20
13.1483533331
 30
0.0
 10
16.129975844
 20
13.1474049021
 30
0.0
 10
16.1313310354
 20
13.1464945737
 30
0.0
 10
16.1327517079
 20
13.1456262709
 30
0.0
 10
16.1342318614
 20
13.1448036576
 30
0.0
 10
16.135765167
 20
13.144030249
 30
0.0
 10
16.1373450831
 20
13.1433093516
 30
0.0
 10
16.1389648682
 20
13.1426440398
 30
0.0
 10
16.1406176025
 20
13.1420371454
 30
0.0
 10
16.1422962317
 20
13.1414912691
 30
0.0
 10
16.1439935918
 20
13.1410087417
 30
0.0
 10
16.1457024307
 20
13.1405916179
 30
0.0
 10
16.1474154366
 20
13.1402416829
 30
0.0
 10
16.1491253642
 20
13.1399604168
 30
0.0
 10
16.1508248046
 20
13.1397490634
 30
0.0
 10
16.1519553482
 20
13.1396545463
 30
0.0
 10
16.1525171016
 20
13.1396194546
 30
0.0
  0
SPLINE
  5
322
100
AcDbEntity
  8
LAYER_FEATURE
100
AcDbSpline
 62
7
  6
CONTINUOUS
 70
0
 71
3
 72
23
 73
19
 74
0
 42
0.0000001
 43
0.0000001
 44
0.0000000001
 40
0.0
 40
0.0
 40
0.0
 40
0.0
 40
0.0552785622
 40
0.1123504153
 40
0.1710724241
 40
0.2313047328
 40
0.2928781198
 40
0.3556080979
 40
0.4192986933
 40
0.4837424922
 40
0.5487243109
 40
0.6140234773
 40
0.6794157676
 40
0.7446769187
 40
0.8095823987
 40
0.8739106711
 40
0.9374579418
 40
1.0
 40
1.0
 40
1.0
 40
1.0
 10
16.2019120776
 20
13.1290718188
 30
0.0
 10
16.2016128251
 20
13.1293713453
 30
0.0
 10
16.2009861439
 20
13.1299619059
 30
0.0
 10
16.1999838279
 20
13.1308067907
 30
0.0
 10
16.1989085819
 20
13.1316211778
 30
0.0
 10
16.1977659994
 20
13.132400878
 30
0.0
 10
16.196561841
 20
13.1331419686
 30
0.0
 10
16.1953022554
 20
13.1338406698
 30
0.0
 10
16.19399366
 20
13.1344934152
 30
0.0
 10
16.1926427254
 20
13.1350968799
 30
0.0
 10
16.1912563473
 20
13.1356479956
 30
0.0
 10
16.1898415953
 20
13.1361439404
 30
0.0
 10
16.1884056842
 20
13.1365821838
 30
0.0
 10
16.1869559455
 20
13.1369604961
 30
0.0
 10
16.185499792
 20
13.1372769423
 30
0.0
 10
16.1840445835
 20
13.137529923
 30
0.0
 10
16.1825978541
 20
13.1377181009
 30
0.0
 10
16.181635222
 20
13.1378004993
 30
0.0
 10
16.1811571191
 20
13.1378303655
 30
0.0
  0
SPLINE
  5
323
100
AcDbEntity
  8
LAYER_FEATURE
100
AcDbSpline
 62
7
  6
CONTINUOUS
 70
0
 71
3
 72
11
 73
7
 74
0
 42
0.0000001
 43
0.0000001
 44
0.0000000001
 40
0.0
 40
0.0
 40
0.0
 40
0.0
 40
0.2542638867
 40
0.505708144
 40
0.7542970751
 40
1.0
 40
1.0
 40
1.0
 40
1.0
 10
16.2019120776
 20
13.1290718188
 30
0.0
 10
16.2054531998
 20
13.125527455
 30
0.0
 10
16.2124311424
 20
13.1184126865
 30
0.0
 10
16.2226354292
 20
13.1076046451
 30
0.0
 10
16.232514163
 20
13.0967250294
 30
0.0
 10
16.2389173096
 20
13.0893847233
 30
0.0
 10
16.2420623658
 20
13.0857038557
 30
0.0
  0
SPLINE
  5
324
100
AcDbEntity
  8
LAYER_FEATURE
100
AcDbSpline
 62
7
  6
CONTINUOUS
 70
0
 71
3
 72
23
 73
19
 74
0
 42
0.0000001
 43
0.0000001
 44
0.0000000001
 40
0.0
 40
0.0
 40
0.0
 40
0.0
 40
0.0520102276
 40
0.1059138842
 40
0.1616577826
 40
0.2191825176
 40
0.2783972599
 40
0.3391913603
 40
0.4014378232
 40
0.4649935339
 40
0.5297024005
 40
0.5953974629
 40
0.6619023749
 40
0.7290342385
 40
0.7966032954
 40
0.8644154608
 40
0.9322851109
 40
1.0
 40
1.0
 40
1.0
 40
1.0
 10
16.2416649735
 20
13.0199974627
 30
0.0
 10
16.2419247221
 20
13.0196283811
 30
0.0
 10
16.242479124
 20
13.0188944191
 30
0.0
 10
16.2433922351
 20
13.0178284846
 30
0.0
 10
16.2443980738
 20
13.0167821306
 30
0.0
 10
16.2454922345
 20
13.0157598635
 30
0.0
 10
16.2466701056
 20
13.0147659602
 30
0.0
 10
16.2479266568
 20
13.0138046475
 30
0.0
 10
16.2492565384
 20
13.0128800157
 30
0.0
 10
16.2506540832
 20
13.0119959961
 30
0.0
 10
16.2521133263
 20
13.0111563461
 30
0.0
 10
16.2536280479
 20
13.0103646542
 30
0.0
 10
16.2551917883
 20
13.0096242963
 30
0.0
 10
16.2567978678
 20
13.0089384272
 30
0.0
 10
16.2584394154
 20
13.0083099816
 30
0.0
 10
16.260109488
 20
13.0077416175
 30
0.0
 10
16.2618008543
 20
13.0072358213
 30
0.0
 10
16.2629402261
 20
13.006941113
 30
0.0
 10
16.2635117868
 20
13.0068047649
 30
0.0
  0
SPLINE
  5
325
100
AcDbEntity
  8
LAYER_FEATURE
100
AcDbSpline
 62
7
  6
CONTINUOUS
 70
0
 71
3
 72
23
 73
19
 74
0
 42
0.0000001
 43
0.0000001
 44
0.0000000001
 40
0.0
 40
0.0
 40
0.0
 40
0.0
 40
0.050146769
 40
0.1024075652
 40
0.1567684163
 40
0.2131975537
 40
0.2716177765
 40
0.3319211853
 40
0.3939743638
 40
0.4576195669
 40
0.5226792988
 40
0.5889595917
 40
0.6562523144
 40
0.7243391511
 40
0.7929917634
 40
0.8619752417
 40
0.931064092
 40
1.0
 40
1.0
 40
1.0
 40
1.0
 10
16.3106286574
 20
12.9882767247
 30
0.0
 10
16.310451664
 20
12.9885943143
 30
0.0
 10
16.3100632562
 20
12.9892281537
 30
0.0
 10
16.3093984381
 20
12.9901511785
 30
0.0
 10
16.3086427674
 20
12.9910614282
 30
0.0
 10
16.3078002274
 20
12.9919542311
 30
0.0
 10
16.306875063
 20
12.9928251527
 30
0.0
 10
16.305871995
 20
12.9936697839
 30
0.0
 10
16.3047961213
 20
12.9944838436
 30
0.0
 10
16.3036529172
 20
12.9952632047
 30
0.0
 10
16.3024482104
 20
12.9960039153
 30
0.0
 10
16.3011881326
 20
12.9967021959
 30
0.0
 10
16.2998791029
 20
12.9973544905
 30
0.0
 10
16.2985278019
 20
12.9979574794
 30
0.0
 10
16.2971411368
 20
12.99850808
 30
0.0
 10
16.2957261154
 20
12.9990035096
 30
0.0
 10
16.2942900582
 20
12.9994411772
 30
0.0
 10
16.2933213442
 20
12.9996935754
 30
0.0
 10
16.2928351799
 20
12.9998095518
 30
0.0
  0
SPLINE
  5
326
100
AcDbEntity
  8
LAYER_FEATURE
100
AcDbSpline
 62
7
  6
CONTINUOUS
 70
0
 71
3
 72
10
 73
6
 74
0
 42
0.0000001
 43
0.0000001
 44
0.0000000001
 40
0.0
 40
0.0
 40
0.0
 40
0.0
 40
0.2549656176
 40
0.5065955639
 40
1.0
 40
1.0
 40
1.0
 40
1.0
 10
16.3106286574
 20
12.9882767247
 30
0.0
 10
16.3127125439
 20
12.9845374864
 30
0.0
 10
16.3167594677
 20
12.9770551294
 30
0.0
 10
16.3243590802
 20
12.9620829791
 30
0.0
 10
16.3295742938
 20
12.9507041816
 30
0.0
 10
16.3328090233
 20
12.9430778912
 30
0.0
  0
SPLINE
  5
327
100
AcDbEntity
  8
LAYER_FEATURE
100
AcDbSpline
 62
7
  6
CONTINUOUS
 70
0
 71
3
 72
9
 73
5
 74
0
 42
0.0000001
 43
0.0000001
 44
0.0000000001
 40
0.0
 40
0.0
 40
0.0
 40
0.0
 40
0.4944393561
 40
1.0
 40
1.0
 40
1.0
 40
1.0
 10
16.3134464465
 20
12.873378203
 30
0.0
 10
16.3143018529
 20
12.8728671799
 30
0.0
 10
16.3160708471
 20
12.871897734
 30
0.0
 10
16.3179026866
 20
12.8710535535
 30
0.0
 10
16.3188416784
 20
12.8706581732
 30
0.0
  0
SPLINE
  5
328
100
AcDbEntity
  8
LAYER_FEATURE
100
AcDbSpline
 62
7
  6
CONTINUOUS
 70
0
 71
3
 72
23
 73
19
 74
0
 42
0.0000001
 43
0.0000001
 44
0.0000000001
 40
0.0
 40
0.0
 40
0.0
 40
0.0
 40
0.0471795181
 40
0.0961304581
 40
0.1470726051
 40
0.2001826078
 40
0.2555666732
 40
0.3132751328
 40
0.3733091687
 40
0.4356239928
 40
0.5001353822
 40
0.5667250584
 40
0.6352444481
 40
0.7055200475
 40
0.7773548291
 40
0.8505325999
 40
0.92483582
 40
1.0
 40
1.0
 40
1.0
 40
1.0
 10
16.3598633151
 20
12.8456507602
 30
0.0
 10
16.3598242688
 20
12.8459581533
 30
0.0
 10
16.3597093363
 20
12.8465804286
 30
0.0
 10
16.3594364178
 20
12.8475085654
 30
0.0
 10
16.3590616553
 20
12.8484425009
 30
0.0
 10
16.3585872278
 20
12.8493773788
 30
0.0
 10
16.3580156491
 20
12.8503086291
 30
0.0
 10
16.3573499102
 20
12.8512315981
 30
0.0
 10
16.3565934308
 20
12.8521416755
 30
0.0
 10
16.3557500793
 20
12.8530343027
 30
0.0
 10
16.3548241621
 20
12.8539049982
 30
0.0
 10
16.3538203822
 20
12.8547493575
 30
0.0
 10
16.3527438437
 20
12.8555631084
 30
0.0
 10
16.351600033
 20
12.8563421271
 30
0.0
 10
16.350394787
 20
12.8570824452
 30
0.0
 10
16.349134185
 20
12.8577803318
 30
0.0
 10
16.34782474
 20
12.8584321528
 30
0.0
 10
16.3469278113
 20
12.8588319726
 30
0.0
 10
16.3464728402
 20
12.8590235468
 30
0.0
  0
SPLINE
  5
329
100
AcDbEntity
  8
LAYER_FEATURE
100
AcDbSpline
 62
7
  6
CONTINUOUS
 70
0
 71
3
 72
11
 73
7
 74
0
 42
0.0000001
 43
0.0000001
 44
0.0000000001
 40
0.0
 40
0.0
 40
0.0
 40
0.0
 40
0.2533148909
 40
0.5042906093
 40
0.753118601
 40
1.0
 40
1.0
 40
1.0
 40
1.0
 10
16.3598633151
 20
12.8456507602
 30
0.0
 10
16.3603258476
 20
12.8420094616
 30
0.0
 10
16.3611215018
 20
12.8347439202
 30
0.0
 10
16.3619250728
 20
12.8238585318
 30
0.0
 10
16.3623324953
 20
12.8130443769
 30
0.0
 10
16.3623398887
 20
12.8058595769
 30
0.0
 10
16.3622768373
 20
12.8022827971
 30
0.0
  0
SPLINE
  5
32A
100
AcDbEntity
  8
LAYER_FEATURE
100
AcDbSpline
 62
7
  6
CONTINUOUS
 70
0
 71
3
 72
80
 73
76
 74
0
 42
0.0000001
 43
0.0000001
 44
0.0000000001
 40
0.0
 40
0.0
 40
0.0
 40
0.0
 40
0.017178625
 40
0.0345301896
 40
0.0520439856
 40
0.0697095611
 40
0.0875157513
 40
0.105451206
 40
0.1235042502
 40
0.1416629551
 40
0.159915164
 40
0.1782485184
 40
0.1966504877
 40
0.2151083967
 40
0.2336094524
 40
0.2521407721
 40
0.2706894106
 40
0.2892423869
 40
0.3077867108
 40
0.3263094099
 40
0.3447975567
 40
0.3632382956
 40
0.3816188701
 40
0.3999266497
 40
0.4181491573
 40
0.4362740982
 40
0.4542893881
 40
0.4721831821
 40
0.4899439035
 40
0.5075602738
 40
0.5250213437
 40
0.5423165259
 40
0.5594356272
 40
0.5763688815
 40
0.5931069843
 40
0.6096411291
 40
0.6259630453
 40
0.6420650388
 40
0.6579400309
 40
0.673581601
 40
0.6889840307
 40
0.7041423508
 40
0.7190523912
 40
0.7337108317
 40
0.7481152531
 40
0.7622641923
 40
0.7761571984
 40
0.7897948916
 40
0.8031790229
 40
0.8163125314
 40
0.8291996012
 40
0.8418457167
 40
0.8542577138
 40
0.8603787793
 40
0.8664445248
 40
0.8784144197
 40
0.8901792221
 40
0.8959889949
 40
0.9017523402
 40
0.9131461931
 40
0.9243770779
 40
0.9299370835
 40
0.935462781
 40
0.9409564793
 40
0.9464205592
 40
0.9518574755
 40
0.9572697442
 40
0.9626599452
 40
0.9680307112
 40
0.9733847242
 40
0.9787247102
 40
0.9840534294
 40
0.9893736733
 40
0.9946882542
 40
1.0
 40
1.0
 40
1.0
 40
1.0
 10
15.255606722
 20
13.7132389006
 30
0.0
 10
15.266663963
 20
13.7132389006
 30
0.0
 10
15.2888904696
 20
13.7129956003
 30
0.0
 10
15.322374158
 20
13.7119145527
 30
0.0
 10
15.3561409879
 20
13.7101165784
 30
0.0
 10
15.3901554693
 20
13.7076036165
 30
0.0
 10
15.4243823791
 20
13.7043782397
 30
0.0
 10
15.4587860314
 20
13.7004438241
 30
0.0
 10
15.4933306384
 20
13.6958044575
 30
0.0
 10
15.5279802409
 20
13.6904649751
 30
0.0
 10
15.5626987738
 20
13.6844309363
 30
0.0
 10
15.5974500992
 20
13.6777086218
 30
0.0
 10
15.6321980434
 20
13.6703050278
 30
0.0
 10
15.6669064349
 20
13.6622278571
 30
0.0
 10
15.7015391435
 20
13.6534855201
 30
0.0
 10
15.7360601178
 20
13.6440871201
 30
0.0
 10
15.7704334219
 20
13.6340424412
 30
0.0
 10
15.8046232736
 20
13.6233619394
 30
0.0
 10
15.8385940806
 20
13.6120567305
 30
0.0
 10
15.8723104782
 20
13.6001385808
 30
0.0
 10
15.9057373693
 20
13.5876199007
 30
0.0
 10
15.9388399582
 20
13.5745137233
 30
0.0
 10
15.9715837866
 20
13.5608336917
 30
0.0
 10
16.0039347696
 20
13.5465940451
 30
0.0
 10
16.0358592305
 20
13.5318096023
 30
0.0
 10
16.0673239393
 20
13.5164957523
 30
0.0
 10
16.0982961473
 20
13.5006684372
 30
0.0
 10
16.1287436188
 20
13.4843441301
 30
0.0
 10
16.1586346643
 20
13.4675398192
 30
0.0
 10
16.1879381734
 20
13.4502729903
 30
0.0
 10
16.2166236473
 20
13.4325616066
 30
0.0
 10
16.2446612361
 20
13.4144240982
 30
0.0
 10
16.2720217657
 20
13.3958793355
 30
0.0
 10
16.2986767666
 20
13.3769466081
 30
0.0
 10
16.3245985034
 20
13.357645606
 30
0.0
 10
16.349760003
 20
13.3379963971
 30
0.0
 10
16.3741350853
 20
13.3180194085
 30
0.0
 10
16.3976983936
 20
13.2977354081
 30
0.0
 10
16.4204254152
 20
13.2771654755
 30
0.0
 10
16.442292505
 20
13.2563309814
 30
0.0
 10
16.4632769104
 20
13.2352535649
 30
0.0
 10
16.4833567924
 20
13.2139551087
 30
0.0
 10
16.5025112553
 20
13.1924577218
 30
0.0
 10
16.5207203643
 20
13.1707837127
 30
0.0
 10
16.5379651599
 20
13.1489555631
 30
0.0
 10
16.5542276758
 20
13.1269959066
 30
0.0
 10
16.5694909553
 20
13.1049275036
 30
0.0
 10
16.5837390669
 20
13.0827732209
 30
0.0
 10
16.5969571303
 20
13.0605560048
 30
0.0
 10
16.6091313071
 20
13.0382988858
 30
0.0
 10
16.6202488571
 20
13.0160248372
 30
0.0
 10
16.6302979803
 20
12.9937571995
 30
0.0
 10
16.6378076411
 20
12.9751395875
 30
0.0
 10
16.6432627204
 20
12.9602745208
 30
0.0
 10
16.6483059257
 20
12.9455652603
 30
0.0
 10
16.6539348629
 20
12.9272214214
 30
0.0
 10
16.6586884564
 20
12.9088010315
 30
0.0
 10
16.6619281306
 20
12.8941315021
 30
0.0
 10
16.6647725838
 20
12.8796235314
 30
0.0
 10
16.6676406927
 20
12.8615698947
 30
0.0
 10
16.6695934378
 20
12.8435254965
 30
0.0
 10
16.6705885782
 20
12.8291943034
 30
0.0
 10
16.6710520691
 20
12.8185315754
 30
0.0
 10
16.6712349993
 20
12.8079221375
 30
0.0
 10
16.6711372806
 20
12.7973686845
 30
0.0
 10
16.6707589867
 20
12.7868739934
 30
0.0
 10
16.6701001519
 20
12.7764408022
 30
0.0
 10
16.6691609802
 20
12.7660718389
 30
0.0
 10
16.6679417028
 20
12.7557698137
 30
0.0
 10
16.6664426074
 20
12.745537426
 30
0.0
 10
16.6646641314
 20
12.7353773432
 30
0.0
 10
16.6626066767
 20
12.7252922416
 30
0.0
 10
16.6602708228
 20
12.7152847237
 30
0.0
 10
16.6576571829
 20
12.7053575159
 30
0.0
 10
16.6557297664
 20
12.6987938137
 30
0.0
 10
16.654720325
 20
12.6955272553
 30
0.0
  0
SPLINE
  5
32B
100
AcDbEntity
  8
LAYER_CHAMFER_FEAT
100
AcDbSpline
 62
7
  6
CONTINUOUS
 70
0
 71
3
 72
85
 73
81
 74
0
 42
0.0000001
 43
0.0000001
 44
0.0000000001
 40
0.0
 40
0.0
 40
0.0
 40
0.0
 40
0.0157578073
 40
0.0311471291
 40
0.046164283
 40
0.0608083495
 40
0.0750813818
 40
0.0889886258
 40
0.1025387451
 40
0.1091842268
 40
0.115745351
 40
0.1286219132
 40
0.1411897877
 40
0.1473661286
 40
0.1534746723
 40
0.1595190455
 40
0.165503134
 40
0.1714310623
 40
0.1773071724
 40
0.1831360435
 40
0.1889224467
 40
0.1946713483
 40
0.2003878907
 40
0.2060773587
 40
0.2117451765
 40
0.2173968669
 40
0.2230380339
 40
0.2286743344
 40
0.2343114481
 40
0.2399550519
 40
0.2456107885
 40
0.2512842448
 40
0.2569809144
 40
0.2627061852
 40
0.2684653062
 40
0.2742633645
 40
0.2801052814
 40
0.2859957678
 40
0.2919393358
 40
0.3040009033
 40
0.3163232668
 40
0.3289339417
 40
0.3418564172
 40
0.3551101675
 40
0.3687107398
 40
0.3826698913
 40
0.3969957828
 40
0.411693194
 40
0.4267637429
 40
0.4422060979
 40
0.4580161928
 40
0.4741874486
 40
0.4907109736
 40
0.5075757498
 40
0.5247688004
 40
0.542275368
 40
0.5600790769
 40
0.5781620797
 40
0.5965051918
 40
0.6150880249
 40
0.6338891231
 40
0.652886084
 40
0.6720556723
 40
0.69137393
 40
0.7108162932
 40
0.7303577003
 40
0.7499726952
 40
0.769635529
 40
0.7893202654
 40
0.8090008845
 40
0.828651382
 40
0.8482458694
 40
0.8677586781
 40
0.8871644705
 40
0.906438321
 40
0.9255558524
 40
0.9444933686
 40
0.9632276338
 40
0.9817372632
 40
1.0
 40
1.0
 40
1.0
 40
1.0
 10
14.9754746305
 20
11.8051680673
 30
0.0
 10
14.9717487521
 20
11.804291818
 30
0.0
 10
14.9644163437
 20
11.8024186892
 30
0.0
 10
14.9536705327
 20
11.799204323
 30
0.0
 10
14.9433264019
 20
11.7956241822
 30
0.0
 10
14.933404445
 20
11.7916852268
 30
0.0
 10
14.923924012
 20
11.7873949884
 30
0.0
 10
14.9149039121
 20
11.7827618154
 30
0.0
 10
14.9077393675
 20
11.7785955595
 30
0.0
 10
14.9022608616
 20
11.7750977545
 30
0.0
 10
14.8970186243
 20
11.7715386711
 30
0.0
 10
14.8907772754
 20
11.7668958566
 30
0.0
 10
14.884900758
 20
11.7619419726
 30
0.0
 10
14.8804770962
 20
11.7578330227
 30
0.0
 10
14.877315001
 20
11.7546977339
 30
0.0
 10
14.8742912177
 20
11.7514927647
 30
0.0
 10
14.8714072029
 20
11.7482196679
 30
0.0
 10
14.8686643739
 20
11.7448800766
 30
0.0
 10
14.8660641412
 20
11.7414755888
 30
0.0
 10
14.863607749
 20
11.7380079204
 30
0.0
 10
14.8612964486
 20
11.7344787558
 30
0.0
 10
14.8591314028
 20
11.7308898314
 30
0.0
 10
14.8571136479
 20
11.7272429441
 30
0.0
 10
14.8552442526
 20
11.7235398619
 30
0.0
 10
14.8535241018
 20
11.7197824441
 30
0.0
 10
14.8519540653
 20
11.7159725434
 30
0.0
 10
14.8505349592
 20
11.7121120376
 30
0.0
 10
14.8492674284
 20
11.7082028635
 30
0.0
 10
14.8481521656
 20
11.7042469401
 30
0.0
 10
14.8471896886
 20
11.7002462434
 30
0.0
 10
14.84638046
 20
11.6962027595
 30
0.0
 10
14.8457249307
 20
11.6921184868
 30
0.0
 10
14.8452233494
 20
11.6879954626
 30
0.0
 10
14.844876009
 20
11.6838357236
 30
0.0
 10
14.84468306
 20
11.6796413356
 30
0.0
 10
14.8446445536
 20
11.6754143701
 30
0.0
 10
14.8447605604
 20
11.6711569341
 30
0.0
 10
14.8450309566
 20
11.6668710732
 30
0.0
 10
14.8455998841
 20
11.6610938438
 30
0.0
 10
14.8467029959
 20
11.6538041769
 30
0.0
 10
14.8486344066
 20
11.6450220518
 30
0.0
 10
14.8511757669
 20
11.6361790625
 30
0.0
 10
14.8543217052
 20
11.6272928258
 30
0.0
 10
14.8580657471
 20
11.6183805955
 30
0.0
 10
14.8624003068
 20
11.6094597563
 30
0.0
 10
14.8673166756
 20
11.6005476551
 30
0.0
 10
14.8728050534
 20
11.5916616277
 30
0.0
 10
14.8788545674
 20
11.5828189643
 30
0.0
 10
14.8854532836
 20
11.5740368877
 30
0.0
 10
14.8925882095
 20
11.5653325164
 30
0.0
 10
14.9002453055
 20
11.556722824
 30
0.0
 10
14.9084095289
 20
11.5482246212
 30
0.0
 10
14.9170648549
 20
11.5398545165
 30
0.0
 10
14.9261943043
 20
11.5316288882
 30
0.0
 10
14.9357799549
 20
11.523563831
 30
0.0
 10
14.9458029915
 20
11.5156751375
 30
0.0
 10
14.9562437449
 20
11.5079782665
 30
0.0
 10
14.9670817289
 20
11.5004883141
 30
0.0
 10
14.9782956704
 20
11.4932199735
 30
0.0
 10
14.9898635483
 20
11.486187498
 30
0.0
 10
15.0017626494
 20
11.4794046894
 30
0.0
 10
15.0139696106
 20
11.4728848648
 30
0.0
 10
15.0264604641
 20
11.4666408346
 30
0.0
 10
15.0392106733
 20
11.4606848541
 30
0.0
 10
15.0521951921
 20
11.4550286176
 30
0.0
 10
15.0653885156
 20
11.4496832358
 30
0.0
 10
15.0787647298
 20
11.444659216
 30
0.0
 10
15.0922975574
 20
11.4399664297
 30
0.0
 10
15.1059604091
 20
11.4356140878
 30
0.0
 10
15.1197264436
 20
11.43161074
 30
0.0
 10
15.1335686177
 20
11.4279642537
 30
0.0
 10
15.1474597394
 20
11.4246818018
 30
0.0
 10
15.1613725186
 20
11.4217698239
 30
0.0
 10
15.1752796238
 20
11.419234038
 30
0.0
 10
15.1891537376
 20
11.4170794241
 30
0.0
 10
15.2029676238
 20
11.4153102195
 30
0.0
 10
15.2166940939
 20
11.4139299225
 30
0.0
 10
15.2303063606
 20
11.4129411804
 30
0.0
 10
15.2437773859
 20
11.4123460287
 30
0.0
 10
15.2527098203
 20
11.4122114243
 30
0.0
 10
15.2571457905
 20
11.4122114243
 30
0.0
  0
SPLINE
  5
32C
100
AcDbEntity
  8
LAYER_CUT_FEAT
100
AcDbSpline
 62
7
  6
CONTINUOUS
 70
0
 71
3
 72
23
 73
19
 74
0
 42
0.0000001
 43
0.0000001
 44
0.0000000001
 40
0.0
 40
0.0
 40
0.0
 40
0.0
 40
0.0696911011
 40
0.1381416596
 40
0.2053865822
 40
0.2714733313
 40
0.3364539497
 40
0.4003877696
 40
0.4633414354
 40
0.5253884247
 40
0.5866090819
 40
0.6470902533
 40
0.7069248642
 40
0.76621142
 40
0.8250532907
 40
0.8835579104
 40
0.9418358891
 40
1.0
 40
1.0
 40
1.0
 40
1.0
 10
15.9543461227
 20
12.1678588505
 30
0.0
 10
15.9564593199
 20
12.1635526074
 30
0.0
 10
15.9604923266
 20
12.1549391684
 30
0.0
 10
15.9659937232
 20
12.1419131739
 30
0.0
 10
15.9708866839
 20
12.1289109653
 30
0.0
 10
15.9751663239
 20
12.1159453036
 30
0.0
 10
15.9788284883
 20
12.1030283873
 30
0.0
 10
15.9818695426
 20
12.0901725903
 30
0.0
 10
15.9842864378
 20
12.0773902027
 30
0.0
 10
15.9860767033
 20
12.0646934623
 30
0.0
 10
15.9872384996
 20
12.0520945634
 30
0.0
 10
15.9877705613
 20
12.0396056279
 30
0.0
 10
15.987672215
 20
12.0272387085
 30
0.0
 10
15.9869434497
 20
12.0150057608
 30
0.0
 10
15.9855848729
 20
12.0029186774
 30
0.0
 10
15.9835976499
 20
11.9909890883
 30
0.0
 10
15.9809837855
 20
11.979229047
 30
0.0
 10
15.9788240989
 20
11.9715060707
 30
0.0
 10
15.9776420988
 20
11.9676811333
 30
0.0
  0
SPLINE
  5
32D
100
AcDbEntity
  8
02___PRT_ALL_AXES
100
AcDbSpline
 62
7
  6
CONTINUOUS
 70
0
 71
3
 72
77
 73
73
 74
0
 42
0.0000001
 43
0.0000001
 44
0.0000000001
 40
0.0
 40
0.0
 40
0.0
 40
0.0
 40
0.0171787437
 40
0.0345302418
 40
0.05204414
 40
0.0697097456
 40
0.0875159886
 40
0.1054514915
 40
0.1235045839
 40
0.1416633381
 40
0.1599155964
 40
0.1782490006
 40
0.1966510199
 40
0.2151089787
 40
0.2336100843
 40
0.2521414542
 40
0.2706901429
 40
0.2892431694
 40
0.3077875433
 40
0.3263102925
 40
0.3447984894
 40
0.3632392784
 40
0.3816199025
 40
0.3999277313
 40
0.4181502881
 40
0.4362752783
 40
0.4542906172
 40
0.4721844596
 40
0.4899452287
 40
0.5075616463
 40
0.5250227636
 40
0.5423179932
 40
0.5594371412
 40
0.5763704411
 40
0.5931085886
 40
0.6096427779
 40
0.6259647389
 40
0.6420667766
 40
0.6579418118
 40
0.6735834237
 40
0.6889858945
 40
0.7041442557
 40
0.7190543373
 40
0.733712818
 40
0.7481172782
 40
0.7622662549
 40
0.7761592981
 40
0.7897970287
 40
0.8031811969
 40
0.8163147411
 40
0.8292018453
 40
0.8418479942
 40
0.8542600248
 40
0.8603811076
 40
0.8664468694
 40
0.8784167971
 40
0.8901816313
 40
0.9017539641
 40
0.9131478473
 40
0.9243787627
 40
0.9354635678
 40
0.9464204143
 40
0.9518573451
 40
0.9572696286
 40
0.9626598442
 40
0.9680306245
 40
0.9733846524
 40
0.9787246524
 40
0.9840533864
 40
0.9893736445
 40
0.9946882399
 40
1.0
 40
1.0
 40
1.0
 40
1.0
 10
14.9800343198
 20
11.9769052299
 30
0.0
 10
14.9858618092
 20
11.9769052299
 30
0.0
 10
14.997575765
 20
11.9767770084
 30
0.0
 10
15.0152225781
 20
11.9762072596
 30
0.0
 10
15.0330185847
 20
11.9752596876
 30
0.0
 10
15.0509451495
 20
11.9739352827
 30
0.0
 10
15.0689836515
 20
11.9722354226
 30
0.0
 10
15.0871153072
 20
11.9701618783
 30
0.0
 10
15.1053212487
 20
11.9677168081
 30
0.0
 10
15.1235825257
 20
11.9649027575
 30
0.0
 10
15.141880131
 20
11.9617226558
 30
0.0
 10
15.1601950187
 20
11.9581798132
 30
0.0
 10
15.1785081242
 20
11.9542779177
 30
0.0
 10
15.1968003847
 20
11.950021031
 30
0.0
 10
15.2150527584
 20
11.9454135843
 30
0.0
 10
15.233246245
 20
11.940460374
 30
0.0
 10
15.2513619052
 20
11.9351665562
 30
0.0
 10
15.2693808807
 20
11.9295376418
 30
0.0
 10
15.2872844138
 20
11.9235794904
 30
0.0
 10
15.305053867
 20
11.9172983045
 30
0.0
 10
15.3226707425
 20
11.9107006228
 30
0.0
 10
15.3401167016
 20
11.9037933132
 30
0.0
 10
15.3573735837
 20
11.896583566
 30
0.0
 10
15.3744234254
 20
11.8890788862
 30
0.0
 10
15.3912484792
 20
11.8812870853
 30
0.0
 10
15.4078312319
 20
11.8732162737
 30
0.0
 10
15.4241544232
 20
11.8648748516
 30
0.0
 10
15.4402010635
 20
11.8562715003
 30
0.0
 10
15.4559544516
 20
11.8474151735
 30
0.0
 10
15.4713981921
 20
11.838315087
 30
0.0
 10
15.4865162128
 20
11.8289807099
 30
0.0
 10
15.501292781
 20
11.8194217538
 30
0.0
 10
15.51571252
 20
11.8096481629
 30
0.0
 10
15.5297604255
 20
11.7996701035
 30
0.0
 10
15.5434218803
 20
11.7894979528
 30
0.0
 10
15.5566826703
 20
11.7791422883
 30
0.0
 10
15.5695289987
 20
11.7686138764
 30
0.0
 10
15.5819475003
 20
11.7579236606
 30
0.0
 10
15.593925255
 20
11.7470827501
 30
0.0
 10
15.6054498014
 20
11.7361024081
 30
0.0
 10
15.6165091489
 20
11.724994039
 30
0.0
 10
15.6270917898
 20
11.7137691773
 30
0.0
 10
15.6371867111
 20
11.7024394741
 30
0.0
 10
15.6467834047
 20
11.6910166857
 30
0.0
 10
15.6558718775
 20
11.6795126607
 30
0.0
 10
15.6644426612
 20
11.6679393276
 30
0.0
 10
15.6724868209
 20
11.6563086823
 30
0.0
 10
15.6799959621
 20
11.6446327771
 30
0.0
 10
15.6869622403
 20
11.6329237041
 30
0.0
 10
15.6933783609
 20
11.6211936008
 30
0.0
 10
15.6992376088
 20
11.609454575
 30
0.0
 10
15.7045337668
 20
11.5977189273
 30
0.0
 10
15.7084915588
 20
11.5879069436
 30
0.0
 10
15.7113665379
 20
11.5800726498
 30
0.0
 10
15.7140244388
 20
11.5723204837
 30
0.0
 10
15.7169910629
 20
11.5626526896
 30
0.0
 10
15.7199848988
 20
11.5510515199
 30
0.0
 10
15.7223935686
 20
11.539514111
 30
0.0
 10
15.7242143713
 20
11.5280526284
 30
0.0
 10
15.7254452572
 20
11.5166789511
 30
0.0
 10
15.7260847996
 20
11.5054052217
 30
0.0
 10
15.7261243272
 20
11.4960790496
 30
0.0
 10
15.725857808
 20
11.4886859103
 30
0.0
 10
15.7255105879
 20
11.4831873067
 30
0.0
 10
15.7250156222
 20
11.4777225904
 30
0.0
 10
15.7243730214
 20
11.4722931436
 30
0.0
 10
15.72358297
 20
11.4669003975
 30
0.0
 10
15.722645651
 20
11.4615457614
 30
0.0
 10
15.7215613297
 20
11.4562306379
 30
0.0
 10
15.7203302625
 20
11.4509564074
 30
0.0
 10
15.7189528079
 20
11.4457244996
 30
0.0
 10
15.7179370077
 20
11.442265251
 30
0.0
 10
15.717405004
 20
11.4405436867
 30
0.0
  0
SPLINE
  5
32E
100
AcDbEntity
  8
LAYER_FEATURE
100
AcDbSpline
 62
7
  6
CONTINUOUS
 70
0
 71
3
 72
81
 73
77
 74
0
 42
0.0000001
 43
0.0000001
 44
0.0000000001
 40
0.0
 40
0.0
 40
0.0
 40
0.0
 40
0.0053540897
 40
0.0107128684
 40
0.0160810057
 40
0.0214631295
 40
0.0268638099
 40
0.0322875356
 40
0.0377387034
 40
0.0432215925
 40
0.04874036
 40
0.0542990163
 40
0.059901424
 40
0.0655512775
 40
0.0712521022
 40
0.0770072422
 40
0.0828198563
 40
0.0886929157
 40
0.1006300216
 40
0.1128397888
 40
0.119052842
 40
0.1253400984
 40
0.131703174
 40
0.1381435135
 40
0.1512598742
 40
0.1646981609
 40
0.178463652
 40
0.1925590999
 40
0.2069848898
 40
0.2217391984
 40
0.2368181487
 40
0.2522159584
 40
0.2679250832
 40
0.283936351
 40
0.3002390904
 40
0.3168212512
 40
0.3336695185
 40
0.3507694204
 40
0.3681054313
 40
0.3856610684
 40
0.4034189856
 40
0.4213610626
 40
0.4394684907
 40
0.4577218562
 40
0.4761012207
 40
0.4945862
 40
0.5131560411
 40
0.5317896975
 40
0.5504659041
 40
0.5691632505
 40
0.5878602547
 40
0.6065354358
 40
0.6251673871
 40
0.6437348494
 40
0.6622167843
 40
0.6805924495
 40
0.6988414738
 40
0.7169439345
 40
0.7348804355
 40
0.7526321889
 40
0.7701810975
 40
0.787509841
 40
0.8046019659
 40
0.8214419783
 40
0.8380154419
 40
0.8543090803
 40
0.8703108854
 40
0.8860102317
 40
0.9013979973
 40
0.9164666915
 40
0.9312105919
 40
0.94562588
 40
0.9597108133
 40
0.9734658154
 40
0.9868937932
 40
1.0
 40
1.0
 40
1.0
 40
1.0
 10
14.6998833135
 20
12.4256110955
 30
0.0
 10
14.7006733199
 20
12.4281675463
 30
0.0
 10
14.7023465835
 20
12.4332546105
 30
0.0
 10
14.7051320995
 20
12.4407947631
 30
0.0
 10
14.7081925873
 20
12.4482428124
 30
0.0
 10
14.7115266284
 20
12.4555954438
 30
0.0
 10
14.7151328516
 20
12.4628495006
 30
0.0
 10
14.7190096256
 20
12.4700018894
 30
0.0
 10
14.7231553383
 20
12.477049504
 30
0.0
 10
14.7275681297
 20
12.4839893592
 30
0.0
 10
14.7322461482
 20
12.4908184426
 30
0.0
 10
14.737187319
 20
12.4975338663
 30
0.0
 10
14.7423895483
 20
12.5041327272
 30
0.0
 10
14.7478505569
 20
12.5106122297
 30
0.0
 10
14.7535680135
 20
12.5169695944
 30
0.0
 10
14.7595394281
 20
12.5232021047
 30
0.0
 10
14.76576229
 20
12.5293071549
 30
0.0
 10
14.7744374168
 20
12.5373165525
 30
0.0
 10
14.7859118486
 20
12.546995908
 30
0.0
 10
14.7980526475
 20
12.5561093408
 30
0.0
 10
14.8082214563
 20
12.5631180726
 30
0.0
 10
14.8161234199
 20
12.5682610206
 30
0.0
 10
14.8242524787
 20
12.5732573078
 30
0.0
 10
14.8354570044
 20
12.5797598125
 30
0.0
 10
14.8500227901
 20
12.5875038469
 30
0.0
 10
14.8682452326
 20
12.5961205916
 30
0.0
 10
14.8872857722
 20
12.6041030705
 30
0.0
 10
14.9071116199
 20
12.6114377316
 30
0.0
 10
14.9276890653
 20
12.6181123154
 30
0.0
 10
14.9489830184
 20
12.6241155899
 30
0.0
 10
14.9709572028
 20
12.6294374539
 30
0.0
 10
14.993574173
 20
12.6340689365
 30
0.0
 10
15.0167953856
 20
12.6380022226
 30
0.0
 10
15.0405812596
 20
12.6412306685
 30
0.0
 10
15.0648912432
 20
12.643748817
 30
0.0
 10
15.0896838823
 20
12.6455524103
 30
0.0
 10
15.1149168905
 20
12.6466383998
 30
0.0
 10
15.1405472216
 20
12.6470049535
 30
0.0
 10
15.1665311433
 20
12.6466514613
 30
0.0
 10
15.1928243126
 20
12.6455785377
 30
0.0
 10
15.2193818518
 20
12.6437880218
 30
0.0
 10
15.2461584256
 20
12.6412829757
 30
0.0
 10
15.2731083197
 20
12.6380676796
 30
0.0
 10
15.3001855191
 20
12.6341476256
 30
0.0
 10
15.3273437875
 20
12.6295295088
 30
0.0
 10
15.3545367465
 20
12.624221216
 30
0.0
 10
15.3817179563
 20
12.6182318129
 30
0.0
 10
15.4088409946
 20
12.611571529
 30
0.0
 10
15.4358595375
 20
12.6042517397
 30
0.0
 10
15.4627274381
 20
12.5962849469
 30
0.0
 10
15.4893988068
 20
12.5876847579
 30
0.0
 10
15.5158280894
 20
12.5784658616
 30
0.0
 10
15.5419701459
 20
12.5686440036
 30
0.0
 10
15.5677803276
 20
12.5582359591
 30
0.0
 10
15.5932145542
 20
12.5472595034
 30
0.0
 10
15.6182293892
 20
12.5357333819
 30
0.0
 10
15.6427821145
 20
12.5236772769
 30
0.0
 10
15.6668308038
 20
12.5111117738
 30
0.0
 10
15.6903343942
 20
12.4980583252
 30
0.0
 10
15.7132527571
 20
12.4845392134
 30
0.0
 10
15.7355467663
 20
12.4705775116
 30
0.0
 10
15.7571783654
 20
12.4561970429
 30
0.0
 10
15.7781106326
 20
12.4414223394
 30
0.0
 10
15.7983078434
 20
12.4262785979
 30
0.0
 10
15.817735531
 20
12.4107916355
 30
0.0
 10
15.8363605442
 20
12.3949878437
 30
0.0
 10
15.8541511029
 20
12.3788941415
 30
0.0
 10
15.8710768503
 20
12.3625379273
 30
0.0
 10
15.8871089018
 20
12.3459470299
 30
0.0
 10
15.9022198934
 20
12.3291496582
 30
0.0
 10
15.9163840158
 20
12.3121743557
 30
0.0
 10
15.9295770775
 20
12.2950499306
 30
0.0
 10
15.9417764676
 20
12.2778054844
 30
0.0
 10
15.9529613923
 20
12.2604700753
 30
0.0
 10
15.963112302
 20
12.2430736814
 30
0.0
 10
15.9692524894
 20
12.2313134256
 30
0.0
 10
15.9721379975
 20
12.2254333783
 30
0.0
  0
SPLINE
  5
32F
100
AcDbEntity
  8
LAYER_FEATURE
100
AcDbSpline
 62
7
  6
CONTINUOUS
 70
0
 71
3
 72
72
 73
68
 74
0
 42
0.0000001
 43
0.0000001
 44
0.0000000001
 40
0.0
 40
0.0
 40
0.0
 40
0.0
 40
0.0146663605
 40
0.0219124737
 40
0.0291008425
 40
0.0433088308
 40
0.0573045097
 40
0.0642278984
 40
0.071103871
 40
0.0847210533
 40
0.098177377
 40
0.1114948445
 40
0.1246975226
 40
0.1378112249
 40
0.1508631596
 40
0.1638815194
 40
0.1768950379
 40
0.1899325275
 40
0.2030224119
 40
0.2161922755
 40
0.2294684442
 40
0.242875609
 40
0.2564364993
 40
0.2701716289
 40
0.2840991009
 40
0.2982344704
 40
0.3125906531
 40
0.3271778999
 40
0.3420038154
 40
0.3570734042
 40
0.3723891373
 40
0.3879510482
 40
0.4037568588
 40
0.4198021037
 40
0.4360802569
 40
0.452582864
 40
0.4692996958
 40
0.4862188915
 40
0.5033270951
 40
0.5206095897
 40
0.5380504469
 40
0.5556326666
 40
0.5733383103
 40
0.5911486298
 40
0.6090442061
 40
0.6270050838
 40
0.6450108986
 40
0.6630410036
 40
0.6810746025
 40
0.6990908796
 40
0.7170691255
 40
0.7349888638
 40
0.7528299861
 40
0.7705728816
 40
0.788198565
 40
0.8056888062
 40
0.823026273
 40
0.8401946661
 40
0.857178851
 40
0.873964994
 40
0.890540711
 40
0.9068952188
 40
0.9388981222
 40
0.9545422856
 40
0.9699405674
 40
0.9850929992
 40
1.0
 40
1.0
 40
1.0
 40
1.0
 10
14.9131980977
 20
12.2542029559
 30
0.0
 10
14.9125475732
 20
12.2520978579
 30
0.0
 10
14.9116575951
 20
12.2489263864
 30
0.0
 10
14.9106496935
 20
12.2446719297
 30
0.0
 10
14.9097738144
 20
12.2404585683
 30
0.0
 10
14.9089105332
 20
12.2352091246
 30
0.0
 10
14.9083568694
 20
12.2299578466
 30
0.0
 10
14.9081059298
 20
12.2257891908
 30
0.0
 10
14.9079828553
 20
12.2216717241
 30
0.0
 10
14.9080644078
 20
12.2165686108
 30
0.0
 10
14.9085429729
 20
12.2105155705
 30
0.0
 10
14.9094008796
 20
12.2045672224
 30
0.0
 10
14.910636169
 20
12.198738167
 30
0.0
 10
14.9122459327
 20
12.1930425678
 30
0.0
 10
14.9142263091
 20
12.1874943236
 30
0.0
 10
14.9165725159
 20
12.1821069738
 30
0.0
 10
14.9192788561
 20
12.1768936724
 30
0.0
 10
14.9223387258
 20
12.1718671394
 30
0.0
 10
14.9257446154
 20
12.1670396049
 30
0.0
 10
14.9294881699
 20
12.1624227907
 30
0.0
 10
14.9335602138
 20
12.1580278765
 30
0.0
 10
14.9379507832
 20
12.1538654778
 30
0.0
 10
14.9426491347
 20
12.1499455956
 30
0.0
 10
14.9476438047
 20
12.1462776201
 30
0.0
 10
14.9529226422
 20
12.1428703154
 30
0.0
 10
14.9584728406
 20
12.1397318119
 30
0.0
 10
14.9642809524
 20
12.1368695666
 30
0.0
 10
14.9703329313
 20
12.1342903631
 30
0.0
 10
14.9766141713
 20
12.1320003122
 30
0.0
 10
14.9831095359
 20
12.1300048422
 30
0.0
 10
14.9898033834
 20
12.1283086725
 30
0.0
 10
14.996679603
 20
12.1269157957
 30
0.0
 10
15.0037216582
 20
12.1258294945
 30
0.0
 10
15.0109126219
 20
12.1250523291
 30
0.0
 10
15.0182352115
 20
12.1245861278
 30
0.0
 10
15.0256718278
 20
12.1244319575
 30
0.0
 10
15.0332046005
 20
12.1245901512
 30
0.0
 10
15.0408154294
 20
12.1250603022
 30
0.0
 10
15.0484860243
 20
12.1258412675
 30
0.0
 10
15.0561979506
 20
12.1269311406
 30
0.0
 10
15.063932674
 20
12.1283272798
 30
0.0
 10
15.0716716036
 20
12.130026316
 30
0.0
 10
15.0793961348
 20
12.132024164
 30
0.0
 10
15.0870876975
 20
12.1343160087
 30
0.0
 10
15.0947278021
 20
12.1368963245
 30
0.0
 10
15.1022980799
 20
12.1397589021
 30
0.0
 10
15.1097803261
 20
12.1428968617
 30
0.0
 10
15.1171565467
 20
12.1463026589
 30
0.0
 10
15.1244090085
 20
12.1499680929
 30
0.0
 10
15.1315202721
 20
12.153884349
 30
0.0
 10
15.1384732343
 20
12.1580420152
 30
0.0
 10
15.1452511684
 20
12.1624311042
 30
0.0
 10
15.1518377792
 20
12.1670410569
 30
0.0
 10
15.1582172281
 20
12.1718607921
 30
0.0
 10
15.1643741707
 20
12.1768787299
 30
0.0
 10
15.1702937901
 20
12.1820828223
 30
0.0
 10
15.1759618519
 20
12.1874605644
 30
0.0
 10
15.1813647217
 20
12.1929990313
 30
0.0
 10
15.1864894125
 20
12.198684945
 30
0.0
 10
15.1913235345
 20
12.2045045884
 30
0.0
 10
15.195855624
 20
12.210444263
 30
0.0
 10
15.2014396443
 20
12.218445281
 30
0.0
 10
15.2064270151
 20
12.2266837762
 30
0.0
 10
15.2107547766
 20
12.2351115987
 30
0.0
 10
15.2136275826
 20
12.2414320905
 30
0.0
 10
15.2161441596
 20
12.2477834542
 30
0.0
 10
15.2175923008
 20
12.2520633182
 30
0.0
 10
15.2182534989
 20
12.2542029559
 30
0.0
  0
SPLINE
  5
330
100
AcDbEntity
  8
LAYER_FEATURE
100
AcDbSpline
 62
7
  6
CONTINUOUS
 70
0
 71
3
 72
23
 73
19
 74
0
 42
0.0000001
 43
0.0000001
 44
0.0000000001
 40
0.0
 40
0.0
 40
0.0
 40
0.0
 40
0.0696911011
 40
0.1381416596
 40
0.2053865822
 40
0.2714733313
 40
0.3364539497
 40
0.4003877696
 40
0.4633414354
 40
0.5253884247
 40
0.5866090819
 40
0.6470902533
 40
0.7069248642
 40
0.76621142
 40
0.8250532907
 40
0.8835579104
 40
0.9418358891
 40
1.0
 40
1.0
 40
1.0
 40
1.0
 10
15.9721379975
 20
12.2254333783
 30
0.0
 10
15.9742511947
 20
12.2211271352
 30
0.0
 10
15.9782842013
 20
12.2125136963
 30
0.0
 10
15.983785598
 20
12.1994877018
 30
0.0
 10
15.9886785587
 20
12.1864854932
 30
0.0
 10
15.9929581986
 20
12.1735198315
 30
0.0
 10
15.9966203631
 20
12.1606029152
 30
0.0
 10
15.9996614173
 20
12.1477471182
 30
0.0
 10
16.0020783126
 20
12.1349647305
 30
0.0
 10
16.003868578
 20
12.1222679902
 30
0.0
 10
16.0050303744
 20
12.1096690912
 30
0.0
 10
16.0055624361
 20
12.0971801558
 30
0.0
 10
16.0054640898
 20
12.0848132364
 30
0.0
 10
16.0047353245
 20
12.0725802886
 30
0.0
 10
16.0033767477
 20
12.0604932053
 30
0.0
 10
16.0013895246
 20
12.0485636162
 30
0.0
 10
15.9987756602
 20
12.0368035749
 30
0.0
 10
15.9966159736
 20
12.0290805985
 30
0.0
 10
15.9954339736
 20
12.0252556612
 30
0.0
  0
SPLINE
  5
331
100
AcDbEntity
  8
LAYER_FEATURE
100
AcDbSpline
 62
7
  6
CONTINUOUS
 70
0
 71
3
 72
37
 73
33
 74
0
 42
0.0000001
 43
0.0000001
 44
0.0000000001
 40
0.0
 40
0.0
 40
0.0
 40
0.0
 40
0.0272321127
 40
0.0549119634
 40
0.0830414363
 40
0.1116199304
 40
0.1700822991
 40
0.1999584454
 40
0.2302387044
 40
0.2609033581
 40
0.291929786
 40
0.3232927264
 40
0.3549645312
 40
0.3869154202
 40
0.4191137306
 40
0.4515261647
 40
0.4841180389
 40
0.5168535251
 40
0.5496958903
 40
0.5826077332
 40
0.6155512206
 40
0.6484883229
 40
0.6813810511
 40
0.7141916913
 40
0.7468830409
 40
0.7794186423
 40
0.8117630235
 40
0.8438819428
 40
0.8757425978
 40
0.9073140458
 40
0.9385668318
 40
1.0
 40
1.0
 40
1.0
 40
1.0
 10
14.8876949058
 20
12.2284683032
 30
0.0
 10
14.8885214109
 20
12.2311428745
 30
0.0
 10
14.8903315731
 20
12.2364926966
 30
0.0
 10
14.8934773113
 20
12.244431897
 30
0.0
 10
14.8970683006
 20
12.2523324938
 30
0.0
 10
14.9024780211
 20
12.2628672759
 30
0.0
 10
14.9087122162
 20
12.2731654023
 30
0.0
 10
14.9156922439
 20
12.2831666727
 30
0.0
 10
14.9213573632
 20
12.290591261
 30
0.0
 10
14.9274000178
 20
12.2978658139
 30
0.0
 10
14.9338058759
 20
12.3049732101
 30
0.0
 10
14.9405594611
 20
12.3118962954
 30
0.0
 10
14.9476445405
 20
12.3186184712
 30
0.0
 10
14.9550440665
 20
12.3251235848
 30
0.0
 10
14.962740242
 20
12.3313960104
 30
0.0
 10
14.9707145531
 20
12.3374206799
 30
0.0
 10
14.9789478194
 20
12.3431831173
 30
0.0
 10
14.9874202396
 20
12.3486694743
 30
0.0
 10
14.9961114384
 20
12.3538665632
 30
0.0
 10
15.005000515
 20
12.358761889
 30
0.0
 10
15.014066094
 20
12.363343679
 30
0.0
 10
15.0232863735
 20
12.3676009173
 30
0.0
 10
15.0326391807
 20
12.3715233673
 30
0.0
 10
15.0421020261
 20
12.3751015949
 30
0.0
 10
15.0516521562
 20
12.3783269913
 30
0.0
 10
15.0612666121
 20
12.3811917938
 30
0.0
 10
15.0709222714
 20
12.383689103
 30
0.0
 10
15.0805959508
 20
12.3858129019
 30
0.0
 10
15.0902642889
 20
12.3875580757
 30
0.0
 10
15.0999044449
 20
12.388920418
 30
0.0
 10
15.1126139736
 20
12.3902144708
 30
0.0
 10
15.1221471487
 20
12.3906169735
 30
0.0
 10
15.1284622605
 20
12.3906169735
 30
0.0
  0
SPLINE
  5
332
100
AcDbEntity
  8
LAYER_FEATURE
100
AcDbSpline
 62
7
  6
CONTINUOUS
 70
0
 71
3
 72
32
 73
28
 74
0
 42
0.0000001
 43
0.0000001
 44
0.0000000001
 40
0.0
 40
0.0
 40
0.0
 40
0.0
 40
0.0707517702
 40
0.1403927125
 40
0.2088770239
 40
0.2761723847
 40
0.3422597034
 40
0.3748517704
 40
0.4071415265
 40
0.4708155465
 40
0.5333160875
 40
0.564143455
 40
0.5946955467
 40
0.6249806032
 40
0.6550079306
 40
0.6847879213
 40
0.7143319976
 40
0.7436526428
 40
0.7727633095
 40
0.8016784522
 40
0.8304134069
 40
0.8589844152
 40
0.8874084842
 40
0.915703392
 40
0.9438875379
 40
0.9719799231
 40
1.0
 40
1.0
 40
1.0
 40
1.0
 10
15.1284622605
 20
12.3906169735
 30
0.0
 10
15.1320121419
 20
12.3906169735
 30
0.0
 10
15.1390574507
 20
12.390449679
 30
0.0
 10
15.149513799
 20
12.3896842509
 30
0.0
 10
15.1597460052
 20
12.3884085339
 30
0.0
 10
15.1697212189
 20
12.3866265013
 30
0.0
 10
15.1778313317
 20
12.3847151754
 30
0.0
 10
15.1841578562
 20
12.3829357279
 30
0.0
 10
15.1903147452
 20
12.3810103992
 30
0.0
 10
15.1977962382
 20
12.378304636
 30
0.0
 10
15.2050315782
 20
12.3751758133
 30
0.0
 10
15.2106130025
 20
12.372438713
 30
0.0
 10
15.2146755636
 20
12.3702810378
 30
0.0
 10
15.2186301887
 20
12.3680110004
 30
0.0
 10
15.2224737747
 20
12.3656303544
 30
0.0
 10
15.2262032727
 20
12.3631410062
 30
0.0
 10
15.229815706
 20
12.3605448913
 30
0.0
 10
15.2333082262
 20
12.3578440925
 30
0.0
 10
15.2366780302
 20
12.3550407077
 30
0.0
 10
15.2399224702
 20
12.3521369927
 30
0.0
 10
15.2430389283
 20
12.3491352026
 30
0.0
 10
15.2460249652
 20
12.346037758
 30
0.0
 10
15.2488781584
 20
12.3428470659
 30
0.0
 10
15.2515962822
 20
12.3395657063
 30
0.0
 10
15.2541771296
 20
12.3361962174
 30
0.0
 10
15.2566186565
 20
12.3327413888
 30
0.0
 10
15.2581538513
 20
12.3303804154
 30
0.0
 10
15.2588971916
 20
12.3291871334
 30
0.0
  0
SPLINE
  5
333
100
AcDbEntity
  8
LAYER_FEATURE
100
AcDbSpline
 62
7
  6
CONTINUOUS
 70
0
 71
3
 72
72
 73
68
 74
0
 42
0.0000001
 43
0.0000001
 44
0.0000000001
 40
0.0
 40
0.0
 40
0.0
 40
0.0
 40
0.0149070008
 40
0.0300594326
 40
0.0454577144
 40
0.0611018778
 40
0.0931047812
 40
0.109459289
 40
0.126035006
 40
0.142821149
 40
0.1598053339
 40
0.176973727
 40
0.1943111938
 40
0.211801435
 40
0.2294271184
 40
0.2471700139
 40
0.2650111362
 40
0.2829308745
 40
0.3009091204
 40
0.3189253975
 40
0.3369589964
 40
0.3549891014
 40
0.3729949162
 40
0.3909557939
 40
0.4088513702
 40
0.4266616897
 40
0.4443673334
 40
0.4619495531
 40
0.4793904103
 40
0.4966729049
 40
0.5137811085
 40
0.5307003042
 40
0.547417136
 40
0.5639197431
 40
0.5801978963
 40
0.5962431412
 40
0.6120489518
 40
0.6276108627
 40
0.6429265958
 40
0.6579961846
 40
0.6728221001
 40
0.6874093469
 40
0.7017655296
 40
0.7159008991
 40
0.7298283711
 40
0.7435635007
 40
0.757124391
 40
0.7705315558
 40
0.7838077245
 40
0.7969775881
 40
0.8100674725
 40
0.8231049621
 40
0.8361184806
 40
0.8491368404
 40
0.8621887751
 40
0.8753024774
 40
0.8885051555
 40
0.901822623
 40
0.9152789467
 40
0.928896129
 40
0.9357721016
 40
0.9426954903
 40
0.9566911692
 40
0.9708991575
 40
0.9780875263
 40
0.9853336395
 40
1.0
 40
1.0
 40
1.0
 40
1.0
 10
14.9131980977
 20
12.2542029559
 30
0.0
 10
14.9138592958
 20
12.2563425936
 30
0.0
 10
14.915307437
 20
12.2606224576
 30
0.0
 10
14.917824014
 20
12.2669738213
 30
0.0
 10
14.92069682
 20
12.2732943132
 30
0.0
 10
14.9250245815
 20
12.2817221356
 30
0.0
 10
14.9300119523
 20
12.2899606308
 30
0.0
 10
14.9355959726
 20
12.2979616488
 30
0.0
 10
14.9401280621
 20
12.3039013234
 30
0.0
 10
14.9449621841
 20
12.3097209668
 30
0.0
 10
14.9500868749
 20
12.3154068805
 30
0.0
 10
14.9554897447
 20
12.3209453474
 30
0.0
 10
14.9611578065
 20
12.3263230895
 30
0.0
 10
14.9670774259
 20
12.3315271819
 30
0.0
 10
14.9732343685
 20
12.3365451197
 30
0.0
 10
14.9796138174
 20
12.3413648549
 30
0.0
 10
14.9862004282
 20
12.3459748076
 30
0.0
 10
14.9929783623
 20
12.3503638966
 30
0.0
 10
14.9999313245
 20
12.3545215628
 30
0.0
 10
15.0070425881
 20
12.3584378189
 30
0.0
 10
15.0142950499
 20
12.3621032529
 30
0.0
 10
15.0216712705
 20
12.3655090501
 30
0.0
 10
15.0291535167
 20
12.3686470097
 30
0.0
 10
15.0367237945
 20
12.3715095873
 30
0.0
 10
15.0443638991
 20
12.3740899031
 30
0.0
 10
15.0520554618
 20
12.3763817478
 30
0.0
 10
15.059779993
 20
12.3783795958
 30
0.0
 10
15.0675189226
 20
12.3800786321
 30
0.0
 10
15.075253646
 20
12.3814747712
 30
0.0
 10
15.0829655723
 20
12.3825646443
 30
0.0
 10
15.0906361672
 20
12.3833456096
 30
0.0
 10
15.0982469961
 20
12.3838157606
 30
0.0
 10
15.1057797688
 20
12.3839739543
 30
0.0
 10
15.1132163851
 20
12.383819784
 30
0.0
 10
15.1205389747
 20
12.3833535827
 30
0.0
 10
15.1277299384
 20
12.3825764174
 30
0.0
 10
15.1347719936
 20
12.3814901161
 30
0.0
 10
15.1416482132
 20
12.3800972394
 30
0.0
 10
15.1483420607
 20
12.3784010696
 30
0.0
 10
15.1548374253
 20
12.3764055996
 30
0.0
 10
15.1611186653
 20
12.3741155487
 30
0.0
 10
15.1671706442
 20
12.3715363452
 30
0.0
 10
15.172978756
 20
12.3686741
 30
0.0
 10
15.1785289544
 20
12.3655355964
 30
0.0
 10
15.1838077919
 20
12.3621282917
 30
0.0
 10
15.1888024619
 20
12.3584603162
 30
0.0
 10
15.1935008134
 20
12.3545404341
 30
0.0
 10
15.1978913828
 20
12.3503780353
 30
0.0
 10
15.2019634267
 20
12.3459831211
 30
0.0
 10
15.2057069812
 20
12.3413663069
 30
0.0
 10
15.2091128708
 20
12.3365387724
 30
0.0
 10
15.2121727405
 20
12.3315122394
 30
0.0
 10
15.2148790807
 20
12.326298938
 30
0.0
 10
15.2172252875
 20
12.3209115882
 30
0.0
 10
15.2192056639
 20
12.315363344
 30
0.0
 10
15.2208154276
 20
12.3096677449
 30
0.0
 10
15.222050717
 20
12.3038386894
 30
0.0
 10
15.2229086237
 20
12.2978903413
 30
0.0
 10
15.2233871888
 20
12.291837301
 30
0.0
 10
15.2234687413
 20
12.2867341877
 30
0.0
 10
15.2233456668
 20
12.282616721
 30
0.0
 10
15.2230947272
 20
12.2784480653
 30
0.0
 10
15.2225410634
 20
12.2731967872
 30
0.0
 10
15.2216777822
 20
12.2679473435
 30
0.0
 10
15.2208019031
 20
12.2637339821
 30
0.0
 10
15.2197940015
 20
12.2594795254
 30
0.0
 10
15.2189040234
 20
12.2563080539
 30
0.0
 10
15.2182534989
 20
12.2542029559
 30
0.0
  0
ENDSEC
  0
SECTION
  2
OBJECTS
  0
DICTIONARY
  5
C
100
AcDbDictionary
280
0
281
1
  3
ACAD_GROUP
350
D
  3
ACAD_MLINESTYLE
350
17
  3
ACAD_LAYOUT
350
1A
  3
ACAD_PLOTSETTINGS
350
19
  3
ACAD_PLOTSTYLENAME
350
E
  0
DICTIONARY
  5
D
102
{ACAD_REACTORS
330
C
102
}
100
AcDbDictionary
280
0
281
1
  0
ACDBDICTIONARYWDFLT
  5
E
102
{ACAD_REACTORS
330
C
102
}
100
AcDbDictionary
281
1
  3
Normal
350
F
100
AcDbDictionaryWithDefault
340
F
  0
DICTIONARY
  5
17
102
{ACAD_REACTORS
330
C
102
}
100
AcDbDictionary
280
0
281
1
  3
Standard
350
18
  0
DICTIONARY
  5
19
102
{ACAD_REACTORS
330
C
102
}
100
AcDbDictionary
281
1
  0
DICTIONARY
  5
1A
102
{ACAD_REACTORS
330
C
102
}
100
AcDbDictionary
281
1
  3
Model
350
334
  3
Layout1
350
335
  0
ACDBPLACEHOLDER
  5
F
102
{ACAD_REACTORS
330
E
102
}
  0
MLINESTYLE
  5
18
102
{ACAD_REACTORS
330
17
102
}
100
AcDbMlineStyle
  2
STANDARD
 70
0
  3

 62
256
 51
90.0
 52
90.0
 71
2
 49
0.5
 62
256
  6
BYLAYER
 49
-0.5
 62
256
  6
BYLAYER
  0
LAYOUT
  5
334
102
{ACAD_REACTORS
330
1A
102
}
100
AcDbPlotSettings
  1

  2
none_device
  4
ANSI_C_(22.00_x_17.00_Inches)
  6

 40
0.0
 41
0.0
 42
0.0
 43
0.0
 44
558.8
 45
431.8
 46
0.0
 47
0.0
 48
0.0
 49
0.0
140
0.0
141
0.0
142
1.0
143
1.0
 70
1024
 72
0
 73
0
 74
0
  7

 75
0
147
1.0
148
0.0
149
0.0
100
AcDbLayout
  1
Model
 70
0
 71
0
 10
0.0
 20
0.0
 11
22.0
 21
17.0
 12
0.0
 22
0.0
 32
0.0
 14
0.0
 24
0.0
 34
0.0
 15
0.0
 25
0.0
 35
0.0
146
0.0
 13
0.0
 23
0.0
 33
0.0
 16
1.0
 26
0.0
 36
0.0
 17
0.0
 27
1.0
 37
0.0
 76
0
330
222
345
0
346
0
  0
LAYOUT
  5
335
102
{ACAD_REACTORS
330
1A
102
}
100
AcDbPlotSettings
  1

  2
none_device
  4
ANSI_C_(22.00_x_17.00_Inches)
  6

 40
0.0
 41
0.0
 42
0.0
 43
0.0
 44
558.8
 45
431.8
 46
0.0
 47
0.0
 48
0.0
 49
0.0
140
0.0
141
0.0
142
1.0
143
1.0
 70
0
 72
0
 73
0
 74
0
  7

 75
0
147
1.0
148
0.0
149
0.0
100
AcDbLayout
  1
Layout1
 70
0
 71
1
 10
0.0
 20
0.0
 11
22.0
 21
17.0
 12
0.0
 22
0.0
 32
0.0
 14
0.0
 24
0.0
 34
0.0
 15
0.0
 25
0.0
 35
0.0
146
0.0
 13
0.0
 23
0.0
 33
0.0
 16
1.0
 26
0.0
 36
0.0
 17
0.0
 27
1.0
 37
0.0
 76
0
330
223
345
0
346
0
  0
ENDSEC
  0
EOF