999
DXF file: _cgs_temp_output.dxf
999
Pro/ENGINEER 2016360 by Parametric Technology Corporation
  0
SECTION
  2
HEADER
  9
$ACADVER
  1
AC1021
  9
$DWGCODEPAGE
  3
ANSI_1252
  9
$EXTMAX
 10
22.0
 20
17.0
 30
0.0
  9
$EXTMIN
 10
0.0
 20
0.0
 30
0.0
  9
$LIMMIN
 10
0.0
 20
0.0
  9
$LIMMAX
 10
22.0
 20
17.0
  9
$VIEWCTR
 10
11.0
 20
8.5
  9
$VIEWSIZE
 40
17.0
  9
$CLAYER
  8
0
  9
$LTSCALE
 40
1.21
  9
$CELTYPE
  6
BYLAYER
  9
$DIMSCALE
 40
1.0
  9
$DIMASZ
 40
0.1875
  9
$DIMEXO
 40
0.0625
  9
$DIMDLI
 40
0.836
  9
$DIMEXE
 40
0.125
  9
$DIMCEN
 40
0.198
  9
$DIMLFAC
 40
1.0
  9
$DIMBLK
  1
_CLOSED
  9
$DIMALT
 70
0
  9
$DIMALTF
 40
25.4
  9
$DIMTXT
 40
0.15625
  9
$DIMTOL
 70
0
  9
$DIMLIM
 70
0
  9
$DIMTFAC
 40
1.0
  9
$DIMGAP
 40
0.09
  9
$DIMDSEP
 70
46
  9
$AUNITS
 70
0
  9
$PDMODE
 70
3
  9
$PDSIZE
 40
0.3125
  9
$HANDSEED
  5
4C6
  9
$TILEMODE
 70
1
  9
$MEASUREMENT
 70
0
  9
$INSUNITS
 70
1
  0
ENDSEC
  0
SECTION
  2
CLASSES
  0
CLASS
  1
ACDBDICTIONARYWDFLT
  2
AcDbDictionaryWithDefault
  3
AutoCAD 2000
 90
0
 91
1
280
0
281
0
  0
CLASS
  1
ACDBPLACEHOLDER
  2
AcDbPlaceHolder
  3
AutoCAD 2000
 90
0
 91
1
280
0
281
0
  0
CLASS
  1
LAYOUT
  2
AcDbLayout
  3
AutoCAD 2000
 90
0
 91
0
280
0
281
0
  0
ENDSEC
  0
SECTION
  2
TABLES
  0
TABLE
  2
VPORT
  5
8
100
AcDbSymbolTable
 70
2
  0
VPORT
  5
1F4
100
AcDbSymbolTableRecord
100
AcDbViewportTableRecord
  2
*ACTIVE
 70
0
 10
0.0
 20
0.0
 11
1.0
 21
1.0
 12
11.0
 22
8.5
 13
0.0
 23
0.0
 14
1.0
 24
1.0
 15
0.0
 25
0.0
 16
0.0
 26
0.0
 36
1.0
 17
0.0
 27
0.0
 37
0.0
 40
17.0
 41
1.2941176471
 42
50.0
 43
0.0
 44
0.0
 50
0.0
 51
0.0
 71
0
 72
100
 73
1
 74
1
 75
0
 76
0
 77
0
 78
0
  0
ENDTAB
  0
TABLE
  2
LTYPE
  5
5
100
AcDbSymbolTable
 70
6
  0
LTYPE
  5
14
100
AcDbSymbolTableRecord
100
AcDbLinetypeTableRecord
  2
BYBLOCK
 70
0
  3

 72
65
 73
0
 40
0.0
  0
LTYPE
  5
15
100
AcDbSymbolTableRecord
100
AcDbLinetypeTableRecord
  2
BYLAYER
 70
0
  3

 72
65
 73
0
 40
0.0
  0
LTYPE
  5
16
100
AcDbSymbolTableRecord
100
AcDbLinetypeTableRecord
  2
CONTINUOUS
 70
64
  3
Solid line
 72
65
 73
0
 40
0.0
  0
LTYPE
  5
1F5
100
AcDbSymbolTableRecord
100
AcDbLinetypeTableRecord
  2
CENTER
 70
64
  3
____ _ ____ _ ____ _ ____ _ ____ _ ____ _ ____
 72
65
 73
4
 40
0.6
 49
0.375
 74
0
 49
-0.075
 74
0
 49
0.075
 74
0
 49
-0.075
 74
0
  0
LTYPE
  5
1F6
100
AcDbSymbolTableRecord
100
AcDbLinetypeTableRecord
  2
HIDDEN
 70
64
  3
- - - - - - - - - - - - - - - - - - - -
 72
65
 73
2
 40
0.2
 49
0.1
 74
0
 49
-0.1
 74
0
  0
LTYPE
  5
1F7
100
AcDbSymbolTableRecord
100
AcDbLinetypeTableRecord
  2
PHANTOM
 70
64
  3
_____ _ _ _____ _ _ _____ _ _ _____
 72
65
 73
6
 40
0.8
 49
0.45
 74
0
 49
-0.05
 74
0
 49
0.1
 74
0
 49
-0.05
 74
0
 49
0.1
 74
0
 49
-0.05
 74
0
  0
LTYPE
  5
1F8
100
AcDbSymbolTableRecord
100
AcDbLinetypeTableRecord
  2
DOT
 70
64
  3
. . . . . . . . . . . . . . . . . . . .
 72
65
 73
2
 40
0.2
 49
0.1
 74
0
 49
-0.1
 74
0
  0
LTYPE
  5
1F9
100
AcDbSymbolTableRecord
100
AcDbLinetypeTableRecord
  2
DASHED
 70
64
  3
- - - - - - - - - - - - - - - - - - - -
 72
65
 73
2
 40
0.2
 49
0.1
 74
0
 49
-0.1
 74
0
  0
ENDTAB
  0
TABLE
  2
LAYER
  5
2
100
AcDbSymbolTable
 70
36
  0
LAYER
  5
10
100
AcDbSymbolTableRecord
100
AcDbLayerTableRecord
  2
0
 70
0
 62
7
  6
CONTINUOUS
370
-3
390
F
  0
LAYER
  5
1FA
100
AcDbSymbolTableRecord
100
AcDbLayerTableRecord
  2
DEFAULT_1
 70
0
 62
7
  6
CENTER
370
-3
390
F
  0
LAYER
  5
1FB
100
AcDbSymbolTableRecord
100
AcDbLayerTableRecord
  2
DEFAULT_2
 70
0
 62
8
  6
HIDDEN
370
-3
390
F
  0
LAYER
  5
1FC
100
AcDbSymbolTableRecord
100
AcDbLayerTableRecord
  2
DEFAULT_3
 70
0
 62
7
  6
PHANTOM
370
-3
390
F
  0
LAYER
  5
1FD
100
AcDbSymbolTableRecord
100
AcDbLayerTableRecord
  2
01_ALL_DTM_PLN
 70
0
 62
7
  6
CONTINUOUS
370
-3
390
F
  0
LAYER
  5
1FE
100
AcDbSymbolTableRecord
100
AcDbLayerTableRecord
  2
01__ASM_ALL_DTM_PLN
 70
0
 62
7
  6
CONTINUOUS
370
-3
390
F
  0
LAYER
  5
1FF
100
AcDbSymbolTableRecord
100
AcDbLayerTableRecord
  2
01__ASM_DEF_DTM_PLN
 70
0
 62
7
  6
CONTINUOUS
370
-3
390
F
  0
LAYER
  5
200
100
AcDbSymbolTableRecord
100
AcDbLayerTableRecord
  2
01___PRT_ALL_DTM_PLN
 70
0
 62
7
  6
CONTINUOUS
370
-3
390
F
  0
LAYER
  5
201
100
AcDbSymbolTableRecord
100
AcDbLayerTableRecord
  2
01___PRT_DEF_DTM_PLN
 70
0
 62
7
  6
CONTINUOUS
370
-3
390
F
  0
LAYER
  5
202
100
AcDbSymbolTableRecord
100
AcDbLayerTableRecord
  2
02_ALL_AXES
 70
0
 62
7
  6
CONTINUOUS
370
-3
390
F
  0
LAYER
  5
203
100
AcDbSymbolTableRecord
100
AcDbLayerTableRecord
  2
02__ASM_ALL_AXES
 70
0
 62
7
  6
CONTINUOUS
370
-3
390
F
  0
LAYER
  5
204
100
AcDbSymbolTableRecord
100
AcDbLayerTableRecord
  2
02___PRT_ALL_AXES
 70
0
 62
7
  6
CONTINUOUS
370
-3
390
F
  0
LAYER
  5
205
100
AcDbSymbolTableRecord
100
AcDbLayerTableRecord
  2
03_ALL_CURVES
 70
0
 62
7
  6
CONTINUOUS
370
-3
390
F
  0
LAYER
  5
206
100
AcDbSymbolTableRecord
100
AcDbLayerTableRecord
  2
03__ASM_ALL_CURVES
 70
0
 62
7
  6
CONTINUOUS
370
-3
390
F
  0
LAYER
  5
207
100
AcDbSymbolTableRecord
100
AcDbLayerTableRecord
  2
03___PRT_ALL_CURVES
 70
0
 62
7
  6
CONTINUOUS
370
-3
390
F
  0
LAYER
  5
208
100
AcDbSymbolTableRecord
100
AcDbLayerTableRecord
  2
04_ALL_DTM_PNT
 70
0
 62
7
  6
CONTINUOUS
370
-3
390
F
  0
LAYER
  5
209
100
AcDbSymbolTableRecord
100
AcDbLayerTableRecord
  2
04__ASM_ALL_DTM_PNT
 70
0
 62
7
  6
CONTINUOUS
370
-3
390
F
  0
LAYER
  5
20A
100
AcDbSymbolTableRecord
100
AcDbLayerTableRecord
  2
04___PRT_ALL_DTM_PNT
 70
0
 62
7
  6
CONTINUOUS
370
-3
390
F
  0
LAYER
  5
20B
100
AcDbSymbolTableRecord
100
AcDbLayerTableRecord
  2
05_ALL_DTM_CSYS
 70
0
 62
7
  6
CONTINUOUS
370
-3
390
F
  0
LAYER
  5
20C
100
AcDbSymbolTableRecord
100
AcDbLayerTableRecord
  2
05__ASM_ALL_DTM_CSYS
 70
0
 62
7
  6
CONTINUOUS
370
-3
390
F
  0
LAYER
  5
20D
100
AcDbSymbolTableRecord
100
AcDbLayerTableRecord
  2
05__ASM_DEF_DTM_CSYS
 70
0
 62
7
  6
CONTINUOUS
370
-3
390
F
  0
LAYER
  5
20E
100
AcDbSymbolTableRecord
100
AcDbLayerTableRecord
  2
05___PRT_ALL_DTM_CSYS
 70
0
 62
7
  6
CONTINUOUS
370
-3
390
F
  0
LAYER
  5
20F
100
AcDbSymbolTableRecord
100
AcDbLayerTableRecord
  2
05___PRT_DEF_DTM_CSYS
 70
0
 62
7
  6
CONTINUOUS
370
-3
390
F
  0
LAYER
  5
210
100
AcDbSymbolTableRecord
100
AcDbLayerTableRecord
  2
06_ALL_SURFS
 70
0
 62
7
  6
CONTINUOUS
370
-3
390
F
  0
LAYER
  5
211
100
AcDbSymbolTableRecord
100
AcDbLayerTableRecord
  2
06__ASM_ALL_SURFS
 70
0
 62
7
  6
CONTINUOUS
370
-3
390
F
  0
LAYER
  5
212
100
AcDbSymbolTableRecord
100
AcDbLayerTableRecord
  2
06___PRT_ALL_SURFS
 70
0
 62
7
  6
CONTINUOUS
370
-3
390
F
  0
LAYER
  5
213
100
AcDbSymbolTableRecord
100
AcDbLayerTableRecord
  2
07__ASM_ALL_SKELETONS
 70
0
 62
7
  6
CONTINUOUS
370
-3
390
F
  0
LAYER
  5
214
100
AcDbSymbolTableRecord
100
AcDbLayerTableRecord
  2
ASM0001
 70
0
 62
7
  6
CONTINUOUS
370
-3
390
F
  0
LAYER
  5
215
100
AcDbSymbolTableRecord
100
AcDbLayerTableRecord
  2
COLOR2
 70
0
 62
7
  6
CONTINUOUS
370
-3
390
F
  0
LAYER
  5
216
100
AcDbSymbolTableRecord
100
AcDbLayerTableRecord
  2
NONE
 70
0
 62
7
  6
CONTINUOUS
370
-3
390
F
  0
LAYER
  5
217
100
AcDbSymbolTableRecord
100
AcDbLayerTableRecord
  2
NONE_1
 70
0
 62
7
  6
CONTINUOUS
370
-3
390
F
  0
LAYER
  5
218
100
AcDbSymbolTableRecord
100
AcDbLayerTableRecord
  2
NONE_10
 70
0
 62
7
  6
CONTINUOUS
370
-3
390
F
  0
LAYER
  5
219
100
AcDbSymbolTableRecord
100
AcDbLayerTableRecord
  2
NONE_11
 70
0
 62
7
  6
CONTINUOUS
370
-3
390
F
  0
LAYER
  5
21A
100
AcDbSymbolTableRecord
100
AcDbLayerTableRecord
  2
NONE_2
 70
0
 62
7
  6
CONTINUOUS
370
-3
390
F
  0
LAYER
  5
21B
100
AcDbSymbolTableRecord
100
AcDbLayerTableRecord
  2
NONE_3
 70
0
 62
7
  6
CONTINUOUS
370
-3
390
F
  0
LAYER
  5
21C
100
AcDbSymbolTableRecord
100
AcDbLayerTableRecord
  2
NONE_4
 70
0
 62
7
  6
CONTINUOUS
370
-3
390
F
  0
LAYER
  5
21D
100
AcDbSymbolTableRecord
100
AcDbLayerTableRecord
  2
NONE_5
 70
0
 62
7
  6
CONTINUOUS
370
-3
390
F
  0
LAYER
  5
21E
100
AcDbSymbolTableRecord
100
AcDbLayerTableRecord
  2
NONE_6
 70
0
 62
7
  6
CONTINUOUS
370
-3
390
F
  0
LAYER
  5
21F
100
AcDbSymbolTableRecord
100
AcDbLayerTableRecord
  2
NONE_7
 70
0
 62
7
  6
CONTINUOUS
370
-3
390
F
  0
LAYER
  5
220
100
AcDbSymbolTableRecord
100
AcDbLayerTableRecord
  2
NONE_8
 70
0
 62
7
  6
CONTINUOUS
370
-3
390
F
  0
LAYER
  5
221
100
AcDbSymbolTableRecord
100
AcDbLayerTableRecord
  2
NONE_9
 70
0
 62
7
  6
CONTINUOUS
370
-3
390
F
  0
LAYER
  5
222
100
AcDbSymbolTableRecord
100
AcDbLayerTableRecord
  2
_11265
 70
0
 62
7
  6
CONTINUOUS
370
-3
390
F
  0
LAYER
  5
223
100
AcDbSymbolTableRecord
100
AcDbLayerTableRecord
  2
_11265_1
 70
0
 62
7
  6
CONTINUOUS
370
-3
390
F
  0
LAYER
  5
224
100
AcDbSymbolTableRecord
100
AcDbLayerTableRecord
  2
_11668
 70
0
 62
7
  6
CONTINUOUS
370
-3
390
F
  0
LAYER
  5
225
100
AcDbSymbolTableRecord
100
AcDbLayerTableRecord
  2
_11668_1
 70
0
 62
7
  6
CONTINUOUS
370
-3
390
F
  0
LAYER
  5
226
100
AcDbSymbolTableRecord
100
AcDbLayerTableRecord
  2
_1184
 70
0
 62
7
  6
CONTINUOUS
370
-3
390
F
  0
LAYER
  5
227
100
AcDbSymbolTableRecord
100
AcDbLayerTableRecord
  2
_1184_1
 70
0
 62
7
  6
CONTINUOUS
370
-3
390
F
  0
LAYER
  5
228
100
AcDbSymbolTableRecord
100
AcDbLayerTableRecord
  2
_12309
 70
0
 62
7
  6
CONTINUOUS
370
-3
390
F
  0
LAYER
  5
229
100
AcDbSymbolTableRecord
100
AcDbLayerTableRecord
  2
_12309_1
 70
0
 62
7
  6
CONTINUOUS
370
-3
390
F
  0
LAYER
  5
22A
100
AcDbSymbolTableRecord
100
AcDbLayerTableRecord
  2
_13848
 70
0
 62
7
  6
CONTINUOUS
370
-3
390
F
  0
LAYER
  5
22B
100
AcDbSymbolTableRecord
100
AcDbLayerTableRecord
  2
_13848_1
 70
0
 62
7
  6
CONTINUOUS
370
-3
390
F
  0
LAYER
  5
22C
100
AcDbSymbolTableRecord
100
AcDbLayerTableRecord
  2
_2873
 70
0
 62
7
  6
CONTINUOUS
370
-3
390
F
  0
LAYER
  5
22D
100
AcDbSymbolTableRecord
100
AcDbLayerTableRecord
  2
_2873_1
 70
0
 62
7
  6
CONTINUOUS
370
-3
390
F
  0
LAYER
  5
22E
100
AcDbSymbolTableRecord
100
AcDbLayerTableRecord
  2
_4301
 70
0
 62
7
  6
CONTINUOUS
370
-3
390
F
  0
LAYER
  5
22F
100
AcDbSymbolTableRecord
100
AcDbLayerTableRecord
  2
_4301_1
 70
0
 62
7
  6
CONTINUOUS
370
-3
390
F
  0
LAYER
  5
230
100
AcDbSymbolTableRecord
100
AcDbLayerTableRecord
  2
_4563
 70
0
 62
7
  6
CONTINUOUS
370
-3
390
F
  0
LAYER
  5
231
100
AcDbSymbolTableRecord
100
AcDbLayerTableRecord
  2
_4563_1
 70
0
 62
7
  6
CONTINUOUS
370
-3
390
F
  0
LAYER
  5
232
100
AcDbSymbolTableRecord
100
AcDbLayerTableRecord
  2
_5736
 70
0
 62
7
  6
CONTINUOUS
370
-3
390
F
  0
LAYER
  5
233
100
AcDbSymbolTableRecord
100
AcDbLayerTableRecord
  2
_5736_1
 70
0
 62
7
  6
CONTINUOUS
370
-3
390
F
  0
LAYER
  5
234
100
AcDbSymbolTableRecord
100
AcDbLayerTableRecord
  2
_893
 70
0
 62
7
  6
CONTINUOUS
370
-3
390
F
  0
LAYER
  5
235
100
AcDbSymbolTableRecord
100
AcDbLayerTableRecord
  2
_893_1
 70
0
 62
7
  6
CONTINUOUS
370
-3
390
F
  0
LAYER
  5
236
100
AcDbSymbolTableRecord
100
AcDbLayerTableRecord
  2
_9340
 70
0
 62
7
  6
CONTINUOUS
370
-3
390
F
  0
LAYER
  5
237
100
AcDbSymbolTableRecord
100
AcDbLayerTableRecord
  2
_9340_1
 70
0
 62
7
  6
CONTINUOUS
370
-3
390
F
  0
LAYER
  5
238
100
AcDbSymbolTableRecord
100
AcDbLayerTableRecord
  2
_9710
 70
0
 62
7
  6
CONTINUOUS
370
-3
390
F
  0
LAYER
  5
239
100
AcDbSymbolTableRecord
100
AcDbLayerTableRecord
  2
_9710_1
 70
0
 62
7
  6
CONTINUOUS
370
-3
390
F
  0
LAYER
  5
23A
100
AcDbSymbolTableRecord
100
AcDbLayerTableRecord
  2
___SHELL
 70
0
 62
7
  6
CONTINUOUS
370
-3
390
F
  0
ENDTAB
  0
TABLE
  2
STYLE
  5
3
100
AcDbSymbolTable
 70
1
  0
STYLE
  5
11
100
AcDbSymbolTableRecord
100
AcDbTextStyleTableRecord
  2
STANDARD
 70
0
 40
0.0
 41
0.8
 50
0.0
 71
0
 42
0.2
  3
txt
  4

  0
STYLE
  5
23B
100
AcDbSymbolTableRecord
100
AcDbTextStyleTableRecord
  2
TEXTSTYLE_1
 70
0
 40
0.0
 41
0.8
 50
0.0
 71
0
 42
0.2
  3
gdt
  4

  0
ENDTAB
  0
TABLE
  2
VIEW
  5
6
100
AcDbSymbolTable
 70
0
  0
ENDTAB
  0
TABLE
  2
UCS
  5
7
100
AcDbSymbolTable
 70
0
  0
ENDTAB
  0
TABLE
  2
APPID
  5
9
100
AcDbSymbolTable
 70
1
  0
APPID
  5
23C
100
AcDbSymbolTableRecord
100
AcDbRegAppTableRecord
  2
ACAD
 70
0
  0
ENDTAB
  0
TABLE
  2
BLOCK_RECORD
  5
1
100
AcDbSymbolTable
 70
0
  0
BLOCK_RECORD
  5
23D
100
AcDbSymbolTableRecord
100
AcDbBlockTableRecord
  2
*Model_Space
  0
BLOCK_RECORD
  5
23E
100
AcDbSymbolTableRecord
100
AcDbBlockTableRecord
  2
*Paper_Space
  0
ENDTAB
  0
TABLE
  2
DIMSTYLE
  5
A
100
AcDbSymbolTable
 70
1
100
AcDbDimStyleTable
 71
0
  0
DIMSTYLE
105
23F
100
AcDbSymbolTableRecord
100
AcDbDimStyleTableRecord
  2
STANDARD
 70
0
  3

  4

 40
1.0
 41
0.1875
 42
0.0625
 43
0.38
 44
0.125
 45
0.0
 46
0.0
 47
0.0001
 48
0.0001
140
0.15625
141
0.09
142
0.0
143
25.4
144
1.0
145
0.0
146
1.0
147
0.09
 71
0.0
 72
0.0
 73
1
 74
1
 75
0
 76
0
 77
0
 78
4
 79
1
170
0
171
3
172
0
173
0
174
0
175
0
176
0
177
0
178
0
270
2
179
4
271
4
272
4
273
2
274
2
275
0
280
0
281
0
282
0
283
1
284
4
285
0
286
0
287
3
288
0
340
11
278
46
  0
ENDTAB
  0
ENDSEC
  0
SECTION
  2
BLOCKS
  0
BLOCK
  5
20
100
AcDbEntity
  8
0
100
AcDbBlockBegin
  2
*Model_Space
 70
0
 10
0.0
 20
0.0
 30
0.0
  3
*Model_Space
  1

  0
ENDBLK
  5
21
100
AcDbEntity
  8
0
100
AcDbBlockEnd
  0
BLOCK
  5
1C
100
AcDbEntity
  8
0
100
AcDbBlockBegin
  2
*Paper_Space
 70
0
 10
0.0
 20
0.0
 30
0.0
  3
*Paper_Space
  1

  0
ENDBLK
  5
1D
100
AcDbEntity
  8
0
100
AcDbBlockEnd
  0
ENDSEC
  0
SECTION
  2
ENTITIES
  0
MTEXT
  5
240
100
AcDbEntity
  8
0
100
AcDbMText
 62
7
  6
CONTINUOUS
  7
STANDARD
 71
1
 72
1
 10
15.9560215477
 20
0.9479130325
 30
0.0
 11
1.0
 21
0.0
 31
0.0
 44
0.9
  1
SCALE: 1:0.500
 40
0.3
 41
3.36
  0
LINE
  5
241
100
AcDbEntity
  8
0
100
AcDbLine
 62
7
  6
CONTINUOUS
 10
0.0
 20
0.0
 11
0.0
 21
17.0
  0
LINE
  5
242
100
AcDbEntity
  8
0
100
AcDbLine
 62
7
  6
CONTINUOUS
 10
0.0
 20
0.0
 11
22.0
 21
0.0
  0
LINE
  5
243
100
AcDbEntity
  8
0
100
AcDbLine
 62
7
  6
CONTINUOUS
 10
0.0
 20
17.0
 11
22.0
 21
17.0
  0
LINE
  5
244
100
AcDbEntity
  8
0
100
AcDbLine
 62
7
  6
CONTINUOUS
 10
22.0
 20
0.0
 11
22.0
 21
17.0
  0
LINE
  5
245
100
AcDbEntity
  8
0
100
AcDbLine
 62
7
  6
CONTINUOUS
 10
4.0366172762
 20
4.9794948968
 11
4.0366172762
 21
4.3794948968
  0
LINE
  5
246
100
AcDbEntity
  8
0
100
AcDbLine
 62
7
  6
CONTINUOUS
 10
4.1118545964
 20
5.0544948968
 11
4.1118545964
 21
5.0044948968
  0
LINE
  5
247
100
AcDbEntity
  8
0
100
AcDbLine
 62
7
  6
CONTINUOUS
 10
4.3803672762
 20
5.0044948968
 11
4.3803672918
 21
5.0544948968
  0
LINE
  5
248
100
AcDbEntity
  8
0
100
AcDbLine
 62
7
  6
CONTINUOUS
 10
4.7993545964
 20
5.0044948968
 11
4.7993545964
 21
5.0544948968
  0
LINE
  5
249
100
AcDbEntity
  8
0
100
AcDbLine
 62
7
  6
CONTINUOUS
 10
4.7993545964
 20
5.0044948968
 11
4.8185377711
 21
4.9794948968
  0
LINE
  5
24A
100
AcDbEntity
  8
0
100
AcDbLine
 62
7
  6
CONTINUOUS
 10
5.0135155395
 20
5.8037544177
 11
4.7993545964
 21
5.0044948968
  0
LINE
  5
24B
100
AcDbEntity
  8
0
100
AcDbLine
 62
7
  6
CONTINUOUS
 10
4.0366172762
 20
4.3794948968
 11
8.2241172762
 21
4.3794948968
  0
LINE
  5
24C
100
AcDbEntity
  8
0
100
AcDbLine
 62
7
  6
CONTINUOUS
 10
5.2868497785
 20
4.9705856848
 11
5.2462295865
 21
5.0409419212
  0
LINE
  5
24D
100
AcDbEntity
  8
0
100
AcDbLine
 62
7
  6
CONTINUOUS
 10
5.403408239
 20
5.0487005091
 11
5.372158239
 21
5.1028270969
  0
LINE
  5
24E
100
AcDbEntity
  8
0
100
AcDbLine
 62
7
  6
CONTINUOUS
 10
5.4416815162
 20
5.070797596
 11
5.4104315162
 21
5.1249241838
  0
LINE
  5
24F
100
AcDbEntity
  8
0
100
AcDbLine
 62
7
  6
CONTINUOUS
 10
6.0560600612
 20
6.2232448968
 11
6.0494707208
 21
6.2171951685
  0
LINE
  5
250
100
AcDbEntity
  8
0
100
AcDbLine
 62
7
  6
CONTINUOUS
 10
8.1991172762
 20
5.0044948968
 11
7.461379956
 21
5.0044948968
  0
LINE
  5
251
100
AcDbEntity
  8
0
100
AcDbLine
 62
7
  6
CONTINUOUS
 10
4.7993545964
 20
5.0044948968
 11
4.0616172762
 21
5.0044948968
  0
LINE
  5
252
100
AcDbEntity
  8
0
100
AcDbLine
 62
7
  6
CONTINUOUS
 10
8.136379956
 20
5.0669948968
 11
7.4446331315
 21
5.0669948968
  0
LINE
  5
253
100
AcDbEntity
  8
0
100
AcDbLine
 62
7
  6
CONTINUOUS
 10
4.1243545964
 20
5.0669948968
 11
4.8161014209
 21
5.0669948968
  0
LINE
  5
254
100
AcDbEntity
  8
0
100
AcDbLine
 62
7
  6
CONTINUOUS
 10
6.7948708738
 20
6.4751757306
 11
6.8853196116
 21
6.5656244684
  0
LINE
  5
255
100
AcDbEntity
  8
0
100
AcDbLine
 62
7
  6
CONTINUOUS
 10
6.0803672762
 20
6.3855394543
 11
6.0803672762
 21
6.2615956579
  0
LINE
  5
256
100
AcDbEntity
  8
0
100
AcDbLine
 62
7
  6
CONTINUOUS
 10
6.0803672762
 20
4.6234503392
 11
6.0803672762
 21
4.7473941356
  0
LINE
  5
257
100
AcDbEntity
  8
0
100
AcDbLine
 62
7
  6
CONTINUOUS
 10
6.5275882847
 20
6.2925018654
 11
6.4656163865
 21
6.1851633891
  0
LINE
  5
258
100
AcDbEntity
  8
0
100
AcDbLine
 62
7
  6
CONTINUOUS
 10
5.7085156254
 20
4.8738264044
 11
5.6465437272
 21
4.7664879281
  0
LINE
  5
259
100
AcDbEntity
  8
0
100
AcDbLine
 62
7
  6
CONTINUOUS
 10
6.9729098714
 20
6.5017171003
 11
6.9952472579
 21
6.5240544869
  0
LINE
  5
25A
100
AcDbEntity
  8
0
100
AcDbLine
 62
7
  6
CONTINUOUS
 10
6.8714151828
 20
6.3986314216
 11
6.9618639207
 21
6.4890801594
  0
LINE
  5
25B
100
AcDbEntity
  8
0
100
AcDbLine
 62
7
  6
CONTINUOUS
 10
7.0502496756
 20
6.4243772961
 11
7.0725870621
 21
6.4467146827
  0
LINE
  5
25C
100
AcDbEntity
  8
0
100
AcDbLine
 62
7
  6
CONTINUOUS
 10
6.8683742449
 20
5.9883184457
 11
6.7610357685
 21
5.9263465475
  0
LINE
  5
25D
100
AcDbEntity
  8
0
100
AcDbLine
 62
7
  6
CONTINUOUS
 10
5.4496987838
 20
5.1692457864
 11
5.3423603075
 21
5.1072738882
  0
LINE
  5
25E
100
AcDbEntity
  8
0
100
AcDbLine
 62
7
  6
CONTINUOUS
 10
5.3389258892
 20
5.0836403907
 11
5.4104315162
 21
5.1249241838
  0
LINE
  5
25F
100
AcDbEntity
  8
0
100
AcDbLine
 62
7
  6
CONTINUOUS
 10
7.0114118337
 20
5.4544948968
 11
6.8874680373
 21
5.4544948968
  0
LINE
  5
260
100
AcDbEntity
  8
0
100
AcDbLine
 62
7
  6
CONTINUOUS
 10
5.2493227186
 20
5.4544948968
 11
5.373266515
 21
5.4544948968
  0
LINE
  5
261
100
AcDbEntity
  8
0
100
AcDbLine
 62
7
  6
CONTINUOUS
 10
5.3423603075
 20
5.9017159053
 11
5.4496987838
 21
5.8397440071
  0
LINE
  5
262
100
AcDbEntity
  8
0
100
AcDbLine
 62
7
  6
CONTINUOUS
 10
6.7610357685
 20
5.082643246
 11
6.8683742449
 21
5.0206713478
  0
LINE
  5
263
100
AcDbEntity
  8
0
100
AcDbLine
 62
7
  6
CONTINUOUS
 10
5.6465437272
 20
6.2425018654
 11
5.7085156254
 21
6.1351633891
  0
LINE
  5
264
100
AcDbEntity
  8
0
100
AcDbLine
 62
7
  6
CONTINUOUS
 10
6.4656163865
 20
4.8238264044
 11
6.5275882847
 21
4.7164879281
  0
LINE
  5
265
100
AcDbEntity
  8
0
100
AcDbLine
 62
7
  6
CONTINUOUS
 10
6.1803672762
 20
6.3855394543
 11
6.1803672762
 21
6.2615956579
  0
LINE
  5
266
100
AcDbEntity
  8
0
100
AcDbLine
 62
7
  6
CONTINUOUS
 10
6.1803672762
 20
4.6234503392
 11
6.1803672762
 21
4.7473941356
  0
LINE
  5
267
100
AcDbEntity
  8
0
100
AcDbLine
 62
7
  6
CONTINUOUS
 10
5.7331462676
 20
4.7164879281
 11
5.7951181658
 21
4.8238264044
  0
LINE
  5
268
100
AcDbEntity
  8
0
100
AcDbLine
 62
7
  6
CONTINUOUS
 10
6.5522189269
 20
6.1351633891
 11
6.6141908251
 21
6.2425018654
  0
LINE
  5
269
100
AcDbEntity
  8
0
100
AcDbLine
 62
7
  6
CONTINUOUS
 10
7.1149525388
 20
6.3359915413
 11
7.024503801
 21
6.2455428034
  0
LINE
  5
26A
100
AcDbEntity
  8
0
100
AcDbLine
 62
7
  6
CONTINUOUS
 10
7.1499268663
 20
6.3693748785
 11
7.1275894797
 21
6.3470374919
  0
LINE
  5
26B
100
AcDbEntity
  8
0
100
AcDbLine
 62
7
  6
CONTINUOUS
 10
5.3701758892
 20
5.029513803
 11
5.4416815162
 21
5.070797596
  0
LINE
  5
26C
100
AcDbEntity
  8
0
100
AcDbLine
 62
7
  6
CONTINUOUS
 10
5.3923603075
 20
5.0206713478
 11
5.4996987838
 21
5.082643246
  0
LINE
  5
26D
100
AcDbEntity
  8
0
100
AcDbLine
 62
7
  6
CONTINUOUS
 10
6.8110357685
 20
5.8397440071
 11
6.9183742449
 21
5.9017159053
  0
LINE
  5
26E
100
AcDbEntity
  8
0
100
AcDbLine
 62
7
  6
CONTINUOUS
 10
5.3402838665
 20
5.0480332472
 11
5.27079266
 21
5.0227405165
  0
LINE
  5
26F
100
AcDbEntity
  8
0
100
AcDbLine
 62
7
  6
CONTINUOUS
 10
7.0114118337
 20
5.5544948968
 11
6.8874680373
 21
5.5544948968
  0
LINE
  5
270
100
AcDbEntity
  8
0
100
AcDbLine
 62
7
  6
CONTINUOUS
 10
5.2493227186
 20
5.5544948968
 11
5.373266515
 21
5.5544948968
  0
LINE
  5
271
100
AcDbEntity
  8
0
100
AcDbLine
 62
7
  6
CONTINUOUS
 10
6.9183742449
 20
5.1072738882
 11
6.8110357685
 21
5.1692457864
  0
LINE
  5
272
100
AcDbEntity
  8
0
100
AcDbLine
 62
7
  6
CONTINUOUS
 10
5.4996987838
 20
5.9263465475
 11
5.3923603075
 21
5.9883184457
  0
LINE
  5
273
100
AcDbEntity
  8
0
100
AcDbLine
 62
7
  6
CONTINUOUS
 10
6.6141908251
 20
4.7664879281
 11
6.5522189269
 21
4.8738264044
  0
LINE
  5
274
100
AcDbEntity
  8
0
100
AcDbLine
 62
7
  6
CONTINUOUS
 10
5.7951181658
 20
6.1851633891
 11
5.7331462676
 21
6.2925018654
  0
LINE
  5
275
100
AcDbEntity
  8
0
100
AcDbLine
 62
7
  6
CONTINUOUS
 10
7.10104811
 20
6.1689984944
 11
7.1914968479
 21
6.2594472322
  0
LINE
  5
276
100
AcDbEntity
  8
0
100
AcDbLine
 62
7
  6
CONTINUOUS
 10
5.2750679118
 20
5.0109943588
 11
5.3445591183
 21
5.0362870895
  0
LINE
  5
277
100
AcDbEntity
  8
0
100
AcDbLine
 62
7
  6
CONTINUOUS
 10
6.8491172762
 20
5.4301876818
 11
6.8423491595
 21
5.4228158756
  0
LINE
  5
278
100
AcDbEntity
  8
0
100
AcDbLine
 62
7
  6
CONTINUOUS
 10
6.2046744912
 20
6.2232448968
 11
6.2112638315
 21
6.2171951685
  0
LINE
  5
279
100
AcDbEntity
  8
0
100
AcDbLine
 62
7
  6
CONTINUOUS
 10
6.8491172762
 20
5.5788021118
 11
6.8423491595
 21
5.5861739179
  0
LINE
  5
27A
100
AcDbEntity
  8
0
100
AcDbLine
 62
7
  6
CONTINUOUS
 10
6.8491172762
 20
5.4301976112
 11
6.8491172762
 21
5.5787921823
  0
LINE
  5
27B
100
AcDbEntity
  8
0
100
AcDbLine
 62
7
  6
CONTINUOUS
 10
6.2046645618
 20
6.2232448968
 11
6.0560699906
 21
6.2232448968
  0
LINE
  5
27C
100
AcDbEntity
  8
0
100
AcDbLine
 62
7
  6
CONTINUOUS
 10
7.0729501418
 20
6.1741601893
 11
7.10104811
 21
6.1689984944
  0
LINE
  5
27D
100
AcDbEntity
  8
0
100
AcDbLine
 62
7
  6
CONTINUOUS
 10
6.8000325687
 20
6.4470777623
 11
6.7948708738
 21
6.4751757306
  0
LINE
  5
27E
100
AcDbEntity
  8
0
100
AcDbLine
 62
7
  6
CONTINUOUS
 10
6.9176710432
 20
6.5569559285
 11
6.8853196116
 21
6.5656244684
  0
LINE
  5
27F
100
AcDbEntity
  8
0
100
AcDbLine
 62
7
  6
CONTINUOUS
 10
7.1828283079
 20
6.2917986638
 11
6.9176770569
 21
6.5569499148
  0
LINE
  5
280
100
AcDbEntity
  8
0
100
AcDbLine
 62
7
  6
CONTINUOUS
 10
7.461379956
 20
5.0044948968
 11
7.2472190128
 21
5.8037544177
  0
LINE
  5
281
100
AcDbEntity
  8
0
100
AcDbLine
 62
7
  6
CONTINUOUS
 10
7.1828283079
 20
6.2917986638
 11
7.1914968479
 21
6.2594472322
  0
LINE
  5
282
100
AcDbEntity
  8
0
100
AcDbLine
 62
7
  6
CONTINUOUS
 10
7.461379956
 20
5.0544948968
 11
7.461379956
 21
5.0044948968
  0
LINE
  5
283
100
AcDbEntity
  8
0
100
AcDbLine
 62
7
  6
CONTINUOUS
 10
7.461379956
 20
5.0044948968
 11
7.4421967813
 21
4.9794948968
  0
LINE
  5
284
100
AcDbEntity
  8
0
100
AcDbLine
 62
7
  6
CONTINUOUS
 10
7.1499268663
 20
6.3693748785
 11
6.9952472579
 21
6.5240544869
  0
LINE
  5
285
100
AcDbEntity
  8
0
100
AcDbLine
 62
7
  6
CONTINUOUS
 10
7.1982664946
 20
6.5370387761
 11
7.1629111555
 21
6.5723941152
  0
LINE
  5
286
100
AcDbEntity
  8
0
100
AcDbLine
 62
7
  6
CONTINUOUS
 10
7.8803672606
 20
5.0044948968
 11
7.8803672606
 21
5.0544948968
  0
LINE
  5
287
100
AcDbEntity
  8
0
100
AcDbLine
 62
7
  6
CONTINUOUS
 10
8.148879956
 20
5.0044948968
 11
8.148879956
 21
5.0544948968
  0
LINE
  5
288
100
AcDbEntity
  8
0
100
AcDbLine
 62
7
  6
CONTINUOUS
 10
8.2241172762
 20
4.3794948968
 11
8.2241172762
 21
4.9794948968
  0
LINE
  5
289
100
AcDbEntity
  8
0
100
AcDbLine
 62
7
  6
CONTINUOUS
 10
3.9771220839
 20
13.3891102814
 11
3.9771220839
 21
12.1391102814
  0
LINE
  5
28A
100
AcDbEntity
  8
0
100
AcDbLine
 62
7
  6
CONTINUOUS
 10
4.321158501
 20
13.0325717079
 11
4.3208721122
 21
13.0450717079
  0
LINE
  5
28B
100
AcDbEntity
  8
0
100
AcDbLine
 62
7
  6
CONTINUOUS
 10
4.3211584929
 20
12.495648855
 11
4.3208721122
 21
12.4831488549
  0
LINE
  5
28C
100
AcDbEntity
  8
0
100
AcDbLine
 62
7
  6
CONTINUOUS
 10
4.739859404
 20
12.4831488549
 11
4.739859404
 21
12.1641102814
  0
LINE
  5
28D
100
AcDbEntity
  8
0
100
AcDbLine
 62
7
  6
CONTINUOUS
 10
4.739859404
 20
13.0450717079
 11
4.739859404
 21
13.3641102814
  0
LINE
  5
28E
100
AcDbEntity
  8
0
100
AcDbLine
 62
7
  6
CONTINUOUS
 10
4.0021220839
 20
12.1641102814
 11
3.9771220839
 21
12.1391102814
  0
LINE
  5
28F
100
AcDbEntity
  8
0
100
AcDbLine
 62
7
  6
CONTINUOUS
 10
5.3771220839
 20
11.8109852814
 11
5.3521220839
 21
11.8359852814
  0
LINE
  5
290
100
AcDbEntity
  8
0
100
AcDbLine
 62
7
  6
CONTINUOUS
 10
5.1856806968
 20
12.1266102814
 11
5.1856806968
 21
12.1391102814
  0
LINE
  5
291
100
AcDbEntity
  8
0
100
AcDbLine
 62
7
  6
CONTINUOUS
 10
5.1867343942
 20
12.1141102814
 11
5.1867343942
 21
12.1266102814
  0
LINE
  5
292
100
AcDbEntity
  8
0
100
AcDbLine
 62
7
  6
CONTINUOUS
 10
4.0021220839
 20
13.3641102814
 11
3.9771220839
 21
13.3891102814
  0
LINE
  5
293
100
AcDbEntity
  8
0
100
AcDbLine
 62
7
  6
CONTINUOUS
 10
5.2794306968
 20
12.1266102814
 11
5.2794306968
 21
12.1141102814
  0
LINE
  5
294
100
AcDbEntity
  8
0
100
AcDbLine
 62
7
  6
CONTINUOUS
 10
5.3106806968
 20
12.1391102814
 11
5.3106806968
 21
12.1266102814
  0
LINE
  5
295
100
AcDbEntity
  8
0
100
AcDbLine
 62
7
  6
CONTINUOUS
 10
5.3771220839
 20
11.8109852814
 11
6.7646220839
 21
11.8109852814
  0
LINE
  5
296
100
AcDbEntity
  8
0
100
AcDbLine
 62
7
  6
CONTINUOUS
 10
6.7896220839
 20
11.8359852814
 11
5.3521220839
 21
11.8359852814
  0
LINE
  5
297
100
AcDbEntity
  8
0
100
AcDbLine
 62
7
  6
CONTINUOUS
 10
5.3521220839
 20
12.1291102814
 11
5.3521220839
 21
11.8359852814
  0
LINE
  5
298
100
AcDbEntity
  8
0
100
AcDbLine
 62
7
  6
CONTINUOUS
 10
5.4614970839
 20
12.1391102814
 11
5.4614970839
 21
12.1291102814
  0
LINE
  5
299
100
AcDbEntity
  8
0
100
AcDbLine
 62
7
  6
CONTINUOUS
 10
6.0215648689
 20
11.9415802475
 11
6.0708720839
 21
11.9131127137
  0
LINE
  5
29A
100
AcDbEntity
  8
0
100
AcDbLine
 62
7
  6
CONTINUOUS
 10
5.1867343942
 20
12.1141102814
 11
5.3439130467
 21
12.1141102814
  0
LINE
  5
29B
100
AcDbEntity
  8
0
100
AcDbLine
 62
7
  6
CONTINUOUS
 10
5.3126630467
 20
12.1266102814
 11
5.2794306968
 21
12.1266102814
  0
LINE
  5
29C
100
AcDbEntity
  8
0
100
AcDbLine
 62
7
  6
CONTINUOUS
 10
5.1856806968
 20
12.1266102814
 11
5.1867343942
 21
12.1266102814
  0
LINE
  5
29D
100
AcDbEntity
  8
0
100
AcDbLine
 62
7
  6
CONTINUOUS
 10
6.7896220839
 20
12.1291102814
 11
5.3521220839
 21
12.1291102814
  0
LINE
  5
29E
100
AcDbEntity
  8
0
100
AcDbLine
 62
7
  6
CONTINUOUS
 10
3.9771220839
 20
12.1391102814
 11
8.1646220839
 21
12.1391102814
  0
LINE
  5
29F
100
AcDbEntity
  8
0
100
AcDbLine
 62
7
  6
CONTINUOUS
 10
6.1201792989
 20
11.9985153152
 11
6.0708720839
 21
12.0269828491
  0
LINE
  5
2A0
100
AcDbEntity
  8
0
100
AcDbLine
 62
7
  6
CONTINUOUS
 10
5.3234883642
 20
12.1391102814
 11
5.3126630467
 21
12.1266102814
  0
LINE
  5
2A1
100
AcDbEntity
  8
0
100
AcDbLine
 62
7
  6
CONTINUOUS
 10
5.3126630467
 20
12.1141102814
 11
5.3336928675
 21
12.1383934268
  0
LINE
  5
2A2
100
AcDbEntity
  8
0
100
AcDbLine
 62
7
  6
CONTINUOUS
 10
5.3439130467
 20
12.1141102814
 11
5.3521220839
 21
12.123589261
  0
LINE
  5
2A3
100
AcDbEntity
  8
0
100
AcDbLine
 62
7
  6
CONTINUOUS
 10
5.3569034278
 20
12.1291102814
 11
5.3655636818
 21
12.1391102814
  0
LINE
  5
2A4
100
AcDbEntity
  8
0
100
AcDbLine
 62
7
  6
CONTINUOUS
 10
6.0215648689
 20
11.9415802475
 11
6.0215648689
 21
11.9985153152
  0
LINE
  5
2A5
100
AcDbEntity
  8
0
100
AcDbLine
 62
7
  6
CONTINUOUS
 10
7.8208720683
 20
12.4831488549
 11
7.4018847637
 21
12.4831488549
  0
LINE
  5
2A6
100
AcDbEntity
  8
0
100
AcDbLine
 62
7
  6
CONTINUOUS
 10
4.739859404
 20
12.4831488549
 11
4.3208720995
 21
12.4831488549
  0
LINE
  5
2A7
100
AcDbEntity
  8
0
100
AcDbLine
 62
7
  6
CONTINUOUS
 10
6.8119199905
 20
12.5766157814
 11
7.0554573465
 21
12.5766157814
  0
LINE
  5
2A8
100
AcDbEntity
  8
0
100
AcDbLine
 62
7
  6
CONTINUOUS
 10
7.7114970839
 20
12.6078602814
 11
7.5552470839
 21
12.6078602814
  0
LINE
  5
2A9
100
AcDbEntity
  8
0
100
AcDbLine
 62
7
  6
CONTINUOUS
 10
4.4302470839
 20
12.6078602814
 11
4.5864970839
 21
12.6078602814
  0
LINE
  5
2AA
100
AcDbEntity
  8
0
100
AcDbLine
 62
7
  6
CONTINUOUS
 10
6.1201792989
 20
11.9985153152
 11
6.1201792989
 21
11.9415802475
  0
LINE
  5
2AB
100
AcDbEntity
  8
0
100
AcDbLine
 62
7
  6
CONTINUOUS
 10
6.9907544832
 20
12.63781491
 11
7.0130918698
 21
12.63781491
  0
LINE
  5
2AC
100
AcDbEntity
  8
0
100
AcDbLine
 62
7
  6
CONTINUOUS
 10
6.9134146791
 20
12.7009625957
 11
6.9357520656
 21
12.7009625957
  0
LINE
  5
2AD
100
AcDbEntity
  8
0
100
AcDbLine
 62
7
  6
CONTINUOUS
 10
6.7353756815
 20
12.7641102814
 11
6.8258244193
 21
12.7641102814
  0
LINE
  5
2AE
100
AcDbEntity
  8
0
100
AcDbLine
 62
7
  6
CONTINUOUS
 10
6.7896220839
 20
12.0443549964
 11
6.7876009558
 21
12.0465564011
  0
LINE
  5
2AF
100
AcDbEntity
  8
0
100
AcDbLine
 62
7
  6
CONTINUOUS
 10
6.9357520656
 20
12.8272579671
 11
6.9134146791
 21
12.8272579671
  0
LINE
  5
2B0
100
AcDbEntity
  8
0
100
AcDbLine
 62
7
  6
CONTINUOUS
 10
6.9907544832
 20
12.8904056528
 11
7.0130918698
 21
12.8904056528
  0
LINE
  5
2B1
100
AcDbEntity
  8
0
100
AcDbLine
 62
7
  6
CONTINUOUS
 10
6.9134146791
 20
12.8272579671
 11
6.9907544832
 21
12.8904056528
  0
LINE
  5
2B2
100
AcDbEntity
  8
0
100
AcDbLine
 62
7
  6
CONTINUOUS
 10
6.9357520656
 20
12.8272579671
 11
7.0130918698
 21
12.8904056528
  0
LINE
  5
2B3
100
AcDbEntity
  8
0
100
AcDbLine
 62
7
  6
CONTINUOUS
 10
4.5864970839
 20
12.9203602814
 11
4.4302470839
 21
12.9203602814
  0
LINE
  5
2B4
100
AcDbEntity
  8
0
100
AcDbLine
 62
7
  6
CONTINUOUS
 10
7.5552470839
 20
12.9203602814
 11
7.7114970839
 21
12.9203602814
  0
LINE
  5
2B5
100
AcDbEntity
  8
0
100
AcDbLine
 62
7
  6
CONTINUOUS
 10
6.8119199905
 20
12.9516047813
 11
7.0554573465
 21
12.9516047813
  0
LINE
  5
2B6
100
AcDbEntity
  8
0
100
AcDbLine
 62
7
  6
CONTINUOUS
 10
7.8208720683
 20
13.0450717079
 11
7.4018847637
 21
13.0450717079
  0
LINE
  5
2B7
100
AcDbEntity
  8
0
100
AcDbLine
 62
7
  6
CONTINUOUS
 10
4.739859404
 20
13.0450717079
 11
4.3208720995
 21
13.0450717079
  0
LINE
  5
2B8
100
AcDbEntity
  8
0
100
AcDbLine
 62
7
  6
CONTINUOUS
 10
6.6802470839
 20
12.1291102814
 11
6.6802470839
 21
12.1391102814
  0
LINE
  5
2B9
100
AcDbEntity
  8
0
100
AcDbLine
 62
7
  6
CONTINUOUS
 10
7.0829307051
 20
12.6948380802
 11
7.0130918698
 21
12.63781491
  0
LINE
  5
2BA
100
AcDbEntity
  8
0
100
AcDbLine
 62
7
  6
CONTINUOUS
 10
6.0708720839
 20
12.0269828491
 11
6.0215648689
 21
11.9985153152
  0
LINE
  5
2BB
100
AcDbEntity
  8
0
100
AcDbLine
 62
7
  6
CONTINUOUS
 10
6.0708720839
 20
11.9131127137
 11
6.1201792989
 21
11.9415802475
  0
LINE
  5
2BC
100
AcDbEntity
  8
0
100
AcDbLine
 62
7
  6
CONTINUOUS
 10
6.9134146791
 20
12.7009625957
 11
6.9907544832
 21
12.63781491
  0
LINE
  5
2BD
100
AcDbEntity
  8
0
100
AcDbLine
 62
7
  6
CONTINUOUS
 10
6.7896220839
 20
11.8359852814
 11
6.7896220839
 21
11.8762977814
  0
LINE
  5
2BE
100
AcDbEntity
  8
0
100
AcDbLine
 62
7
  6
CONTINUOUS
 10
6.7896220839
 20
11.8957405664
 11
6.7896220839
 21
12.0443549964
  0
LINE
  5
2BF
100
AcDbEntity
  8
0
100
AcDbLine
 62
7
  6
CONTINUOUS
 10
6.7896220839
 20
12.0637977814
 11
6.7896220839
 21
12.1291102814
  0
LINE
  5
2C0
100
AcDbEntity
  8
0
100
AcDbLine
 62
7
  6
CONTINUOUS
 10
7.0130918698
 20
12.63781491
 11
6.9357520656
 21
12.7009625957
  0
LINE
  5
2C1
100
AcDbEntity
  8
0
100
AcDbLine
 62
7
  6
CONTINUOUS
 10
6.9134146791
 20
12.8272579671
 11
6.9134146791
 21
12.7009625957
  0
LINE
  5
2C2
100
AcDbEntity
  8
0
100
AcDbLine
 62
7
  6
CONTINUOUS
 10
6.9357520656
 20
12.8272579671
 11
6.9357520656
 21
12.7009625957
  0
LINE
  5
2C3
100
AcDbEntity
  8
0
100
AcDbLine
 62
7
  6
CONTINUOUS
 10
8.1646220839
 20
13.3891102814
 11
3.9771220839
 21
13.3891102814
  0
LINE
  5
2C4
100
AcDbEntity
  8
0
100
AcDbLine
 62
7
  6
CONTINUOUS
 10
7.0130918698
 20
12.8904056528
 11
7.0831592377
 21
12.8331958864
  0
LINE
  5
2C5
100
AcDbEntity
  8
0
100
AcDbLine
 62
7
  6
CONTINUOUS
 10
6.7876023817
 20
11.8935407147
 11
6.7896220839
 21
11.8957405664
  0
LINE
  5
2C6
100
AcDbEntity
  8
0
100
AcDbLine
 62
7
  6
CONTINUOUS
 10
8.1396220839
 20
13.3641102814
 11
8.1646220839
 21
13.3891102814
  0
LINE
  5
2C7
100
AcDbEntity
  8
0
100
AcDbLine
 62
7
  6
CONTINUOUS
 10
6.7896220839
 20
11.8359852814
 11
6.7646220839
 21
11.8109852814
  0
LINE
  5
2C8
100
AcDbEntity
  8
0
100
AcDbLine
 62
7
  6
CONTINUOUS
 10
8.1396220839
 20
12.1641102814
 11
8.1646220839
 21
12.1391102814
  0
LINE
  5
2C9
100
AcDbEntity
  8
0
100
AcDbLine
 62
7
  6
CONTINUOUS
 10
7.4018847637
 20
12.1641102814
 11
7.4018847637
 21
12.4831488549
  0
LINE
  5
2CA
100
AcDbEntity
  8
0
100
AcDbLine
 62
7
  6
CONTINUOUS
 10
7.4018847637
 20
13.0450717079
 11
7.4018847637
 21
13.3641102814
  0
LINE
  5
2CB
100
AcDbEntity
  8
0
100
AcDbLine
 62
7
  6
CONTINUOUS
 10
7.8205856668
 20
12.4956488549
 11
7.8208720555
 21
12.4831488549
  0
LINE
  5
2CC
100
AcDbEntity
  8
0
100
AcDbLine
 62
7
  6
CONTINUOUS
 10
7.8208720527
 20
13.0450717079
 11
7.8205856748
 21
13.0325717079
  0
LINE
  5
2CD
100
AcDbEntity
  8
0
100
AcDbLine
 62
7
  6
CONTINUOUS
 10
8.1646220839
 20
13.3891102814
 11
8.1646220839
 21
12.1391102814
  0
LINE
  5
2CE
100
AcDbEntity
  8
0
100
AcDbLine
 62
7
  6
CONTINUOUS
 10
16.3494177569
 20
4.3199997044
 11
15.0994177569
 21
4.3199997044
  0
LINE
  5
2CF
100
AcDbEntity
  8
0
100
AcDbLine
 62
7
  6
CONTINUOUS
 10
14.7712927569
 20
6.1387497044
 11
14.7962927569
 21
6.1637497044
  0
LINE
  5
2D0
100
AcDbEntity
  8
0
100
AcDbLine
 62
7
  6
CONTINUOUS
 10
14.7712927569
 20
4.7512497044
 11
14.7962927569
 21
4.7262497044
  0
LINE
  5
2D1
100
AcDbEntity
  8
0
100
AcDbLine
 62
7
  6
CONTINUOUS
 10
14.853847199
 20
6.1617290922
 11
14.8560480419
 21
6.1637497044
  0
LINE
  5
2D2
100
AcDbEntity
  8
0
100
AcDbLine
 62
7
  6
CONTINUOUS
 10
14.7712927569
 20
6.1387488858
 11
14.7712927569
 21
4.7512505231
  0
LINE
  5
2D3
100
AcDbEntity
  8
0
100
AcDbLine
 62
7
  6
CONTINUOUS
 10
14.7962927569
 20
4.7262497044
 11
14.7962927569
 21
6.1637497044
  0
LINE
  5
2D4
100
AcDbEntity
  8
0
100
AcDbLine
 62
7
  6
CONTINUOUS
 10
15.0894177569
 20
4.7262497044
 11
14.7962927569
 21
4.7262497044
  0
LINE
  5
2D5
100
AcDbEntity
  8
0
100
AcDbLine
 62
7
  6
CONTINUOUS
 10
14.9018877231
 20
5.4943069194
 11
14.8734201892
 21
5.4449997044
  0
LINE
  5
2D6
100
AcDbEntity
  8
0
100
AcDbLine
 62
7
  6
CONTINUOUS
 10
15.5981223856
 20
6.3872194904
 11
15.6553321519
 21
6.4572868583
  0
LINE
  5
2D7
100
AcDbEntity
  8
0
100
AcDbLine
 62
7
  6
CONTINUOUS
 10
15.0994177569
 20
4.8356247044
 11
15.0894177569
 21
4.8356247044
  0
LINE
  5
2D8
100
AcDbEntity
  8
0
100
AcDbLine
 62
7
  6
CONTINUOUS
 10
14.8734201892
 20
5.4449997044
 11
14.9018877231
 21
5.3956924894
  0
LINE
  5
2D9
100
AcDbEntity
  8
0
100
AcDbLine
 62
7
  6
CONTINUOUS
 10
15.0894177569
 20
4.7262612642
 11
15.0894177569
 21
6.1637381447
  0
LINE
  5
2DA
100
AcDbEntity
  8
0
100
AcDbLine
 62
7
  6
CONTINUOUS
 10
15.0994177569
 20
4.3199997044
 11
15.0994177569
 21
6.5762461553
  0
LINE
  5
2DB
100
AcDbEntity
  8
0
100
AcDbLine
 62
7
  6
CONTINUOUS
 10
14.9588227908
 20
5.3956924894
 11
14.9872903246
 21
5.4449997044
  0
LINE
  5
2DC
100
AcDbEntity
  8
0
100
AcDbLine
 62
7
  6
CONTINUOUS
 10
16.3244177569
 20
4.9449997044
 11
15.1244177569
 21
4.9449997044
  0
LINE
  5
2DD
100
AcDbEntity
  8
0
100
AcDbLine
 62
7
  6
CONTINUOUS
 10
15.9928791834
 20
5.0074997044
 11
15.4559563304
 21
5.0074997044
  0
LINE
  5
2DE
100
AcDbEntity
  8
0
100
AcDbLine
 62
7
  6
CONTINUOUS
 10
14.9872903246
 20
5.4449997044
 11
14.9588227908
 21
5.4943069194
  0
LINE
  5
2DF
100
AcDbEntity
  8
0
100
AcDbLine
 62
7
  6
CONTINUOUS
 10
15.8507131283
 20
6.3872194904
 11
15.7875654426
 21
6.3098796862
  0
LINE
  5
2E0
100
AcDbEntity
  8
0
100
AcDbLine
 62
7
  6
CONTINUOUS
 10
15.8507131283
 20
6.3648821038
 11
15.7875654426
 21
6.2875422996
  0
LINE
  5
2E1
100
AcDbEntity
  8
0
100
AcDbLine
 62
7
  6
CONTINUOUS
 10
15.4434563304
 20
4.9449997044
 11
15.4434563304
 21
4.9949997044
  0
LINE
  5
2E2
100
AcDbEntity
  8
0
100
AcDbLine
 62
7
  6
CONTINUOUS
 10
15.536923257
 20
6.1860476111
 11
15.536923257
 21
6.4295849671
  0
LINE
  5
2E3
100
AcDbEntity
  8
0
100
AcDbLine
 62
7
  6
CONTINUOUS
 10
14.9588227908
 20
5.3956924894
 11
14.9018877231
 21
5.3956924894
  0
LINE
  5
2E4
100
AcDbEntity
  8
0
100
AcDbLine
 62
7
  6
CONTINUOUS
 10
15.5981223856
 20
6.3648821038
 11
15.5981223856
 21
6.3872194904
  0
LINE
  5
2E5
100
AcDbEntity
  8
0
100
AcDbLine
 62
7
  6
CONTINUOUS
 10
15.6612700712
 20
6.3098796862
 11
15.6612700712
 21
6.2875422996
  0
LINE
  5
2E6
100
AcDbEntity
  8
0
100
AcDbLine
 62
7
  6
CONTINUOUS
 10
14.9018877231
 20
5.4943069194
 11
14.9588227908
 21
5.4943069194
  0
LINE
  5
2E7
100
AcDbEntity
  8
0
100
AcDbLine
 62
7
  6
CONTINUOUS
 10
15.7244177569
 20
6.1095033021
 11
15.7244177569
 21
6.1999520399
  0
LINE
  5
2E8
100
AcDbEntity
  8
0
100
AcDbLine
 62
7
  6
CONTINUOUS
 10
15.0046624719
 20
6.1637497044
 11
15.0068624612
 21
6.161729876
  0
LINE
  5
2E9
100
AcDbEntity
  8
0
100
AcDbLine
 62
7
  6
CONTINUOUS
 10
15.7875654426
 20
6.2875422996
 11
15.7875654426
 21
6.3098796862
  0
LINE
  5
2EA
100
AcDbEntity
  8
0
100
AcDbLine
 62
7
  6
CONTINUOUS
 10
15.8507131283
 20
6.3648821038
 11
15.8507131283
 21
6.3872194904
  0
LINE
  5
2EB
100
AcDbEntity
  8
0
100
AcDbLine
 62
7
  6
CONTINUOUS
 10
15.9119122569
 20
6.1860476111
 11
15.9119122569
 21
6.4295849671
  0
LINE
  5
2EC
100
AcDbEntity
  8
0
100
AcDbLine
 62
7
  6
CONTINUOUS
 10
16.0053791834
 20
4.9449997044
 11
16.0053791834
 21
4.9949997044
  0
LINE
  5
2ED
100
AcDbEntity
  8
0
100
AcDbLine
 62
7
  6
CONTINUOUS
 10
15.0994177569
 20
6.0543747044
 11
15.0894177569
 21
6.0543747044
  0
LINE
  5
2EE
100
AcDbEntity
  8
0
100
AcDbLine
 62
7
  6
CONTINUOUS
 10
15.5981223856
 20
6.3648821038
 11
15.6612700712
 21
6.2875422996
  0
LINE
  5
2EF
100
AcDbEntity
  8
0
100
AcDbLine
 62
7
  6
CONTINUOUS
 10
15.6612700712
 20
6.3098796862
 11
15.5981223856
 21
6.3872194904
  0
LINE
  5
2F0
100
AcDbEntity
  8
0
100
AcDbLine
 62
7
  6
CONTINUOUS
 10
15.0894177569
 20
6.1637497044
 11
15.0241052569
 21
6.1637497044
  0
LINE
  5
2F1
100
AcDbEntity
  8
0
100
AcDbLine
 62
7
  6
CONTINUOUS
 10
15.0046624719
 20
6.1637497044
 11
14.8560480419
 21
6.1637497044
  0
LINE
  5
2F2
100
AcDbEntity
  8
0
100
AcDbLine
 62
7
  6
CONTINUOUS
 10
14.8366052569
 20
6.1637497044
 11
14.7962927569
 21
6.1637497044
  0
LINE
  5
2F3
100
AcDbEntity
  8
0
100
AcDbLine
 62
7
  6
CONTINUOUS
 10
16.3494177569
 20
4.3199997044
 11
16.3494177569
 21
6.5762350212
  0
LINE
  5
2F4
100
AcDbEntity
  8
0
100
AcDbLine
 62
7
  6
CONTINUOUS
 10
15.6612700712
 20
6.2875422996
 11
15.7875654426
 21
6.2875422996
  0
LINE
  5
2F5
100
AcDbEntity
  8
0
100
AcDbLine
 62
7
  6
CONTINUOUS
 10
15.7936899581
 20
6.4570583257
 11
15.8507131283
 21
6.3872194904
  0
LINE
  5
2F6
100
AcDbEntity
  8
0
100
AcDbLine
 62
7
  6
CONTINUOUS
 10
15.7875654426
 20
6.3098796862
 11
15.6612700712
 21
6.3098796862
  0
LINE
  5
2F7
100
AcDbEntity
  8
0
100
AcDbLine
 62
7
  6
CONTINUOUS
 10
15.1244177569
 20
6.6012497044
 11
16.3244177569
 21
6.6012497044
  0
LINE
  5
2F8
100
AcDbEntity
  8
0
100
AcDbLine
 62
7
  6
CONTINUOUS
 10
13.3003201374
 20
11.6902294963
 11
13.4833452574
 21
11.3172635153
  0
LINE
  5
2F9
100
AcDbEntity
  8
0
100
AcDbLine
 62
7
  6
CONTINUOUS
 10
13.3001873349
 20
11.6999606442
 11
13.6013178518
 21
12.6744193539
  0
LINE
  5
2FA
100
AcDbEntity
  8
0
100
AcDbLine
 62
7
  6
CONTINUOUS
 10
13.5045929875
 20
12.1025269255
 11
13.5198450809
 21
12.0714464271
  0
LINE
  5
2FB
100
AcDbEntity
  8
0
100
AcDbLine
 62
7
  6
CONTINUOUS
 10
13.6925889601
 20
11.9752644181
 11
13.6773368811
 21
12.0063449165
  0
LINE
  5
2FC
100
AcDbEntity
  8
0
100
AcDbLine
 62
7
  6
CONTINUOUS
 10
14.000652667
 20
11.7184156562
 11
13.954045726
 21
12.2158262285
  0
LINE
  5
2FD
100
AcDbEntity
  8
0
100
AcDbLine
 62
7
  6
CONTINUOUS
 10
13.9197390816
 20
12.1985062886
 11
13.903267464
 21
12.2441221927
  0
LINE
  5
2FE
100
AcDbEntity
  8
0
100
AcDbLine
 62
7
  6
CONTINUOUS
 10
13.9699909206
 20
12.3775376756
 11
14.2604705087
 21
13.3175299672
  0
LINE
  5
2FF
100
AcDbEntity
  8
0
100
AcDbLine
 62
7
  6
CONTINUOUS
 10
13.9197390816
 20
12.1985062886
 11
13.8929463129
 21
12.1118048574
  0
LINE
  5
300
100
AcDbEntity
  8
0
100
AcDbLine
 62
7
  6
CONTINUOUS
 10
14.2255219566
 20
12.2771193366
 11
14.2216730939
 21
12.2634912681
  0
LINE
  5
301
100
AcDbEntity
  8
0
100
AcDbLine
 62
7
  6
CONTINUOUS
 10
13.4833452574
 20
11.3172635153
 11
17.3402881698
 21
11.3172635153
  0
LINE
  5
302
100
AcDbEntity
  8
0
100
AcDbLine
 62
7
  6
CONTINUOUS
 10
14.3394424011
 20
12.2249689185
 11
14.3437194672
 21
12.2405935432
  0
LINE
  5
303
100
AcDbEntity
  8
0
100
AcDbLine
 62
7
  6
CONTINUOUS
 10
14.2258528835
 20
12.2770170724
 11
14.2216730939
 21
12.2634912681
  0
LINE
  5
304
100
AcDbEntity
  8
0
100
AcDbLine
 62
7
  6
CONTINUOUS
 10
14.353401701
 20
12.2719267491
 11
14.3437190481
 21
12.2405936727
  0
LINE
  5
305
100
AcDbEntity
  8
0
100
AcDbLine
 62
7
  6
CONTINUOUS
 10
14.282083584
 20
12.0168273076
 11
14.2724009311
 21
11.9854942312
  0
LINE
  5
306
100
AcDbEntity
  8
0
100
AcDbLine
 62
7
  6
CONTINUOUS
 10
14.3795152186
 20
12.2209505088
 11
14.3085595276
 21
11.9913378084
  0
LINE
  5
307
100
AcDbEntity
  8
0
100
AcDbLine
 62
7
  6
CONTINUOUS
 10
14.4973958717
 20
12.4399376275
 11
14.4877132188
 21
12.4086045511
  0
LINE
  5
308
100
AcDbEntity
  8
0
100
AcDbLine
 62
7
  6
CONTINUOUS
 10
14.8013267875
 20
12.5185291861
 11
14.7916441346
 21
12.4871961097
  0
LINE
  5
309
100
AcDbEntity
  8
0
100
AcDbLine
 62
7
  6
CONTINUOUS
 10
14.3978905914
 20
12.475327218
 11
14.4877132188
 21
12.4086045511
  0
LINE
  5
30A
100
AcDbEntity
  8
0
100
AcDbLine
 62
7
  6
CONTINUOUS
 10
15.6659912556
 20
11.5333478897
 11
15.6748845073
 21
11.5267417428
  0
LINE
  5
30B
100
AcDbEntity
  8
0
100
AcDbLine
 62
7
  6
CONTINUOUS
 10
14.769947513
 20
12.353225074
 11
14.774523141
 21
12.3439009244
  0
LINE
  5
30C
100
AcDbEntity
  8
0
100
AcDbLine
 62
7
  6
CONTINUOUS
 10
14.8268291247
 20
12.3662003098
 11
14.8222534967
 21
12.3755244593
  0
LINE
  5
30D
100
AcDbEntity
  8
0
100
AcDbLine
 62
7
  6
CONTINUOUS
 10
14.7561654505
 20
12.3086263033
 11
14.769947513
 21
12.353225074
  0
LINE
  5
30E
100
AcDbEntity
  8
0
100
AcDbLine
 62
7
  6
CONTINUOUS
 10
14.774523141
 20
12.3439009244
 11
14.7624909706
 21
12.3049648066
  0
LINE
  5
30F
100
AcDbEntity
  8
0
100
AcDbLine
 62
7
  6
CONTINUOUS
 10
14.8607774179
 20
12.353225074
 11
14.8469953554
 21
12.3086263033
  0
LINE
  5
310
100
AcDbEntity
  8
0
100
AcDbLine
 62
7
  6
CONTINUOUS
 10
15.6978487465
 20
11.8757930529
 11
15.7116646615
 21
11.8757930529
  0
LINE
  5
311
100
AcDbEntity
  8
0
100
AcDbLine
 62
7
  6
CONTINUOUS
 10
15.6896990129
 20
11.9287422946
 11
15.7035149278
 21
11.9287422946
  0
LINE
  5
312
100
AcDbEntity
  8
0
100
AcDbLine
 62
7
  6
CONTINUOUS
 10
16.9163024247
 20
11.9752644181
 11
16.5303895615
 21
11.9752644181
  0
LINE
  5
313
100
AcDbEntity
  8
0
100
AcDbLine
 62
7
  6
CONTINUOUS
 10
13.6925889601
 20
11.9752644181
 11
13.9765861599
 21
11.9752644181
  0
LINE
  5
314
100
AcDbEntity
  8
0
100
AcDbLine
 62
7
  6
CONTINUOUS
 10
15.8953924829
 20
11.9854942312
 11
15.7812326866
 21
11.9854942312
  0
LINE
  5
315
100
AcDbEntity
  8
0
100
AcDbLine
 62
7
  6
CONTINUOUS
 10
14.2724009311
 20
11.9854942312
 11
14.3076348331
 21
11.9854942312
  0
LINE
  5
316
100
AcDbEntity
  8
0
100
AcDbLine
 62
7
  6
CONTINUOUS
 10
15.8811770499
 20
12.0168273076
 11
15.7909153395
 21
12.0168273076
  0
LINE
  5
317
100
AcDbEntity
  8
0
100
AcDbLine
 62
7
  6
CONTINUOUS
 10
14.3164363786
 20
12.0168273076
 11
14.282083584
 21
12.0168273076
  0
LINE
  5
318
100
AcDbEntity
  8
0
100
AcDbLine
 62
7
  6
CONTINUOUS
 10
14.2216730939
 20
12.2634912681
 11
14.3394424011
 21
12.2249689185
  0
LINE
  5
319
100
AcDbEntity
  8
0
100
AcDbLine
 62
7
  6
CONTINUOUS
 10
15.7782111771
 20
11.7543475384
 11
15.8959804843
 21
11.7158251887
  0
LINE
  5
31A
100
AcDbEntity
  8
0
100
AcDbLine
 62
7
  6
CONTINUOUS
 10
15.9056631373
 20
11.7471582651
 11
15.7909218726
 21
11.7846901418
  0
LINE
  5
31B
100
AcDbEntity
  8
0
100
AcDbLine
 62
7
  6
CONTINUOUS
 10
14.349125054
 20
12.2563019949
 11
14.2313557468
 21
12.2948243445
  0
LINE
  5
31C
100
AcDbEntity
  8
0
100
AcDbLine
 62
7
  6
CONTINUOUS
 10
15.9156161334
 20
11.7696581911
 11
15.7978468262
 21
11.8081805407
  0
LINE
  5
31D
100
AcDbEntity
  8
0
100
AcDbLine
 62
7
  6
CONTINUOUS
 10
14.3590780502
 20
12.2788019208
 11
14.241308743
 21
12.3173242705
  0
LINE
  5
31E
100
AcDbEntity
  8
0
100
AcDbLine
 62
7
  6
CONTINUOUS
 10
15.6759508028
 20
11.8395447533
 11
15.6978825989
 21
11.8311942823
  0
LINE
  5
31F
100
AcDbEntity
  8
0
100
AcDbLine
 62
7
  6
CONTINUOUS
 10
14.7561654505
 20
12.3086263033
 11
14.7946893717
 21
12.286326918
  0
LINE
  5
320
100
AcDbEntity
  8
0
100
AcDbLine
 62
7
  6
CONTINUOUS
 10
15.6845671602
 20
11.5580748192
 11
15.6795425923
 21
11.5618072036
  0
LINE
  5
321
100
AcDbEntity
  8
0
100
AcDbLine
 62
7
  6
CONTINUOUS
 10
14.4973958717
 20
12.4399376275
 11
14.4283502502
 21
12.4912265748
  0
LINE
  5
322
100
AcDbEntity
  8
0
100
AcDbLine
 62
7
  6
CONTINUOUS
 10
15.7393986359
 20
11.5578222412
 11
15.6904108497
 21
11.5942116882
  0
LINE
  5
323
100
AcDbEntity
  8
0
100
AcDbLine
 62
7
  6
CONTINUOUS
 10
14.5522273473
 20
12.4396850495
 11
14.46240472
 21
12.5064077164
  0
LINE
  5
324
100
AcDbEntity
  8
0
100
AcDbLine
 62
7
  6
CONTINUOUS
 10
14.7538360875
 20
12.5642408091
 11
14.7916441346
 21
12.4871961097
  0
LINE
  5
325
100
AcDbEntity
  8
0
100
AcDbLine
 62
7
  6
CONTINUOUS
 10
14.8013267875
 20
12.5185291861
 11
14.7786593771
 21
12.564720512
  0
LINE
  5
326
100
AcDbEntity
  8
0
100
AcDbLine
 62
7
  6
CONTINUOUS
 10
14.8459421869
 20
12.5642408091
 11
14.883750234
 21
12.4871961097
  0
LINE
  5
327
100
AcDbEntity
  8
0
100
AcDbLine
 62
7
  6
CONTINUOUS
 10
15.5358861165
 20
13.1095389305
 11
15.591604269
 21
13.1657627675
  0
LINE
  5
328
100
AcDbEntity
  8
0
100
AcDbLine
 62
7
  6
CONTINUOUS
 10
15.8648882963
 20
12.047655228
 11
15.7507284999
 21
12.047655228
  0
LINE
  5
329
100
AcDbEntity
  8
0
100
AcDbLine
 62
7
  6
CONTINUOUS
 10
14.2418967444
 20
12.047655228
 11
14.3259629265
 21
12.047655228
  0
LINE
  5
32A
100
AcDbEntity
  8
0
100
AcDbLine
 62
7
  6
CONTINUOUS
 10
16.8266847127
 20
12.1118048574
 11
16.6827689324
 21
12.1118048574
  0
LINE
  5
32B
100
AcDbEntity
  8
0
100
AcDbLine
 62
7
  6
CONTINUOUS
 10
13.8044533261
 20
12.1118048574
 11
13.9483691064
 21
12.1118048574
  0
LINE
  5
32C
100
AcDbEntity
  8
0
100
AcDbLine
 62
7
  6
CONTINUOUS
 10
16.9903114619
 20
12.1985062886
 11
16.6830026316
 21
12.1985062886
  0
LINE
  5
32D
100
AcDbEntity
  8
0
100
AcDbLine
 62
7
  6
CONTINUOUS
 10
13.9556685895
 20
12.1985062886
 11
13.9197390816
 21
12.1985062886
  0
LINE
  5
32E
100
AcDbEntity
  8
0
100
AcDbLine
 62
7
  6
CONTINUOUS
 10
15.6801286839
 20
11.932386171
 11
15.6896990129
 21
11.9287422946
  0
LINE
  5
32F
100
AcDbEntity
  8
0
100
AcDbLine
 62
7
  6
CONTINUOUS
 10
15.7035149278
 20
11.9287422946
 11
15.6815831316
 21
11.9370927656
  0
LINE
  5
330
100
AcDbEntity
  8
0
100
AcDbLine
 62
7
  6
CONTINUOUS
 10
14.8268291247
 20
12.3662003098
 11
14.8590275258
 21
12.3475624211
  0
LINE
  5
331
100
AcDbEntity
  8
0
100
AcDbLine
 62
7
  6
CONTINUOUS
 10
14.8607774179
 20
12.353225074
 11
14.8222534967
 21
12.3755244593
  0
LINE
  5
332
100
AcDbEntity
  8
0
100
AcDbLine
 62
7
  6
CONTINUOUS
 10
15.2744980732
 20
12.4399376275
 11
15.2648154203
 21
12.4086045511
  0
LINE
  5
333
100
AcDbEntity
  8
0
100
AcDbLine
 62
7
  6
CONTINUOUS
 10
15.194134274
 20
12.5064077164
 11
15.169797105
 21
12.4396850495
  0
LINE
  5
334
100
AcDbEntity
  8
0
100
AcDbLine
 62
7
  6
CONTINUOUS
 10
15.2876114987
 20
12.4758893325
 11
15.2744980732
 21
12.4399376275
  0
LINE
  5
335
100
AcDbEntity
  8
0
100
AcDbLine
 62
7
  6
CONTINUOUS
 10
15.2648154203
 20
12.4086045511
 11
15.2891525893
 21
12.475327218
  0
LINE
  5
336
100
AcDbEntity
  8
0
100
AcDbLine
 62
7
  6
CONTINUOUS
 10
15.7208208491
 20
13.1893877341
 11
15.7070605917
 21
13.1755025919
  0
LINE
  5
337
100
AcDbEntity
  8
0
100
AcDbLine
 62
7
  6
CONTINUOUS
 10
15.6764887355
 20
13.076572029
 11
15.6902489928
 21
13.0904571711
  0
LINE
  5
338
100
AcDbEntity
  8
0
100
AcDbLine
 62
7
  6
CONTINUOUS
 10
15.5843512085
 20
12.9150887377
 11
15.6400693611
 21
12.9713125748
  0
LINE
  5
339
100
AcDbEntity
  8
0
100
AcDbLine
 62
7
  6
CONTINUOUS
 10
16.9619044435
 20
12.247739977
 11
16.8179886631
 21
12.247739977
  0
LINE
  5
33A
100
AcDbEntity
  8
0
100
AcDbLine
 62
7
  6
CONTINUOUS
 10
13.9530595442
 20
12.247739977
 11
13.9396730569
 21
12.247739977
  0
LINE
  5
33B
100
AcDbEntity
  8
0
100
AcDbLine
 62
7
  6
CONTINUOUS
 10
13.9650374008
 20
12.3565945166
 11
13.8800990522
 21
12.3565945166
  0
LINE
  5
33C
100
AcDbEntity
  8
0
100
AcDbLine
 62
7
  6
CONTINUOUS
 10
16.7584146584
 20
12.3565945166
 11
16.9023304388
 21
12.3565945166
  0
LINE
  5
33D
100
AcDbEntity
  8
0
100
AcDbLine
 62
7
  6
CONTINUOUS
 10
15.7030583027
 20
11.9501028625
 11
15.6901034819
 21
11.9673613917
  0
LINE
  5
33E
100
AcDbEntity
  8
0
100
AcDbLine
 62
7
  6
CONTINUOUS
 10
15.7560293625
 20
12.9790315543
 11
15.7697896199
 21
12.9929166964
  0
LINE
  5
33F
100
AcDbEntity
  8
0
100
AcDbLine
 62
7
  6
CONTINUOUS
 10
15.8799021032
 20
12.9943067846
 11
15.8661418458
 21
12.9804216425
  0
LINE
  5
340
100
AcDbEntity
  8
0
100
AcDbLine
 62
7
  6
CONTINUOUS
 10
15.8277717537
 20
12.8761511637
 11
15.7720536011
 21
12.8199273267
  0
LINE
  5
341
100
AcDbEntity
  8
0
100
AcDbLine
 62
7
  6
CONTINUOUS
 10
14.8222534967
 20
12.3755244593
 11
14.769947513
 21
12.353225074
  0
LINE
  5
342
100
AcDbEntity
  8
0
100
AcDbLine
 62
7
  6
CONTINUOUS
 10
14.774523141
 20
12.3439009244
 11
14.8268291247
 21
12.3662003098
  0
LINE
  5
343
100
AcDbEntity
  8
0
100
AcDbLine
 62
7
  6
CONTINUOUS
 10
14.7946893717
 20
12.286326918
 11
14.8469953554
 21
12.3086263033
  0
LINE
  5
344
100
AcDbEntity
  8
0
100
AcDbLine
 62
7
  6
CONTINUOUS
 10
13.8103228308
 20
12.4492213259
 11
13.8103905473
 21
12.449222622
  0
LINE
  5
345
100
AcDbEntity
  8
0
100
AcDbLine
 62
7
  6
CONTINUOUS
 10
13.8103902909
 20
12.449222622
 11
13.9921432445
 21
12.449222622
  0
LINE
  5
346
100
AcDbEntity
  8
0
100
AcDbLine
 62
7
  6
CONTINUOUS
 10
16.6221495296
 20
12.449222622
 11
17.0339904616
 21
12.449222622
  0
LINE
  5
347
100
AcDbEntity
  8
0
100
AcDbLine
 62
7
  6
CONTINUOUS
 10
17.0340695264
 20
12.4492210686
 11
17.0339902255
 21
12.449222622
  0
LINE
  5
348
100
AcDbEntity
  8
0
100
AcDbLine
 62
7
  6
CONTINUOUS
 10
15.7030573951
 20
11.9500983855
 11
15.7077201396
 21
11.942350365
  0
LINE
  5
349
100
AcDbEntity
  8
0
100
AcDbLine
 62
7
  6
CONTINUOUS
 10
15.7070605917
 20
13.1755025919
 11
15.6764887355
 21
13.076572029
  0
LINE
  5
34A
100
AcDbEntity
  8
0
100
AcDbLine
 62
7
  6
CONTINUOUS
 10
15.7208208491
 20
13.1893877341
 11
15.6902489928
 21
13.0904571711
  0
LINE
  5
34B
100
AcDbEntity
  8
0
100
AcDbLine
 62
7
  6
CONTINUOUS
 10
15.9112909017
 20
12.9192161084
 11
15.9670090542
 21
12.9754399454
  0
LINE
  5
34C
100
AcDbEntity
  8
0
100
AcDbLine
 62
7
  6
CONTINUOUS
 10
17.4488050677
 20
12.6748049606
 11
16.7445809759
 21
12.6748049606
  0
LINE
  5
34D
100
AcDbEntity
  8
0
100
AcDbLine
 62
7
  6
CONTINUOUS
 10
14.0618534595
 20
12.6748049606
 11
13.6018406119
 21
12.6748049606
  0
LINE
  5
34E
100
AcDbEntity
  8
0
100
AcDbLine
 62
7
  6
CONTINUOUS
 10
15.6678010691
 20
11.892493995
 11
15.6759508028
 21
11.8395447533
  0
LINE
  5
34F
100
AcDbEntity
  8
0
100
AcDbLine
 62
7
  6
CONTINUOUS
 10
15.6896990129
 20
11.9287422946
 11
15.6978487465
 21
11.8757930529
  0
LINE
  5
350
100
AcDbEntity
  8
0
100
AcDbLine
 62
7
  6
CONTINUOUS
 10
15.7116646615
 20
11.8757930529
 11
15.7035149278
 21
11.9287422946
  0
LINE
  5
351
100
AcDbEntity
  8
0
100
AcDbLine
 62
7
  6
CONTINUOUS
 10
15.6029994503
 20
12.2563019949
 11
15.5933167974
 21
12.2249689185
  0
LINE
  5
352
100
AcDbEntity
  8
0
100
AcDbLine
 62
7
  6
CONTINUOUS
 10
15.9104739594
 20
13.0932373476
 11
15.8799021032
 21
12.9943067846
  0
LINE
  5
353
100
AcDbEntity
  8
0
100
AcDbLine
 62
7
  6
CONTINUOUS
 10
15.6008076073
 20
12.3173242705
 11
15.5208463471
 21
12.2788019208
  0
LINE
  5
354
100
AcDbEntity
  8
0
100
AcDbLine
 62
7
  6
CONTINUOUS
 10
15.6520506837
 20
12.2799330477
 11
15.6029994503
 21
12.2563019949
  0
LINE
  5
355
100
AcDbEntity
  8
0
100
AcDbLine
 62
7
  6
CONTINUOUS
 10
15.5933167974
 20
12.2249689185
 11
15.6732780576
 21
12.2634912681
  0
LINE
  5
356
100
AcDbEntity
  8
0
100
AcDbLine
 62
7
  6
CONTINUOUS
 10
15.7978468262
 20
11.8081805407
 11
15.7935697601
 21
11.792555916
  0
LINE
  5
357
100
AcDbEntity
  8
0
100
AcDbLine
 62
7
  6
CONTINUOUS
 10
15.6678010691
 20
11.892493995
 11
15.6815831316
 21
11.9370927656
  0
LINE
  5
358
100
AcDbEntity
  8
0
100
AcDbLine
 62
7
  6
CONTINUOUS
 10
15.6855211318
 20
11.8359008769
 11
15.6978487465
 21
11.8757930529
  0
LINE
  5
359
100
AcDbEntity
  8
0
100
AcDbLine
 62
7
  6
CONTINUOUS
 10
15.7116646615
 20
11.8757930529
 11
15.6978825989
 21
11.8311942823
  0
LINE
  5
35A
100
AcDbEntity
  8
0
100
AcDbLine
 62
7
  6
CONTINUOUS
 10
15.7909153395
 20
12.0168273076
 11
15.7812326866
 21
11.9854942312
  0
LINE
  5
35B
100
AcDbEntity
  8
0
100
AcDbLine
 62
7
  6
CONTINUOUS
 10
15.7529326822
 20
11.7965324123
 11
15.6819769912
 21
11.5669197119
  0
LINE
  5
35C
100
AcDbEntity
  8
0
100
AcDbLine
 62
7
  6
CONTINUOUS
 10
15.6845671602
 20
11.5580748192
 11
15.6748845073
 21
11.5267417428
  0
LINE
  5
35D
100
AcDbEntity
  8
0
100
AcDbLine
 62
7
  6
CONTINUOUS
 10
15.7560293625
 20
12.9790315543
 11
15.8661418458
 21
12.9804216425
  0
LINE
  5
35E
100
AcDbEntity
  8
0
100
AcDbLine
 62
7
  6
CONTINUOUS
 10
15.8799021032
 20
12.9943067846
 11
15.7697896199
 21
12.9929166964
  0
LINE
  5
35F
100
AcDbEntity
  8
0
100
AcDbLine
 62
7
  6
CONTINUOUS
 10
15.6764887355
 20
13.076572029
 11
15.7560293625
 21
12.9790315543
  0
LINE
  5
360
100
AcDbEntity
  8
0
100
AcDbLine
 62
7
  6
CONTINUOUS
 10
15.9117672707
 20
11.7560301227
 11
15.9156161334
 21
11.7696581911
  0
LINE
  5
361
100
AcDbEntity
  8
0
100
AcDbLine
 62
7
  6
CONTINUOUS
 10
15.9056631373
 20
11.7471582651
 11
15.8959804843
 21
11.7158251887
  0
LINE
  5
362
100
AcDbEntity
  8
0
100
AcDbLine
 62
7
  6
CONTINUOUS
 10
15.7030583027
 20
11.8181841854
 11
15.6901034819
 21
11.8009256562
  0
LINE
  5
363
100
AcDbEntity
  8
0
100
AcDbLine
 62
7
  6
CONTINUOUS
 10
15.7208208491
 20
13.1893877341
 11
15.8002344696
 21
13.190390272
  0
LINE
  5
364
100
AcDbEntity
  8
0
100
AcDbLine
 62
7
  6
CONTINUOUS
 10
15.7697896199
 20
12.9929166964
 11
15.6902489928
 21
13.0904571711
  0
LINE
  5
365
100
AcDbEntity
  8
0
100
AcDbLine
 62
7
  6
CONTINUOUS
 10
16.1171092248
 20
12.5619965353
 11
16.1076193497
 21
12.580946529
  0
LINE
  5
366
100
AcDbEntity
  8
0
100
AcDbLine
 62
7
  6
CONTINUOUS
 10
15.9047741065
 20
13.1002270631
 11
15.9104739594
 21
13.0932373476
  0
LINE
  5
367
100
AcDbEntity
  8
0
100
AcDbLine
 62
7
  6
CONTINUOUS
 10
16.5151374681
 20
12.0063449165
 11
16.5303895615
 21
11.9752644181
  0
LINE
  5
368
100
AcDbEntity
  8
0
100
AcDbLine
 62
7
  6
CONTINUOUS
 10
15.6845671602
 20
11.5580748192
 11
15.6856840193
 21
11.5585707144
  0
LINE
  5
369
100
AcDbEntity
  8
0
100
AcDbLine
 62
7
  6
CONTINUOUS
 10
15.6845671602
 20
11.5580748192
 11
15.6857157029
 21
11.5585451875
  0
LINE
  5
36A
100
AcDbEntity
  8
0
100
AcDbLine
 62
7
  6
CONTINUOUS
 10
16.453161067
 20
11.7253529182
 11
16.5303895615
 21
11.9752644181
  0
LINE
  5
36B
100
AcDbEntity
  8
0
100
AcDbLine
 62
7
  6
CONTINUOUS
 10
16.6768537241
 20
12.449222622
 11
16.743640655
 21
12.6653452098
  0
LINE
  5
36C
100
AcDbEntity
  8
0
100
AcDbLine
 62
7
  6
CONTINUOUS
 10
16.7450019349
 20
12.6746157623
 11
16.3010053236
 21
13.1747480678
  0
LINE
  5
36D
100
AcDbEntity
  8
0
100
AcDbLine
 62
7
  6
CONTINUOUS
 10
16.9163024247
 20
11.9752644181
 11
16.9010503314
 21
12.0063449165
  0
LINE
  5
36E
100
AcDbEntity
  8
0
100
AcDbLine
 62
7
  6
CONTINUOUS
 10
17.3402881698
 20
11.3172635153
 11
17.1572630498
 21
11.6902294963
  0
LINE
  5
36F
100
AcDbEntity
  8
0
100
AcDbLine
 62
7
  6
CONTINUOUS
 10
17.209816824
 20
12.3503321993
 11
17.2250689174
 21
12.3192517009
  0
LINE
  5
370
100
AcDbEntity
  8
0
100
AcDbLine
 62
7
  6
CONTINUOUS
 10
17.4598459541
 20
12.6693881333
 11
17.6428710741
 21
12.2964221523
  0
LINE
  5
371
100
AcDbEntity
  8
0
100
AcDbLine
 62
7
  6
CONTINUOUS
 10
17.6428710741
 20
12.2964221523
 11
17.3402881698
 21
11.3172635153
  0
CIRCLE
  5
372
100
AcDbEntity
  8
0
100
AcDbCircle
 62
7
  6
CONTINUOUS
 10
5.457758688
 20
4.8336540756
 40
0.0625
  0
ARC
  5
373
100
AcDbEntity
  8
0
100
AcDbCircle
 62
7
  6
CONTINUOUS
 10
5.3070508892
 20
5.0305963348
 40
0.0625
100
AcDbArc
 50
58.9094185533
 51
181.0901821397
  0
ARC
  5
374
100
AcDbEntity
  8
0
100
AcDbCircle
 62
7
  6
CONTINUOUS
 10
5.3076758892
 20
5.029513803
 40
0.0625
100
AcDbArc
 50
60.0
 51
360.0
  0
ARC
  5
375
100
AcDbEntity
  8
0
100
AcDbCircle
 62
7
  6
CONTINUOUS
 10
5.3076758892
 20
5.029513803
 40
0.0375
100
AcDbArc
 50
190.4059317733
 51
209.5940682266
  0
ARC
  5
376
100
AcDbEntity
  8
0
100
AcDbCircle
 62
7
  6
CONTINUOUS
 10
5.3076758892
 20
5.029513803
 40
0.0375
100
AcDbArc
 50
10.4059317736
 51
29.5940682268
  0
ARC
  5
377
100
AcDbEntity
  8
0
100
AcDbCircle
 62
7
  6
CONTINUOUS
 10
5.3076758892
 20
5.029513803
 40
0.0353349365
100
AcDbArc
 50
189.8119906829
 51
210.1880093169
  0
ARC
  5
378
100
AcDbEntity
  8
0
100
AcDbCircle
 62
7
  6
CONTINUOUS
 10
5.3076758892
 20
5.029513803
 40
0.0353349365
100
AcDbArc
 50
9.8119906832
 51
30.1880093172
  0
CIRCLE
  5
379
100
AcDbEntity
  8
0
100
AcDbCircle
 62
7
  6
CONTINUOUS
 10
5.457758688
 20
4.8336540756
 40
0.03
  0
ARC
  5
37A
100
AcDbEntity
  8
0
100
AcDbCircle
 62
7
  6
CONTINUOUS
 10
4.0616172762
 20
4.9794948968
 40
0.025
100
AcDbArc
 50
90.0
 51
180.0
  0
ARC
  5
37B
100
AcDbEntity
  8
0
100
AcDbCircle
 62
7
  6
CONTINUOUS
 10
4.1243545964
 20
5.0544948968
 40
0.0125
100
AcDbArc
 50
90.0000000003
 51
180.0
  0
ARC
  5
37C
100
AcDbEntity
  8
0
100
AcDbCircle
 62
7
  6
CONTINUOUS
 10
6.1303672762
 20
5.5044948968
 40
1.15625
100
AcDbArc
 50
15.0
 51
165.0
  0
ARC
  5
37D
100
AcDbEntity
  8
0
100
AcDbCircle
 62
7
  6
CONTINUOUS
 10
6.1303672762
 20
5.5044948968
 40
0.8824621875
100
AcDbArc
 50
326.7519016136
 51
333.2480983864
  0
ARC
  5
37E
100
AcDbEntity
  8
0
100
AcDbCircle
 62
7
  6
CONTINUOUS
 10
6.1303672762
 20
5.5044948968
 40
0.8824621875
100
AcDbArc
 50
26.7519016136
 51
33.2480983864
  0
ARC
  5
37F
100
AcDbEntity
  8
0
100
AcDbCircle
 62
7
  6
CONTINUOUS
 10
6.1303672762
 20
5.5044948968
 40
0.8824621875
100
AcDbArc
 50
56.7519016136
 51
63.2480983864
  0
ARC
  5
380
100
AcDbEntity
  8
0
100
AcDbCircle
 62
7
  6
CONTINUOUS
 10
6.1303672762
 20
5.5044948968
 40
0.8824621875
100
AcDbArc
 50
86.7519016136
 51
93.2480983864
  0
ARC
  5
381
100
AcDbEntity
  8
0
100
AcDbCircle
 62
7
  6
CONTINUOUS
 10
6.1303672762
 20
5.5044948968
 40
0.8824621875
100
AcDbArc
 50
116.7519016136
 51
123.2480983864
  0
ARC
  5
382
100
AcDbEntity
  8
0
100
AcDbCircle
 62
7
  6
CONTINUOUS
 10
6.1303672762
 20
5.5044948968
 40
0.8824621875
100
AcDbArc
 50
146.7519016136
 51
153.2480983864
  0
ARC
  5
383
100
AcDbEntity
  8
0
100
AcDbCircle
 62
7
  6
CONTINUOUS
 10
6.1303672762
 20
5.5044948968
 40
0.8824621875
100
AcDbArc
 50
206.7519016136
 51
207.9963949651
  0
ARC
  5
384
100
AcDbEntity
  8
0
100
AcDbCircle
 62
7
  6
CONTINUOUS
 10
6.1303672762
 20
5.5044948968
 40
0.8824621875
100
AcDbArc
 50
212.0027042411
 51
213.2480983864
  0
ARC
  5
385
100
AcDbEntity
  8
0
100
AcDbCircle
 62
7
  6
CONTINUOUS
 10
6.1303672762
 20
5.5044948968
 40
0.8824621875
100
AcDbArc
 50
236.7519016136
 51
243.2480983864
  0
ARC
  5
386
100
AcDbEntity
  8
0
100
AcDbCircle
 62
7
  6
CONTINUOUS
 10
6.1303672762
 20
5.5044948968
 40
0.8824621875
100
AcDbArc
 50
266.7519016136
 51
273.2480983864
  0
ARC
  5
387
100
AcDbEntity
  8
0
100
AcDbCircle
 62
7
  6
CONTINUOUS
 10
6.1303672762
 20
5.5044948968
 40
0.8824621875
100
AcDbArc
 50
296.7519016136
 51
303.2480983864
  0
ARC
  5
388
100
AcDbEntity
  8
0
100
AcDbCircle
 62
7
  6
CONTINUOUS
 10
6.1303672762
 20
5.5044948968
 40
0.8824621875
100
AcDbArc
 50
176.7519016136
 51
183.2480983864
  0
ARC
  5
389
100
AcDbEntity
  8
0
100
AcDbCircle
 62
7
  6
CONTINUOUS
 10
6.1303672762
 20
5.5044948968
 40
0.8824621875
100
AcDbArc
 50
356.7519016136
 51
3.2480983864
  0
ARC
  5
38A
100
AcDbEntity
  8
0
100
AcDbCircle
 62
7
  6
CONTINUOUS
 10
6.1303672762
 20
5.5044948968
 40
0.75875
100
AcDbArc
 50
326.2215928275
 51
333.7784071725
  0
ARC
  5
38B
100
AcDbEntity
  8
0
100
AcDbCircle
 62
7
  6
CONTINUOUS
 10
6.1303672762
 20
5.5044948968
 40
0.75875
100
AcDbArc
 50
26.2215928275
 51
33.7784071725
  0
ARC
  5
38C
100
AcDbEntity
  8
0
100
AcDbCircle
 62
7
  6
CONTINUOUS
 10
6.1303672762
 20
5.5044948968
 40
0.75875
100
AcDbArc
 50
56.2215928275
 51
63.7784071725
  0
ARC
  5
38D
100
AcDbEntity
  8
0
100
AcDbCircle
 62
7
  6
CONTINUOUS
 10
6.1303672762
 20
5.5044948968
 40
0.75875
100
AcDbArc
 50
86.2215928275
 51
93.7784071725
  0
ARC
  5
38E
100
AcDbEntity
  8
0
100
AcDbCircle
 62
7
  6
CONTINUOUS
 10
6.1303672762
 20
5.5044948968
 40
0.75875
100
AcDbArc
 50
116.2215928275
 51
123.7784071725
  0
ARC
  5
38F
100
AcDbEntity
  8
0
100
AcDbCircle
 62
7
  6
CONTINUOUS
 10
6.1303672762
 20
5.5044948968
 40
0.75875
100
AcDbArc
 50
146.2215928275
 51
153.7784071725
  0
ARC
  5
390
100
AcDbEntity
  8
0
100
AcDbCircle
 62
7
  6
CONTINUOUS
 10
6.1303672762
 20
5.5044948968
 40
0.75875
100
AcDbArc
 50
206.2215928275
 51
213.7784071725
  0
ARC
  5
391
100
AcDbEntity
  8
0
100
AcDbCircle
 62
7
  6
CONTINUOUS
 10
6.1303672762
 20
5.5044948968
 40
0.75875
100
AcDbArc
 50
236.2215928275
 51
243.7784071725
  0
ARC
  5
392
100
AcDbEntity
  8
0
100
AcDbCircle
 62
7
  6
CONTINUOUS
 10
6.1303672762
 20
5.5044948968
 40
0.75875
100
AcDbArc
 50
266.2215928275
 51
273.7784071725
  0
ARC
  5
393
100
AcDbEntity
  8
0
100
AcDbCircle
 62
7
  6
CONTINUOUS
 10
6.1303672762
 20
5.5044948968
 40
0.75875
100
AcDbArc
 50
296.2215928275
 51
303.7784071725
  0
ARC
  5
394
100
AcDbEntity
  8
0
100
AcDbCircle
 62
7
  6
CONTINUOUS
 10
6.1303672762
 20
5.5044948968
 40
0.75875
100
AcDbArc
 50
176.2215928275
 51
183.7784071725
  0
ARC
  5
395
100
AcDbEntity
  8
0
100
AcDbCircle
 62
7
  6
CONTINUOUS
 10
6.1303672762
 20
5.5044948968
 40
0.75875
100
AcDbArc
 50
356.2215928275
 51
3.7784071725
  0
CIRCLE
  5
396
100
AcDbEntity
  8
0
100
AcDbCircle
 62
7
  6
CONTINUOUS
 10
6.1303672762
 20
5.5044948968
 40
0.71875
  0
CIRCLE
  5
397
100
AcDbEntity
  8
0
100
AcDbCircle
 62
7
  6
CONTINUOUS
 10
6.1303672762
 20
5.5044948968
 40
0.69375
  0
CIRCLE
  5
398
100
AcDbEntity
  8
0
100
AcDbCircle
 62
7
  6
CONTINUOUS
 10
6.1303672762
 20
5.5044948968
 40
0.5
  0
CIRCLE
  5
399
100
AcDbEntity
  8
02__ASM_ALL_AXES
100
AcDbCircle
 62
8
  6
HIDDEN
 10
6.1303672762
 20
5.5044948968
 40
0.25
  0
ARC
  5
39A
100
AcDbEntity
  8
0
100
AcDbCircle
 62
7
  6
CONTINUOUS
 10
8.1991172762
 20
4.9794948968
 40
0.025
100
AcDbArc
 50
0.0
 51
90.0
  0
ARC
  5
39B
100
AcDbEntity
  8
0
100
AcDbCircle
 62
7
  6
CONTINUOUS
 10
8.136379956
 20
5.0544948968
 40
0.0125
100
AcDbArc
 50
0.0
 51
89.9999999997
  0
ARC
  5
39C
100
AcDbEntity
  8
0
100
AcDbCircle
 62
7
  6
CONTINUOUS
 10
7.2297731115
 20
6.6671275153
 40
0.4689020784
100
AcDbArc
 50
242.4776454437
 51
244.0385806307
  0
ARC
  5
39D
100
AcDbEntity
  8
0
100
AcDbCircle
 62
7
  6
CONTINUOUS
 10
7.2929998947
 20
6.6039007321
 40
0.4689020784
100
AcDbArc
 50
205.9614193693
 51
207.5223545563
  0
ARC
  5
39E
100
AcDbEntity
  8
0
100
AcDbCircle
 62
7
  6
CONTINUOUS
 10
7.2020913023
 20
6.4038004738
 40
0.0625
100
AcDbArc
 50
109.364569199
 51
213.422567483
  0
ARC
  5
39F
100
AcDbEntity
  8
0
100
AcDbCircle
 62
7
  6
CONTINUOUS
 10
7.0296728532
 20
6.5762189229
 40
0.0625
100
AcDbArc
 50
236.577432517
 51
340.6354308013
  0
ARC
  5
3A0
100
AcDbEntity
  8
0
100
AcDbCircle
 62
7
  6
CONTINUOUS
 10
7.1664466894
 20
6.505218971
 40
0.045
100
AcDbArc
 50
289.3645691987
 51
45.0
  0
ARC
  5
3A1
100
AcDbEntity
  8
0
100
AcDbCircle
 62
7
  6
CONTINUOUS
 10
7.1310913504
 20
6.54057431
 40
0.045
100
AcDbArc
 50
45.0000000003
 51
160.6354308013
  0
ARC
  5
3A2
100
AcDbEntity
  8
0
100
AcDbCircle
 62
7
  6
CONTINUOUS
 10
4.333609404
 20
12.7641102814
 40
0.28125
100
AcDbArc
 50
92.5957102106
 51
267.4042897894
  0
ARC
  5
3A3
100
AcDbEntity
  8
0
100
AcDbCircle
 62
7
  6
CONTINUOUS
 10
4.7271220839
 20
12.7641102814
 40
0.28125
100
AcDbArc
 50
272.5957133893
 51
87.4042866107
  0
ARC
  5
3A4
100
AcDbEntity
  8
0
100
AcDbCircle
 62
7
  6
CONTINUOUS
 10
4.4302470839
 20
12.7641102814
 40
0.15625
100
AcDbArc
 50
90.0
 51
270.0
  0
ARC
  5
3A5
100
AcDbEntity
  8
0
100
AcDbCircle
 62
7
  6
CONTINUOUS
 10
4.5864970839
 20
12.7641102814
 40
0.15625
100
AcDbArc
 50
270.0
 51
90.0
  0
ARC
  5
3A6
100
AcDbEntity
  8
0
100
AcDbCircle
 62
7
  6
CONTINUOUS
 10
7.5430548622
 20
11.9741896891
 40
0.7597700116
100
AcDbArc
 50
185.9866209934
 51
186.2773158413
  0
ARC
  5
3A7
100
AcDbEntity
  8
0
100
AcDbCircle
 62
7
  6
CONTINUOUS
 10
7.5302963355
 20
11.9672819939
 40
0.746938113
100
AcDbArc
 50
173.7309605404
 51
174.0172962792
  0
ARC
  5
3A8
100
AcDbEntity
  8
0
100
AcDbCircle
 62
7
  6
CONTINUOUS
 10
7.5162471552
 20
11.9688737108
 40
0.7327991359
100
AcDbArc
 50
172.5572037348
 51
173.7347188277
  0
ARC
  5
3A9
100
AcDbEntity
  8
0
100
AcDbCircle
 62
7
  6
CONTINUOUS
 10
7.5152556398
 20
11.9712830035
 40
0.7318192421
100
AcDbArc
 50
184.9157033694
 51
185.9872881092
  0
ARC
  5
3AA
100
AcDbEntity
  8
0
100
AcDbCircle
 62
7
  6
CONTINUOUS
 10
7.5122719676
 20
11.9691298335
 40
0.7288193206
100
AcDbArc
 50
174.0140830768
 51
175.1050202433
  0
ARC
  5
3AB
100
AcDbEntity
  8
0
100
AcDbCircle
 62
7
  6
CONTINUOUS
 10
7.5099872691
 20
11.9707531083
 40
0.726524843
100
AcDbArc
 50
183.1269201581
 51
184.6003182038
  0
ARC
  5
3AC
100
AcDbEntity
  8
0
100
AcDbCircle
 62
7
  6
CONTINUOUS
 10
7.5097596991
 20
11.9693655441
 40
0.7262961021
100
AcDbArc
 50
175.1066358644
 51
175.401330828
  0
ARC
  5
3AD
100
AcDbEntity
  8
0
100
AcDbCircle
 62
7
  6
CONTINUOUS
 10
7.5054588081
 20
11.970375758
 40
0.7219807057
100
AcDbArc
 50
184.5992919429
 51
184.9105912011
  0
ARC
  5
3AE
100
AcDbEntity
  8
0
100
AcDbCircle
 62
7
  6
CONTINUOUS
 10
7.5047786542
 20
11.9696890886
 40
0.7213051562
100
AcDbArc
 50
175.3952258715
 51
176.8908303291
  0
ARC
  5
3AF
100
AcDbEntity
  8
0
100
AcDbCircle
 62
7
  6
CONTINUOUS
 10
7.497940057
 20
11.9700484771
 40
0.7144571327
100
AcDbArc
 50
176.8898634497
 51
183.1231966149
  0
ARC
  5
3B0
100
AcDbEntity
  8
0
100
AcDbCircle
 62
7
  6
CONTINUOUS
 10
7.4457412622
 20
11.962713414
 40
0.6617854923
100
AcDbArc
 50
186.2109002568
 51
187.5030818941
  0
CIRCLE
  5
3B1
100
AcDbEntity
  8
0
100
AcDbCircle
 62
7
  6
CONTINUOUS
 10
6.0708720839
 20
11.9700477814
 40
0.09375
  0
CIRCLE
  5
3B2
100
AcDbEntity
  8
0
100
AcDbCircle
 62
7
  6
CONTINUOUS
 10
6.0708720839
 20
11.9700477814
 40
0.074307215
  0
ARC
  5
3B3
100
AcDbEntity
  8
0
100
AcDbCircle
 62
7
  6
CONTINUOUS
 10
7.4198536272
 20
12.5320915135
 40
0.7386302786
100
AcDbArc
 50
145.3918306992
 51
146.8993096736
  0
ARC
  5
3B4
100
AcDbEntity
  8
0
100
AcDbCircle
 62
7
  6
CONTINUOUS
 10
7.4020644151
 20
12.9841957212
 40
0.7172111607
100
AcDbArc
 50
213.0781789527
 51
214.6306806745
  0
ARC
  5
3B5
100
AcDbEntity
  8
0
100
AcDbCircle
 62
7
  6
CONTINUOUS
 10
6.7129547997
 20
12.6975385898
 40
0.424086786
100
AcDbArc
 50
17.6423970298
 51
22.2119159207
  0
ARC
  5
3B6
100
AcDbEntity
  8
0
100
AcDbCircle
 62
7
  6
CONTINUOUS
 10
6.7145654424
 20
12.8300978791
 40
0.4223748644
100
AcDbArc
 50
337.7788425193
 51
342.2431734
  0
ARC
  5
3B7
100
AcDbEntity
  8
0
100
AcDbCircle
 62
7
  6
CONTINUOUS
 10
7.8081347637
 20
12.7641102814
 40
0.28125
100
AcDbArc
 50
272.5957102106
 51
87.4042866108
  0
ARC
  5
3B8
100
AcDbEntity
  8
0
100
AcDbCircle
 62
7
  6
CONTINUOUS
 10
7.4146220839
 20
12.7641102814
 40
0.28125
100
AcDbArc
 50
189.0594122816
 51
267.4042866107
  0
ARC
  5
3B9
100
AcDbEntity
  8
0
100
AcDbCircle
 62
7
  6
CONTINUOUS
 10
7.4146220839
 20
12.7641102814
 40
0.28125
100
AcDbArc
 50
92.5957133893
 51
170.8809799454
  0
ARC
  5
3BA
100
AcDbEntity
  8
0
100
AcDbCircle
 62
7
  6
CONTINUOUS
 10
7.7114970839
 20
12.7641102814
 40
0.15625
100
AcDbArc
 50
270.0
 51
90.0
  0
ARC
  5
3BB
100
AcDbEntity
  8
0
100
AcDbCircle
 62
7
  6
CONTINUOUS
 10
7.5552470839
 20
12.7641102814
 40
0.15625
100
AcDbArc
 50
90.0
 51
270.0
  0
ARC
  5
3BC
100
AcDbEntity
  8
0
100
AcDbCircle
 62
7
  6
CONTINUOUS
 10
7.0908308237
 20
12.7551544035
 40
0.0614079129
100
AcDbArc
 50
232.2754491828
 51
235.6856400415
  0
ARC
  5
3BD
100
AcDbEntity
  8
0
100
AcDbCircle
 62
7
  6
CONTINUOUS
 10
7.0907904591
 20
12.773117601
 40
0.0613425267
100
AcDbArc
 50
124.480536842
 51
127.7241291311
  0
ARC
  5
3BE
100
AcDbEntity
  8
0
100
AcDbCircle
 62
7
  6
CONTINUOUS
 10
14.926381012
 20
6.9157530136
 40
0.7583308353
100
AcDbArc
 50
275.9852264644
 51
276.2746467112
  0
ARC
  5
3BF
100
AcDbEntity
  8
0
100
AcDbCircle
 62
7
  6
CONTINUOUS
 10
14.9334651444
 20
6.9078538624
 40
0.7503848008
100
AcDbArc
 50
263.7307812797
 51
264.0182031623
  0
ARC
  5
3C0
100
AcDbEntity
  8
0
100
AcDbCircle
 62
7
  6
CONTINUOUS
 10
15.9564365248
 20
6.7939812478
 40
0.7386302786
100
AcDbArc
 50
235.3918306991
 51
236.8993096736
  0
ARC
  5
3C1
100
AcDbEntity
  8
0
100
AcDbCircle
 62
7
  6
CONTINUOUS
 10
14.9290171901
 20
6.8905325543
 40
0.7329729778
100
AcDbArc
 50
274.9092714776
 51
275.9858502936
  0
ARC
  5
3C2
100
AcDbEntity
  8
0
100
AcDbCircle
 62
7
  6
CONTINUOUS
 10
14.9314206766
 20
6.8879144276
 40
0.7303408774
100
AcDbArc
 50
264.0147040751
 51
265.0995538281
  0
ARC
  5
3C3
100
AcDbEntity
  8
0
100
AcDbCircle
 62
7
  6
CONTINUOUS
 10
14.9311198685
 20
6.88465488
 40
0.7270675486
100
AcDbArc
 50
265.1012294113
 51
265.399418862
  0
ARC
  5
3C4
100
AcDbEntity
  8
0
100
AcDbCircle
 62
7
  6
CONTINUOUS
 10
14.9308200533
 20
6.8845903558
 40
0.7269715762
100
AcDbArc
 50
262.5535787526
 51
263.7377871503
  0
ARC
  5
3C5
100
AcDbEntity
  8
0
100
AcDbCircle
 62
7
  6
CONTINUOUS
 10
14.9296867167
 20
6.8833962208
 40
0.7258054787
100
AcDbArc
 50
273.1189371105
 51
274.6014790893
  0
ARC
  5
3C6
100
AcDbEntity
  8
0
100
AcDbCircle
 62
7
  6
CONTINUOUS
 10
14.9298868982
 20
6.8811041237
 40
0.7235047102
100
AcDbArc
 50
274.6002394493
 51
274.9045476837
  0
ARC
  5
3C7
100
AcDbEntity
  8
0
100
AcDbCircle
 62
7
  6
CONTINUOUS
 10
14.9307101583
 20
6.8785581479
 40
0.7209576017
100
AcDbArc
 50
265.3930116173
 51
266.8830715129
  0
ARC
  5
3C8
100
AcDbEntity
  8
0
100
AcDbCircle
 62
7
  6
CONTINUOUS
 10
15.5043323171
 20
6.7761920357
 40
0.7172111608
100
AcDbArc
 50
303.0781789527
 51
304.6306806745
  0
ARC
  5
3C9
100
AcDbEntity
  8
0
100
AcDbCircle
 62
7
  6
CONTINUOUS
 10
14.930354415
 20
6.8725792832
 40
0.7149682394
100
AcDbArc
 50
266.8854855184
 51
273.1126725853
  0
ARC
  5
3CA
100
AcDbEntity
  8
0
100
AcDbCircle
 62
7
  6
CONTINUOUS
 10
14.9374119199
 20
6.8221476392
 40
0.6640810004
100
AcDbArc
 50
276.2112946064
 51
277.5011637376
  0
ARC
  5
3CB
100
AcDbEntity
  8
0
100
AcDbCircle
 62
7
  6
CONTINUOUS
 10
15.6579006412
 20
6.0872010051
 40
0.4239563696
100
AcDbArc
 50
67.7888539865
 51
72.2344753157
  0
ARC
  5
3CC
100
AcDbEntity
  8
0
100
AcDbCircle
 62
7
  6
CONTINUOUS
 10
15.7902251761
 20
6.0891690329
 40
0.4218661041
100
AcDbArc
 50
107.6324741899
 51
112.2229511414
  0
CIRCLE
  5
3CD
100
AcDbEntity
  8
0
100
AcDbCircle
 62
7
  6
CONTINUOUS
 10
14.9303552569
 20
5.4449997044
 40
0.09375
  0
CIRCLE
  5
3CE
100
AcDbEntity
  8
0
100
AcDbCircle
 62
7
  6
CONTINUOUS
 10
14.9303552569
 20
5.4449997044
 40
0.074307215
  0
ARC
  5
3CF
100
AcDbEntity
  8
0
100
AcDbCircle
 62
7
  6
CONTINUOUS
 10
15.7333736348
 20
6.4649584443
 40
0.0614079129
100
AcDbArc
 50
322.2754491827
 51
325.6856400416
  0
ARC
  5
3D0
100
AcDbEntity
  8
0
100
AcDbCircle
 62
7
  6
CONTINUOUS
 10
15.7154104374
 20
6.4649180797
 40
0.0613425267
100
AcDbArc
 50
214.480536842
 51
217.724129131
  0
ARC
  5
3D1
100
AcDbEntity
  8
0
100
AcDbCircle
 62
7
  6
CONTINUOUS
 10
15.1244177569
 20
6.5762497044
 40
0.025
100
AcDbArc
 50
90.0
 51
180.0000000003
  0
ARC
  5
3D2
100
AcDbEntity
  8
0
100
AcDbCircle
 62
7
  6
CONTINUOUS
 10
16.3244177569
 20
6.5762497044
 40
0.025
100
AcDbArc
 50
0.0
 51
90.0
  0
ARC
  5
3D3
100
AcDbEntity
  8
0
100
AcDbCircle
 62
7
  6
CONTINUOUS
 10
16.3244177569
 20
4.9199997044
 40
0.025
100
AcDbArc
 50
0.0
 51
90.0
  0
ARC
  5
3D4
100
AcDbEntity
  8
0
100
AcDbCircle
 62
7
  6
CONTINUOUS
 10
15.1244177569
 20
4.9199997044
 40
0.025
100
AcDbArc
 50
90.0
 51
180.0
  0
ARC
  5
3D5
100
AcDbEntity
  8
0
100
AcDbCircle
 62
7
  6
CONTINUOUS
 10
15.4559563304
 20
4.9949997044
 40
0.0125
100
AcDbArc
 50
90.0
 51
179.9999999201
  0
ARC
  5
3D6
100
AcDbEntity
  8
0
100
AcDbCircle
 62
7
  6
CONTINUOUS
 10
15.9928791834
 20
4.9949997044
 40
0.0125
100
AcDbArc
 50
0.0
 51
90.0
  0
ARC
  5
3D7
100
AcDbEntity
  8
0
100
AcDbCircle
 62
7
  6
CONTINUOUS
 10
13.8028894308
 20
15.653889864
 40
3.4530851876
100
AcDbArc
 50
306.72271868
 51
307.6318028141
  0
ARC
  5
3D8
100
AcDbEntity
  8
0
100
AcDbCircle
 62
7
  6
CONTINUOUS
 10
14.8331212237
 20
11.2022958599
 40
1.8673575922
100
AcDbArc
 50
60.2479490829
 51
65.9838321834
  0
ARC
  5
3D9
100
AcDbEntity
  8
0
100
AcDbCircle
 62
7
  6
CONTINUOUS
 10
14.7636820836
 20
11.0296591736
 40
1.5382052356
100
AcDbArc
 50
70.0248385827
 51
73.7493118701
  0
ARC
  5
3DA
100
AcDbEntity
  8
0
100
AcDbCircle
 62
7
  6
CONTINUOUS
 10
14.8060336838
 20
11.1668152995
 40
1.3238282469
100
AcDbArc
 50
69.723139811
 51
74.0510106418
  0
ARC
  5
3DB
100
AcDbEntity
  8
0
100
AcDbCircle
 62
7
  6
CONTINUOUS
 10
14.8162597389
 20
11.1998060239
 40
1.3220850068
100
AcDbArc
 50
69.7203340489
 51
73.9827896354
  0
ARC
  5
3DC
100
AcDbEntity
  8
0
100
AcDbCircle
 62
7
  6
CONTINUOUS
 10
14.7998891372
 20
11.3501585653
 40
1.2149553811
100
AcDbArc
 50
87.827675239
 51
92.172324761
  0
ARC
  5
3DD
100
AcDbEntity
  8
0
100
AcDbCircle
 62
7
  6
CONTINUOUS
 10
14.9687869393
 20
11.390795945
 40
1.1215635795
100
AcDbArc
 50
51.0874859354
 51
55.7005951749
  0
ARC
  5
3DE
100
AcDbEntity
  8
0
100
AcDbCircle
 62
7
  6
CONTINUOUS
 10
14.8471330161
 20
11.49478454
 40
1.0247689062
100
AcDbArc
 50
88.8339538779
 51
92.561922314
  0
ARC
  5
3DF
100
AcDbEntity
  8
0
100
AcDbCircle
 62
7
  6
CONTINUOUS
 10
15.2458580671
 20
13.6646575696
 40
0.9952140088
100
AcDbArc
 50
301.919416945
 51
302.5574792409
  0
ARC
  5
3E0
100
AcDbEntity
  8
0
100
AcDbCircle
 62
7
  6
CONTINUOUS
 10
15.0043936732
 20
11.5252349464
 40
0.944874545
100
AcDbArc
 50
50.6890041142
 51
54.4919374763
  0
ARC
  5
3E1
100
AcDbEntity
  8
0
100
AcDbCircle
 62
7
  6
CONTINUOUS
 10
15.9948503993
 20
13.6072709685
 40
0.8182593865
100
AcDbArc
 50
253.3056987836
 51
254.1999323043
  0
ARC
  5
3E2
100
AcDbEntity
  8
0
100
AcDbCircle
 62
7
  6
CONTINUOUS
 10
14.896415907
 20
12.0647912009
 40
0.6279594003
100
AcDbArc
 50
220.5012191959
 51
222.4258524024
  0
ARC
  5
3E3
100
AcDbEntity
  8
0
100
AcDbCircle
 62
7
  6
CONTINUOUS
 10
15.2397030975
 20
11.9527409048
 40
0.6212744779
100
AcDbArc
 50
283.2175850274
 51
285.1345266992
  0
ARC
  5
3E4
100
AcDbEntity
  8
0
100
AcDbCircle
 62
7
  6
CONTINUOUS
 10
15.2447083408
 20
11.9340516578
 40
0.6019266602
100
AcDbArc
 50
285.1390830079
 51
285.509812823
  0
ARC
  5
3E5
100
AcDbEntity
  8
0
100
AcDbCircle
 62
7
  6
CONTINUOUS
 10
15.4586694225
 20
12.1117574049
 40
0.5979914472
100
AcDbArc
 50
292.313954476
 51
295.7695818735
  0
ARC
  5
3E6
100
AcDbEntity
  8
0
100
AcDbCircle
 62
7
  6
CONTINUOUS
 10
15.9455835231
 20
13.3530753755
 40
0.5677332824
100
AcDbArc
 50
230.4856720347
 51
231.6242153594
  0
ARC
  5
3E7
100
AcDbEntity
  8
0
100
AcDbCircle
 62
7
  6
CONTINUOUS
 10
14.7445426808
 20
12.2831498366
 40
0.533662914
100
AcDbArc
 50
206.1855647258
 51
209.9369270167
  0
ARC
  5
3E8
100
AcDbEntity
  8
0
100
AcDbCircle
 62
7
  6
CONTINUOUS
 10
16.0062115515
 20
13.1266369511
 40
0.4719309224
100
AcDbArc
 50
204.7321816678
 51
206.6321642544
  0
ARC
  5
3E9
100
AcDbEntity
  8
0
100
AcDbCircle
 62
7
  6
CONTINUOUS
 10
14.729941434
 20
12.0378336062
 40
0.4645052018
100
AcDbArc
 50
115.597239359
 51
120.0417352645
  0
ARC
  5
3EA
100
AcDbEntity
  8
0
100
AcDbCircle
 62
7
  6
CONTINUOUS
 10
14.7203343054
 20
11.9691860083
 40
0.431221089
100
AcDbArc
 50
206.1512336824
 51
209.4344258562
  0
ARC
  5
3EB
100
AcDbEntity
  8
0
100
AcDbCircle
 62
7
  6
CONTINUOUS
 10
15.4010597607
 20
11.8631408706
 40
0.4190547617
100
AcDbArc
 50
21.5150416729
 51
26.12370685
  0
ARC
  5
3EC
100
AcDbEntity
  8
0
100
AcDbCircle
 62
7
  6
CONTINUOUS
 10
14.6968767095
 20
11.9297543307
 40
0.386179473
100
AcDbArc
 50
202.4364300388
 51
206.1517671066
  0
ARC
  5
3ED
100
AcDbEntity
  8
0
100
AcDbCircle
 62
7
  6
CONTINUOUS
 10
13.8223297749
 20
12.1357826967
 40
0.3136685311
100
AcDbArc
 50
92.1938153665
 51
92.9252657965
  0
ARC
  5
3EE
100
AcDbEntity
  8
0
100
AcDbCircle
 62
7
  6
CONTINUOUS
 10
15.6402379794
 20
11.8747443525
 40
0.2944974094
100
AcDbArc
 50
334.3270701808
 51
336.3840240304
  0
ARC
  5
3EF
100
AcDbEntity
  8
0
100
AcDbCircle
 62
7
  6
CONTINUOUS
 10
15.642659052
 20
11.8736793274
 40
0.2918524452
100
AcDbArc
 50
336.3851897239
 51
339.1431115095
  0
ARC
  5
3F0
100
AcDbEntity
  8
0
100
AcDbCircle
 62
7
  6
CONTINUOUS
 10
14.504262789
 20
12.1908708211
 40
0.291779549
100
AcDbArc
 50
154.3173025222
 51
162.8067878997
  0
ARC
  5
3F1
100
AcDbEntity
  8
0
100
AcDbCircle
 62
7
  6
CONTINUOUS
 10
15.6330264383
 20
11.8422786381
 40
0.291779549
100
AcDbArc
 50
334.3173025222
 51
342.8067878997
  0
ARC
  5
3F2
100
AcDbEntity
  8
0
100
AcDbCircle
 62
7
  6
CONTINUOUS
 10
15.5540496938
 20
11.8666470517
 40
0.2507180714
100
AcDbArc
 50
333.3902317702
 51
342.8115070451
  0
ARC
  5
3F3
100
AcDbEntity
  8
0
100
AcDbCircle
 62
7
  6
CONTINUOUS
 10
14.5832395335
 20
12.1665024075
 40
0.2507180714
100
AcDbArc
 50
153.3902317702
 51
162.8115070451
  0
ARC
  5
3F4
100
AcDbEntity
  8
0
100
AcDbCircle
 62
7
  6
CONTINUOUS
 10
14.5911652586
 20
12.1984519461
 40
0.2488574466
100
AcDbArc
 50
160.9167917302
 51
162.8275611238
  0
ARC
  5
3F5
100
AcDbEntity
  8
0
100
AcDbCircle
 62
7
  6
CONTINUOUS
 10
13.7080608343
 20
12.1650547943
 40
0.2202870281
100
AcDbArc
 50
161.0564617408
 51
162.8204975183
  0
ARC
  5
3F6
100
AcDbEntity
  8
0
100
AcDbCircle
 62
7
  6
CONTINUOUS
 10
13.9483089726
 20
12.2864484197
 40
0.1746435727
100
AcDbArc
 50
270.0197282809
 51
274.9952488679
  0
ARC
  5
3F7
100
AcDbEntity
  8
0
100
AcDbCircle
 62
7
  6
CONTINUOUS
 10
15.5935588295
 20
11.8608164209
 40
0.1240834156
100
AcDbArc
 50
338.4105725007
 51
338.9323216434
  0
ARC
  5
3F8
100
AcDbEntity
  8
0
100
AcDbCircle
 62
7
  6
CONTINUOUS
 10
15.8439153655
 20
13.1446228079
 40
0.0641273813
100
AcDbArc
 50
162.9012834028
 51
179.6968348144
  0
ARC
  5
3F9
100
AcDbEntity
  8
0
100
AcDbCircle
 62
7
  6
CONTINUOUS
 10
14.8449598793
 20
12.345597402
 40
0.0545283905
100
AcDbArc
 50
13.3366554408
 51
26.1390546705
  0
ARC
  5
3FA
100
AcDbEntity
  8
0
100
AcDbCircle
 62
7
  6
CONTINUOUS
 10
14.7744787114
 20
12.3003770854
 40
0.0497785776
100
AcDbArc
 50
192.8305938065
 51
201.377704448
  0
ARC
  5
3FB
100
AcDbEntity
  8
0
100
AcDbCircle
 62
7
  6
CONTINUOUS
 10
14.8537911617
 20
12.3393513134
 40
0.0493546262
100
AcDbArc
 50
32.5898090796
 51
36.7978297315
  0
ARC
  5
3FC
100
AcDbEntity
  8
0
100
AcDbCircle
 62
7
  6
CONTINUOUS
 10
14.7644864134
 20
12.3061089102
 40
0.043329114
100
AcDbArc
 50
206.1402968555
 51
218.1241720897
  0
ARC
  5
3FD
100
AcDbEntity
  8
0
100
AcDbCircle
 62
7
  6
CONTINUOUS
 10
15.687978593
 20
11.8026513249
 40
0.012308424
100
AcDbArc
 50
248.2352237436
 51
253.4685568098
  0
SPLINE
  5
3FE
100
AcDbEntity
  8
0
100
AcDbSpline
 62
7
  6
CONTINUOUS
 70
0
 71
3
 72
9
 73
5
 74
0
 42
0.0000001
 43
0.0000001
 44
0.0000000001
 40
0.0
 40
0.0
 40
0.0
 40
0.0
 40
0.2456677246
 40
1.0
 40
1.0
 40
1.0
 40
1.0
 10
7.0698734103
 20
6.1784698863
 30
0.0
 10
7.0710300299
 20
6.1779261838
 30
0.0
 10
7.0757849151
 20
6.1758128757
 30
0.0
 10
7.080704052
 20
6.1740787098
 30
0.0
 10
7.0844612348
 20
6.1729458206
 30
0.0
  0
SPLINE
  5
3FF
100
AcDbEntity
  8
0
100
AcDbSpline
 62
7
  6
CONTINUOUS
 70
0
 71
3
 72
9
 73
5
 74
0
 42
0.0000001
 43
0.0000001
 44
0.0000000001
 40
0.0
 40
0.0
 40
0.0
 40
0.0
 40
0.2456612622
 40
1.0
 40
1.0
 40
1.0
 40
1.0
 10
7.0844612348
 20
6.1729458206
 30
0.0
 10
7.0857983796
 20
6.1725426364
 30
0.0
 10
7.0912684592
 20
6.170991227
 30
0.0
 10
7.0968302019
 20
6.1697733388
 30
0.0
 10
7.10104811
 20
6.1689984944
 30
0.0
  0
LINE
  5
400
100
AcDbEntity
  8
0
100
AcDbLine
 62
7
  6
CONTINUOUS
 10
7.024503801
 20
6.2455428034
 11
7.0268548118
 21
6.2347168911
  0
LINE
  5
401
100
AcDbEntity
  8
0
100
AcDbLine
 62
7
  6
CONTINUOUS
 10
6.8605892705
 20
6.4009824324
 11
6.8714151829
 21
6.3986314216
  0
SPLINE
  5
402
100
AcDbEntity
  8
0
100
AcDbSpline
 62
7
  6
CONTINUOUS
 70
0
 71
3
 72
10
 73
6
 74
0
 42
0.0000001
 43
0.0000001
 44
0.0000000001
 40
0.0
 40
0.0
 40
0.0
 40
0.0
 40
0.2500492499
 40
0.5001142931
 40
1.0
 40
1.0
 40
1.0
 40
1.0
 10
7.0502496756
 20
6.4243772961
 30
0.0
 10
7.0567245034
 20
6.4179024683
 30
0.0
 10
7.0691268849
 20
6.4043911643
 30
0.0
 10
7.0916338926
 20
6.3754660788
 30
0.0
 10
7.106106266
 20
6.3520179341
 30
0.0
 10
7.1149525388
 20
6.3359915413
 30
0.0
  0
SPLINE
  5
403
100
AcDbEntity
  8
0
100
AcDbSpline
 62
7
  6
CONTINUOUS
 70
0
 71
3
 72
9
 73
5
 74
0
 42
0.0000001
 43
0.0000001
 44
0.0000000001
 40
0.0
 40
0.0
 40
0.0
 40
0.0
 40
0.2574266896
 40
1.0
 40
1.0
 40
1.0
 40
1.0
 10
6.8853196116
 20
6.5656244684
 30
0.0
 10
6.8880551841
 20
6.564891474
 30
0.0
 10
6.8986128908
 20
6.5618139801
 30
0.0
 10
6.9088958571
 20
6.5576365975
 30
0.0
 10
6.9160376627
 20
6.5536700218
 30
0.0
  0
SPLINE
  5
404
100
AcDbEntity
  8
0
100
AcDbSpline
 62
7
  6
CONTINUOUS
 70
0
 71
3
 72
9
 73
5
 74
0
 42
0.0000001
 43
0.0000001
 44
0.0000000001
 40
0.0
 40
0.0
 40
0.0
 40
0.0
 40
0.5038095735
 40
1.0
 40
1.0
 40
1.0
 40
1.0
 10
6.9160376627
 20
6.5536700218
 30
0.0
 10
6.919599582
 20
6.5516917234
 30
0.0
 10
6.9264378034
 20
6.547325113
 30
0.0
 10
6.9325957293
 20
6.5420312424
 30
0.0
 10
6.935433212
 20
6.5391937597
 30
0.0
  0
SPLINE
  5
405
100
AcDbEntity
  8
0
100
AcDbSpline
 62
7
  6
CONTINUOUS
 70
0
 71
3
 72
11
 73
7
 74
0
 42
0.0000001
 43
0.0000001
 44
0.0000000001
 40
0.0
 40
0.0
 40
0.0
 40
0.0
 40
0.2616295066
 40
0.5144807286
 40
0.7595916081
 40
1.0
 40
1.0
 40
1.0
 40
1.0
 10
7.1149525388
 20
6.3359915413
 30
0.0
 10
7.1197780417
 20
6.3346985516
 30
0.0
 10
7.1291770337
 20
6.331789245
 30
0.0
 10
7.1425401899
 20
6.3260636054
 30
0.0
 10
7.1546849182
 20
6.3188065746
 30
0.0
 10
7.1618201527
 20
6.312806819
 30
0.0
 10
7.1650661391
 20
6.3095608325
 30
0.0
  0
SPLINE
  5
406
100
AcDbEntity
  8
0
100
AcDbSpline
 62
7
  6
CONTINUOUS
 70
0
 71
3
 72
18
 73
14
 74
0
 42
0.0000001
 43
0.0000001
 44
0.0000000001
 40
0.0
 40
0.0
 40
0.0
 40
0.0
 40
0.0612232995
 40
0.0925657875
 40
0.1239189156
 40
0.1865833392
 40
0.2492415161
 40
0.3745148247
 40
0.4997400009
 40
0.6249074053
 40
0.7500105342
 40
0.8750433757
 40
1.0
 40
1.0
 40
1.0
 40
1.0
 10
7.461379956
 20
5.0544948968
 30
0.0
 10
7.461379956
 20
5.0548179919
 30
0.0
 10
7.4609580047
 20
5.0552316012
 30
0.0
 10
7.4604177047
 20
5.0555644217
 30
0.0
 10
7.4598259642
 20
5.0558722023
 30
0.0
 10
7.4590648648
 20
5.0561915791
 30
0.0
 10
7.4578211779
 20
5.0566443554
 30
0.0
 10
7.4562430233
 20
5.0571358694
 30
0.0
 10
7.4543334512
 20
5.0576693956
 30
0.0
 10
7.4524150828
 20
5.0581663128
 30
0.0
 10
7.4504914875
 20
5.0586382319
 30
0.0
 10
7.4485644756
 20
5.0590910866
 30
0.0
 10
7.4472778544
 20
5.0593828519
 30
0.0
 10
7.4466342668
 20
5.059526558
 30
0.0
  0
SPLINE
  5
407
100
AcDbEntity
  8
0
100
AcDbSpline
 62
7
  6
CONTINUOUS
 70
0
 71
3
 72
21
 73
17
 74
0
 42
0.0000001
 43
0.0000001
 44
0.0000000001
 40
0.0
 40
0.0
 40
0.0
 40
0.0
 40
0.001657389
 40
0.0054551527
 40
0.0115762223
 40
0.0200352973
 40
0.0439205248
 40
0.076973916
 40
0.1189681564
 40
0.1694295719
 40
0.2278215404
 40
0.2936060772
 40
0.4449243623
 40
0.6177034444
 40
0.8055090863
 40
1.0
 40
1.0
 40
1.0
 40
1.0
 10
7.8800808591
 20
5.0669948968
 30
0.0
 10
7.8800877727
 20
5.0669948968
 30
0.0
 10
7.8801008682
 20
5.0669689848
 30
0.0
 10
7.8801113547
 20
5.0669266676
 30
0.0
 10
7.8801255329
 20
5.0668487279
 30
0.0
 10
7.8801451642
 20
5.0666909323
 30
0.0
 10
7.8801686082
 20
5.0664179883
 30
0.0
 10
7.8801939862
 20
5.0660065846
 30
0.0
 10
7.8802187218
 20
5.0654834063
 30
0.0
 10
7.8802423573
 20
5.0648546668
 30
0.0
 10
7.8802646192
 20
5.064126492
 30
0.0
 10
7.880293409
 20
5.0629776551
 30
0.0
 10
7.8803229623
 20
5.0613515416
 30
0.0
 10
7.8803484275
 20
5.0592163266
 30
0.0
 10
7.8803637731
 20
5.0569009176
 30
0.0
 10
7.8803672478
 20
5.0553061988
 30
0.0
 10
7.8803672478
 20
5.0544948968
 30
0.0
  0
SPLINE
  5
408
100
AcDbEntity
  8
0
100
AcDbSpline
 62
7
  6
CONTINUOUS
 70
0
 71
3
 72
9
 73
5
 74
0
 42
0.0000001
 43
0.0000001
 44
0.0000000001
 40
0.0
 40
0.0
 40
0.0
 40
0.0
 40
0.5119301588
 40
1.0
 40
1.0
 40
1.0
 40
1.0
 10
6.7948708738
 20
6.4751757306
 30
0.0
 10
6.79587749
 20
6.4696961603
 30
0.0
 10
6.7983142567
 20
6.4590692623
 30
0.0
 10
6.8020826092
 20
6.4488080035
 30
0.0
 10
6.8043422657
 20
6.4440010308
 30
0.0
  0
SPLINE
  5
409
100
AcDbEntity
  8
0
100
AcDbSpline
 62
7
  6
CONTINUOUS
 70
0
 71
3
 72
11
 73
7
 74
0
 42
0.0000001
 43
0.0000001
 44
0.0000000001
 40
0.0
 40
0.0
 40
0.0
 40
0.0
 40
0.261622114
 40
0.5144716143
 40
0.7595866583
 40
1.0
 40
1.0
 40
1.0
 40
1.0
 10
7.1914968479
 20
6.2594472322
 30
0.0
 10
7.190203893
 20
6.2642726056
 30
0.0
 10
7.1872941104
 20
6.2736712468
 30
0.0
 10
7.1815697818
 20
6.2870348795
 30
0.0
 10
7.1743122145
 20
6.2991795567
 30
0.0
 10
7.1683121971
 20
6.3063147746
 30
0.0
 10
7.1650661391
 20
6.3095608325
 30
0.0
  0
SPLINE
  5
40A
100
AcDbEntity
  8
0
100
AcDbSpline
 62
7
  6
CONTINUOUS
 70
0
 71
3
 72
21
 73
17
 74
0
 42
0.0000001
 43
0.0000001
 44
0.0000000001
 40
0.0
 40
0.0
 40
0.0
 40
0.0
 40
0.0016574911
 40
0.005455371
 40
0.0115765413
 40
0.0200356985
 40
0.0439210324
 40
0.0769744572
 40
0.1189686724
 40
0.1694300358
 40
0.2278219446
 40
0.2936064239
 40
0.4449246058
 40
0.617703601
 40
0.8055091698
 40
1.0
 40
1.0
 40
1.0
 40
1.0
 10
4.3806536852
 20
5.0669948968
 30
0.0
 10
4.3806467711
 20
5.0669948968
 30
0.0
 10
4.3806336735
 20
5.0669689855
 30
0.0
 10
4.3806231814
 20
5.0669266678
 30
0.0
 10
4.380608996
 20
5.0668487284
 30
0.0
 10
4.3805893515
 20
5.066690933
 30
0.0
 10
4.380565892
 20
5.0664179892
 30
0.0
 10
4.3805405027
 20
5.0660065854
 30
0.0
 10
4.3805157687
 20
5.0654834069
 30
0.0
 10
4.3804921423
 20
5.0648546673
 30
0.0
 10
4.3804698935
 20
5.0641264924
 30
0.0
 10
4.3804411207
 20
5.0629776555
 30
0.0
 10
4.3804115749
 20
5.0613515421
 30
0.0
 10
4.3803861127
 20
5.059216327
 30
0.0
 10
4.3803707755
 20
5.0569009178
 30
0.0
 10
4.3803673045
 20
5.0553061988
 30
0.0
 10
4.3803673045
 20
5.0544948968
 30
0.0
  0
SPLINE
  5
40B
100
AcDbEntity
  8
0
100
AcDbSpline
 62
7
  6
CONTINUOUS
 70
0
 71
3
 72
11
 73
7
 74
0
 42
0.0000001
 43
0.0000001
 44
0.0000000001
 40
0.0
 40
0.0
 40
0.0
 40
0.0
 40
0.261622114
 40
0.5144716143
 40
0.7595866583
 40
1.0
 40
1.0
 40
1.0
 40
1.0
 10
6.9618639207
 20
6.4890801594
 30
0.0
 10
6.9605709658
 20
6.4939055328
 30
0.0
 10
6.9576611832
 20
6.503304174
 30
0.0
 10
6.9519368546
 20
6.5166678067
 30
0.0
 10
6.9446792873
 20
6.5288124839
 30
0.0
 10
6.9386792699
 20
6.5359477018
 30
0.0
 10
6.935433212
 20
6.5391937597
 30
0.0
  0
SPLINE
  5
40C
100
AcDbEntity
  8
0
100
AcDbSpline
 62
7
  6
CONTINUOUS
 70
0
 71
3
 72
18
 73
14
 74
0
 42
0.0000001
 43
0.0000001
 44
0.0000000001
 40
0.0
 40
0.0
 40
0.0
 40
0.0
 40
0.1249566484
 40
0.2499895141
 40
0.3750926671
 40
0.5002600957
 40
0.625485296
 40
0.7507586292
 40
0.8134168132
 40
0.8760812442
 40
0.9074343399
 40
0.9387768661
 40
1.0
 40
1.0
 40
1.0
 40
1.0
 10
4.8141002855
 20
5.059526558
 30
0.0
 10
4.8134566979
 20
5.0593828519
 30
0.0
 10
4.8121700766
 20
5.0590910866
 30
0.0
 10
4.8102430644
 20
5.0586382318
 30
0.0
 10
4.8083194689
 20
5.0581663126
 30
0.0
 10
4.8064011003
 20
5.0576693953
 30
0.0
 10
4.8044915278
 20
5.0571358694
 30
0.0
 10
4.8029133736
 20
5.0566443542
 30
0.0
 10
4.8016696855
 20
5.05619158
 30
0.0
 10
4.8009085889
 20
5.0558721982
 30
0.0
 10
4.8003168442
 20
5.0555644249
 30
0.0
 10
4.7997765525
 20
5.0552315936
 30
0.0
 10
4.7993545964
 20
5.054817991
 30
0.0
 10
4.7993545964
 20
5.0544948968
 30
0.0
  0
SPLINE
  5
40D
100
AcDbEntity
  8
0
100
AcDbSpline
 62
7
  6
CONTINUOUS
 70
0
 71
3
 72
10
 73
6
 74
0
 42
0.0000001
 43
0.0000001
 44
0.0000000001
 40
0.0
 40
0.0
 40
0.0
 40
0.0
 40
0.2500544563
 40
0.5001241815
 40
1.0
 40
1.0
 40
1.0
 40
1.0
 10
7.0502496756
 20
6.4243772961
 30
0.0
 10
7.0437747084
 20
6.4308522633
 30
0.0
 10
7.0302633243
 20
6.4432550974
 30
0.0
 10
7.0013384234
 20
6.4657624349
 30
0.0
 10
6.9778900077
 20
6.4802340554
 30
0.0
 10
6.9618639207
 20
6.4890801594
 30
0.0
  0
SPLINE
  5
40E
100
AcDbEntity
  8
0
100
AcDbSpline
 62
7
  6
CONTINUOUS
 70
0
 71
3
 72
19
 73
15
 74
0
 42
0.0000001
 43
0.0000001
 44
0.0000000001
 40
0.0
 40
0.0
 40
0.0
 40
0.0
 40
0.0622254061
 40
0.1244043469
 40
0.2484937183
 40
0.3107313753
 40
0.3729722474
 40
0.4971063585
 40
0.5593593423
 40
0.6216961161
 40
0.684196201
 40
0.7468894742
 40
0.8730337144
 40
1.0
 40
1.0
 40
1.0
 40
1.0
 10
7.0560628443
 20
12.8236833835
 30
0.0
 10
7.0584485751
 20
12.8253217731
 30
0.0
 10
7.0634599321
 20
12.8282639537
 30
0.0
 10
7.0741952693
 20
12.8326242268
 30
0.0
 10
7.0858090658
 20
12.8345224492
 30
0.0
 10
7.0973802276
 20
12.8337511685
 30
0.0
 10
7.1087130041
 20
12.8312762128
 30
0.0
 10
7.1193503294
 20
12.8262597789
 30
0.0
 10
7.1285501781
 20
12.8192007452
 30
0.0
 10
7.1346786666
 20
12.812983502
 30
0.0
 10
7.1399474344
 20
12.8060018544
 30
0.0
 10
7.1457596116
 20
12.7958279224
 30
0.0
 10
7.1506493007
 20
12.7818267976
 30
0.0
 10
7.1519514971
 20
12.7700155525
 30
0.0
 10
7.1519514971
 20
12.7641102814
 30
0.0
  0
SPLINE
  5
40F
100
AcDbEntity
  8
0
100
AcDbSpline
 62
7
  6
CONTINUOUS
 70
0
 71
3
 72
21
 73
17
 74
0
 42
0.0000001
 43
0.0000001
 44
0.0000000001
 40
0.0
 40
0.0
 40
0.0
 40
0.0
 40
0.1269317581
 40
0.2529277695
 40
0.3155792777
 40
0.3780054935
 40
0.4402779555
 40
0.5024708404
 40
0.5646339221
 40
0.6268092826
 40
0.6889968383
 40
0.7512053214
 40
0.8134138693
 40
0.8756220988
 40
0.9377953139
 40
1.0
 40
1.0
 40
1.0
 40
1.0
 10
7.1519514971
 20
12.7641102814
 30
0.0
 10
7.1519514971
 20
12.7582102481
 30
0.0
 10
7.1506540934
 20
12.7464146634
 30
0.0
 10
7.1457748118
 20
12.7324307071
 30
0.0
 10
7.1399781103
 20
12.7222711445
 30
0.0
 10
7.1347293682
 20
12.7152909617
 30
0.0
 10
7.1286173772
 20
12.7090807753
 30
0.0
 10
7.1217205124
 20
12.7037721905
 30
0.0
 10
7.1141416865
 20
12.6994990976
 30
0.0
 10
7.1060214157
 20
12.69637168
 30
0.0
 10
7.0975234056
 20
12.6944860802
 30
0.0
 10
7.0888368157
 20
12.6938924347
 30
0.0
 10
7.0801594533
 20
12.6946182211
 30
0.0
 10
7.0716896971
 20
12.6966316111
 30
0.0
 10
7.0636149033
 20
12.6998784916
 30
0.0
 10
7.0586013737
 20
12.7028042111
 30
0.0
 10
7.0562131522
 20
12.7044341059
 30
0.0
  0
SPLINE
  5
410
100
AcDbEntity
  8
0
100
AcDbSpline
 62
7
  6
CONTINUOUS
 70
0
 71
3
 72
10
 73
6
 74
0
 42
0.0000001
 43
0.0000001
 44
0.0000000001
 40
0.0
 40
0.0
 40
0.0
 40
0.0
 40
0.5068446432
 40
0.7557766083
 40
1.0
 40
1.0
 40
1.0
 40
1.0
 10
7.0554573465
 20
12.9516047813
 30
0.0
 10
7.0651928776
 20
12.9364863361
 30
0.0
 10
7.0790507061
 20
12.9134889471
 30
0.0
 10
7.0951925412
 20
12.8818815245
 30
0.0
 10
7.1022960439
 20
12.8658793725
 30
0.0
 10
7.1055709468
 20
12.8578575313
 30
0.0
  0
SPLINE
  5
411
100
AcDbEntity
  8
0
100
AcDbSpline
 62
7
  6
CONTINUOUS
 70
0
 71
3
 72
9
 73
5
 74
0
 42
0.0000001
 43
0.0000001
 44
0.0000000001
 40
0.0
 40
0.0
 40
0.0
 40
0.0
 40
0.4917969148
 40
1.0
 40
1.0
 40
1.0
 40
1.0
 10
6.7353756815
 20
12.7641102814
 30
0.0
 10
6.7364205193
 20
12.7558647234
 30
0.0
 10
6.7390059055
 20
12.7391526252
 30
0.0
 10
6.7426773938
 20
12.7226393822
 30
0.0
 10
6.7448470734
 20
12.714329189
 30
0.0
  0
SPLINE
  5
412
100
AcDbEntity
  8
0
100
AcDbSpline
 62
7
  6
CONTINUOUS
 70
0
 71
3
 72
9
 73
5
 74
0
 42
0.0000001
 43
0.0000001
 44
0.0000000001
 40
0.0
 40
0.0
 40
0.0
 40
0.0
 40
0.5082032668
 40
1.0
 40
1.0
 40
1.0
 40
1.0
 10
6.7448470734
 20
12.8138913737
 30
0.0
 10
6.742677393
 20
12.8055811776
 30
0.0
 10
6.7390059066
 20
12.7890679342
 30
0.0
 10
6.736420519
 20
12.7723558363
 30
0.0
 10
6.7353756815
 20
12.7641102814
 30
0.0
  0
SPLINE
  5
413
100
AcDbEntity
  8
0
100
AcDbSpline
 62
7
  6
CONTINUOUS
 70
0
 71
3
 72
10
 73
6
 74
0
 42
0.0000001
 43
0.0000001
 44
0.0000000001
 40
0.0
 40
0.0
 40
0.0
 40
0.0
 40
0.5068543739
 40
0.7557816342
 40
1.0
 40
1.0
 40
1.0
 40
1.0
 10
7.0554573465
 20
12.5766157814
 30
0.0
 10
7.0651930618
 20
12.5917345127
 30
0.0
 10
7.0790505881
 20
12.6147322807
 30
0.0
 10
7.0951925951
 20
12.6463395909
 30
0.0
 10
7.1022961122
 20
12.6623413576
 30
0.0
 10
7.1055709468
 20
12.6703630314
 30
0.0
  0
SPLINE
  5
414
100
AcDbEntity
  8
0
100
AcDbSpline
 62
7
  6
CONTINUOUS
 70
0
 71
3
 72
14
 73
10
 74
0
 42
0.0000001
 43
0.0000001
 44
0.0000000001
 40
0.0
 40
0.0
 40
0.0
 40
0.0
 40
0.3092266979
 40
0.4495230662
 40
0.5773588769
 40
0.6938294818
 40
0.8011733042
 40
0.9022038772
 40
1.0
 40
1.0
 40
1.0
 40
1.0
 10
7.4018847637
 20
13.3641102814
 30
0.0
 10
7.4018847637
 20
13.3676929538
 30
0.0
 10
7.4010209244
 20
13.3729687475
 30
0.0
 10
7.3982301436
 20
13.3790765547
 30
0.0
 10
7.3956633178
 20
13.3827523262
 30
0.0
 10
7.3927165041
 20
13.3856036778
 30
0.0
 10
7.3895111258
 20
13.3876300987
 30
0.0
 10
7.386146624
 20
13.3888403624
 30
0.0
 10
7.383834646
 20
13.3891102814
 30
0.0
 10
7.382701589
 20
13.3891102814
 30
0.0
  0
SPLINE
  5
415
100
AcDbEntity
  8
0
100
AcDbSpline
 62
7
  6
CONTINUOUS
 70
0
 71
3
 72
14
 73
10
 74
0
 42
0.0000001
 43
0.0000001
 44
0.0000000001
 40
0.0
 40
0.0
 40
0.0
 40
0.0
 40
0.3092266979
 40
0.4495230662
 40
0.5773588769
 40
0.6938294818
 40
0.8011733042
 40
0.9022038772
 40
1.0
 40
1.0
 40
1.0
 40
1.0
 10
7.4018847637
 20
12.1641102814
 30
0.0
 10
7.4018847637
 20
12.160527609
 30
0.0
 10
7.4010209244
 20
12.1552518153
 30
0.0
 10
7.3982301436
 20
12.149144008
 30
0.0
 10
7.3956633178
 20
12.1454682365
 30
0.0
 10
7.3927165041
 20
12.1426168849
 30
0.0
 10
7.3895111258
 20
12.1405904641
 30
0.0
 10
7.386146624
 20
12.1393802004
 30
0.0
 10
7.383834646
 20
12.1391102814
 30
0.0
 10
7.382701589
 20
12.1391102814
 30
0.0
  0
SPLINE
  5
416
100
AcDbEntity
  8
0
100
AcDbSpline
 62
7
  6
CONTINUOUS
 70
0
 71
3
 72
11
 73
7
 74
0
 42
0.0000001
 43
0.0000001
 44
0.0000000001
 40
0.0
 40
0.0
 40
0.0
 40
0.0
 40
0.2600409236
 40
0.5132035014
 40
0.7596222645
 40
1.0
 40
1.0
 40
1.0
 40
1.0
 10
6.8759380196
 20
12.8578575313
 30
0.0
 10
6.8791351643
 20
12.8656889043
 30
0.0
 10
6.8849905342
 20
12.8813350429
 30
0.0
 10
6.8922512412
 20
12.9049681759
 30
0.0
 10
6.8980162535
 20
12.928349226
 30
0.0
 10
6.901039198
 20
12.9438994152
 30
0.0
 10
6.9023687284
 20
12.9516047813
 30
0.0
  0
SPLINE
  5
417
100
AcDbEntity
  8
0
100
AcDbSpline
 62
7
  6
CONTINUOUS
 70
0
 71
3
 72
11
 73
7
 74
0
 42
0.0000001
 43
0.0000001
 44
0.0000000001
 40
0.0
 40
0.0
 40
0.0
 40
0.0
 40
0.2403772026
 40
0.4867964111
 40
0.7399596699
 40
1.0
 40
1.0
 40
1.0
 40
1.0
 10
6.9023687284
 20
12.5766157814
 30
0.0
 10
6.901039201
 20
12.5843211304
 30
0.0
 10
6.8980164589
 20
12.5998713565
 30
0.0
 10
6.8922512525
 20
12.6232523875
 30
0.0
 10
6.8849903459
 20
12.6468854678
 30
0.0
 10
6.879135157
 20
12.6625316763
 30
0.0
 10
6.8759380196
 20
12.6703630314
 30
0.0
  0
SPLINE
  5
418
100
AcDbEntity
  8
0
100
AcDbSpline
 62
7
  6
CONTINUOUS
 70
0
 71
3
 72
10
 73
6
 74
0
 42
0.0000001
 43
0.0000001
 44
0.0000000001
 40
0.0
 40
0.0
 40
0.0
 40
0.0
 40
0.5068543739
 40
0.7557816342
 40
1.0
 40
1.0
 40
1.0
 40
1.0
 10
6.8258244193
 20
12.7641102814
 30
0.0
 10
6.8355601346
 20
12.7489915501
 30
0.0
 10
6.8494176609
 20
12.7259937821
 30
0.0
 10
6.8655596679
 20
12.6943864719
 30
0.0
 10
6.872663185
 20
12.6783847053
 30
0.0
 10
6.8759380196
 20
12.6703630314
 30
0.0
  0
SPLINE
  5
419
100
AcDbEntity
  8
0
100
AcDbSpline
 62
7
  6
CONTINUOUS
 70
0
 71
3
 72
10
 73
6
 74
0
 42
0.0000001
 43
0.0000001
 44
0.0000000001
 40
0.0
 40
0.0
 40
0.0
 40
0.0
 40
0.2442204462
 40
0.4931469957
 40
1.0
 40
1.0
 40
1.0
 40
1.0
 10
6.8759380196
 20
12.8578575313
 30
0.0
 10
6.8726631578
 20
12.8498357909
 30
0.0
 10
6.8655587727
 20
12.8338343712
 30
0.0
 10
6.8494181952
 20
12.802226364
 30
0.0
 10
6.8355601062
 20
12.7792289684
 30
0.0
 10
6.8258244193
 20
12.7641102814
 30
0.0
  0
SPLINE
  5
41A
100
AcDbEntity
  8
0
100
AcDbSpline
 62
7
  6
CONTINUOUS
 70
0
 71
3
 72
9
 73
5
 74
0
 42
0.0000001
 43
0.0000001
 44
0.0000000001
 40
0.0
 40
0.0
 40
0.0
 40
0.0
 40
0.2535655654
 40
1.0
 40
1.0
 40
1.0
 40
1.0
 10
7.1155299909
 20
12.7007358715
 30
0.0
 10
7.1148645638
 20
12.6981162094
 30
0.0
 10
7.1120674423
 20
12.687829889
 30
0.0
 10
7.108578235
 20
12.677729353
 30
0.0
 10
7.1055709468
 20
12.6703630314
 30
0.0
  0
SPLINE
  5
41B
100
AcDbEntity
  8
0
100
AcDbSpline
 62
7
  6
CONTINUOUS
 70
0
 71
3
 72
9
 73
5
 74
0
 42
0.0000001
 43
0.0000001
 44
0.0000000001
 40
0.0
 40
0.0
 40
0.0
 40
0.0
 40
0.246231665
 40
1.0
 40
1.0
 40
1.0
 40
1.0
 10
7.1055709468
 20
12.8578575313
 30
0.0
 10
7.1065827444
 20
12.8553791436
 30
0.0
 10
7.1105043264
 20
12.8452380333
 30
0.0
 10
7.1136894881
 20
12.834814516
 30
0.0
 10
7.115686103
 20
12.8268667023
 30
0.0
  0
SPLINE
  5
41C
100
AcDbEntity
  8
0
100
AcDbSpline
 62
7
  6
CONTINUOUS
 70
0
 71
3
 72
15
 73
11
 74
0
 42
0.0000001
 43
0.0000001
 44
0.0000000001
 40
0.0
 40
0.0
 40
0.0
 40
0.0
 40
0.1105930552
 40
0.2231221478
 40
0.3390738466
 40
0.4597870272
 40
0.5860705773
 40
0.7182935726
 40
0.8564816434
 40
1.0
 40
1.0
 40
1.0
 40
1.0
 10
6.9907544832
 20
12.9516047813
 30
0.0
 10
6.9965454221
 20
12.9516047813
 30
0.0
 10
7.0082560775
 20
12.9505073815
 30
0.0
 10
7.025424909
 20
12.9456410916
 30
0.0
 10
7.0419631019
 20
12.9376383792
 30
0.0
 10
7.0575740225
 20
12.9266675249
 30
0.0
 10
7.0720117953
 20
12.912939269
 30
0.0
 10
7.0850390159
 20
12.8966856453
 30
0.0
 10
7.0964383467
 20
12.8781944908
 30
0.0
 10
7.1027305465
 20
12.8648150628
 30
0.0
 10
7.1055709468
 20
12.8578575313
 30
0.0
  0
SPLINE
  5
41D
100
AcDbEntity
  8
0
100
AcDbSpline
 62
7
  6
CONTINUOUS
 70
0
 71
3
 72
15
 73
11
 74
0
 42
0.0000001
 43
0.0000001
 44
0.0000000001
 40
0.0
 40
0.0
 40
0.0
 40
0.0
 40
0.1435183566
 40
0.2817064274
 40
0.4139294227
 40
0.5402129728
 40
0.6609261534
 40
0.7768778522
 40
0.8894069448
 40
1.0
 40
1.0
 40
1.0
 40
1.0
 10
6.8759380196
 20
12.8578575313
 30
0.0
 10
6.87877842
 20
12.8648150628
 30
0.0
 10
6.8850706198
 20
12.8781944908
 30
0.0
 10
6.8964699505
 20
12.8966856453
 30
0.0
 10
6.9094971712
 20
12.912939269
 30
0.0
 10
6.9239349439
 20
12.9266675249
 30
0.0
 10
6.9395458646
 20
12.9376383792
 30
0.0
 10
6.9560840575
 20
12.9456410916
 30
0.0
 10
6.973252889
 20
12.9505073815
 30
0.0
 10
6.9849635444
 20
12.9516047813
 30
0.0
 10
6.9907544832
 20
12.9516047813
 30
0.0
  0
SPLINE
  5
41E
100
AcDbEntity
  8
0
100
AcDbSpline
 62
7
  6
CONTINUOUS
 70
0
 71
3
 72
15
 73
11
 74
0
 42
0.0000001
 43
0.0000001
 44
0.0000000001
 40
0.0
 40
0.0
 40
0.0
 40
0.0
 40
0.1105930552
 40
0.2231221478
 40
0.3390738466
 40
0.4597870272
 40
0.5860705773
 40
0.7182935726
 40
0.8564816434
 40
1.0
 40
1.0
 40
1.0
 40
1.0
 10
6.9907544832
 20
12.5766157814
 30
0.0
 10
6.9849635444
 20
12.5766157814
 30
0.0
 10
6.973252889
 20
12.5777131812
 30
0.0
 10
6.9560840575
 20
12.5825794711
 30
0.0
 10
6.9395458646
 20
12.5905821835
 30
0.0
 10
6.9239349439
 20
12.6015530378
 30
0.0
 10
6.9094971712
 20
12.6152812938
 30
0.0
 10
6.8964699505
 20
12.6315349174
 30
0.0
 10
6.8850706198
 20
12.6500260719
 30
0.0
 10
6.87877842
 20
12.6634055
 30
0.0
 10
6.8759380196
 20
12.6703630314
 30
0.0
  0
SPLINE
  5
41F
100
AcDbEntity
  8
0
100
AcDbSpline
 62
7
  6
CONTINUOUS
 70
0
 71
3
 72
15
 73
11
 74
0
 42
0.0000001
 43
0.0000001
 44
0.0000000001
 40
0.0
 40
0.0
 40
0.0
 40
0.0
 40
0.1435183566
 40
0.2817064274
 40
0.4139294227
 40
0.5402129728
 40
0.6609261534
 40
0.7768778522
 40
0.8894069448
 40
1.0
 40
1.0
 40
1.0
 40
1.0
 10
7.1055709468
 20
12.6703630314
 30
0.0
 10
7.1027305465
 20
12.6634055
 30
0.0
 10
7.0964383467
 20
12.6500260719
 30
0.0
 10
7.0850390159
 20
12.6315349174
 30
0.0
 10
7.0720117953
 20
12.6152812938
 30
0.0
 10
7.0575740225
 20
12.6015530378
 30
0.0
 10
7.0419631019
 20
12.5905821835
 30
0.0
 10
7.025424909
 20
12.5825794711
 30
0.0
 10
7.0082560775
 20
12.5777131812
 30
0.0
 10
6.9965454221
 20
12.5766157814
 30
0.0
 10
6.9907544832
 20
12.5766157814
 30
0.0
  0
SPLINE
  5
420
100
AcDbEntity
  8
0
100
AcDbSpline
 62
7
  6
CONTINUOUS
 70
0
 71
3
 72
13
 73
9
 74
0
 42
0.0000001
 43
0.0000001
 44
0.0000000001
 40
0.0
 40
0.0
 40
0.0
 40
0.0
 40
0.1213928631
 40
0.2459518375
 40
0.5
 40
0.7540481625
 40
0.8786071369
 40
1.0
 40
1.0
 40
1.0
 40
1.0
 10
6.8759380196
 20
12.8578575313
 30
0.0
 10
6.8730041453
 20
12.8506710362
 30
0.0
 10
6.8678387676
 20
12.8357806882
 30
0.0
 10
6.8603947629
 20
12.8046453271
 30
0.0
 10
6.8566890248
 20
12.7641102814
 30
0.0
 10
6.8603947629
 20
12.7235752356
 30
0.0
 10
6.8678387676
 20
12.6924398745
 30
0.0
 10
6.8730041453
 20
12.6775495266
 30
0.0
 10
6.8759380196
 20
12.6703630314
 30
0.0
  0
SPLINE
  5
421
100
AcDbEntity
  8
0
100
AcDbSpline
 62
7
  6
CONTINUOUS
 70
0
 71
3
 72
9
 73
5
 74
0
 42
0.0000001
 43
0.0000001
 44
0.0000000001
 40
0.0
 40
0.0
 40
0.0
 40
0.0
 40
0.4834864193
 40
1.0
 40
1.0
 40
1.0
 40
1.0
 10
7.0517617719
 20
12.6693887528
 30
0.0
 10
7.0561213418
 20
12.6729483268
 30
0.0
 10
7.0643359576
 20
12.6813233541
 30
0.0
 10
7.0708422472
 20
12.691053198
 30
0.0
 10
7.0737745459
 20
12.6963023419
 30
0.0
  0
SPLINE
  5
422
100
AcDbEntity
  8
0
100
AcDbSpline
 62
7
  6
CONTINUOUS
 70
0
 71
3
 72
14
 73
10
 74
0
 42
0.0000001
 43
0.0000001
 44
0.0000000001
 40
0.0
 40
0.0
 40
0.0
 40
0.0
 40
0.3092266979
 40
0.4495230662
 40
0.5773588769
 40
0.6938294818
 40
0.8011733041
 40
0.9022038772
 40
1.0
 40
1.0
 40
1.0
 40
1.0
 10
4.739859404
 20
12.1641102814
 30
0.0
 10
4.739859404
 20
12.160527609
 30
0.0
 10
4.7407232433
 20
12.1552518153
 30
0.0
 10
4.7435140242
 20
12.149144008
 30
0.0
 10
4.7460808499
 20
12.1454682365
 30
0.0
 10
4.7490276636
 20
12.1426168849
 30
0.0
 10
4.7522330419
 20
12.1405904641
 30
0.0
 10
4.7555975437
 20
12.1393802004
 30
0.0
 10
4.7579095218
 20
12.1391102814
 30
0.0
 10
4.7590425787
 20
12.1391102814
 30
0.0
  0
SPLINE
  5
423
100
AcDbEntity
  8
0
100
AcDbSpline
 62
7
  6
CONTINUOUS
 70
0
 71
3
 72
9
 73
5
 74
0
 42
0.0000001
 43
0.0000001
 44
0.0000000001
 40
0.0
 40
0.0
 40
0.0
 40
0.0
 40
0.5164830579
 40
1.0
 40
1.0
 40
1.0
 40
1.0
 10
7.0737356228
 20
12.8319878396
 30
0.0
 10
7.0708064545
 20
12.8372226557
 30
0.0
 10
7.0643093621
 20
12.8469263553
 30
0.0
 10
7.0561116982
 20
12.85528011
 30
0.0
 10
7.0517617719
 20
12.8588318099
 30
0.0
  0
SPLINE
  5
424
100
AcDbEntity
  8
0
100
AcDbSpline
 62
7
  6
CONTINUOUS
 70
0
 71
3
 72
15
 73
11
 74
0
 42
0.0000001
 43
0.0000001
 44
0.0000000001
 40
0.0
 40
0.0
 40
0.0
 40
0.0
 40
0.1311474841
 40
0.2573719437
 40
0.3797213992
 40
0.5
 40
0.6202786008
 40
0.7426280563
 40
0.8688525159
 40
1.0
 40
1.0
 40
1.0
 40
1.0
 10
7.0517617719
 20
12.8588318099
 30
0.0
 10
7.048908355
 20
12.8611616151
 30
0.0
 10
7.0429629342
 20
12.8653328137
 30
0.0
 10
7.0333213593
 20
12.8700057715
 30
0.0
 10
7.0232991354
 20
12.8728455832
 30
0.0
 10
7.0130918698
 20
12.8738016985
 30
0.0
 10
7.0028846041
 20
12.8728455832
 30
0.0
 10
6.9928623803
 20
12.8700057715
 30
0.0
 10
6.9832208054
 20
12.8653328137
 30
0.0
 10
6.9772753846
 20
12.8611616151
 30
0.0
 10
6.9744219677
 20
12.8588318099
 30
0.0
  0
SPLINE
  5
425
100
AcDbEntity
  8
0
100
AcDbSpline
 62
7
  6
CONTINUOUS
 70
0
 71
3
 72
14
 73
10
 74
0
 42
0.0000001
 43
0.0000001
 44
0.0000000001
 40
0.0
 40
0.0
 40
0.0
 40
0.0
 40
0.2241854844
 40
0.3442661664
 40
0.4690182629
 40
0.5978730433
 40
0.7300518268
 40
0.8645725937
 40
1.0
 40
1.0
 40
1.0
 40
1.0
 10
6.9744219677
 20
12.8588318099
 30
0.0
 10
6.9683190272
 20
12.8538487798
 30
0.0
 10
6.9600986867
 20
12.8447104972
 30
0.0
 10
6.9514428193
 20
12.8306634655
 30
0.0
 10
6.9458403817
 20
12.8187515148
 30
0.0
 10
6.9413895102
 20
12.8059211419
 30
0.0
 10
6.9381508369
 20
12.7923788824
 30
0.0
 10
6.9361935646
 20
12.7783626282
 30
0.0
 10
6.9357520656
 20
12.7688697951
 30
0.0
 10
6.9357520656
 20
12.7641102814
 30
0.0
  0
SPLINE
  5
426
100
AcDbEntity
  8
0
100
AcDbSpline
 62
7
  6
CONTINUOUS
 70
0
 71
3
 72
15
 73
11
 74
0
 42
0.0000001
 43
0.0000001
 44
0.0000000001
 40
0.0
 40
0.0
 40
0.0
 40
0.0
 40
0.1311474841
 40
0.2573719437
 40
0.3797213992
 40
0.5
 40
0.6202786008
 40
0.7426280563
 40
0.8688525159
 40
1.0
 40
1.0
 40
1.0
 40
1.0
 10
6.9744219677
 20
12.6693887528
 30
0.0
 10
6.9772753846
 20
12.6670589477
 30
0.0
 10
6.9832208054
 20
12.662887749
 30
0.0
 10
6.9928623803
 20
12.6582147912
 30
0.0
 10
7.0028846041
 20
12.6553749795
 30
0.0
 10
7.0130918698
 20
12.6544188642
 30
0.0
 10
7.0232991354
 20
12.6553749795
 30
0.0
 10
7.0333213593
 20
12.6582147912
 30
0.0
 10
7.0429629342
 20
12.662887749
 30
0.0
 10
7.048908355
 20
12.6670589477
 30
0.0
 10
7.0517617719
 20
12.6693887528
 30
0.0
  0
SPLINE
  5
427
100
AcDbEntity
  8
0
100
AcDbSpline
 62
7
  6
CONTINUOUS
 70
0
 71
3
 72
14
 73
10
 74
0
 42
0.0000001
 43
0.0000001
 44
0.0000000001
 40
0.0
 40
0.0
 40
0.0
 40
0.0
 40
0.1354274063
 40
0.2699481732
 40
0.4021269567
 40
0.5309817371
 40
0.6557338336
 40
0.7758145156
 40
1.0
 40
1.0
 40
1.0
 40
1.0
 10
6.9357520656
 20
12.7641102814
 30
0.0
 10
6.9357520656
 20
12.7593507676
 30
0.0
 10
6.9361935646
 20
12.7498579345
 30
0.0
 10
6.9381508369
 20
12.7358416804
 30
0.0
 10
6.9413895102
 20
12.7222994208
 30
0.0
 10
6.9458403817
 20
12.7094690479
 30
0.0
 10
6.9514428193
 20
12.6975570973
 30
0.0
 10
6.9600986867
 20
12.6835100655
 30
0.0
 10
6.9683190272
 20
12.6743717829
 30
0.0
 10
6.9744219677
 20
12.6693887528
 30
0.0
  0
SPLINE
  5
428
100
AcDbEntity
  8
0
100
AcDbSpline
 62
7
  6
CONTINUOUS
 70
0
 71
3
 72
14
 73
10
 74
0
 42
0.0000001
 43
0.0000001
 44
0.0000000001
 40
0.0
 40
0.0
 40
0.0
 40
0.0
 40
0.3092266979
 40
0.4495230662
 40
0.5773588768
 40
0.6938294818
 40
0.8011733041
 40
0.9022038772
 40
1.0
 40
1.0
 40
1.0
 40
1.0
 10
4.739859404
 20
13.3641102814
 30
0.0
 10
4.739859404
 20
13.3676929538
 30
0.0
 10
4.7407232433
 20
13.3729687475
 30
0.0
 10
4.7435140242
 20
13.3790765547
 30
0.0
 10
4.7460808499
 20
13.3827523262
 30
0.0
 10
4.7490276636
 20
13.3856036778
 30
0.0
 10
4.7522330419
 20
13.3876300987
 30
0.0
 10
4.7555975437
 20
13.3888403624
 30
0.0
 10
4.7579095218
 20
13.3891102814
 30
0.0
 10
4.7590425787
 20
13.3891102814
 30
0.0
  0
SPLINE
  5
429
100
AcDbEntity
  8
0
100
AcDbSpline
 62
7
  6
CONTINUOUS
 70
0
 71
3
 72
21
 73
17
 74
0
 42
0.0000001
 43
0.0000001
 44
0.0000000001
 40
0.0
 40
0.0
 40
0.0
 40
0.0
 40
0.1269317581
 40
0.2529277695
 40
0.3155792777
 40
0.3780054935
 40
0.4402779555
 40
0.5024708404
 40
0.5646339221
 40
0.6268092826
 40
0.6889968383
 40
0.7512053214
 40
0.8134138693
 40
0.8756220988
 40
0.9377953139
 40
1.0
 40
1.0
 40
1.0
 40
1.0
 10
15.7244177569
 20
6.5260791177
 30
0.0
 10
15.7303177902
 20
6.5260791177
 30
0.0
 10
15.7421133749
 20
6.524781714
 30
0.0
 10
15.7560973312
 20
6.5199024323
 30
0.0
 10
15.7662568938
 20
6.5141057309
 30
0.0
 10
15.7732370766
 20
6.5088569888
 30
0.0
 10
15.779447263
 20
6.5027449978
 30
0.0
 10
15.7847558478
 20
6.495848133
 30
0.0
 10
15.7890289407
 20
6.488269307
 30
0.0
 10
15.7921563583
 20
6.4801490363
 30
0.0
 10
15.7940419581
 20
6.4716510261
 30
0.0
 10
15.7946356036
 20
6.4629644363
 30
0.0
 10
15.7939098172
 20
6.4542870739
 30
0.0
 10
15.7918964272
 20
6.4458173177
 30
0.0
 10
15.7886495467
 20
6.4377425239
 30
0.0
 10
15.7857238272
 20
6.4327289942
 30
0.0
 10
15.7840939324
 20
6.4303407728
 30
0.0
  0
SPLINE
  5
42A
100
AcDbEntity
  8
0
100
AcDbSpline
 62
7
  6
CONTINUOUS
 70
0
 71
3
 72
19
 73
15
 74
0
 42
0.0000001
 43
0.0000001
 44
0.0000000001
 40
0.0
 40
0.0
 40
0.0
 40
0.0
 40
0.0622254061
 40
0.1244043469
 40
0.2484937183
 40
0.3107313753
 40
0.3729722474
 40
0.4971063585
 40
0.5593593423
 40
0.6216961161
 40
0.684196201
 40
0.7468894742
 40
0.8730337144
 40
1.0
 40
1.0
 40
1.0
 40
1.0
 10
15.6648446548
 20
6.4301904649
 30
0.0
 10
15.6632062652
 20
6.4325761957
 30
0.0
 10
15.6602640846
 20
6.4375875527
 30
0.0
 10
15.6559038116
 20
6.4483228899
 30
0.0
 10
15.6540055891
 20
6.4599366864
 30
0.0
 10
15.6547768698
 20
6.4715078482
 30
0.0
 10
15.6572518255
 20
6.4828406247
 30
0.0
 10
15.6622682594
 20
6.49347795
 30
0.0
 10
15.6693272931
 20
6.5026777987
 30
0.0
 10
15.6755445363
 20
6.5088062872
 30
0.0
 10
15.6825261839
 20
6.514075055
 30
0.0
 10
15.6927001159
 20
6.5198872322
 30
0.0
 10
15.7067012407
 20
6.5247769213
 30
0.0
 10
15.7185124858
 20
6.5260791177
 30
0.0
 10
15.7244177569
 20
6.5260791177
 30
0.0
  0
SPLINE
  5
42B
100
AcDbEntity
  8
0
100
AcDbSpline
 62
7
  6
CONTINUOUS
 70
0
 71
3
 72
11
 73
7
 74
0
 42
0.0000001
 43
0.0000001
 44
0.0000000001
 40
0.0
 40
0.0
 40
0.0
 40
0.0
 40
0.2442003527
 40
0.4931093963
 40
0.7454225534
 40
1.0
 40
1.0
 40
1.0
 40
1.0
 10
15.8181650069
 20
6.4796985674
 30
0.0
 10
15.8261868386
 20
6.4764236683
 30
0.0
 10
15.8421887674
 20
6.4693203552
 30
0.0
 10
15.8657531387
 20
6.4572864823
 30
0.0
 10
15.8890481321
 20
6.4439855609
 30
0.0
 10
15.9043178711
 20
6.434475376
 30
0.0
 10
15.9119122569
 20
6.4295849671
 30
0.0
  0
SPLINE
  5
42C
100
AcDbEntity
  8
0
100
AcDbSpline
 62
7
  6
CONTINUOUS
 70
0
 71
3
 72
10
 73
6
 74
0
 42
0.0000001
 43
0.0000001
 44
0.0000000001
 40
0.0
 40
0.0
 40
0.0
 40
0.0
 40
0.5068446432
 40
0.7557766083
 40
1.0
 40
1.0
 40
1.0
 40
1.0
 10
15.536923257
 20
6.4295849671
 30
0.0
 10
15.5520417022
 20
6.4393204982
 30
0.0
 10
15.5750390912
 20
6.4531783267
 30
0.0
 10
15.6066465138
 20
6.4693201618
 30
0.0
 10
15.6226486658
 20
6.4764236645
 30
0.0
 10
15.630670507
 20
6.4796985674
 30
0.0
  0
SPLINE
  5
42D
100
AcDbEntity
  8
0
100
AcDbSpline
 62
7
  6
CONTINUOUS
 70
0
 71
3
 72
9
 73
5
 74
0
 42
0.0000001
 43
0.0000001
 44
0.0000000001
 40
0.0
 40
0.0
 40
0.0
 40
0.0
 40
0.4917969148
 40
1.0
 40
1.0
 40
1.0
 40
1.0
 10
15.7244177569
 20
6.1095033021
 30
0.0
 10
15.7326633149
 20
6.1105481399
 30
0.0
 10
15.7493754131
 20
6.1131335261
 30
0.0
 10
15.7658886561
 20
6.1168050144
 30
0.0
 10
15.7741988493
 20
6.118974694
 30
0.0
  0
SPLINE
  5
42E
100
AcDbEntity
  8
0
100
AcDbSpline
 62
7
  6
CONTINUOUS
 70
0
 71
3
 72
9
 73
5
 74
0
 42
0.0000001
 43
0.0000001
 44
0.0000000001
 40
0.0
 40
0.0
 40
0.0
 40
0.0
 40
0.5082032668
 40
1.0
 40
1.0
 40
1.0
 40
1.0
 10
15.6746366646
 20
6.118974694
 30
0.0
 10
15.6829468607
 20
6.1168050136
 30
0.0
 10
15.6994601041
 20
6.1131335272
 30
0.0
 10
15.716172202
 20
6.1105481395
 30
0.0
 10
15.7244177569
 20
6.1095033021
 30
0.0
  0
SPLINE
  5
42F
100
AcDbEntity
  8
0
100
AcDbSpline
 62
7
  6
CONTINUOUS
 70
0
 71
3
 72
27
 73
23
 74
0
 42
0.0000001
 43
0.0000001
 44
0.0000000001
 40
0.0
 40
0.0
 40
0.0
 40
0.0
 40
0.0621137172
 40
0.1240140567
 40
0.1857751851
 40
0.2166717247
 40
0.2476160932
 40
0.309712985
 40
0.341001312
 40
0.372466951
 40
0.4359320463
 40
0.5000004304
 40
0.5640682157
 40
0.6275321245
 40
0.6589970358
 40
0.6902863628
 40
0.7523838909
 40
0.7833283363
 40
0.814224313
 40
0.8759833548
 40
0.9378836956
 40
1.0
 40
1.0
 40
1.0
 40
1.0
 10
15.5582288867
 20
5.7442592253
 30
0.0
 10
15.5616876429
 20
5.7537137188
 30
0.0
 10
15.5691965613
 20
5.7723792407
 30
0.0
 10
15.582552001
 20
5.7994008539
 30
0.0
 10
15.5956933438
 20
5.8207855672
 30
0.0
 10
15.6076145812
 20
5.8369011942
 30
0.0
 10
15.6205591486
 20
5.8522733477
 30
0.0
 10
15.6351793436
 20
5.8662851354
 30
0.0
 10
15.6515042988
 20
5.878288084
 30
0.0
 10
15.6691032431
 20
5.8887694146
 30
0.0
 10
15.6932847047
 20
5.8983619869
 30
0.0
 10
15.7244183944
 20
5.9024393605
 30
0.0
 10
15.7555503826
 20
5.898358904
 30
0.0
 10
15.7797345071
 20
5.8887740083
 30
0.0
 10
15.7973324903
 20
5.8782908598
 30
0.0
 10
15.8136547531
 20
5.8662839416
 30
0.0
 10
15.8282715848
 20
5.8522685042
 30
0.0
 10
15.8412160293
 20
5.8368963492
 30
0.0
 10
15.8531414415
 20
5.8207845075
 30
0.0
 10
15.8662934658
 20
5.7994066347
 30
0.0
 10
15.8796450817
 20
5.7723824089
 30
0.0
 10
15.8871477269
 20
5.7537141126
 30
0.0
 10
15.8906066272
 20
5.7442592253
 30
0.0
  0
SPLINE
  5
430
100
AcDbEntity
  8
0
100
AcDbSpline
 62
7
  6
CONTINUOUS
 70
0
 71
3
 72
10
 73
6
 74
0
 42
0.0000001
 43
0.0000001
 44
0.0000000001
 40
0.0
 40
0.0
 40
0.0
 40
0.0
 40
0.5068446432
 40
0.7557766083
 40
1.0
 40
1.0
 40
1.0
 40
1.0
 10
15.7244177569
 20
6.1999520399
 30
0.0
 10
15.7092993118
 20
6.209687571
 30
0.0
 10
15.6863019227
 20
6.2235453995
 30
0.0
 10
15.6546945001
 20
6.2396872346
 30
0.0
 10
15.6386923481
 20
6.2467907373
 30
0.0
 10
15.630670507
 20
6.2500656402
 30
0.0
  0
SPLINE
  5
431
100
AcDbEntity
  8
0
100
AcDbSpline
 62
7
  6
CONTINUOUS
 70
0
 71
3
 72
11
 73
7
 74
0
 42
0.0000001
 43
0.0000001
 44
0.0000000001
 40
0.0
 40
0.0
 40
0.0
 40
0.0
 40
0.2442003527
 40
0.4931093963
 40
0.7454225534
 40
1.0
 40
1.0
 40
1.0
 40
1.0
 10
15.8181650069
 20
6.2500656402
 30
0.0
 10
15.8101431752
 20
6.2467907411
 30
0.0
 10
15.7941412464
 20
6.239687428
 30
0.0
 10
15.7705768751
 20
6.2276535552
 30
0.0
 10
15.7472818817
 20
6.2143526337
 30
0.0
 10
15.7320121427
 20
6.2048424488
 30
0.0
 10
15.7244177569
 20
6.1999520399
 30
0.0
  0
SPLINE
  5
432
100
AcDbEntity
  8
0
100
AcDbSpline
 62
7
  6
CONTINUOUS
 70
0
 71
3
 72
11
 73
7
 74
0
 42
0.0000001
 43
0.0000001
 44
0.0000000001
 40
0.0
 40
0.0
 40
0.0
 40
0.0
 40
0.2403772026
 40
0.4867964111
 40
0.7399596699
 40
1.0
 40
1.0
 40
1.0
 40
1.0
 10
15.9119122569
 20
6.2764963489
 30
0.0
 10
15.9042069079
 20
6.2751668216
 30
0.0
 10
15.8886566818
 20
6.2721440795
 30
0.0
 10
15.8652756508
 20
6.2663788731
 30
0.0
 10
15.8416425705
 20
6.2591179665
 30
0.0
 10
15.825996362
 20
6.2532627776
 30
0.0
 10
15.8181650069
 20
6.2500656402
 30
0.0
  0
SPLINE
  5
433
100
AcDbEntity
  8
0
100
AcDbSpline
 62
7
  6
CONTINUOUS
 70
0
 71
3
 72
11
 73
7
 74
0
 42
0.0000001
 43
0.0000001
 44
0.0000000001
 40
0.0
 40
0.0
 40
0.0
 40
0.0
 40
0.2403819411
 40
0.4868086487
 40
0.7399662953
 40
1.0
 40
1.0
 40
1.0
 40
1.0
 10
15.536923257
 20
6.2764963489
 30
0.0
 10
15.5446287562
 20
6.2751667956
 30
0.0
 10
15.5601794582
 20
6.2721443776
 30
0.0
 10
15.5835604488
 20
6.2663781148
 30
0.0
 10
15.6071934712
 20
6.2591176401
 30
0.0
 10
15.6228393531
 20
6.2532626954
 30
0.0
 10
15.630670507
 20
6.2500656402
 30
0.0
  0
SPLINE
  5
434
100
AcDbEntity
  8
0
100
AcDbSpline
 62
7
  6
CONTINUOUS
 70
0
 71
3
 72
9
 73
5
 74
0
 42
0.0000001
 43
0.0000001
 44
0.0000000001
 40
0.0
 40
0.0
 40
0.0
 40
0.0
 40
0.2558574442
 40
1.0
 40
1.0
 40
1.0
 40
1.0
 10
15.7244177569
 20
6.2323034715
 30
0.0
 10
15.7162524055
 20
6.2323034715
 30
0.0
 10
15.6843678651
 20
6.2337726136
 30
0.0
 10
15.6526571827
 20
6.2410896175
 30
0.0
 10
15.630670507
 20
6.2500656402
 30
0.0
  0
SPLINE
  5
435
100
AcDbEntity
  8
0
100
AcDbSpline
 62
7
  6
CONTINUOUS
 70
0
 71
3
 72
9
 73
5
 74
0
 42
0.0000001
 43
0.0000001
 44
0.0000000001
 40
0.0
 40
0.0
 40
0.0
 40
0.0
 40
0.2432563317
 40
1.0
 40
1.0
 40
1.0
 40
1.0
 10
15.8181650069
 20
6.2500656402
 30
0.0
 10
15.8109768295
 20
6.2471310791
 30
0.0
 10
15.7807926548
 20
6.2366553238
 30
0.0
 10
15.7485710762
 20
6.2323034715
 30
0.0
 10
15.7244177569
 20
6.2323034715
 30
0.0
  0
SPLINE
  5
436
100
AcDbEntity
  8
0
100
AcDbSpline
 62
7
  6
CONTINUOUS
 70
0
 71
3
 72
15
 73
11
 74
0
 42
0.0000001
 43
0.0000001
 44
0.0000000001
 40
0.0
 40
0.0
 40
0.0
 40
0.0
 40
0.1105930552
 40
0.2231221478
 40
0.3390738466
 40
0.4597870272
 40
0.5860705773
 40
0.7182935726
 40
0.8564816434
 40
1.0
 40
1.0
 40
1.0
 40
1.0
 10
15.9119122569
 20
6.3648821038
 30
0.0
 10
15.9119122569
 20
6.359091165
 30
0.0
 10
15.9108148571
 20
6.3473805096
 30
0.0
 10
15.9059485672
 20
6.3302116781
 30
0.0
 10
15.8979458548
 20
6.3136734852
 30
0.0
 10
15.8869750005
 20
6.2980625645
 30
0.0
 10
15.8732467445
 20
6.2836247918
 30
0.0
 10
15.8569931209
 20
6.2705975711
 30
0.0
 10
15.8385019664
 20
6.2591982404
 30
0.0
 10
15.8251225383
 20
6.2529060406
 30
0.0
 10
15.8181650069
 20
6.2500656402
 30
0.0
  0
SPLINE
  5
437
100
AcDbEntity
  8
0
100
AcDbSpline
 62
7
  6
CONTINUOUS
 70
0
 71
3
 72
15
 73
11
 74
0
 42
0.0000001
 43
0.0000001
 44
0.0000000001
 40
0.0
 40
0.0
 40
0.0
 40
0.0
 40
0.1435183566
 40
0.2817064274
 40
0.4139294227
 40
0.5402129728
 40
0.6609261534
 40
0.7768778522
 40
0.8894069448
 40
1.0
 40
1.0
 40
1.0
 40
1.0
 10
15.8181650069
 20
6.4796985674
 30
0.0
 10
15.8251225383
 20
6.4768581671
 30
0.0
 10
15.8385019664
 20
6.4705659672
 30
0.0
 10
15.8569931209
 20
6.4591666365
 30
0.0
 10
15.8732467445
 20
6.4461394159
 30
0.0
 10
15.8869750005
 20
6.4317016431
 30
0.0
 10
15.8979458548
 20
6.4160907225
 30
0.0
 10
15.9059485672
 20
6.3995525296
 30
0.0
 10
15.9108148571
 20
6.3823836981
 30
0.0
 10
15.9119122569
 20
6.3706730426
 30
0.0
 10
15.9119122569
 20
6.3648821038
 30
0.0
  0
SPLINE
  5
438
100
AcDbEntity
  8
0
100
AcDbSpline
 62
7
  6
CONTINUOUS
 70
0
 71
3
 72
15
 73
11
 74
0
 42
0.0000001
 43
0.0000001
 44
0.0000000001
 40
0.0
 40
0.0
 40
0.0
 40
0.0
 40
0.1105930552
 40
0.2231221478
 40
0.3390738466
 40
0.4597870272
 40
0.5860705773
 40
0.7182935726
 40
0.8564816434
 40
1.0
 40
1.0
 40
1.0
 40
1.0
 10
15.536923257
 20
6.3648821038
 30
0.0
 10
15.536923257
 20
6.3706730426
 30
0.0
 10
15.5380206568
 20
6.3823836981
 30
0.0
 10
15.5428869467
 20
6.3995525296
 30
0.0
 10
15.5508896591
 20
6.4160907225
 30
0.0
 10
15.5618605134
 20
6.4317016431
 30
0.0
 10
15.5755887693
 20
6.4461394159
 30
0.0
 10
15.591842393
 20
6.4591666365
 30
0.0
 10
15.6103335475
 20
6.4705659672
 30
0.0
 10
15.6237129755
 20
6.4768581671
 30
0.0
 10
15.630670507
 20
6.4796985674
 30
0.0
  0
SPLINE
  5
439
100
AcDbEntity
  8
0
100
AcDbSpline
 62
7
  6
CONTINUOUS
 70
0
 71
3
 72
15
 73
11
 74
0
 42
0.0000001
 43
0.0000001
 44
0.0000000001
 40
0.0
 40
0.0
 40
0.0
 40
0.0
 40
0.1435183566
 40
0.2817064274
 40
0.4139294227
 40
0.5402129728
 40
0.6609261534
 40
0.7768778522
 40
0.8894069448
 40
1.0
 40
1.0
 40
1.0
 40
1.0
 10
15.630670507
 20
6.2500656402
 30
0.0
 10
15.6237129755
 20
6.2529060406
 30
0.0
 10
15.6103335475
 20
6.2591982404
 30
0.0
 10
15.591842393
 20
6.2705975711
 30
0.0
 10
15.5755887693
 20
6.2836247918
 30
0.0
 10
15.5618605134
 20
6.2980625645
 30
0.0
 10
15.5508896591
 20
6.3136734852
 30
0.0
 10
15.5428869467
 20
6.3302116781
 30
0.0
 10
15.5380206568
 20
6.3473805096
 30
0.0
 10
15.536923257
 20
6.359091165
 30
0.0
 10
15.536923257
 20
6.3648821038
 30
0.0
  0
SPLINE
  5
43A
100
AcDbEntity
  8
0
100
AcDbSpline
 62
7
  6
CONTINUOUS
 70
0
 71
3
 72
9
 73
5
 74
0
 42
0.0000001
 43
0.0000001
 44
0.0000000001
 40
0.0
 40
0.0
 40
0.0
 40
0.0
 40
0.246228682
 40
1.0
 40
1.0
 40
1.0
 40
1.0
 10
15.8181650069
 20
6.4796985674
 30
0.0
 10
15.8157597066
 20
6.4806805271
 30
0.0
 10
15.8059195582
 20
6.484491571
 30
0.0
 10
15.7958125827
 20
6.4876078864
 30
0.0
 10
15.7881069179
 20
6.4895768026
 30
0.0
  0
SPLINE
  5
43B
100
AcDbEntity
  8
0
100
AcDbSpline
 62
7
  6
CONTINUOUS
 70
0
 71
3
 72
9
 73
5
 74
0
 42
0.0000001
 43
0.0000001
 44
0.0000000001
 40
0.0
 40
0.0
 40
0.0
 40
0.0
 40
0.2536860281
 40
1.0
 40
1.0
 40
1.0
 40
1.0
 10
15.6613739989
 20
6.4897407701
 30
0.0
 10
15.6587242888
 20
6.4890714662
 30
0.0
 10
15.6483250342
 20
6.4862571155
 30
0.0
 10
15.63811407
 20
6.4827373893
 30
0.0
 10
15.630670507
 20
6.4796985674
 30
0.0
  0
SPLINE
  5
43C
100
AcDbEntity
  8
0
100
AcDbSpline
 62
7
  6
CONTINUOUS
 70
0
 71
3
 72
14
 73
10
 74
0
 42
0.0000001
 43
0.0000001
 44
0.0000000001
 40
0.0
 40
0.0
 40
0.0
 40
0.0
 40
0.2241854844
 40
0.3442661664
 40
0.4690182629
 40
0.5978730433
 40
0.7300518268
 40
0.8645725937
 40
1.0
 40
1.0
 40
1.0
 40
1.0
 10
15.6296962284
 20
6.3485495883
 30
0.0
 10
15.6346792585
 20
6.3424466477
 30
0.0
 10
15.6438175411
 20
6.3342263073
 30
0.0
 10
15.6578645728
 20
6.3255704399
 30
0.0
 10
15.6697765235
 20
6.3199680023
 30
0.0
 10
15.6826068964
 20
6.3155171308
 30
0.0
 10
15.6961491559
 20
6.3122784575
 30
0.0
 10
15.7101654101
 20
6.3103211852
 30
0.0
 10
15.7196582432
 20
6.3098796862
 30
0.0
 10
15.7244177569
 20
6.3098796862
 30
0.0
  0
SPLINE
  5
43D
100
AcDbEntity
  8
0
100
AcDbSpline
 62
7
  6
CONTINUOUS
 70
0
 71
3
 72
14
 73
10
 74
0
 42
0.0000001
 43
0.0000001
 44
0.0000000001
 40
0.0
 40
0.0
 40
0.0
 40
0.0
 40
0.1354274063
 40
0.2699481732
 40
0.4021269567
 40
0.5309817371
 40
0.6557338336
 40
0.7758145156
 40
1.0
 40
1.0
 40
1.0
 40
1.0
 10
15.7244177569
 20
6.3098796862
 30
0.0
 10
15.7291772707
 20
6.3098796862
 30
0.0
 10
15.7386701038
 20
6.3103211852
 30
0.0
 10
15.7526863579
 20
6.3122784575
 30
0.0
 10
15.7662286175
 20
6.3155171308
 30
0.0
 10
15.7790589904
 20
6.3199680023
 30
0.0
 10
15.790970941
 20
6.3255704399
 30
0.0
 10
15.8050179728
 20
6.3342263073
 30
0.0
 10
15.8141562554
 20
6.3424466477
 30
0.0
 10
15.8191392855
 20
6.3485495883
 30
0.0
  0
SPLINE
  5
43E
100
AcDbEntity
  8
0
100
AcDbSpline
 62
7
  6
CONTINUOUS
 70
0
 71
3
 72
15
 73
11
 74
0
 42
0.0000001
 43
0.0000001
 44
0.0000000001
 40
0.0
 40
0.0
 40
0.0
 40
0.0
 40
0.1311474841
 40
0.2573719437
 40
0.3797213992
 40
0.5
 40
0.6202786008
 40
0.7426280563
 40
0.8688525159
 40
1.0
 40
1.0
 40
1.0
 40
1.0
 10
15.8191392855
 20
6.3485495883
 30
0.0
 10
15.8214690906
 20
6.3514030052
 30
0.0
 10
15.8256402893
 20
6.357348426
 30
0.0
 10
15.8303132471
 20
6.3669900009
 30
0.0
 10
15.8331530588
 20
6.3770122247
 30
0.0
 10
15.8341091741
 20
6.3872194904
 30
0.0
 10
15.8331530588
 20
6.397426756
 30
0.0
 10
15.8303132471
 20
6.4074489799
 30
0.0
 10
15.8256402893
 20
6.4170905547
 30
0.0
 10
15.8214690906
 20
6.4230359756
 30
0.0
 10
15.8191392855
 20
6.4258893925
 30
0.0
  0
SPLINE
  5
43F
100
AcDbEntity
  8
0
100
AcDbSpline
 62
7
  6
CONTINUOUS
 70
0
 71
3
 72
9
 73
5
 74
0
 42
0.0000001
 43
0.0000001
 44
0.0000000001
 40
0.0
 40
0.0
 40
0.0
 40
0.0
 40
0.4834864193
 40
1.0
 40
1.0
 40
1.0
 40
1.0
 10
15.8191392855
 20
6.4258893925
 30
0.0
 10
15.8155797115
 20
6.4302489624
 30
0.0
 10
15.8072046842
 20
6.4384635782
 30
0.0
 10
15.7974748403
 20
6.4449698677
 30
0.0
 10
15.7922256964
 20
6.4479021665
 30
0.0
  0
SPLINE
  5
440
100
AcDbEntity
  8
0
100
AcDbSpline
 62
7
  6
CONTINUOUS
 70
0
 71
3
 72
15
 73
11
 74
0
 42
0.0000001
 43
0.0000001
 44
0.0000000001
 40
0.0
 40
0.0
 40
0.0
 40
0.0
 40
0.1311474841
 40
0.2573719437
 40
0.3797213992
 40
0.5
 40
0.6202786008
 40
0.7426280563
 40
0.8688525159
 40
1.0
 40
1.0
 40
1.0
 40
1.0
 10
15.6296962284
 20
6.4258893925
 30
0.0
 10
15.6273664232
 20
6.4230359756
 30
0.0
 10
15.6231952246
 20
6.4170905547
 30
0.0
 10
15.6185222668
 20
6.4074489799
 30
0.0
 10
15.6156824551
 20
6.397426756
 30
0.0
 10
15.6147263398
 20
6.3872194904
 30
0.0
 10
15.6156824551
 20
6.3770122247
 30
0.0
 10
15.6185222668
 20
6.3669900009
 30
0.0
 10
15.6231952246
 20
6.357348426
 30
0.0
 10
15.6273664232
 20
6.3514030052
 30
0.0
 10
15.6296962284
 20
6.3485495883
 30
0.0
  0
SPLINE
  5
441
100
AcDbEntity
  8
0
100
AcDbSpline
 62
7
  6
CONTINUOUS
 70
0
 71
3
 72
9
 73
5
 74
0
 42
0.0000001
 43
0.0000001
 44
0.0000000001
 40
0.0
 40
0.0
 40
0.0
 40
0.0
 40
0.5164830579
 40
1.0
 40
1.0
 40
1.0
 40
1.0
 10
15.6565401987
 20
6.4478632434
 30
0.0
 10
15.6513053826
 20
6.4449340751
 30
0.0
 10
15.641601683
 20
6.4384369827
 30
0.0
 10
15.6332479283
 20
6.4302393187
 30
0.0
 10
15.6296962284
 20
6.4258893925
 30
0.0
  0
SPLINE
  5
442
100
AcDbEntity
  8
0
100
AcDbSpline
 62
7
  6
CONTINUOUS
 70
0
 71
3
 72
14
 73
10
 74
0
 42
0.0000001
 43
0.0000001
 44
0.0000000001
 40
0.0
 40
0.0
 40
0.0
 40
0.0
 40
0.1164602241
 40
0.2338170881
 40
0.352943187
 40
0.4746607151
 40
0.5997119527
 40
0.7287282144
 40
1.0
 40
1.0
 40
1.0
 40
1.0
 10
15.4669254398
 20
11.611922389
 30
0.0
 10
15.4686693567
 20
11.6175676585
 30
0.0
 10
15.4715590994
 20
11.6291008127
 30
0.0
 10
15.4740287724
 20
11.6468684169
 30
0.0
 10
15.4746268544
 20
11.6650644654
 30
0.0
 10
15.4733581828
 20
11.6836141345
 30
0.0
 10
15.4702287097
 20
11.7024504111
 30
0.0
 10
15.4634791628
 20
11.7282622135
 30
0.0
 10
15.4558101587
 20
11.7471903693
 30
0.0
 10
15.4497470983
 20
11.7595455874
 30
0.0
  0
SPLINE
  5
443
100
AcDbEntity
  8
0
100
AcDbSpline
 62
7
  6
CONTINUOUS
 70
0
 71
3
 72
9
 73
5
 74
0
 42
0.0000001
 43
0.0000001
 44
0.0000000001
 40
0.0
 40
0.0
 40
0.0
 40
0.0
 40
0.2562908621
 40
1.0
 40
1.0
 40
1.0
 40
1.0
 10
14.46240472
 20
12.5064077164
 30
0.0
 10
14.4567389776
 20
12.5040939749
 30
0.0
 10
14.434766929
 20
12.4947423038
 30
0.0
 10
14.4133514214
 20
12.4840648371
 30
0.0
 10
14.3978905914
 20
12.475327218
 30
0.0
  0
SPLINE
  5
444
100
AcDbEntity
  8
0
100
AcDbSpline
 62
7
  6
CONTINUOUS
 70
0
 71
3
 72
9
 73
5
 74
0
 42
0.0000001
 43
0.0000001
 44
0.0000000001
 40
0.0
 40
0.0
 40
0.0
 40
0.0
 40
0.2463625196
 40
1.0
 40
1.0
 40
1.0
 40
1.0
 10
15.6875533761
 20
11.7903953881
 30
0.0
 10
15.6872974143
 20
11.7903952754
 30
0.0
 10
15.6862586119
 20
11.7904333919
 30
0.0
 10
15.6852270553
 20
11.7906291713
 30
0.0
 10
15.6844763357
 20
11.7908516853
 30
0.0
  0
SPLINE
  5
445
100
AcDbEntity
  8
0
100
AcDbSpline
 62
7
  6
CONTINUOUS
 70
0
 71
3
 72
9
 73
5
 74
0
 42
0.0000001
 43
0.0000001
 44
0.0000000001
 40
0.0
 40
0.0
 40
0.0
 40
0.0
 40
0.4570902978
 40
1.0
 40
1.0
 40
1.0
 40
1.0
 10
15.6834146668
 20
11.7912203197
 30
0.0
 10
15.6820032011
 20
11.7917819581
 30
0.0
 10
15.679128247
 20
11.7935484813
 30
0.0
 10
15.6767557514
 20
11.7959027918
 30
0.0
 10
15.6755687683
 20
11.7972616993
 30
0.0
  0
SPLINE
  5
446
100
AcDbEntity
  8
0
100
AcDbSpline
 62
7
  6
CONTINUOUS
 70
0
 71
3
 72
9
 73
5
 74
0
 42
0.0000001
 43
0.0000001
 44
0.0000000001
 40
0.0
 40
0.0
 40
0.0
 40
0.0
 40
0.4596956396
 40
1.0
 40
1.0
 40
1.0
 40
1.0
 10
15.6755687683
 20
11.7972616993
 30
0.0
 10
15.6739604652
 20
11.7991029514
 30
0.0
 10
15.6708536524
 20
11.8034495926
 30
0.0
 10
15.6683050265
 20
11.8081270359
 30
0.0
 10
15.6670391475
 20
11.8107066262
 30
0.0
  0
SPLINE
  5
447
100
AcDbEntity
  8
0
100
AcDbSpline
 62
7
  6
CONTINUOUS
 70
0
 71
3
 72
19
 73
15
 74
0
 42
0.0000001
 43
0.0000001
 44
0.0000000001
 40
0.0
 40
0.0
 40
0.0
 40
0.0
 40
0.0526913773
 40
0.1062366436
 40
0.161063002
 40
0.217535114
 40
0.275902064
 40
0.3363065521
 40
0.4629259007
 40
0.5962270859
 40
0.7330686436
 40
0.8692234045
 40
0.9356483613
 40
1.0
 40
1.0
 40
1.0
 40
1.0
 10
14.8980177207
 20
12.3581755906
 30
0.0
 10
14.8987075484
 20
12.3552626414
 30
0.0
 10
14.8996126209
 20
12.3492635787
 30
0.0
 10
14.8995166367
 20
12.3400773574
 30
0.0
 10
14.897957898
 20
12.3308056336
 30
0.0
 10
14.8949737859
 20
12.3216060573
 30
0.0
 10
14.8906119037
 20
12.3126227356
 30
0.0
 10
14.8829461434
 20
12.3009396745
 30
0.0
 10
14.8702869027
 20
12.2876388643
 30
0.0
 10
14.8516814808
 20
12.2746890653
 30
0.0
 10
14.8306105956
 20
12.264999494
 30
0.0
 10
14.8119053784
 20
12.2599215198
 30
0.0
 10
14.7968674362
 20
12.2578509344
 30
0.0
 10
14.7894336777
 20
12.2574887909
 30
0.0
 10
14.7857777164
 20
12.2574887909
 30
0.0
  0
SPLINE
  5
448
100
AcDbEntity
  8
0
100
AcDbSpline
 62
7
  6
CONTINUOUS
 70
0
 71
3
 72
15
 73
11
 74
0
 42
0.0000001
 43
0.0000001
 44
0.0000000001
 40
0.0
 40
0.0
 40
0.0
 40
0.0
 40
0.1164344034
 40
0.2337725971
 40
0.3528785352
 40
0.4745664521
 40
0.5995740968
 40
0.7285418639
 40
0.8619206375
 40
1.0
 40
1.0
 40
1.0
 40
1.0
 10
15.7529324211
 20
11.7965324924
 30
0.0
 10
15.7554398184
 20
11.8046473424
 30
0.0
 10
15.7595920583
 20
11.8212272789
 30
0.0
 10
15.7631391202
 20
11.8467692678
 30
0.0
 10
15.7640020812
 20
11.8729264511
 30
0.0
 10
15.7621764264
 20
11.8995909956
 30
0.0
 10
15.757679793
 20
11.9266632017
 30
0.0
 10
15.7505244122
 20
11.954036167
 30
0.0
 10
15.7407544105
 20
11.9815964535
 30
0.0
 10
15.7326738217
 20
11.9996992309
 30
0.0
 10
15.7282365399
 20
12.0087414605
 30
0.0
  0
SPLINE
  5
449
100
AcDbEntity
  8
0
100
AcDbSpline
 62
7
  6
CONTINUOUS
 70
0
 71
3
 72
11
 73
7
 74
0
 42
0.0000001
 43
0.0000001
 44
0.0000000001
 40
0.0
 40
0.0
 40
0.0
 40
0.0
 40
0.2464955513
 40
0.4944057077
 40
0.7451372819
 40
1.0
 40
1.0
 40
1.0
 40
1.0
 10
13.9699909206
 20
12.3775376756
 30
0.0
 10
13.9660248029
 20
12.364703314
 30
0.0
 10
13.9593787723
 20
12.3385357555
 30
0.0
 10
13.9534067793
 20
12.2983033606
 30
0.0
 10
13.9514272883
 20
12.2572239136
 30
0.0
 10
13.9527499969
 20
12.2296548425
 30
0.0
 10
13.954045726
 20
12.2158262285
 30
0.0
  0
SPLINE
  5
44A
100
AcDbEntity
  8
0
100
AcDbSpline
 62
7
  6
CONTINUOUS
 70
0
 71
3
 72
15
 73
11
 74
0
 42
0.0000001
 43
0.0000001
 44
0.0000000001
 40
0.0
 40
0.0
 40
0.0
 40
0.0
 40
0.1242574412
 40
0.2531490526
 40
0.3844921408
 40
0.5159466171
 40
0.645113174
 40
0.7698281353
 40
0.8884507985
 40
1.0
 40
1.0
 40
1.0
 40
1.0
 10
16.8266847127
 20
12.1118048574
 30
0.0
 10
16.8363170804
 20
12.1118048574
 30
0.0
 10
16.8559685088
 20
12.1134790289
 30
0.0
 10
16.8850414413
 20
12.1204889184
 30
0.0
 10
16.913334082
 20
12.1317914163
 30
0.0
 10
16.9397820446
 20
12.1469533223
 30
0.0
 10
16.9633978072
 20
12.1654172215
 30
0.0
 10
16.9833034611
 20
12.186502991
 30
0.0
 10
16.9987348709
 20
12.2094325919
 30
0.0
 10
17.0058702835
 20
12.2259379413
 30
0.0
 10
17.008423356
 20
12.234199687
 30
0.0
  0
SPLINE
  5
44B
100
AcDbEntity
  8
0
100
AcDbSpline
 62
7
  6
CONTINUOUS
 70
0
 71
3
 72
11
 73
7
 74
0
 42
0.0000001
 43
0.0000001
 44
0.0000000001
 40
0.0
 40
0.0
 40
0.0
 40
0.0
 40
0.2648332867
 40
0.5171941196
 40
0.7604841373
 40
1.0
 40
1.0
 40
1.0
 40
1.0
 10
17.008423356
 20
12.234199687
 30
0.0
 10
17.0104211635
 20
12.2406645945
 30
0.0
 10
17.0132543774
 20
12.2536607371
 30
0.0
 10
17.0136532293
 20
12.2732195439
 30
0.0
 10
17.0100250468
 20
12.2917990663
 30
0.0
 10
17.0049590093
 20
12.3031832237
 30
0.0
 10
17.0018562261
 20
12.3084580055
 30
0.0
  0
SPLINE
  5
44C
100
AcDbEntity
  8
0
100
AcDbSpline
 62
7
  6
CONTINUOUS
 70
0
 71
3
 72
15
 73
11
 74
0
 42
0.0000001
 43
0.0000001
 44
0.0000000001
 40
0.0
 40
0.0
 40
0.0
 40
0.0
 40
0.1164355757
 40
0.2337743067
 40
0.352880517
 40
0.4745683052
 40
0.599575201
 40
0.7285416981
 40
0.8619200682
 40
1.0
 40
1.0
 40
1.0
 40
1.0
 10
14.3085595365
 20
11.9913378056
 30
0.0
 10
14.3060520416
 20
11.9832228926
 30
0.0
 10
14.301899784
 20
11.9666428113
 30
0.0
 10
14.2983529653
 20
11.9411006359
 30
0.0
 10
14.2974900122
 20
11.9149433959
 30
0.0
 10
14.2993157737
 20
11.8882788881
 30
0.0
 10
14.3038124448
 20
11.8612068418
 30
0.0
 10
14.3109676889
 20
11.8338340111
 30
0.0
 10
14.3207377424
 20
11.8062738116
 30
0.0
 10
14.328818368
 20
11.7881710308
 30
0.0
 10
14.3332556699
 20
11.7791287601
 30
0.0
  0
SPLINE
  5
44D
100
AcDbEntity
  8
0
100
AcDbSpline
 62
7
  6
CONTINUOUS
 70
0
 71
3
 72
15
 73
11
 74
0
 42
0.0000001
 43
0.0000001
 44
0.0000000001
 40
0.0
 40
0.0
 40
0.0
 40
0.0
 40
0.1486322889
 40
0.289508948
 40
0.4226998245
 40
0.5485876283
 40
0.6679299858
 40
0.7818741662
 40
0.8919482848
 40
1.0
 40
1.0
 40
1.0
 40
1.0
 10
15.4019547118
 20
11.3526745876
 30
0.0
 10
15.4197392528
 20
11.3568575863
 30
0.0
 10
15.4540707087
 20
11.366428869
 30
0.0
 10
15.5026769716
 20
11.3850159075
 30
0.0
 10
15.5466146742
 20
11.4072928685
 30
0.0
 10
15.58546578
 20
11.4330860378
 30
0.0
 10
15.6188596393
 20
11.4621774096
 30
0.0
 10
15.646454237
 20
11.4943292615
 30
0.0
 10
15.6679347547
 20
11.5292393075
 30
0.0
 10
15.6780558868
 20
11.5542300183
 30
0.0
 10
15.6819769822
 20
11.5669197146
 30
0.0
  0
SPLINE
  5
44E
100
AcDbEntity
  8
0
100
AcDbSpline
 62
7
  6
CONTINUOUS
 70
0
 71
3
 72
23
 73
19
 74
0
 42
0.0000001
 43
0.0000001
 44
0.0000000001
 40
0.0
 40
0.0
 40
0.0
 40
0.0
 40
0.0555748088
 40
0.1137463391
 40
0.1742691048
 40
0.2368391909
 40
0.3011009941
 40
0.3666646578
 40
0.4331102574
 40
0.5000019254
 40
0.5668932982
 40
0.6333397377
 40
0.6989038033
 40
0.7631663018
 40
0.8257347312
 40
0.8862580024
 40
0.94442996
 40
1.0
 40
1.0
 40
1.0
 40
1.0
 10
15.3817573
 20
11.3479247505
 30
0.0
 10
15.3631307706
 20
11.3435449619
 30
0.0
 10
15.3245946122
 20
11.3362709855
 30
0.0
 10
15.2648888237
 20
11.3298126002
 30
0.0
 10
15.2024671753
 20
11.3275919012
 30
0.0
 10
15.1379477494
 20
11.3296408114
 30
0.0
 10
15.0719621873
 20
11.3359275704
 30
0.0
 10
15.0051616293
 20
11.3463988283
 30
0.0
 10
14.9382034763
 20
11.3609457145
 30
0.0
 10
14.8717486391
 20
11.379426177
 30
0.0
 10
14.8064537059
 20
11.401660618
 30
0.0
 10
14.7429608892
 20
11.4274234981
 30
0.0
 10
14.6819003362
 20
11.4564692066
 30
0.0
 10
14.6238700933
 20
11.4885017514
 30
0.0
 10
14.5694454742
 20
11.5232134119
 30
0.0
 10
14.519158592
 20
11.5602618923
 30
0.0
 10
14.4735081763
 20
11.5992794153
 30
0.0
 10
14.4457935988
 20
11.6270234631
 30
0.0
 10
14.4328870391
 20
11.6411474862
 30
0.0
  0
SPLINE
  5
44F
100
AcDbEntity
  8
0
100
AcDbSpline
 62
7
  6
CONTINUOUS
 70
0
 71
3
 72
9
 73
5
 74
0
 42
0.0000001
 43
0.0000001
 44
0.0000000001
 40
0.0
 40
0.0
 40
0.0
 40
0.0
 40
0.5128157843
 40
1.0
 40
1.0
 40
1.0
 40
1.0
 10
16.9619044435
 20
12.247739977
 30
0.0
 10
16.9702357035
 20
12.247739977
 30
0.0
 10
16.9865074995
 20
12.246611025
 30
0.0
 10
17.0024266781
 20
12.2429627299
 30
0.0
 10
17.0099521207
 20
12.2405106873
 30
0.0
  0
SPLINE
  5
450
100
AcDbEntity
  8
0
100
AcDbSpline
 62
7
  6
CONTINUOUS
 70
0
 71
3
 72
15
 73
11
 74
0
 42
0.0000001
 43
0.0000001
 44
0.0000000001
 40
0.0
 40
0.0
 40
0.0
 40
0.0
 40
0.1126059642
 40
0.2319198779
 40
0.356955076
 40
0.4860569866
 40
0.6171464894
 40
0.7479416152
 40
0.8762482023
 40
1.0
 40
1.0
 40
1.0
 40
1.0
 10
16.6265866063
 20
12.1229490254
 30
0.0
 10
16.6296373968
 20
12.1314897313
 30
0.0
 10
16.6377379802
 20
12.1484657921
 30
0.0
 10
16.654541603
 20
12.1719438473
 30
0.0
 10
16.6757472418
 20
12.1934381508
 30
0.0
 10
16.7005921389
 20
12.2121936926
 30
0.0
 10
16.7281957115
 20
12.2275524637
 30
0.0
 10
16.7575798421
 20
12.2389785613
 30
0.0
 10
16.7876939115
 20
12.2460534892
 30
0.0
 10
16.8080217502
 20
12.247739977
 30
0.0
 10
16.8179886631
 20
12.247739977
 30
0.0
  0
SPLINE
  5
451
100
AcDbEntity
  8
0
100
AcDbSpline
 62
7
  6
CONTINUOUS
 70
0
 71
3
 72
23
 73
19
 74
0
 42
0.0000001
 43
0.0000001
 44
0.0000000001
 40
0.0
 40
0.0
 40
0.0
 40
0.0
 40
0.0620539783
 40
0.1240852637
 40
0.1861059558
 40
0.2481466621
 40
0.3102468009
 40
0.3724740466
 40
0.4349041325
 40
0.4976155186
 40
0.5606307319
 40
0.6238613543
 40
0.6871320145
 40
0.7502507355
 40
0.813082617
 40
0.8756030105
 40
0.9378884658
 40
1.0
 40
1.0
 40
1.0
 40
1.0
 10
15.7826224401
 20
13.1634774711
 30
0.0
 10
15.7839134719
 20
13.1676552514
 30
0.0
 10
15.78738857
 20
13.1757641051
 30
0.0
 10
15.7950712402
 20
13.186513785
 30
0.0
 10
15.8048936399
 20
13.1953591418
 30
0.0
 10
15.8163919507
 20
13.2018829983
 30
0.0
 10
15.8290206184
 20
13.2058255828
 30
0.0
 10
15.8422102154
 20
13.2070973535
 30
0.0
 10
15.8554265862
 20
13.2057284954
 30
0.0
 10
15.8681914303
 20
13.2018698539
 30
0.0
 10
15.8800907787
 20
13.195737715
 30
0.0
 10
15.8907554499
 20
13.1875868066
 30
0.0
 10
15.8998515462
 20
13.1777071549
 30
0.0
 10
15.9070762255
 20
13.1664176603
 30
0.0
 10
15.9121524787
 20
13.154065637
 30
0.0
 10
15.9148426532
 20
13.1410369946
 30
0.0
 10
15.9149587869
 20
13.1277834612
 30
0.0
 10
15.9132518277
 20
13.1191096317
 30
0.0
 10
15.9119595984
 20
13.1149279764
 30
0.0
  0
SPLINE
  5
452
100
AcDbEntity
  8
0
100
AcDbSpline
 62
7
  6
CONTINUOUS
 70
0
 71
3
 72
11
 73
7
 74
0
 42
0.0000001
 43
0.0000001
 44
0.0000000001
 40
0.0
 40
0.0
 40
0.0
 40
0.0
 40
0.2498869799
 40
0.4996532801
 40
0.749564577
 40
1.0
 40
1.0
 40
1.0
 40
1.0
 10
15.9119595984
 20
13.1149279764
 30
0.0
 10
15.9100585644
 20
13.1087762279
 30
0.0
 10
15.9042935787
 20
13.0969814944
 30
0.0
 10
15.890536333
 20
13.0829646475
 30
0.0
 10
15.8730647671
 20
13.0739807545
 30
0.0
 10
15.8601121512
 20
13.0718568072
 30
0.0
 10
15.8536600328
 20
13.071755375
 30
0.0
  0
SPLINE
  5
453
100
AcDbEntity
  8
0
100
AcDbSpline
 62
7
  6
CONTINUOUS
 70
0
 71
3
 72
15
 73
11
 74
0
 42
0.0000001
 43
0.0000001
 44
0.0000000001
 40
0.0
 40
0.0
 40
0.0
 40
0.0
 40
0.1126059642
 40
0.2319198779
 40
0.356955076
 40
0.4860569866
 40
0.6171464894
 40
0.7479416152
 40
0.8762482023
 40
1.0
 40
1.0
 40
1.0
 40
1.0
 10
13.7482710001
 20
12.1229490254
 30
0.0
 10
13.7513217905
 20
12.1314897313
 30
0.0
 10
13.759422374
 20
12.1484657921
 30
0.0
 10
13.7762259967
 20
12.1719438473
 30
0.0
 10
13.7974316356
 20
12.1934381508
 30
0.0
 10
13.8222765326
 20
12.2121936926
 30
0.0
 10
13.8498801053
 20
12.2275524637
 30
0.0
 10
13.8792642358
 20
12.2389785613
 30
0.0
 10
13.9093783052
 20
12.2460534892
 30
0.0
 10
13.929706144
 20
12.247739977
 30
0.0
 10
13.9396730569
 20
12.247739977
 30
0.0
  0
SPLINE
  5
454
100
AcDbEntity
  8
0
100
AcDbSpline
 62
7
  6
CONTINUOUS
 70
0
 71
3
 72
11
 73
7
 74
0
 42
0.0000001
 43
0.0000001
 44
0.0000000001
 40
0.0
 40
0.0
 40
0.0
 40
0.0
 40
0.2620384057
 40
0.5142342466
 40
0.7590518763
 40
1.0
 40
1.0
 40
1.0
 40
1.0
 10
13.4976021124
 20
12.2301201545
 30
0.0
 10
13.4942306764
 20
12.2192101838
 30
0.0
 10
13.4892900818
 20
12.1972258644
 30
0.0
 10
13.4878209055
 20
12.1639956671
 30
0.0
 10
13.4926047636
 20
12.131988959
 30
0.0
 10
13.4999673085
 20
12.1119530683
 30
0.0
 10
13.5045929875
 20
12.1025269255
 30
0.0
  0
SPLINE
  5
455
100
AcDbEntity
  8
0
100
AcDbSpline
 62
7
  6
CONTINUOUS
 70
0
 71
3
 72
15
 73
11
 74
0
 42
0.0000001
 43
0.0000001
 44
0.0000000001
 40
0.0
 40
0.0
 40
0.0
 40
0.0
 40
0.1252839301
 40
0.2541479791
 40
0.3847642113
 40
0.5151783332
 40
0.643415604
 40
0.7677299526
 40
0.8868209469
 40
1.0
 40
1.0
 40
1.0
 40
1.0
 10
13.8063222215
 20
12.449042502
 30
0.0
 10
13.7899169952
 20
12.4482044326
 30
0.0
 10
13.7567274469
 20
12.4439240958
 30
0.0
 10
13.707951531
 20
12.4304699223
 30
0.0
 10
13.6608008855
 20
12.4103215505
 30
0.0
 10
13.616807165
 20
12.3841478062
 30
0.0
 10
13.5773969159
 20
12.35277511
 30
0.0
 10
13.5438490173
 20
12.3171847066
 30
0.0
 10
13.5172869044
 20
12.2784765188
 30
0.0
 10
13.504521646
 20
12.2506039081
 30
0.0
 10
13.499704784
 20
12.2365679472
 30
0.0
  0
SPLINE
  5
456
100
AcDbEntity
  8
0
100
AcDbSpline
 62
7
  6
CONTINUOUS
 70
0
 71
3
 72
15
 73
11
 74
0
 42
0.0000001
 43
0.0000001
 44
0.0000000001
 40
0.0
 40
0.0
 40
0.0
 40
0.0
 40
0.1132079275
 40
0.2273915317
 40
0.3441542682
 40
0.4648374259
 40
0.5903798779
 40
0.7213829529
 40
0.8580799072
 40
1.0
 40
1.0
 40
1.0
 40
1.0
 10
13.6995045704
 20
12.170994893
 30
0.0
 10
13.7012975095
 20
12.1665138966
 30
0.0
 10
13.7057093742
 20
12.1578131354
 30
0.0
 10
13.7146117426
 20
12.1460591772
 30
0.0
 10
13.7256289338
 20
12.1357879624
 30
0.0
 10
13.738563638
 20
12.1271772935
 30
0.0
 10
13.753187337
 20
12.1203516372
 30
0.0
 10
13.7692612174
 20
12.1154146134
 30
0.0
 10
13.7865123592
 20
12.1124452733
 30
0.0
 10
13.7984028619
 20
12.1118048574
 30
0.0
 10
13.8044533261
 20
12.1118048574
 30
0.0
  0
SPLINE
  5
457
100
AcDbEntity
  8
0
100
AcDbSpline
 62
7
  6
CONTINUOUS
 70
0
 71
3
 72
15
 73
11
 74
0
 42
0.0000001
 43
0.0000001
 44
0.0000000001
 40
0.0
 40
0.0
 40
0.0
 40
0.0
 40
0.1132079275
 40
0.2273915317
 40
0.3441542682
 40
0.4648374259
 40
0.5903798779
 40
0.7213829529
 40
0.8580799072
 40
1.0
 40
1.0
 40
1.0
 40
1.0
 10
16.5778201767
 20
12.170994893
 30
0.0
 10
16.5796131158
 20
12.1665138966
 30
0.0
 10
16.5840249804
 20
12.1578131354
 30
0.0
 10
16.5929273489
 20
12.1460591772
 30
0.0
 10
16.6039445401
 20
12.1357879624
 30
0.0
 10
16.6168792442
 20
12.1271772935
 30
0.0
 10
16.6315029432
 20
12.1203516372
 30
0.0
 10
16.6475768237
 20
12.1154146134
 30
0.0
 10
16.6648279655
 20
12.1124452733
 30
0.0
 10
16.6767184682
 20
12.1118048574
 30
0.0
 10
16.6827689324
 20
12.1118048574
 30
0.0
  0
SPLINE
  5
458
100
AcDbEntity
  8
0
100
AcDbSpline
 62
7
  6
CONTINUOUS
 70
0
 71
3
 72
15
 73
11
 74
0
 42
0.0000001
 43
0.0000001
 44
0.0000000001
 40
0.0
 40
0.0
 40
0.0
 40
0.0
 40
0.1153154897
 40
0.2317742276
 40
0.3503935047
 40
0.472090422
 40
0.5975555219
 40
0.7272573311
 40
0.8614763208
 40
1.0
 40
1.0
 40
1.0
 40
1.0
 10
17.209816824
 20
12.3503321993
 30
0.0
 10
17.2062323431
 20
12.3576366034
 30
0.0
 10
17.197828394
 20
12.3717618862
 30
0.0
 10
17.1819267727
 20
12.3908179461
 30
0.0
 10
17.1629621655
 20
12.407517371
 30
0.0
 10
17.1412535232
 20
12.4216320726
 30
0.0
 10
17.1171361192
 20
12.4330106252
 30
0.0
 10
17.0909451015
 20
12.4415335215
 30
0.0
 10
17.0630451537
 20
12.4471185902
 30
0.0
 10
17.0438362898
 20
12.4488381751
 30
0.0
 10
17.034069741
 20
12.4492210686
 30
0.0
  0
SPLINE
  5
459
100
AcDbEntity
  8
0
100
AcDbSpline
 62
7
  6
CONTINUOUS
 70
0
 71
3
 72
11
 73
7
 74
0
 42
0.0000001
 43
0.0000001
 44
0.0000000001
 40
0.0
 40
0.0
 40
0.0
 40
0.0
 40
0.2725449834
 40
0.5266931306
 40
0.765526469
 40
1.0
 40
1.0
 40
1.0
 40
1.0
 10
17.4488050879
 20
12.6748050135
 30
0.0
 10
17.4499808265
 20
12.6748050131
 30
0.0
 10
17.452260228
 20
12.6746341475
 30
0.0
 10
17.4554615212
 20
12.6737008209
 30
0.0
 10
17.4581515895
 20
12.6719812134
 30
0.0
 10
17.4594003446
 20
12.6702961899
 30
0.0
 10
17.4598459541
 20
12.6693881333
 30
0.0
  0
SPLINE
  5
45A
100
AcDbEntity
  8
0
100
AcDbSpline
 62
7
  6
CONTINUOUS
 70
0
 71
3
 72
39
 73
35
 74
0
 42
0.0000001
 43
0.0000001
 44
0.0000000001
 40
0.0
 40
0.0
 40
0.0
 40
0.0
 40
0.0302431266
 40
0.0615568385
 40
0.0938589802
 40
0.127077611
 40
0.1611338459
 40
0.1959269204
 40
0.2313458431
 40
0.2672719718
 40
0.3035815701
 40
0.3401448051
 40
0.3768290918
 40
0.4135003163
 40
0.4500244475
 40
0.4862696023
 40
0.522106661
 40
0.5574126177
 40
0.5920701393
 40
0.6259720968
 40
0.6590203129
 40
0.6911312632
 40
0.7222342945
 40
0.7522782948
 40
0.7812298127
 40
0.8090800054
 40
0.8358432926
 40
0.8615627637
 40
0.8863102859
 40
0.9101877807
 40
0.9333281677
 40
0.9558862087
 40
0.9780430468
 40
1.0
 40
1.0
 40
1.0
 40
1.0
 10
16.3010053236
 20
13.1747480678
 30
0.0
 10
16.2853928357
 20
13.1923344848
 30
0.0
 10
16.2524007503
 20
13.2270669559
 30
0.0
 10
16.1989673068
 20
13.2768391395
 30
0.0
 10
16.1409877881
 20
13.3249429586
 30
0.0
 10
16.0787953626
 20
13.3711263157
 30
0.0
 10
16.0127179455
 20
13.4151494159
 30
0.0
 10
15.9431153731
 20
13.4567908741
 30
0.0
 10
15.8703613203
 20
13.4958176778
 30
0.0
 10
15.794857427
 20
13.532029534
 30
0.0
 10
15.7170113918
 20
13.5652228308
 30
0.0
 10
15.6372518678
 20
13.5952270024
 30
0.0
 10
15.5560115928
 20
13.6218692457
 30
0.0
 10
15.4737380129
 20
13.6450134818
 30
0.0
 10
15.3908781215
 20
13.6645234641
 30
0.0
 10
15.3078868153
 20
13.6803013177
 30
0.0
 10
15.2252143013
 20
13.6922498575
 30
0.0
 10
15.1433118007
 20
13.7003116234
 30
0.0
 10
15.0626215204
 20
13.7044299354
 30
0.0
 10
14.9835797504
 20
13.7045881507
 30
0.0
 10
14.9066099491
 20
13.7007695476
 30
0.0
 10
14.8321229549
 20
13.6929965305
 30
0.0
 10
14.7605140155
 20
13.6812897239
 30
0.0
 10
14.692159968
 20
13.6657062576
 30
0.0
 10
14.6274215917
 20
13.6462993457
 30
0.0
 10
14.5666379632
 20
13.623154439
 30
0.0
 10
14.5101363264
 20
13.5963518078
 30
0.0
 10
14.458222818
 20
13.566002008
 30
0.0
 10
14.4112023012
 20
13.5322134683
 30
0.0
 10
14.3693606568
 20
13.4951310753
 30
0.0
 10
14.3329993576
 20
13.454913127
 30
0.0
 10
14.3023807087
 20
13.4117814901
 30
0.0
 10
14.2777871321
 20
13.3659935311
 30
0.0
 10
14.2655113902
 20
13.333842266
 30
0.0
 10
14.2604705087
 20
13.3175299672
 30
0.0
  0
SPLINE
  5
45B
100
AcDbEntity
  8
0
100
AcDbSpline
 62
7
  6
CONTINUOUS
 70
0
 71
3
 72
9
 73
5
 74
0
 42
0.0000001
 43
0.0000001
 44
0.0000000001
 40
0.0
 40
0.0
 40
0.0
 40
0.0
 40
0.4931383102
 40
1.0
 40
1.0
 40
1.0
 40
1.0
 10
13.601840577
 20
12.6748050137
 30
0.0
 10
13.6017268014
 20
12.6748050133
 30
0.0
 10
13.6014799762
 20
12.6747508727
 30
0.0
 10
13.6013523726
 20
12.6745311041
 30
0.0
 10
13.6013178345
 20
12.6744193789
 30
0.0
  0
SPLINE
  5
45C
100
AcDbEntity
  8
0
100
AcDbSpline
 62
7
  6
CONTINUOUS
 70
0
 71
3
 72
11
 73
7
 74
0
 42
0.0000001
 43
0.0000001
 44
0.0000000001
 40
0.0
 40
0.0
 40
0.0
 40
0.0
 40
0.273002677
 40
0.5305522871
 40
0.7721257431
 40
1.0
 40
1.0
 40
1.0
 40
1.0
 10
13.3001873094
 20
11.6999606425
 30
0.0
 10
13.2999199398
 20
11.6990954934
 30
0.0
 10
13.2994976718
 20
11.6973810363
 30
0.0
 10
13.2992592999
 20
11.6948193017
 30
0.0
 10
13.2994863615
 20
11.6924022523
 30
0.0
 10
13.2999871597
 20
11.6909080336
 30
0.0
 10
13.3003201374
 20
11.6902294963
 30
0.0
  0
SPLINE
  5
45D
100
AcDbEntity
  8
0
100
AcDbSpline
 62
7
  6
CONTINUOUS
 70
0
 71
3
 72
34
 73
30
 74
0
 42
0.0000001
 43
0.0000001
 44
0.0000000001
 40
0.0
 40
0.0
 40
0.0
 40
0.0
 40
0.0265218085
 40
0.0543742585
 40
0.0835432635
 40
0.1140019114
 40
0.1457060197
 40
0.1785796729
 40
0.2473774009
 40
0.3194092939
 40
0.3934616887
 40
0.4682037628
 40
0.5422671794
 40
0.5786360903
 40
0.614344112
 40
0.649242769
 40
0.6831981902
 40
0.716088713
 40
0.7478148763
 40
0.7782956918
 40
0.8074793012
 40
0.8353423759
 40
0.8618975751
 40
0.8871987504
 40
0.9113428232
 40
0.9344780273
 40
0.9567986503
 40
0.9785472904
 40
1.0
 40
1.0
 40
1.0
 40
1.0
 10
15.4497470983
 20
11.7595455874
 30
0.0
 10
15.4454422665
 20
11.7683179122
 30
0.0
 10
15.4356998837
 20
11.7858634278
 30
0.0
 10
15.4184031584
 20
11.811366265
 30
0.0
 10
15.3981798992
 20
11.8365059818
 30
0.0
 10
15.3751806911
 20
11.8611078777
 30
0.0
 10
15.3495580286
 20
11.885010788
 30
0.0
 10
15.3115558105
 20
11.9162085839
 30
0.0
 10
15.2585293339
 20
11.9523064185
 30
0.0
 10
15.1886511845
 20
11.9897957707
 30
0.0
 10
15.1134227002
 20
12.0211164079
 30
0.0
 10
15.0348709631
 20
12.0454226602
 30
0.0
 10
14.967970565
 20
12.0593827102
 30
0.0
 10
14.9145736001
 20
12.066450188
 30
0.0
 10
14.8752700194
 20
12.0696336738
 30
0.0
 10
14.8367414233
 20
12.0707021888
 30
0.0
 10
14.7992487592
 20
12.0696580781
 30
0.0
 10
14.7630461218
 20
12.066497704
 30
0.0
 10
14.7283781878
 20
12.0612511463
 30
0.0
 10
14.6954794728
 20
12.0539451397
 30
0.0
 10
14.6645715652
 20
12.0446314031
 30
0.0
 10
14.6358624367
 20
12.0333685088
 30
0.0
 10
14.6095479058
 20
12.0202246472
 30
0.0
 10
14.5858038714
 20
12.0052881224
 30
0.0
 10
14.5648016078
 20
11.9886422588
 30
0.0
 10
14.5466837783
 20
11.9704027561
 30
0.0
 10
14.5315971888
 20
11.9506750644
 30
0.0
 10
14.5196534133
 20
11.9296088656
 30
0.0
 10
14.5138406627
 20
11.9147206641
 30
0.0
 10
14.5115077628
 20
11.9071687857
 30
0.0
  0
SPLINE
  5
45E
100
AcDbEntity
  8
0
100
AcDbSpline
 62
7
  6
CONTINUOUS
 70
0
 71
3
 72
9
 73
5
 74
0
 42
0.0000001
 43
0.0000001
 44
0.0000000001
 40
0.0
 40
0.0
 40
0.0
 40
0.0
 40
0.2363354372
 40
1.0
 40
1.0
 40
1.0
 40
1.0
 10
15.6670391475
 20
11.8107066262
 30
0.0
 10
15.6666235833
 20
11.811553457
 30
0.0
 10
15.6649170184
 20
11.8151619987
 30
0.0
 10
15.6634032446
 20
11.8188601892
 30
0.0
 10
15.6623335709
 20
11.8217143939
 30
0.0
  0
SPLINE
  5
45F
100
AcDbEntity
  8
0
100
AcDbSpline
 62
7
  6
CONTINUOUS
 70
0
 71
3
 72
17
 73
13
 74
0
 42
0.0000001
 43
0.0000001
 44
0.0000000001
 40
0.0
 40
0.0
 40
0.0
 40
0.0
 40
0.1210803362
 40
0.2547631693
 40
0.3951289925
 40
0.5359674642
 40
0.6713843813
 40
0.796188184
 40
0.8533492893
 40
0.9064793233
 40
0.95537399
 40
1.0
 40
1.0
 40
1.0
 40
1.0
 10
15.6623335709
 20
11.8217143939
 30
0.0
 10
15.660192644
 20
11.8274270181
 30
0.0
 10
15.6564020314
 20
11.8397184393
 30
0.0
 10
15.6522762025
 20
11.8592176974
 30
0.0
 10
15.6497175354
 20
11.87999215
 30
0.0
 10
15.6490608513
 20
11.901006815
 30
0.0
 10
15.6505221775
 20
11.9212003694
 30
0.0
 10
15.6536437516
 20
11.9369450901
 30
0.0
 10
15.6573311643
 20
11.9482153259
 30
0.0
 10
15.6605077423
 20
11.9555944078
 30
0.0
 10
15.6641295555
 20
11.9620509807
 30
0.0
 10
15.6669270948
 20
11.9658639246
 30
0.0
 10
15.6683924838
 20
11.9675692967
 30
0.0
  0
SPLINE
  5
460
100
AcDbEntity
  8
0
100
AcDbSpline
 62
7
  6
CONTINUOUS
 70
0
 71
3
 72
9
 73
5
 74
0
 42
0.0000001
 43
0.0000001
 44
0.0000000001
 40
0.0
 40
0.0
 40
0.0
 40
0.0
 40
0.5290047064
 40
1.0
 40
1.0
 40
1.0
 40
1.0
 10
15.6683924838
 20
11.9675692967
 30
0.0
 10
15.6700400556
 20
11.9694866874
 30
0.0
 10
15.6734773738
 20
11.9728562033
 30
0.0
 10
15.6776121469
 20
11.9753718251
 30
0.0
 10
15.6796859645
 20
11.9762466916
 30
0.0
  0
SPLINE
  5
461
100
AcDbEntity
  8
0
100
AcDbSpline
 62
7
  6
CONTINUOUS
 70
0
 71
3
 72
9
 73
5
 74
0
 42
0.0000001
 43
0.0000001
 44
0.0000000001
 40
0.0
 40
0.0
 40
0.0
 40
0.0
 40
0.508780896
 40
1.0
 40
1.0
 40
1.0
 40
1.0
 10
15.6796859645
 20
11.9762466916
 30
0.0
 10
15.6809481721
 20
11.97677917
 30
0.0
 10
15.6835310621
 20
11.9776039196
 30
0.0
 10
15.6862303427
 20
11.9778912791
 30
0.0
 10
15.6875529837
 20
11.977891708
 30
0.0
  0
SPLINE
  5
462
100
AcDbEntity
  8
0
100
AcDbSpline
 62
7
  6
CONTINUOUS
 70
0
 71
3
 72
12
 73
8
 74
0
 42
0.0000001
 43
0.0000001
 44
0.0000000001
 40
0.0
 40
0.0
 40
0.0
 40
0.0
 40
0.2816276207
 40
0.5412509156
 40
0.7786083247
 40
0.8908030765
 40
1.0
 40
1.0
 40
1.0
 40
1.0
 10
14.7857777164
 20
12.2574887909
 30
0.0
 10
14.7800053798
 20
12.2574887909
 30
0.0
 10
14.7688818699
 20
12.2583349587
 30
0.0
 10
14.7533558663
 20
12.2624264634
 30
0.0
 10
14.7421575075
 20
12.2682655637
 30
0.0
 10
14.7348601365
 20
12.2742369716
 30
0.0
 10
14.7317817698
 20
12.2775978448
 30
0.0
 10
14.7304004985
 20
12.2793589098
 30
0.0
  0
SPLINE
  5
463
100
AcDbEntity
  8
0
100
AcDbSpline
 62
7
  6
CONTINUOUS
 70
0
 71
3
 72
9
 73
5
 74
0
 42
0.0000001
 43
0.0000001
 44
0.0000000001
 40
0.0
 40
0.0
 40
0.0
 40
0.0
 40
0.4840001551
 40
1.0
 40
1.0
 40
1.0
 40
1.0
 10
14.3447757964
 20
11.7572722666
 30
0.0
 10
14.3547003752
 20
11.7396570396
 30
0.0
 10
14.3776345261
 20
11.7046002636
 30
0.0
 10
14.404349768
 20
11.6723764222
 30
0.0
 10
14.4188903741
 20
11.6564639751
 30
0.0
  0
SPLINE
  5
464
100
AcDbEntity
  8
0
100
AcDbSpline
 62
7
  6
CONTINUOUS
 70
0
 71
3
 72
9
 73
5
 74
0
 42
0.0000001
 43
0.0000001
 44
0.0000000001
 40
0.0
 40
0.0
 40
0.0
 40
0.0
 40
0.4801975169
 40
1.0
 40
1.0
 40
1.0
 40
1.0
 10
15.6685174764
 20
13.2227679191
 30
0.0
 10
15.6560404539
 20
13.2138706742
 30
0.0
 10
15.6302766217
 20
13.1950346743
 30
0.0
 10
15.6048017192
 20
13.1758125858
 30
0.0
 10
15.591604269
 20
13.1657627675
 30
0.0
  0
SPLINE
  5
465
100
AcDbEntity
  8
0
100
AcDbSpline
 62
7
  6
CONTINUOUS
 70
0
 71
3
 72
9
 73
5
 74
0
 42
0.0000001
 43
0.0000001
 44
0.0000000001
 40
0.0
 40
0.0
 40
0.0
 40
0.0
 40
0.2518753968
 40
1.0
 40
1.0
 40
1.0
 40
1.0
 10
15.5358861165
 20
13.1095389305
 30
0.0
 10
15.5362311562
 20
13.1046220302
 30
0.0
 10
15.5377456719
 20
13.0851121219
 30
0.0
 10
15.5399156095
 20
13.0656464819
 30
0.0
 10
15.5420691087
 20
13.0511655571
 30
0.0
  0
SPLINE
  5
466
100
AcDbEntity
  8
0
100
AcDbSpline
 62
7
  6
CONTINUOUS
 70
0
 71
3
 72
9
 73
5
 74
0
 42
0.0000001
 43
0.0000001
 44
0.0000000001
 40
0.0
 40
0.0
 40
0.0
 40
0.0
 40
0.5372616353
 40
1.0
 40
1.0
 40
1.0
 40
1.0
 10
15.6685174764
 20
13.2227679191
 30
0.0
 10
15.6794999965
 20
13.2305994487
 30
0.0
 10
15.7000969868
 20
13.2449610574
 30
0.0
 10
15.7210613554
 20
13.2587809211
 30
0.0
 10
15.7308415696
 20
13.2650515492
 30
0.0
  0
SPLINE
  5
467
100
AcDbEntity
  8
0
100
AcDbSpline
 62
7
  6
CONTINUOUS
 70
0
 71
3
 72
10
 73
6
 74
0
 42
0.0000001
 43
0.0000001
 44
0.0000000001
 40
0.0
 40
0.0
 40
0.0
 40
0.0
 40
0.5032834057
 40
0.7530488411
 40
1.0
 40
1.0
 40
1.0
 40
1.0
 10
15.7308415696
 20
13.2650515492
 30
0.0
 10
15.7482760918
 20
13.2595605693
 30
0.0
 10
15.7741547038
 20
13.2506177117
 30
0.0
 10
15.8076818053
 20
13.2366270843
 30
0.0
 10
15.8239876401
 20
13.2288872859
 30
0.0
 10
15.831987323
 20
13.2248316044
 30
0.0
  0
SPLINE
  5
468
100
AcDbEntity
  8
0
100
AcDbSpline
 62
7
  6
CONTINUOUS
 70
0
 71
3
 72
10
 73
6
 74
0
 42
0.0000001
 43
0.0000001
 44
0.0000000001
 40
0.0
 40
0.0
 40
0.0
 40
0.0
 40
0.2578571173
 40
0.5105809347
 40
1.0
 40
1.0
 40
1.0
 40
1.0
 10
15.831987323
 20
13.2248316044
 30
0.0
 10
15.8398567123
 20
13.2208419792
 30
0.0
 10
15.8552395735
 20
13.2125405292
 30
0.0
 10
15.8844908708
 20
13.194767313
 30
0.0
 10
15.9052380371
 20
13.1800580531
 30
0.0
 10
15.9185439622
 20
13.1698901381
 30
0.0
  0
SPLINE
  5
469
100
AcDbEntity
  8
0
100
AcDbSpline
 62
7
  6
CONTINUOUS
 70
0
 71
3
 72
11
 73
7
 74
0
 42
0.0000001
 43
0.0000001
 44
0.0000000001
 40
0.0
 40
0.0
 40
0.0
 40
0.0
 40
0.2378335987
 40
0.4833660782
 40
0.7373982523
 40
1.0
 40
1.0
 40
1.0
 40
1.0
 10
15.9185439622
 20
13.1698901381
 30
0.0
 10
15.9216650956
 20
13.1630045023
 30
0.0
 10
15.9277534562
 20
13.1488926407
 30
0.0
 10
15.9361232137
 20
13.1269899767
 30
0.0
 10
15.9436971861
 20
13.1039676748
 30
0.0
 10
15.9480523307
 20
13.0881253091
 30
0.0
 10
15.9500710653
 20
13.0800258025
 30
0.0
  0
SPLINE
  5
46A
100
AcDbEntity
  8
0
100
AcDbSpline
 62
7
  6
CONTINUOUS
 70
0
 71
3
 72
9
 73
5
 74
0
 42
0.0000001
 43
0.0000001
 44
0.0000000001
 40
0.0
 40
0.0
 40
0.0
 40
0.0
 40
0.4918676658
 40
1.0
 40
1.0
 40
1.0
 40
1.0
 10
15.9500710653
 20
13.0800258025
 30
0.0
 10
15.9542750143
 20
13.0631588441
 30
0.0
 10
15.9610971279
 20
13.0284273969
 30
0.0
 10
15.9652980242
 20
12.9933160158
 30
0.0
 10
15.9670090542
 20
12.9754399454
 30
0.0
  0
SPLINE
  5
46B
100
AcDbEntity
  8
0
100
AcDbSpline
 62
7
  6
CONTINUOUS
 70
0
 71
3
 72
40
 73
36
 74
0
 42
0.0000001
 43
0.0000001
 44
0.0000000001
 40
0.0
 40
0.0
 40
0.0
 40
0.0
 40
0.0265226389
 40
0.0543700247
 40
0.0835317653
 40
0.1139862505
 40
0.1456887431
 40
0.1785582005
 40
0.212493041
 40
0.2473730977
 40
0.2830652121
 40
0.3194208116
 40
0.3562829925
 40
0.3934868321
 40
0.4308635279
 40
0.4682415015
 40
0.5054491256
 40
0.5423175445
 40
0.5786817928
 40
0.6143852516
 40
0.6492794664
 40
0.6832302477
 40
0.7161165879
 40
0.7478384242
 40
0.7783151706
 40
0.8074951073
 40
0.8353541322
 40
0.8619064383
 40
0.8872036955
 40
0.8994158118
 40
0.9113552045
 40
0.9344869485
 40
0.9568053294
 40
0.9785505005
 40
1.0
 40
1.0
 40
1.0
 40
1.0
 10
15.7282365399
 20
12.0087414605
 30
0.0
 10
15.7220473806
 20
12.0213536409
 30
0.0
 10
15.7080434562
 20
12.0465772674
 30
0.0
 10
15.6831787505
 20
12.0832365876
 30
0.0
 10
15.654108255
 20
12.1193712944
 30
0.0
 10
15.621048106
 20
12.1547367712
 30
0.0
 10
15.5842146565
 20
12.1890962699
 30
0.0
 10
15.5438632916
 20
12.2222288523
 30
0.0
 10
15.5002606934
 20
12.2539005411
 30
0.0
 10
15.4537088354
 20
12.2839060432
 30
0.0
 10
15.4045183673
 20
12.3120339736
 30
0.0
 10
15.3530280936
 20
12.3381024549
 30
0.0
 10
15.2995839589
 20
12.3619246339
 30
0.0
 10
15.2445536467
 20
12.3833477434
 30
0.0
 10
15.1883081831
 20
12.4022167581
 30
0.0
 10
15.131233469
 20
12.4184126334
 30
0.0
 10
15.0737152207
 20
12.4318157006
 30
0.0
 10
15.0161472117
 20
12.4423443152
 30
0.0
 10
14.958919011
 20
12.4499172138
 30
0.0
 10
14.9024212606
 20
12.4544926979
 30
0.0
 10
14.8470364935
 20
12.4560295117
 30
0.0
 10
14.7931412104
 20
12.4545272098
 30
0.0
 10
14.7411003574
 20
12.4499847758
 30
0.0
 10
14.6912655574
 20
12.442442797
 30
0.0
 10
14.6439743934
 20
12.4319390816
 30
0.0
 10
14.5995439996
 20
12.418553259
 30
0.0
 10
14.5582760508
 20
12.4023582934
 30
0.0
 10
14.52044844
 20
12.3834706817
 30
0.0
 10
14.4916726398
 20
12.3653607563
 30
0.0
 10
14.4707143428
 20
12.3496293577
 30
0.0
 10
14.4515605061
 20
12.3334745334
 30
0.0
 10
14.4300845019
 20
12.3118431343
 30
0.0
 10
14.40839195
 20
12.283491433
 30
0.0
 10
14.3912296503
 20
12.2532047037
 30
0.0
 10
14.3828696544
 20
12.2318057584
 30
0.0
 10
14.3795154797
 20
12.2209504287
 30
0.0
  0
SPLINE
  5
46C
100
AcDbEntity
  8
0
100
AcDbSpline
 62
7
  6
CONTINUOUS
 70
0
 71
3
 72
19
 73
15
 74
0
 42
0.0000001
 43
0.0000001
 44
0.0000000001
 40
0.0
 40
0.0
 40
0.0
 40
0.0
 40
0.0524477484
 40
0.1099684449
 40
0.1718909517
 40
0.2374963001
 40
0.3765913807
 40
0.5202982325
 40
0.6611023506
 40
0.7917782264
 40
0.851342117
 40
0.9061731735
 40
0.9558020356
 40
1.0
 40
1.0
 40
1.0
 40
1.0
 10
15.7077201396
 20
11.942350365
 30
0.0
 10
15.7087089432
 20
11.9403353953
 30
0.0
 10
15.7105588257
 20
11.9359995647
 30
0.0
 10
15.712890275
 20
11.9290162824
 30
0.0
 10
15.714868442
 20
11.9213419675
 30
0.0
 10
15.7170352363
 20
11.9101336656
 30
0.0
 10
15.7186344372
 20
11.8952800373
 30
0.0
 10
15.7188316248
 20
11.877126178
 30
0.0
 10
15.7173223511
 20
11.8593953594
 30
0.0
 10
15.7146540648
 20
11.845444553
 30
0.0
 10
15.7116653036
 20
11.8353834607
 30
0.0
 10
15.7091601424
 20
11.8288172002
 30
0.0
 10
15.706357682
 20
11.8230956217
 30
0.0
 10
15.7041936255
 20
11.8196974426
 30
0.0
 10
15.7030582019
 20
11.8181846841
 30
0.0
  0
SPLINE
  5
46D
100
AcDbEntity
  8
0
100
AcDbSpline
 62
7
  6
CONTINUOUS
 70
0
 71
3
 72
9
 73
5
 74
0
 42
0.0000001
 43
0.0000001
 44
0.0000000001
 40
0.0
 40
0.0
 40
0.0
 40
0.0
 40
0.2563342243
 40
1.0
 40
1.0
 40
1.0
 40
1.0
 10
15.8648882963
 20
12.047655228
 30
0.0
 10
15.8678379921
 20
12.0425237014
 30
0.0
 10
15.8790298544
 20
12.0223263323
 30
0.0
 10
15.8889241634
 20
12.0014010143
 30
0.0
 10
15.8953924829
 20
11.9854942312
 30
0.0
  0
SPLINE
  5
46E
100
AcDbEntity
  8
0
100
AcDbSpline
 62
7
  6
CONTINUOUS
 70
0
 71
3
 72
9
 73
5
 74
0
 42
0.0000001
 43
0.0000001
 44
0.0000000001
 40
0.0
 40
0.0
 40
0.0
 40
0.0
 40
0.2458468253
 40
1.0
 40
1.0
 40
1.0
 40
1.0
 10
14.7916441346
 20
12.4871961097
 30
0.0
 10
14.7991857245
 20
12.4875397571
 30
0.0
 10
14.8298773942
 20
12.4885776914
 30
0.0
 10
14.860613845
 20
12.4882052348
 30
0.0
 10
14.883750234
 20
12.4871961097
 30
0.0
  0
SPLINE
  5
46F
100
AcDbEntity
  8
0
100
AcDbSpline
 62
7
  6
CONTINUOUS
 70
0
 71
3
 72
9
 73
5
 74
0
 42
0.0000001
 43
0.0000001
 44
0.0000000001
 40
0.0
 40
0.0
 40
0.0
 40
0.0
 40
0.4944209721
 40
1.0
 40
1.0
 40
1.0
 40
1.0
 10
15.6875529837
 20
11.977891708
 30
0.0
 10
15.6887948841
 20
11.9778921106
 30
0.0
 10
15.6913131952
 20
11.9776422694
 30
0.0
 10
15.6937313538
 20
11.9769020908
 30
0.0
 10
15.6949075713
 20
11.9764233127
 30
0.0
  0
SPLINE
  5
470
100
AcDbEntity
  8
0
100
AcDbSpline
 62
7
  6
CONTINUOUS
 70
0
 71
3
 72
11
 73
7
 74
0
 42
0.0000001
 43
0.0000001
 44
0.0000000001
 40
0.0
 40
0.0
 40
0.0
 40
0.0
 40
0.2136136429
 40
0.4486605933
 40
0.710217884
 40
1.0
 40
1.0
 40
1.0
 40
1.0
 10
15.6949075713
 20
11.9764233127
 30
0.0
 10
15.6966389583
 20
11.9757185533
 30
0.0
 10
15.7000880203
 20
11.9737522386
 30
0.0
 10
15.7047179478
 20
11.9695498206
 30
0.0
 10
15.7089328274
 20
11.9640735882
 30
0.0
 10
15.7113094213
 20
11.9598569582
 30
0.0
 10
15.7124265831
 20
11.9575804217
 30
0.0
  0
SPLINE
  5
471
100
AcDbEntity
  8
0
100
AcDbSpline
 62
7
  6
CONTINUOUS
 70
0
 71
3
 72
9
 73
5
 74
0
 42
0.0000001
 43
0.0000001
 44
0.0000000001
 40
0.0
 40
0.0
 40
0.0
 40
0.0
 40
0.4655552404
 40
1.0
 40
1.0
 40
1.0
 40
1.0
 10
15.6813457181
 20
11.7927037003
 30
0.0
 10
15.6829653514
 20
11.7936450386
 30
0.0
 10
15.6861694671
 20
11.796146338
 30
0.0
 10
15.6888125883
 20
11.7992056941
 30
0.0
 10
15.6901034775
 20
11.8009256784
 30
0.0
  0
SPLINE
  5
472
100
AcDbEntity
  8
0
100
AcDbSpline
 62
7
  6
CONTINUOUS
 70
0
 71
3
 72
18
 73
14
 74
0
 42
0.0000001
 43
0.0000001
 44
0.0000000001
 40
0.0
 40
0.0
 40
0.0
 40
0.0
 40
0.0478766313
 40
0.0972093282
 40
0.1488889729
 40
0.2035107341
 40
0.3220345099
 40
0.3858557081
 40
0.4520945291
 40
0.5894232542
 40
0.7293787344
 40
0.867443072
 40
1.0
 40
1.0
 40
1.0
 40
1.0
 10
14.7255890905
 20
12.287019374
 30
0.0
 10
14.7243158479
 20
12.2896147356
 30
0.0
 10
14.7222560337
 20
12.2951595764
 30
0.0
 10
14.7208048216
 20
12.304081608
 30
0.0
 10
14.7209524682
 20
12.3135236289
 30
0.0
 10
14.7233250366
 20
12.3269362686
 30
0.0
 10
14.7288403403
 20
12.3403401356
 30
0.0
 10
14.7367829867
 20
12.3530948013
 30
0.0
 10
14.7467443983
 20
12.3658375854
 30
0.0
 10
14.7619668847
 20
12.3801414957
 30
0.0
 10
14.7833623155
 20
12.3935369723
 30
0.0
 10
14.8067727414
 20
12.4022203554
 30
0.0
 10
14.8231611848
 20
12.4043625864
 30
0.0
 10
14.831165152
 20
12.4043625864
 30
0.0
  0
SPLINE
  5
473
100
AcDbEntity
  8
0
100
AcDbSpline
 62
7
  6
CONTINUOUS
 70
0
 71
3
 72
9
 73
5
 74
0
 42
0.0000001
 43
0.0000001
 44
0.0000000001
 40
0.0
 40
0.0
 40
0.0
 40
0.0
 40
0.2428734394
 40
1.0
 40
1.0
 40
1.0
 40
1.0
 10
14.4877132188
 20
12.4086045511
 30
0.0
 10
14.4927310191
 20
12.4115143226
 30
0.0
 10
14.5136308347
 20
12.4230795414
 30
0.0
 10
14.5354222838
 20
12.4330102578
 30
0.0
 10
14.5522273473
 20
12.4396850495
 30
0.0
  0
SPLINE
  5
474
100
AcDbEntity
  8
0
100
AcDbSpline
 62
7
  6
CONTINUOUS
 70
0
 71
3
 72
11
 73
7
 74
0
 42
0.0000001
 43
0.0000001
 44
0.0000000001
 40
0.0
 40
0.0
 40
0.0
 40
0.0
 40
0.2274925662
 40
0.467730747
 40
0.7251520945
 40
1.0
 40
1.0
 40
1.0
 40
1.0
 10
14.8933120791
 20
12.3689144023
 30
0.0
 10
14.8904131168
 20
12.3727903603
 30
0.0
 10
14.8832476366
 20
12.3799126388
 30
0.0
 10
14.8697053753
 20
12.3876145301
 30
0.0
 10
14.853817469
 20
12.3922860672
 30
0.0
 10
14.8424580107
 20
12.3932664862
 30
0.0
 10
14.8366103272
 20
12.3932664862
 30
0.0
  0
SPLINE
  5
475
100
AcDbEntity
  8
0
100
AcDbSpline
 62
7
  6
CONTINUOUS
 70
0
 71
3
 72
15
 73
11
 74
0
 42
0.0000001
 43
0.0000001
 44
0.0000000001
 40
0.0
 40
0.0
 40
0.0
 40
0.0
 40
0.1135664625
 40
0.2285108131
 40
0.3460983504
 40
0.4673620034
 40
0.5930503275
 40
0.7236739773
 40
0.8594461512
 40
1.0
 40
1.0
 40
1.0
 40
1.0
 10
13.5198470095
 20
12.0714473699
 30
0.0
 10
13.5233067336
 20
12.0643945751
 30
0.0
 10
13.5314343094
 20
12.050743606
 30
0.0
 10
13.5468555768
 20
12.0323090124
 30
0.0
 10
13.5653219616
 20
12.0161078672
 30
0.0
 10
13.5865549924
 20
12.0023530156
 30
0.0
 10
13.6102644523
 20
11.991222255
 30
0.0
 10
13.6361305397
 20
11.9828463087
 30
0.0
 10
13.6637948793
 20
11.9773438108
 30
0.0
 10
13.6828738954
 20
11.9756435031
 30
0.0
 10
13.6925889601
 20
11.9752644181
 30
0.0
  0
SPLINE
  5
476
100
AcDbEntity
  8
0
100
AcDbSpline
 62
7
  6
CONTINUOUS
 70
0
 71
3
 72
15
 73
11
 74
0
 42
0.0000001
 43
0.0000001
 44
0.0000000001
 40
0.0
 40
0.0
 40
0.0
 40
0.0
 40
0.1164355757
 40
0.2337743067
 40
0.352880517
 40
0.4745683052
 40
0.599575201
 40
0.7285416981
 40
0.8619200682
 40
1.0
 40
1.0
 40
1.0
 40
1.0
 10
15.6819769822
 20
11.5669197146
 30
0.0
 10
15.6844844771
 20
11.5750346277
 30
0.0
 10
15.6886367348
 20
11.591614709
 30
0.0
 10
15.6921835534
 20
11.6171568844
 30
0.0
 10
15.6930465066
 20
11.6433141243
 30
0.0
 10
15.6912207451
 20
11.6699786321
 30
0.0
 10
15.6867240739
 20
11.6970506785
 30
0.0
 10
15.6795688299
 20
11.7244235092
 30
0.0
 10
15.6697987763
 20
11.7519837086
 30
0.0
 10
15.6617181508
 20
11.7700864894
 30
0.0
 10
15.6572808488
 20
11.7791287601
 30
0.0
  0
SPLINE
  5
477
100
AcDbEntity
  8
0
100
AcDbSpline
 62
7
  6
CONTINUOUS
 70
0
 71
3
 72
12
 73
8
 74
0
 42
0.0000001
 43
0.0000001
 44
0.0000000001
 40
0.0
 40
0.0
 40
0.0
 40
0.0
 40
0.2568156182
 40
0.5134917515
 40
0.7642279356
 40
0.8847997627
 40
1.0
 40
1.0
 40
1.0
 40
1.0
 10
13.3217722737
 20
11.7253529182
 30
0.0
 10
13.3193676145
 20
11.7237334616
 30
0.0
 10
13.3147488824
 20
11.7202027146
 30
0.0
 10
13.3085719401
 20
11.714151223
 30
0.0
 10
13.3042365854
 20
11.7084936381
 30
0.0
 10
13.3015693176
 20
11.7036824526
 30
0.0
 10
13.3005712947
 20
11.7012031345
 30
0.0
 10
13.3001873094
 20
11.6999606425
 30
0.0
  0
SPLINE
  5
478
100
AcDbEntity
  8
0
100
AcDbSpline
 62
7
  6
CONTINUOUS
 70
0
 71
3
 72
15
 73
11
 74
0
 42
0.0000001
 43
0.0000001
 44
0.0000000001
 40
0.0
 40
0.0
 40
0.0
 40
0.0
 40
0.1125796378
 40
0.2270943586
 40
0.344685284
 40
0.466226102
 40
0.5923246274
 40
0.7233579979
 40
0.8594092236
 40
1.0
 40
1.0
 40
1.0
 40
1.0
 10
17.0018562261
 20
12.3084580055
 30
0.0
 10
16.9996565341
 20
12.3121975176
 30
0.0
 10
16.9946038477
 20
12.3193957954
 30
0.0
 10
16.9853467484
 20
12.3289902696
 30
0.0
 10
16.9744926503
 20
12.337311426
 30
0.0
 10
16.9622034309
 20
12.3442596234
 30
0.0
 10
16.9486386174
 20
12.3497430101
 30
0.0
 10
16.9339771984
 20
12.3537020157
 30
0.0
 10
16.9184179475
 20
12.3560790704
 30
0.0
 10
16.9077484105
 20
12.3565945166
 30
0.0
 10
16.9023304388
 20
12.3565945166
 30
0.0
  0
SPLINE
  5
479
100
AcDbEntity
  8
0
100
AcDbSpline
 62
7
  6
CONTINUOUS
 70
0
 71
3
 72
15
 73
11
 74
0
 42
0.0000001
 43
0.0000001
 44
0.0000000001
 40
0.0
 40
0.0
 40
0.0
 40
0.0
 40
0.1242574412
 40
0.2531490526
 40
0.3844921408
 40
0.5159466171
 40
0.645113174
 40
0.7698281353
 40
0.8884507985
 40
1.0
 40
1.0
 40
1.0
 40
1.0
 10
13.8800990522
 20
12.3565945166
 30
0.0
 10
13.8704666845
 20
12.3565945166
 30
0.0
 10
13.8508152561
 20
12.3549203451
 30
0.0
 10
13.8217423236
 20
12.3479104556
 30
0.0
 10
13.7934496829
 20
12.3366079577
 30
0.0
 10
13.7670017203
 20
12.3214460517
 30
0.0
 10
13.7433859577
 20
12.3029821525
 30
0.0
 10
13.7234803038
 20
12.281896383
 30
0.0
 10
13.708048894
 20
12.2589667821
 30
0.0
 10
13.7009134814
 20
12.2424614327
 30
0.0
 10
13.6983604088
 20
12.234199687
 30
0.0
  0
SPLINE
  5
47A
100
AcDbEntity
  8
0
100
AcDbSpline
 62
7
  6
CONTINUOUS
 70
0
 71
3
 72
11
 73
7
 74
0
 42
0.0000001
 43
0.0000001
 44
0.0000000001
 40
0.0
 40
0.0
 40
0.0
 40
0.0
 40
0.2636306391
 40
0.5167134803
 40
0.7610586731
 40
1.0
 40
1.0
 40
1.0
 40
1.0
 10
13.6983604088
 20
12.234199687
 30
0.0
 10
13.6966898498
 20
12.2287937561
 30
0.0
 10
13.694168049
 20
12.2179433661
 30
0.0
 10
13.693022852
 20
12.2015759967
 30
0.0
 10
13.694652354
 20
12.1857749895
 30
0.0
 10
13.6975994824
 20
12.1757561772
 30
0.0
 10
13.6995045704
 20
12.170994893
 30
0.0
  0
SPLINE
  5
47B
100
AcDbEntity
  8
0
100
AcDbSpline
 62
7
  6
CONTINUOUS
 70
0
 71
3
 72
15
 73
11
 74
0
 42
0.0000001
 43
0.0000001
 44
0.0000000001
 40
0.0
 40
0.0
 40
0.0
 40
0.0
 40
0.3576977732
 40
0.513901832
 40
0.6529691606
 40
0.7731616515
 40
0.8723042604
 40
0.948191731
 40
0.9770159397
 40
1.0
 40
1.0
 40
1.0
 40
1.0
 10
13.6122518618
 20
12.6653452098
 30
0.0
 10
13.6111421373
 20
12.6666254512
 30
0.0
 10
13.6095183615
 20
12.6684401392
 30
0.0
 10
13.6073681017
 20
12.6706638089
 30
0.0
 10
13.605954775
 20
12.6720334886
 30
0.0
 10
13.6046849022
 20
12.6731620622
 30
0.0
 10
13.6035811784
 20
12.6740205417
 30
0.0
 10
13.6027577227
 20
12.6745361394
 30
0.0
 10
13.6021941894
 20
12.6747594158
 30
0.0
 10
13.6019494424
 20
12.6748050141
 30
0.0
 10
13.601840577
 20
12.6748050137
 30
0.0
  0
SPLINE
  5
47C
100
AcDbEntity
  8
0
100
AcDbSpline
 62
7
  6
CONTINUOUS
 70
0
 71
3
 72
13
 73
9
 74
0
 42
0.0000001
 43
0.0000001
 44
0.0000000001
 40
0.0
 40
0.0
 40
0.0
 40
0.0
 40
0.0871422128
 40
0.1800263772
 40
0.2828459401
 40
0.3983216537
 40
0.6719052973
 40
1.0
 40
1.0
 40
1.0
 40
1.0
 10
17.0339904633
 20
12.4492223037
 30
0.0
 10
17.0338000154
 20
12.4492224049
 30
0.0
 10
17.0334046518
 20
12.4491656532
 30
0.0
 10
17.0328323845
 20
12.4489170169
 30
0.0
 10
17.0322783953
 20
12.4485151637
 30
0.0
 10
17.0315277342
 20
12.4477397674
 30
0.0
 10
17.0306941878
 20
12.4463947157
 30
0.0
 10
17.030198841
 20
12.4451723938
 30
0.0
 10
17.0299702922
 20
12.4444927466
 30
0.0
  0
SPLINE
  5
47D
100
AcDbEntity
  8
0
100
AcDbSpline
 62
7
  6
CONTINUOUS
 70
0
 71
3
 72
13
 73
9
 74
0
 42
0.0000001
 43
0.0000001
 44
0.0000000001
 40
0.0
 40
0.0
 40
0.0
 40
0.0
 40
0.3958541037
 40
0.6943622484
 40
0.8052125828
 40
0.8913415831
 40
0.954894876
 40
1.0
 40
1.0
 40
1.0
 40
1.0
 10
16.743640655
 20
12.6653452098
 30
0.0
 10
16.744011835
 20
12.6665463485
 30
0.0
 10
16.7446169695
 20
12.6686673995
 30
0.0
 10
16.7451529098
 20
12.6711732391
 30
0.0
 10
16.7453230213
 20
12.6727388654
 30
0.0
 10
16.7453305518
 20
12.6735689082
 30
0.0
 10
16.7452439388
 20
12.6741830952
 30
0.0
 10
16.7450970178
 20
12.6745086095
 30
0.0
 10
16.7450019272
 20
12.6746157441
 30
0.0
  0
SPLINE
  5
47E
100
AcDbEntity
  8
0
100
AcDbSpline
 62
7
  6
CONTINUOUS
 70
0
 71
3
 72
15
 73
11
 74
0
 42
0.0000001
 43
0.0000001
 44
0.0000000001
 40
0.0
 40
0.0
 40
0.0
 40
0.0
 40
0.110128454
 40
0.2262536716
 40
0.3480161712
 40
0.4745462431
 40
0.6045895334
 40
0.7366042317
 40
0.8690048921
 40
1.0
 40
1.0
 40
1.0
 40
1.0
 10
16.3295499691
 20
12.2255609211
 30
0.0
 10
16.3327841189
 20
12.2378677243
 30
0.0
 10
16.3417835962
 20
12.2625737337
 30
0.0
 10
16.3614969726
 20
12.2977877008
 30
0.0
 10
16.3872460876
 20
12.3312773928
 30
0.0
 10
16.4183425337
 20
12.3621715499
 30
0.0
 10
16.4539701287
 20
12.389676737
 30
0.0
 10
16.4931977535
 20
12.4130922995
 30
0.0
 10
16.5349927333
 20
12.4317902933
 30
0.0
 10
16.5641271659
 20
12.4408845641
 30
0.0
 10
16.5788264796
 20
12.4444927466
 30
0.0
  0
SPLINE
  5
47F
100
AcDbEntity
  8
0
100
AcDbSpline
 62
7
  6
CONTINUOUS
 70
0
 71
3
 72
32
 73
28
 74
0
 42
0.0000001
 43
0.0000001
 44
0.0000000001
 40
0.0
 40
0.0
 40
0.0
 40
0.0
 40
0.074281389
 40
0.1500697271
 40
0.2270693437
 40
0.3047650237
 40
0.3436111554
 40
0.3822196479
 40
0.4203493785
 40
0.4577588942
 40
0.4940886361
 40
0.5290277775
 40
0.5623017672
 40
0.5937261067
 40
0.6233255541
 40
0.65123686
 40
0.6777776113
 40
0.7032842985
 40
0.7280931788
 40
0.7525157907
 40
0.7767438965
 40
0.8009524845
 40
0.8252494932
 40
0.8496742565
 40
0.8990438045
 40
0.9491752016
 40
1.0
 40
1.0
 40
1.0
 40
1.0
 10
16.1076232558
 20
12.5809348509
 30
0.0
 10
16.103439544
 20
12.589459493
 30
0.0
 10
16.0951929609
 20
12.6067839719
 30
0.0
 10
16.0835461686
 20
12.6333804274
 30
0.0
 10
16.0729217547
 20
12.6608747227
 30
0.0
 10
16.0653712318
 20
12.6844605955
 30
0.0
 10
16.0604926347
 20
12.7036915187
 30
0.0
 10
16.0575485325
 20
12.7181781379
 30
0.0
 10
16.0554614103
 20
12.7326299652
 30
0.0
 10
16.0543734053
 20
12.7469019204
 30
0.0
 10
16.0544055511
 20
12.7608124972
 30
0.0
 10
16.0557024949
 20
12.7741364553
 30
0.0
 10
16.0582917275
 20
12.7866375423
 30
0.0
 10
16.0622140526
 20
12.7980737684
 30
0.0
 10
16.0673669235
 20
12.8082530049
 30
0.0
 10
16.0736346829
 20
12.8170338056
 30
0.0
 10
16.0808294583
 20
12.8243532518
 30
0.0
 10
16.0887474585
 20
12.8302352573
 30
0.0
 10
16.0972141461
 20
12.8347345547
 30
0.0
 10
16.1060615119
 20
12.8379629654
 30
0.0
 10
16.1151631764
 20
12.8400424313
 30
0.0
 10
16.1244214283
 20
12.8410763442
 30
0.0
 10
16.1337581496
 20
12.8411743127
 30
0.0
 10
16.146273117
 20
12.8401945626
 30
0.0
 10
16.1618638025
 20
12.8370487356
 30
0.0
 10
16.1800921125
 20
12.8308383556
 30
0.0
 10
16.1918096757
 20
12.8253689328
 30
0.0
 10
16.1975666824
 20
12.8223569635
 30
0.0
  0
SPLINE
  5
480
100
AcDbEntity
  8
0
100
AcDbSpline
 62
7
  6
CONTINUOUS
 70
0
 71
3
 72
13
 73
9
 74
0
 42
0.0000001
 43
0.0000001
 44
0.0000000001
 40
0.0
 40
0.0
 40
0.0
 40
0.0
 40
0.1190847258
 40
0.2484847227
 40
0.5202437459
 40
0.7811958537
 40
0.8976874102
 40
1.0
 40
1.0
 40
1.0
 40
1.0
 10
13.6768134727
 20
12.0239066276
 30
0.0
 10
13.6765868961
 20
12.0232328449
 30
0.0
 10
13.676199433
 20
12.0217976934
 30
0.0
 10
13.6756682466
 20
12.0187346559
 30
0.0
 10
13.6754826099
 20
12.0147702768
 30
0.0
 10
13.6758814876
 20
12.010894315
 30
0.0
 10
13.6765947582
 20
12.0081162609
 30
0.0
 10
13.6770678358
 20
12.006893197
 30
0.0
 10
13.6773368928
 20
12.0063449165
 30
0.0
  0
SPLINE
  5
481
100
AcDbEntity
  8
0
100
AcDbSpline
 62
7
  6
CONTINUOUS
 70
0
 71
3
 72
13
 73
9
 74
0
 42
0.0000001
 43
0.0000001
 44
0.0000000001
 40
0.0
 40
0.0
 40
0.0
 40
0.0
 40
0.3332542799
 40
0.6086337508
 40
0.7235916264
 40
0.8249626682
 40
0.9156013587
 40
1.0
 40
1.0
 40
1.0
 40
1.0
 10
13.806784421
 20
12.4444927466
 30
0.0
 10
13.8069722328
 20
12.4451592866
 30
0.0
 10
13.8073858938
 20
12.4463579261
 30
0.0
 10
13.8081064125
 20
12.447693279
 30
0.0
 10
13.8087716348
 20
12.4484740294
 30
0.0
 10
13.8092664879
 20
12.4488830245
 30
0.0
 10
13.8097841025
 20
12.449144944
 30
0.0
 10
13.8101473373
 20
12.4492144564
 30
0.0
 10
13.8103225918
 20
12.4492210497
 30
0.0
  0
SPLINE
  5
482
100
AcDbEntity
  8
0
100
AcDbSpline
 62
7
  6
CONTINUOUS
 70
0
 71
3
 72
11
 73
7
 74
0
 42
0.0000001
 43
0.0000001
 44
0.0000000001
 40
0.0
 40
0.0
 40
0.0
 40
0.0
 40
0.2442679866
 40
0.4991912998
 40
0.7533563094
 40
1.0
 40
1.0
 40
1.0
 40
1.0
 10
14.0006526756
 20
11.7184156547
 30
0.0
 10
14.000922757
 20
11.7155347991
 30
0.0
 10
14.0026069727
 20
11.7097453256
 30
0.0
 10
14.0072064431
 20
11.7020264894
 30
0.0
 10
14.013266347
 20
11.6953649805
 30
0.0
 10
14.0180272406
 20
11.6917588687
 30
0.0
 10
14.0205166057
 20
11.6902294963
 30
0.0
  0
SPLINE
  5
483
100
AcDbEntity
  8
0
100
AcDbSpline
 62
7
  6
CONTINUOUS
 70
0
 71
3
 72
9
 73
5
 74
0
 42
0.0000001
 43
0.0000001
 44
0.0000000001
 40
0.0
 40
0.0
 40
0.0
 40
0.0
 40
0.2545003915
 40
1.0
 40
1.0
 40
1.0
 40
1.0
 10
15.5208463471
 20
12.2788019208
 30
0.0
 10
15.5271958657
 20
12.2745170765
 30
0.0
 10
15.5519583585
 20
12.257406924
 30
0.0
 10
15.5759601746
 20
12.239189524
 30
0.0
 10
15.5933167974
 20
12.2249689185
 30
0.0
  0
SPLINE
  5
484
100
AcDbEntity
  8
0
100
AcDbSpline
 62
7
  6
CONTINUOUS
 70
0
 71
3
 72
11
 73
7
 74
0
 42
0.0000001
 43
0.0000001
 44
0.0000000001
 40
0.0
 40
0.0
 40
0.0
 40
0.0
 40
0.2650535264
 40
0.5229722086
 40
0.7697340407
 40
1.0
 40
1.0
 40
1.0
 40
1.0
 10
17.4231417245
 20
12.6653452098
 30
0.0
 10
17.4251708778
 20
12.6667117759
 30
0.0
 10
17.4293148092
 20
12.6692068933
 30
0.0
 10
17.4357822611
 20
12.6721884109
 30
0.0
 10
17.4422754102
 20
12.6742158886
 30
0.0
 10
17.4466797549
 20
12.6748050143
 30
0.0
 10
17.4488050879
 20
12.6748050135
 30
0.0
  0
SPLINE
  5
485
100
AcDbEntity
  8
0
100
AcDbSpline
 62
7
  6
CONTINUOUS
 70
0
 71
3
 72
13
 73
9
 74
0
 42
0.0000001
 43
0.0000001
 44
0.0000000001
 40
0.0
 40
0.0
 40
0.0
 40
0.0
 40
0.2241328967
 40
0.4825591217
 40
0.6202014747
 40
0.7583964386
 40
0.8891629323
 40
1.0
 40
1.0
 40
1.0
 40
1.0
 10
17.1326621364
 20
11.7253529182
 30
0.0
 10
17.1347644819
 20
11.7229275328
 30
0.0
 10
17.1391347605
 20
11.7175703058
 30
0.0
 10
17.1444588136
 20
11.7104580342
 30
0.0
 10
17.1488402614
 20
11.7041850849
 30
0.0
 10
17.1520490139
 20
11.6993249088
 30
0.0
 10
17.1548923583
 20
11.6946875504
 30
0.0
 10
17.1565637948
 20
11.6916544283
 30
0.0
 10
17.1572630498
 20
11.6902294963
 30
0.0
  0
SPLINE
  5
486
100
AcDbEntity
  8
0
100
AcDbSpline
 62
7
  6
CONTINUOUS
 70
0
 71
3
 72
24
 73
20
 74
0
 42
0.0000001
 43
0.0000001
 44
0.0000000001
 40
0.0
 40
0.0
 40
0.0
 40
0.0
 40
0.0661630486
 40
0.0982097782
 40
0.1295945438
 40
0.190498612
 40
0.249307834
 40
0.3065542961
 40
0.362841281
 40
0.4188136619
 40
0.4751371729
 40
0.5324595992
 40
0.5913762707
 40
0.6523950418
 40
0.7159299427
 40
0.7822921448
 40
0.8516917786
 40
0.9242510124
 40
1.0
 40
1.0
 40
1.0
 40
1.0
 10
15.6282026659
 20
11.7595455874
 30
0.0
 10
15.6334739769
 20
11.7488037849
 30
0.0
 10
15.6405917534
 20
11.7324922163
 30
0.0
 10
15.6483232585
 20
11.7103585269
 30
0.0
 10
15.6546293606
 20
11.6887659988
 30
0.0
 10
15.660160763
 20
11.6619422947
 30
0.0
 10
15.6629187915
 20
11.6299809944
 30
0.0
 10
15.6617040068
 20
11.5987509685
 30
0.0
 10
15.6565128405
 20
11.5684478676
 30
0.0
 10
15.6473795529
 20
11.5392639315
 30
0.0
 10
15.6343488392
 20
11.5113947981
 30
0.0
 10
15.6175255617
 20
11.4850091125
 30
0.0
 10
15.5970111218
 20
11.4602743119
 30
0.0
 10
15.5729521912
 20
11.4373235701
 30
0.0
 10
15.5454928574
 20
11.4162909994
 30
0.0
 10
15.5148035248
 20
11.3972880851
 30
0.0
 10
15.4810655767
 20
11.3804146098
 30
0.0
 10
15.4444759335
 20
11.3657692518
 30
0.0
 10
15.4188657985
 20
11.3577076256
 30
0.0
 10
15.405665582
 20
11.3540443554
 30
0.0
  0
SPLINE
  5
487
100
AcDbEntity
  8
0
100
AcDbSpline
 62
7
  6
CONTINUOUS
 70
0
 71
3
 72
38
 73
34
 74
0
 42
0.0000001
 43
0.0000001
 44
0.0000000001
 40
0.0
 40
0.0
 40
0.0
 40
0.0
 40
0.0254325148
 40
0.0496017808
 40
0.0727738933
 40
0.0953029761
 40
0.1175890847
 40
0.1400526369
 40
0.1631001489
 40
0.1870884908
 40
0.2123002302
 40
0.2389381305
 40
0.2671257549
 40
0.2969135647
 40
0.328291047
 40
0.3611920873
 40
0.3955090698
 40
0.431094918
 40
0.4677752881
 40
0.5053501149
 40
0.5436024711
 40
0.5823013047
 40
0.6600484398
 40
0.6986412582
 40
0.7367187871
 40
0.7740533551
 40
0.8104317263
 40
0.8456626628
 40
0.8795783722
 40
0.9120397979
 40
0.9429565504
 40
0.9722840555
 40
1.0
 40
1.0
 40
1.0
 40
1.0
 10
14.3399296505
 20
11.7823657882
 30
0.0
 10
14.3343750926
 20
11.7958449852
 30
0.0
 10
14.3250883635
 20
11.8228169716
 30
0.0
 10
14.3169836547
 20
11.8638797025
 30
0.0
 10
14.3151947729
 20
11.9040572485
 30
0.0
 10
14.3197890722
 20
11.9429381255
 30
0.0
 10
14.3307263742
 20
11.9801148908
 30
0.0
 10
14.3479102519
 20
12.0151751174
 30
0.0
 10
14.3711210918
 20
12.0477592159
 30
0.0
 10
14.4000975946
 20
12.077554024
 30
0.0
 10
14.4345254543
 20
12.1043034119
 30
0.0
 10
14.4740634488
 20
12.1277866789
 30
0.0
 10
14.5183389045
 20
12.147808923
 30
0.0
 10
14.5669407566
 20
12.1642128791
 30
0.0
 10
14.6194274086
 20
12.1768499376
 30
0.0
 10
14.6753171033
 20
12.1856239398
 30
0.0
 10
14.7340997324
 20
12.1904462855
 30
0.0
 10
14.7952352954
 20
12.191286018
 30
0.0
 10
14.8581614466
 20
12.1881278931
 30
0.0
 10
14.9222975766
 20
12.1810070987
 30
0.0
 10
14.9870549947
 20
12.1699872266
 30
0.0
 10
15.0735335372
 20
12.1502031208
 30
0.0
 10
15.1584400291
 20
12.1232180241
 30
0.0
 10
15.2403130506
 20
12.0894787288
 30
0.0
 10
15.2992584388
 20
12.0611714829
 30
0.0
 10
15.3553357616
 20
12.0300797313
 30
0.0
 10
15.4080270177
 20
11.9964807767
 30
0.0
 10
15.4568478289
 20
11.960687697
 30
0.0
 10
15.5013476986
 20
11.923028145
 30
0.0
 10
15.5411182997
 20
11.8838456753
 30
0.0
 10
15.5757989263
 20
11.8434885004
 30
0.0
 10
15.6050469428
 20
11.8023264983
 30
0.0
 10
15.6212034299
 20
11.7738085308
 30
0.0
 10
15.6282026659
 20
11.7595455874
 30
0.0
  0
SPLINE
  5
488
100
AcDbEntity
  8
0
100
AcDbSpline
 62
7
  6
CONTINUOUS
 70
0
 71
3
 72
34
 73
30
 74
0
 42
0.0000001
 43
0.0000001
 44
0.0000000001
 40
0.0
 40
0.0
 40
0.0
 40
0.0
 40
0.0265218085
 40
0.0543742585
 40
0.0835432635
 40
0.1140019114
 40
0.1457060197
 40
0.1785796729
 40
0.2473774009
 40
0.3194092939
 40
0.3934616887
 40
0.4682037628
 40
0.5422671794
 40
0.5786360903
 40
0.614344112
 40
0.649242769
 40
0.6831981902
 40
0.716088713
 40
0.7478148763
 40
0.7782956918
 40
0.8074793012
 40
0.8353423759
 40
0.8618975751
 40
0.8871987504
 40
0.9113428232
 40
0.9344780273
 40
0.9567986503
 40
0.9785472904
 40
1.0
 40
1.0
 40
1.0
 40
1.0
 10
14.5286861043
 20
11.7595455874
 30
0.0
 10
14.532990936
 20
11.7507732626
 30
0.0
 10
14.5427333188
 20
11.733227747
 30
0.0
 10
14.5600300442
 20
11.7077249098
 30
0.0
 10
14.5802533033
 20
11.682585193
 30
0.0
 10
14.6032525115
 20
11.657983297
 30
0.0
 10
14.628875174
 20
11.6340803868
 30
0.0
 10
14.6668773921
 20
11.6028825909
 30
0.0
 10
14.7199038686
 20
11.5667847563
 30
0.0
 10
14.789782018
 20
11.5292954041
 30
0.0
 10
14.8650105024
 20
11.4979747669
 30
0.0
 10
14.9435622395
 20
11.4736685145
 30
0.0
 10
15.0104626376
 20
11.4597084646
 30
0.0
 10
15.0638596025
 20
11.4526409868
 30
0.0
 10
15.1031631832
 20
11.4494575009
 30
0.0
 10
15.1416917793
 20
11.448388986
 30
0.0
 10
15.1791844434
 20
11.4494330967
 30
0.0
 10
15.2153870808
 20
11.4525934708
 30
0.0
 10
15.2500550147
 20
11.4578400285
 30
0.0
 10
15.2829537298
 20
11.4651460351
 30
0.0
 10
15.3138616374
 20
11.4744597717
 30
0.0
 10
15.3425707659
 20
11.485722666
 30
0.0
 10
15.3688852968
 20
11.4988665276
 30
0.0
 10
15.3926293312
 20
11.5138030524
 30
0.0
 10
15.4136315947
 20
11.5304489159
 30
0.0
 10
15.4317494243
 20
11.5486884187
 30
0.0
 10
15.4468360138
 20
11.5684161103
 30
0.0
 10
15.4587797893
 20
11.5894823092
 30
0.0
 10
15.4645925399
 20
11.6043705107
 30
0.0
 10
15.4669254398
 20
11.611922389
 30
0.0
  0
SPLINE
  5
489
100
AcDbEntity
  8
0
100
AcDbSpline
 62
7
  6
CONTINUOUS
 70
0
 71
3
 72
13
 73
9
 74
0
 42
0.0000001
 43
0.0000001
 44
0.0000000001
 40
0.0
 40
0.0
 40
0.0
 40
0.0
 40
0.1276798376
 40
0.2680173464
 40
0.5507561928
 40
0.8012873033
 40
0.9079032685
 40
1.0
 40
1.0
 40
1.0
 40
1.0
 10
16.453161067
 20
11.7253529182
 30
0.0
 10
16.4526745062
 20
11.7237784069
 30
0.0
 10
16.4515599023
 20
11.7205020041
 30
0.0
 10
16.4490180041
 20
11.7138622381
 30
0.0
 10
16.4455429833
 20
11.705887536
 30
0.0
 10
16.4418674578
 20
11.6984863217
 30
0.0
 10
16.4390441423
 20
11.693420661
 30
0.0
 10
16.4377117735
 20
11.6912278648
 30
0.0
 10
16.4370665816
 20
11.6902294963
 30
0.0
  0
SPLINE
  5
48A
100
AcDbEntity
  8
0
100
AcDbSpline
 62
7
  6
CONTINUOUS
 70
0
 71
3
 72
13
 73
9
 74
0
 42
0.0000001
 43
0.0000001
 44
0.0000000001
 40
0.0
 40
0.0
 40
0.0
 40
0.0
 40
0.2290934779
 40
0.3494776176
 40
0.4735784692
 40
0.7316563192
 40
0.8650783573
 40
1.0
 40
1.0
 40
1.0
 40
1.0
 10
15.7055349209
 20
13.1399224526
 30
0.0
 10
15.7031644219
 20
13.1322515147
 30
0.0
 10
15.7013948875
 20
13.1199076603
 30
0.0
 10
15.7023691228
 20
13.1033118894
 30
0.0
 10
15.705616439
 20
13.0859575744
 30
0.0
 10
15.7121586098
 20
13.0689129684
 30
0.0
 10
15.7214606373
 20
13.0529560164
 30
0.0
 10
15.7270310191
 20
13.045351463
 30
0.0
 10
15.7300193064
 20
13.0416869338
 30
0.0
  0
SPLINE
  5
48B
100
AcDbEntity
  8
0
100
AcDbSpline
 62
7
  6
CONTINUOUS
 70
0
 71
3
 72
9
 73
5
 74
0
 42
0.0000001
 43
0.0000001
 44
0.0000000001
 40
0.0
 40
0.0
 40
0.0
 40
0.0
 40
0.2375230057
 40
1.0
 40
1.0
 40
1.0
 40
1.0
 10
15.7124265831
 20
11.9575804217
 30
0.0
 10
15.7128607094
 20
11.9566957653
 30
0.0
 10
15.7146046601
 20
11.9529302577
 30
0.0
 10
15.7160341582
 20
11.9490230838
 30
0.0
 10
15.716982065
 20
11.9460050805
 30
0.0
  0
LINE
  5
48C
100
AcDbEntity
  8
0
100
AcDbLine
 62
7
  6
CONTINUOUS
 10
15.716982065
 20
11.9460050805
 11
15.7190965137
 21
11.9382713737
  0
SPLINE
  5
48D
100
AcDbEntity
  8
0
100
AcDbSpline
 62
7
  6
CONTINUOUS
 70
0
 71
3
 72
15
 73
11
 74
0
 42
0.0000001
 43
0.0000001
 44
0.0000000001
 40
0.0
 40
0.0
 40
0.0
 40
0.0
 40
0.118353229
 40
0.2453185287
 40
0.3779449157
 40
0.5127725272
 40
0.6461037549
 40
0.7741525802
 40
0.8932197816
 40
1.0
 40
1.0
 40
1.0
 40
1.0
 10
15.7190965137
 20
11.9382713737
 30
0.0
 10
15.7202188397
 20
11.9335139459
 30
0.0
 10
15.721957903
 20
11.9235106072
 30
0.0
 10
15.7232212762
 20
11.9079365524
 30
0.0
 10
15.7232907012
 20
11.89163278
 30
0.0
 10
15.7222573039
 20
11.8751016045
 30
0.0
 10
15.7202445253
 20
11.8588527442
 30
0.0
 10
15.7173921045
 20
11.8433912064
 30
0.0
 10
15.713846951
 20
11.8292021512
 30
0.0
 10
15.7109334912
 20
11.8203273142
 30
0.0
 10
15.7093480713
 20
11.8162120992
 30
0.0
  0
SPLINE
  5
48E
100
AcDbEntity
  8
0
100
AcDbSpline
 62
7
  6
CONTINUOUS
 70
0
 71
3
 72
9
 73
5
 74
0
 42
0.0000001
 43
0.0000001
 44
0.0000000001
 40
0.0
 40
0.0
 40
0.0
 40
0.0
 40
0.5359918136
 40
1.0
 40
1.0
 40
1.0
 40
1.0
 10
15.7089370984
 20
11.8151595584
 30
0.0
 10
15.7078705409
 20
11.8124645509
 30
0.0
 10
15.7057037965
 20
11.8075036716
 30
0.0
 10
15.7030591389
 20
11.8027694261
 30
0.0
 10
15.7016751912
 20
11.8006764821
 30
0.0
  0
SPLINE
  5
48F
100
AcDbEntity
  8
0
100
AcDbSpline
 62
7
  6
CONTINUOUS
 70
0
 71
3
 72
12
 73
8
 74
0
 42
0.0000001
 43
0.0000001
 44
0.0000000001
 40
0.0
 40
0.0
 40
0.0
 40
0.0
 40
0.3084878827
 40
0.5706961635
 40
0.7954163688
 40
0.8989601832
 40
1.0
 40
1.0
 40
1.0
 40
1.0
 10
15.7016751912
 20
11.8006764821
 30
0.0
 10
15.7006456278
 20
11.7991194733
 30
0.0
 10
15.6985742821
 20
11.7963394347
 30
0.0
 10
15.6950746312
 20
11.7929936981
 30
0.0
 10
15.6919227036
 20
11.7911951611
 30
0.0
 10
15.6894053656
 20
11.7905081406
 30
0.0
 10
15.6881647554
 20
11.7903956572
 30
0.0
 10
15.6875533761
 20
11.7903953881
 30
0.0
  0
SPLINE
  5
490
100
AcDbEntity
  8
0
100
AcDbSpline
 62
7
  6
CONTINUOUS
 70
0
 71
3
 72
13
 73
9
 74
0
 42
0.0000001
 43
0.0000001
 44
0.0000000001
 40
0.0
 40
0.0
 40
0.0
 40
0.0
 40
0.13019202
 40
0.2606403845
 40
0.5176662156
 40
0.6431514796
 40
0.7657498721
 40
1.0
 40
1.0
 40
1.0
 40
1.0
 10
15.7300193064
 20
13.0416869338
 30
0.0
 10
15.7330277093
 20
13.0379977366
 30
0.0
 10
15.7394420344
 20
13.030920567
 30
0.0
 10
15.7535278284
 20
13.0182445981
 30
0.0
 10
15.769367878
 20
13.0078929843
 30
0.0
 10
15.786298498
 20
13.0004278356
 30
0.0
 10
15.8031553648
 20
12.9951666717
 30
0.0
 10
15.8162814569
 20
12.9935036213
 30
0.0
 10
15.8248458615
 20
12.9936117405
 30
0.0
  0
SPLINE
  5
491
100
AcDbEntity
  8
0
100
AcDbSpline
 62
7
  6
CONTINUOUS
 70
0
 71
3
 72
14
 73
10
 74
0
 42
0.0000001
 43
0.0000001
 44
0.0000000001
 40
0.0
 40
0.0
 40
0.0
 40
0.0
 40
0.2618021055
 40
0.3889954544
 40
0.5138237121
 40
0.636757669
 40
0.7583487421
 40
0.8792132492
 40
1.0
 40
1.0
 40
1.0
 40
1.0
 10
15.7758770907
 20
13.1900827782
 30
0.0
 10
15.7701965837
 20
13.190011066
 30
0.0
 10
15.7617300325
 20
13.1891135948
 30
0.0
 10
15.7509427817
 20
13.1862332552
 30
0.0
 10
15.7433376775
 20
13.1832931658
 30
0.0
 10
15.7362127131
 20
13.1795869688
 30
0.0
 10
15.7296248525
 20
13.1751430384
 30
0.0
 10
15.7236321943
 20
13.169996805
 30
0.0
 10
15.7200682782
 20
13.1661313334
 30
0.0
 10
15.7184065772
 20
13.1641044103
 30
0.0
  0
SPLINE
  5
492
100
AcDbEntity
  8
0
100
AcDbSpline
 62
7
  6
CONTINUOUS
 70
0
 71
3
 72
9
 73
5
 74
0
 42
0.0000001
 43
0.0000001
 44
0.0000000001
 40
0.0
 40
0.0
 40
0.0
 40
0.0
 40
0.4951160661
 40
1.0
 40
1.0
 40
1.0
 40
1.0
 10
15.7184065772
 20
13.1641044103
 30
0.0
 10
15.7155267375
 20
13.1605916162
 30
0.0
 10
15.7104216054
 20
13.1528866167
 30
0.0
 10
15.7069025044
 20
13.1443479544
 30
0.0
 10
15.7055349209
 20
13.1399224526
 30
0.0
  0
SPLINE
  5
493
100
AcDbEntity
  8
0
100
AcDbSpline
 62
7
  6
CONTINUOUS
 70
0
 71
3
 72
9
 73
5
 74
0
 42
0.0000001
 43
0.0000001
 44
0.0000000001
 40
0.0
 40
0.0
 40
0.0
 40
0.0
 40
0.2554097844
 40
1.0
 40
1.0
 40
1.0
 40
1.0
 10
15.7975470373
 20
13.1879208046
 30
0.0
 10
15.7957299412
 20
13.1882992826
 30
0.0
 10
15.788579242
 20
13.1895976724
 30
0.0
 10
15.7812876864
 20
13.190151083
 30
0.0
 10
15.7758770907
 20
13.1900827782
 30
0.0
  0
SPLINE
  5
494
100
AcDbEntity
  8
0
100
AcDbSpline
 62
7
  6
CONTINUOUS
 70
0
 71
3
 72
9
 73
5
 74
0
 42
0.0000001
 43
0.0000001
 44
0.0000000001
 40
0.0
 40
0.0
 40
0.0
 40
0.0
 40
0.4851504842
 40
1.0
 40
1.0
 40
1.0
 40
1.0
 10
15.8951880313
 20
13.0437720661
 30
0.0
 10
15.8974158064
 20
13.0509811492
 30
0.0
 10
15.8998061433
 20
13.0665763793
 30
0.0
 10
15.8981438982
 20
13.0822064274
 30
0.0
 10
15.8964293289
 20
13.0900280646
 30
0.0
  0
SPLINE
  5
495
100
AcDbEntity
  8
0
100
AcDbSpline
 62
7
  6
CONTINUOUS
 70
0
 71
3
 72
15
 73
11
 74
0
 42
0.0000001
 43
0.0000001
 44
0.0000000001
 40
0.0
 40
0.0
 40
0.0
 40
0.0
 40
0.13710164
 40
0.2706159917
 40
0.4001504908
 40
0.5258142932
 40
0.648027626
 40
0.7673481319
 40
0.8844137659
 40
1.0
 40
1.0
 40
1.0
 40
1.0
 10
14.831165152
 20
12.4043625864
 30
0.0
 10
14.8346175222
 20
12.4043625864
 30
0.0
 10
14.8414390767
 20
12.4039726726
 30
0.0
 10
14.8513830969
 20
12.402200861
 30
0.0
 10
14.8607501445
 20
12.3992642746
 30
0.0
 10
14.8693837699
 20
12.3952213182
 30
0.0
 10
14.8771535285
 20
12.3901499595
 30
0.0
 10
14.8839345925
 20
12.3841355982
 30
0.0
 10
14.8896235889
 20
12.3772954795
 30
0.0
 10
14.8926295566
 20
12.3722330147
 30
0.0
 10
14.8939115144
 20
12.3696199494
 30
0.0
  0
SPLINE
  5
496
100
AcDbEntity
  8
0
100
AcDbSpline
 62
7
  6
CONTINUOUS
 70
0
 71
3
 72
14
 73
10
 74
0
 42
0.0000001
 43
0.0000001
 44
0.0000000001
 40
0.0
 40
0.0
 40
0.0
 40
0.0
 40
0.2606505452
 40
0.3860124879
 40
0.5088744525
 40
0.6304392386
 40
0.7520353503
 40
0.8749426813
 40
1.0
 40
1.0
 40
1.0
 40
1.0
 10
15.8248458615
 20
12.9936117405
 30
0.0
 10
15.8328871205
 20
12.9937132554
 30
0.0
 10
15.8448925324
 20
12.9954513517
 30
0.0
 10
15.8595403185
 20
13.0012420589
 30
0.0
 10
15.8693950301
 20
13.0070963006
 30
0.0
 10
15.8780575731
 20
13.0144215631
 30
0.0
 10
15.8853850437
 20
13.0230865742
 30
0.0
 10
15.8912266117
 20
13.0329352999
 30
0.0
 10
15.8940488439
 20
13.0400856544
 30
0.0
 10
15.8951880313
 20
13.0437720661
 30
0.0
  0
SPLINE
  5
497
100
AcDbEntity
  8
0
100
AcDbSpline
 62
7
  6
CONTINUOUS
 70
0
 71
3
 72
14
 73
10
 74
0
 42
0.0000001
 43
0.0000001
 44
0.0000000001
 40
0.0
 40
0.0
 40
0.0
 40
0.0
 40
0.1181061354
 40
0.2362773923
 40
0.3555812664
 40
0.4772041478
 40
0.6020349233
 40
0.730696448
 40
1.0
 40
1.0
 40
1.0
 40
1.0
 10
15.6685174764
 20
13.2227679191
 30
0.0
 10
15.6632831009
 20
13.2190353362
 30
0.0
 10
15.6534090634
 20
13.2106852391
 30
0.0
 10
15.6408566337
 20
13.1958394678
 30
0.0
 10
15.6308292758
 20
13.1789570032
 30
0.0
 10
15.623504288
 20
13.1603573603
 30
0.0
 10
15.6189866498
 20
13.1403634657
 30
0.0
 10
15.616771887
 20
13.111918836
 30
0.0
 10
15.6195861746
 20
13.0901223673
 30
0.0
 10
15.6231313721
 20
13.0758984319
 30
0.0
  0
SPLINE
  5
498
100
AcDbEntity
  8
0
100
AcDbSpline
 62
7
  6
CONTINUOUS
 70
0
 71
3
 72
14
 73
10
 74
0
 42
0.0000001
 43
0.0000001
 44
0.0000000001
 40
0.0
 40
0.0
 40
0.0
 40
0.0
 40
0.1136197212
 40
0.229584038
 40
0.3485831569
 40
0.4712651925
 40
0.5979067105
 40
0.7285136593
 40
1.0
 40
1.0
 40
1.0
 40
1.0
 10
15.9046849611
 20
12.9331563153
 30
0.0
 10
15.8993947006
 20
12.9293838814
 30
0.0
 10
15.8880482674
 20
12.9226425537
 30
0.0
 10
15.8694360216
 20
12.9152907115
 30
0.0
 10
15.8494155101
 20
12.9107474243
 30
0.0
 10
15.8283510735
 20
12.9090806754
 30
0.0
 10
15.8065927494
 20
12.9102981739
 30
0.0
 10
15.7768021183
 20
12.9158021453
 30
0.0
 10
15.7550626036
 20
12.9240722262
 30
0.0
 10
15.7412151145
 20
12.93109263
 30
0.0
  0
SPLINE
  5
499
100
AcDbEntity
  8
0
100
AcDbSpline
 62
7
  6
CONTINUOUS
 70
0
 71
3
 72
12
 73
8
 74
0
 42
0.0000001
 43
0.0000001
 44
0.0000000001
 40
0.0
 40
0.0
 40
0.0
 40
0.0
 40
0.2515356492
 40
0.3790668679
 40
0.5065821092
 40
0.7579176989
 40
1.0
 40
1.0
 40
1.0
 40
1.0
 10
15.7412151145
 20
12.93109263
 30
0.0
 10
15.7268452965
 20
12.9383778443
 30
0.0
 10
15.7063225837
 20
12.9517894192
 30
0.0
 10
15.6821685661
 20
12.9735117502
 30
0.0
 10
15.6603637757
 20
12.997593873
 30
0.0
 10
15.6383148268
 20
13.0310467082
 30
0.0
 10
15.6268812834
 20
13.06085315
 30
0.0
 10
15.6231313721
 20
13.0758984319
 30
0.0
  0
SPLINE
  5
49A
100
AcDbEntity
  8
0
100
AcDbSpline
 62
7
  6
CONTINUOUS
 70
0
 71
3
 72
14
 73
10
 74
0
 42
0.0000001
 43
0.0000001
 44
0.0000000001
 40
0.0
 40
0.0
 40
0.0
 40
0.0
 40
0.1136197212
 40
0.229584038
 40
0.3485831569
 40
0.4712651925
 40
0.5979067105
 40
0.7285136593
 40
1.0
 40
1.0
 40
1.0
 40
1.0
 10
15.6685174764
 20
13.2227679191
 30
0.0
 10
15.6738077369
 20
13.2265403531
 30
0.0
 10
15.6851541701
 20
13.2332816808
 30
0.0
 10
15.7037664158
 20
13.240633523
 30
0.0
 10
15.7237869274
 20
13.2451768101
 30
0.0
 10
15.7448513639
 20
13.2468435591
 30
0.0
 10
15.7666096881
 20
13.2456260605
 30
0.0
 10
15.7964003191
 20
13.2401220892
 30
0.0
 10
15.8181398339
 20
13.2318520083
 30
0.0
 10
15.831987323
 20
13.2248316044
 30
0.0
  0
SPLINE
  5
49B
100
AcDbEntity
  8
0
100
AcDbSpline
 62
7
  6
CONTINUOUS
 70
0
 71
3
 72
9
 73
5
 74
0
 42
0.0000001
 43
0.0000001
 44
0.0000000001
 40
0.0
 40
0.0
 40
0.0
 40
0.0
 40
0.2474342118
 40
1.0
 40
1.0
 40
1.0
 40
1.0
 10
15.831987323
 20
13.2248316044
 30
0.0
 10
15.8353256746
 20
13.223139126
 30
0.0
 10
15.8486393788
 20
13.2159521457
 30
0.0
 10
15.8612256408
 20
13.2074252094
 30
0.0
 10
15.8701636498
 20
13.2003750885
 30
0.0
  0
SPLINE
  5
49C
100
AcDbEntity
  8
0
100
AcDbSpline
 62
7
  6
CONTINUOUS
 70
0
 71
3
 72
9
 73
5
 74
0
 42
0.0000001
 43
0.0000001
 44
0.0000000001
 40
0.0
 40
0.0
 40
0.0
 40
0.0
 40
0.509253088
 40
1.0
 40
1.0
 40
1.0
 40
1.0
 10
15.9091184104
 20
13.1615423678
 30
0.0
 10
15.9188018729
 20
13.1493459495
 30
0.0
 10
15.935500886
 20
13.123448966
 30
0.0
 10
15.9464416797
 20
13.094587515
 30
0.0
 10
15.9500710653
 20
13.0800258025
 30
0.0
  0
SPLINE
  5
49D
100
AcDbEntity
  8
0
100
AcDbSpline
 62
7
  6
CONTINUOUS
 70
0
 71
3
 72
11
 73
7
 74
0
 42
0.0000001
 43
0.0000001
 44
0.0000000001
 40
0.0
 40
0.0
 40
0.0
 40
0.0
 40
0.2617563958
 40
0.5155996147
 40
0.7614924921
 40
1.0
 40
1.0
 40
1.0
 40
1.0
 10
15.9500710653
 20
13.0800258025
 30
0.0
 10
15.9518744279
 20
13.072790405
 30
0.0
 10
15.9545865095
 20
13.0583106953
 30
0.0
 10
15.9558511587
 20
13.0365935788
 30
0.0
 10
15.9542146233
 20
13.0155610144
 30
0.0
 10
15.9511623022
 20
13.0020414758
 30
0.0
 10
15.9491562591
 20
12.9955499178
 30
0.0
  0
SPLINE
  5
49E
100
AcDbEntity
  8
0
100
AcDbSpline
 62
7
  6
CONTINUOUS
 70
0
 71
3
 72
11
 73
7
 74
0
 42
0.0000001
 43
0.0000001
 44
0.0000000001
 40
0.0
 40
0.0
 40
0.0
 40
0.0
 40
0.2548359482
 40
0.5048951045
 40
0.7524436108
 40
1.0
 40
1.0
 40
1.0
 40
1.0
 10
15.9491562591
 20
12.9955499178
 30
0.0
 10
15.9472018526
 20
12.9892254562
 30
0.0
 10
15.942369886
 20
12.9769652659
 30
0.0
 10
15.9323470592
 20
12.9600868168
 30
0.0
 10
15.9197951528
 20
12.9452380497
 30
0.0
 10
15.909920603
 20
12.9368898013
 30
0.0
 10
15.9046849611
 20
12.9331563153
 30
0.0
  0
SPLINE
  5
49F
100
AcDbEntity
  8
0
100
AcDbSpline
 62
7
  6
CONTINUOUS
 70
0
 71
3
 72
9
 73
5
 74
0
 42
0.0000001
 43
0.0000001
 44
0.0000000001
 40
0.0
 40
0.0
 40
0.0
 40
0.0
 40
0.5198037026
 40
1.0
 40
1.0
 40
1.0
 40
1.0
 10
15.8277717537
 20
12.8761511637
 30
0.0
 10
15.8409692348
 20
12.8862010056
 30
0.0
 10
15.8664441475
 20
12.9054230803
 30
0.0
 10
15.8922079702
 20
12.924259093
 30
0.0
 10
15.9046849611
 20
12.9331563153
 30
0.0
  0
SPLINE
  5
4A0
100
AcDbEntity
  8
0
100
AcDbSpline
 62
7
  6
CONTINUOUS
 70
0
 71
3
 72
16
 73
12
 74
0
 42
0.0000001
 43
0.0000001
 44
0.0000000001
 40
0.0
 40
0.0
 40
0.0
 40
0.0
 40
0.0620387041
 40
0.1254084789
 40
0.2548398373
 40
0.3862626842
 40
0.517454324
 40
0.6461675998
 40
0.7703972628
 40
0.8886380514
 40
1.0
 40
1.0
 40
1.0
 40
1.0
 10
16.9163024391
 20
11.9752644181
 30
0.0
 10
16.924710332
 20
11.9755847715
 30
0.0
 10
16.9416875282
 20
11.9769172779
 30
0.0
 10
16.9758680502
 20
11.9822103512
 30
0.0
 10
17.0184779495
 20
11.9937207789
 30
0.0
 10
17.0675498428
 20
12.014607273
 30
0.0
 10
17.1132476679
 20
12.041930316
 30
0.0
 10
17.1539450131
 20
12.0747372713
 30
0.0
 10
17.1882157417
 20
12.1118878052
 30
0.0
 10
17.2148151576
 20
12.1520855339
 30
0.0
 10
17.2271710392
 20
12.180918909
 30
0.0
 10
17.2316302944
 20
12.195349064
 30
0.0
  0
SPLINE
  5
4A1
100
AcDbEntity
  8
0
100
AcDbSpline
 62
7
  6
CONTINUOUS
 70
0
 71
3
 72
12
 73
8
 74
0
 42
0.0000001
 43
0.0000001
 44
0.0000000001
 40
0.0
 40
0.0
 40
0.0
 40
0.0
 40
0.2642720615
 40
0.3921061222
 40
0.5172504578
 40
0.7609831962
 40
1.0
 40
1.0
 40
1.0
 40
1.0
 10
17.2316302944
 20
12.195349064
 30
0.0
 10
17.2349327039
 20
12.2060356652
 30
0.0
 10
17.2385975783
 20
12.2223281224
 30
0.0
 10
17.2405241369
 20
12.244159827
 30
0.0
 10
17.2404293643
 20
12.2652095803
 30
0.0
 10
17.2366294067
 20
12.2908312586
 30
0.0
 10
17.2295223212
 20
12.3101683732
 30
0.0
 10
17.2250669887
 20
12.3192507581
 30
0.0
  0
SPLINE
  5
4A2
100
AcDbEntity
  8
0
100
AcDbSpline
 62
7
  6
CONTINUOUS
 70
0
 71
3
 72
11
 73
7
 74
0
 42
0.0000001
 43
0.0000001
 44
0.0000000001
 40
0.0
 40
0.0
 40
0.0
 40
0.0
 40
0.2378380599
 40
0.4833787187
 40
0.7374051167
 40
1.0
 40
1.0
 40
1.0
 40
1.0
 10
15.591604269
 20
13.1657627675
 30
0.0
 10
15.5947254605
 20
13.1588770036
 30
0.0
 10
15.6008142904
 20
13.1447649013
 30
0.0
 10
15.6091833302
 20
13.1228617305
 30
0.0
 10
15.6167575647
 20
13.0998396845
 30
0.0
 10
15.6211126906
 20
13.0839977256
 30
0.0
 10
15.6231313721
 20
13.0758984319
 30
0.0
  0
SPLINE
  5
4A3
100
AcDbEntity
  8
0
100
AcDbSpline
 62
7
  6
CONTINUOUS
 70
0
 71
3
 72
11
 73
7
 74
0
 42
0.0000001
 43
0.0000001
 44
0.0000000001
 40
0.0
 40
0.0
 40
0.0
 40
0.0
 40
0.2578238233
 40
0.5105165779
 40
0.7578118237
 40
1.0
 40
1.0
 40
1.0
 40
1.0
 10
15.7412151145
 20
12.93109263
 30
0.0
 10
15.7490843086
 20
12.9271031038
 30
0.0
 10
15.7644665228
 20
12.9188020689
 30
0.0
 10
15.7866365345
 20
12.9053296665
 30
0.0
 10
15.8076981663
 20
12.8911221974
 30
0.0
 10
15.8211866527
 20
12.8811832638
 30
0.0
 10
15.8277717537
 20
12.8761511637
 30
0.0
  0
SPLINE
  5
4A4
100
AcDbEntity
  8
0
100
AcDbSpline
 62
7
  6
CONTINUOUS
 70
0
 71
3
 72
14
 73
10
 74
0
 42
0.0000001
 43
0.0000001
 44
0.0000000001
 40
0.0
 40
0.0
 40
0.0
 40
0.0
 40
0.1164602241
 40
0.2338170881
 40
0.352943187
 40
0.4746607151
 40
0.5997119527
 40
0.7287282144
 40
1.0
 40
1.0
 40
1.0
 40
1.0
 10
14.5115077628
 20
11.9071687857
 30
0.0
 10
14.5097638459
 20
11.9015235163
 30
0.0
 10
14.5068741032
 20
11.889990362
 30
0.0
 10
14.5044044301
 20
11.8722227578
 30
0.0
 10
14.5038063482
 20
11.8540267094
 30
0.0
 10
14.5050750197
 20
11.8354770402
 30
0.0
 10
14.5082044928
 20
11.8166407637
 30
0.0
 10
14.5149540398
 20
11.7908289613
 30
0.0
 10
14.5226230439
 20
11.7719008054
 30
0.0
 10
14.5286861043
 20
11.7595455874
 30
0.0
  0
SPLINE
  5
4A5
100
AcDbEntity
  8
0
100
AcDbSpline
 62
7
  6
CONTINUOUS
 70
0
 71
3
 72
21
 73
17
 74
0
 42
0.0000001
 43
0.0000001
 44
0.0000000001
 40
0.0
 40
0.0
 40
0.0
 40
0.0
 40
0.0126683249
 40
0.0277811002
 40
0.0593752488
 40
0.0914798087
 40
0.1236034159
 40
0.1875461427
 40
0.2511170062
 40
0.3143853623
 40
0.3774121861
 40
0.5029040603
 40
0.6278139018
 40
0.7522596214
 40
0.8763083788
 40
1.0
 40
1.0
 40
1.0
 40
1.0
 10
16.5151374681
 20
12.0063449165
 30
0.0
 10
16.5151087126
 20
12.0064035141
 30
0.0
 10
16.5150091972
 20
12.0065120131
 30
0.0
 10
16.5147617071
 20
12.0066914699
 30
0.0
 10
16.514392986
 20
12.0068679558
 30
0.0
 10
16.5139331964
 20
12.0070466624
 30
0.0
 10
16.5133071573
 20
12.007257998
 30
0.0
 10
16.5125174191
 20
12.0074884122
 30
0.0
 10
16.5115670691
 20
12.0077398645
 30
0.0
 10
16.510617548
 20
12.0079754053
 30
0.0
 10
16.509355459
 20
12.0082757461
 30
0.0
 10
16.5077810282
 20
12.0086352324
 30
0.0
 10
16.5058959345
 20
12.0090555489
 30
0.0
 10
16.5040173324
 20
12.0094708039
 30
0.0
 10
16.5021448935
 20
12.0098848549
 30
0.0
 10
16.5008988683
 20
12.0101619858
 30
0.0
 10
16.5002768901
 20
12.0103009614
 30
0.0
  0
SPLINE
  5
4A6
100
AcDbEntity
  8
0
100
AcDbSpline
 62
7
  6
CONTINUOUS
 70
0
 71
3
 72
10
 73
6
 74
0
 42
0.0000001
 43
0.0000001
 44
0.0000000001
 40
0.0
 40
0.0
 40
0.0
 40
0.0
 40
0.2469512254
 40
0.4967167223
 40
1.0
 40
1.0
 40
1.0
 40
1.0
 10
15.7412151145
 20
12.93109263
 30
0.0
 10
15.7332154294
 20
12.9351483126
 30
0.0
 10
15.7169095884
 20
12.9428881084
 30
0.0
 10
15.6833824903
 20
12.956878744
 30
0.0
 10
15.6575038788
 20
12.9658215963
 30
0.0
 10
15.6400693611
 20
12.9713125748
 30
0.0
  0
SPLINE
  5
4A7
100
AcDbEntity
  8
0
100
AcDbSpline
 62
7
  6
CONTINUOUS
 70
0
 71
3
 72
9
 73
5
 74
0
 42
0.0000001
 43
0.0000001
 44
0.0000000001
 40
0.0
 40
0.0
 40
0.0
 40
0.0
 40
0.5081322685
 40
1.0
 40
1.0
 40
1.0
 40
1.0
 10
15.6400693611
 20
12.9713125748
 30
0.0
 10
15.6383583312
 20
12.989188643
 30
0.0
 10
15.634157451
 20
13.0243000266
 30
0.0
 10
15.6273353217
 20
13.0590314712
 30
0.0
 10
15.6231313721
 20
13.0758984319
 30
0.0
  0
SPLINE
  5
4A8
100
AcDbEntity
  8
0
100
AcDbSpline
 62
7
  6
CONTINUOUS
 70
0
 71
3
 72
15
 73
11
 74
0
 42
0.0000001
 43
0.0000001
 44
0.0000000001
 40
0.0
 40
0.0
 40
0.0
 40
0.0
 40
0.1517148695
 40
0.2867353802
 40
0.4078217316
 40
0.519570902
 40
0.6282467805
 40
0.740729492
 40
0.8631623719
 40
1.0
 40
1.0
 40
1.0
 40
1.0
 10
15.7030582019
 20
11.8181846841
 30
0.0
 10
15.7021880898
 20
11.8170254081
 30
0.0
 10
15.70041023
 20
11.8149276264
 30
0.0
 10
15.697442535
 20
11.8123729316
 30
0.0
 10
15.6943514865
 20
11.8106393952
 30
0.0
 10
15.6911639932
 20
11.8097803292
 30
0.0
 10
15.6879413248
 20
11.8098292077
 30
0.0
 10
15.6847629348
 20
11.8107911581
 30
0.0
 10
15.6816850663
 20
11.812617271
 30
0.0
 10
15.6798285471
 20
11.8142786766
 30
0.0
 10
15.6789202458
 20
11.8152189714
 30
0.0
  0
LINE
  5
4A9
100
AcDbEntity
  8
0
100
AcDbLine
 62
7
  6
CONTINUOUS
 10
15.6789202458
 20
11.8152189714
 11
15.6772407659
 21
11.8171194271
  0
SPLINE
  5
4AA
100
AcDbEntity
  8
0
100
AcDbSpline
 62
7
  6
CONTINUOUS
 70
0
 71
3
 72
9
 73
5
 74
0
 42
0.0000001
 43
0.0000001
 44
0.0000000001
 40
0.0
 40
0.0
 40
0.0
 40
0.0
 40
0.4733119775
 40
1.0
 40
1.0
 40
1.0
 40
1.0
 10
15.6772407659
 20
11.8171194271
 30
0.0
 10
15.6762052721
 20
11.8183933939
 30
0.0
 10
15.6742143739
 20
11.8212466477
 30
0.0
 10
15.6725503995
 20
11.8242966554
 30
0.0
 10
15.671745591
 20
11.8259366829
 30
0.0
  0
SPLINE
  5
4AB
100
AcDbEntity
  8
0
100
AcDbSpline
 62
7
  6
CONTINUOUS
 70
0
 71
3
 72
13
 73
9
 74
0
 42
0.0000001
 43
0.0000001
 44
0.0000000001
 40
0.0
 40
0.0
 40
0.0
 40
0.0
 40
0.1178139814
 40
0.2465141022
 40
0.5182740417
 40
0.7803125638
 40
0.8973657133
 40
1.0
 40
1.0
 40
1.0
 40
1.0
 10
16.8999993438
 20
12.0239066274
 30
0.0
 10
16.8998088238
 20
12.0232304759
 30
0.0
 10
16.8994925733
 20
12.0217920426
 30
0.0
 10
16.899093942
 20
12.0187246842
 30
0.0
 10
16.8990494093
 20
12.0147602701
 30
0.0
 10
16.8995456427
 20
12.0108930692
 30
0.0
 10
16.9002997937
 20
12.0081176611
 30
0.0
 10
16.9007807209
 20
12.006894301
 30
0.0
 10
16.9010503196
 20
12.0063449165
 30
0.0
  0
SPLINE
  5
4AC
100
AcDbEntity
  8
0
100
AcDbSpline
 62
7
  6
CONTINUOUS
 70
0
 71
3
 72
9
 73
5
 74
0
 42
0.0000001
 43
0.0000001
 44
0.0000000001
 40
0.0
 40
0.0
 40
0.0
 40
0.0
 40
0.4627381132
 40
1.0
 40
1.0
 40
1.0
 40
1.0
 10
15.9670090542
 20
12.9754399454
 30
0.0
 10
15.9572288454
 20
12.9691693207
 30
0.0
 10
15.9362644745
 20
12.9553494604
 30
0.0
 10
15.9156674863
 20
12.9409878486
 30
0.0
 10
15.9046849611
 20
12.9331563153
 30
0.0
  0
SPLINE
  5
4AD
100
AcDbEntity
  8
0
100
AcDbSpline
 62
7
  6
CONTINUOUS
 70
0
 71
3
 72
11
 73
7
 74
0
 42
0.0000001
 43
0.0000001
 44
0.0000000001
 40
0.0
 40
0.0
 40
0.0
 40
0.0
 40
0.2636306391
 40
0.5167134803
 40
0.7610586731
 40
1.0
 40
1.0
 40
1.0
 40
1.0
 10
16.5766760151
 20
12.234199687
 30
0.0
 10
16.5750054561
 20
12.2287937561
 30
0.0
 10
16.5724836553
 20
12.2179433661
 30
0.0
 10
16.5713384583
 20
12.2015759967
 30
0.0
 10
16.5729679603
 20
12.1857749895
 30
0.0
 10
16.5759150887
 20
12.1757561772
 30
0.0
 10
16.5778201767
 20
12.170994893
 30
0.0
  0
SPLINE
  5
4AE
100
AcDbEntity
  8
0
100
AcDbSpline
 62
7
  6
CONTINUOUS
 70
0
 71
3
 72
15
 73
11
 74
0
 42
0.0000001
 43
0.0000001
 44
0.0000000001
 40
0.0
 40
0.0
 40
0.0
 40
0.0
 40
0.1242574412
 40
0.2531490526
 40
0.3844921408
 40
0.5159466171
 40
0.645113174
 40
0.7698281353
 40
0.8884507985
 40
1.0
 40
1.0
 40
1.0
 40
1.0
 10
16.7584146584
 20
12.3565945166
 30
0.0
 10
16.7487822907
 20
12.3565945166
 30
0.0
 10
16.7291308623
 20
12.3549203451
 30
0.0
 10
16.7000579299
 20
12.3479104556
 30
0.0
 10
16.6717652892
 20
12.3366079577
 30
0.0
 10
16.6453173265
 20
12.3214460517
 30
0.0
 10
16.6217015639
 20
12.3029821525
 30
0.0
 10
16.60179591
 20
12.281896383
 30
0.0
 10
16.5863645003
 20
12.2589667821
 30
0.0
 10
16.5792290876
 20
12.2424614327
 30
0.0
 10
16.5766760151
 20
12.234199687
 30
0.0
  0
SPLINE
  5
4AF
100
AcDbEntity
  8
0
100
AcDbSpline
 62
7
  6
CONTINUOUS
 70
0
 71
3
 72
9
 73
5
 74
0
 42
0.0000001
 43
0.0000001
 44
0.0000000001
 40
0.0
 40
0.0
 40
0.0
 40
0.0
 40
0.4993029993
 40
1.0
 40
1.0
 40
1.0
 40
1.0
 10
16.5788264796
 20
12.4444927466
 30
0.0
 10
16.585882596
 20
12.4462247836
 30
0.0
 10
16.6003037928
 20
12.4485377323
 30
0.0
 10
16.6148620651
 20
12.4492222887
 30
0.0
 10
16.6221479346
 20
12.4492254109
 30
0.0
  0
SPLINE
  5
4B0
100
AcDbEntity
  8
0
100
AcDbSpline
 62
7
  6
CONTINUOUS
 70
0
 71
3
 72
9
 73
5
 74
0
 42
0.0000001
 43
0.0000001
 44
0.0000000001
 40
0.0
 40
0.0
 40
0.0
 40
0.0
 40
0.5417667457
 40
1.0
 40
1.0
 40
1.0
 40
1.0
 10
15.6901029083
 20
11.9673585539
 30
0.0
 10
15.6885508145
 20
11.9694275943
 30
0.0
 10
15.6853668767
 20
11.9730320968
 30
0.0
 10
15.6813311268
 20
11.9757413976
 30
0.0
 10
15.6793215029
 20
11.9766059079
 30
0.0
  0
SPLINE
  5
4B1
100
AcDbEntity
  8
0
100
AcDbSpline
 62
7
  6
CONTINUOUS
 70
0
 71
3
 72
40
 73
36
 74
0
 42
0.0000001
 43
0.0000001
 44
0.0000000001
 40
0.0
 40
0.0
 40
0.0
 40
0.0
 40
0.0265226592
 40
0.0543700929
 40
0.0835317863
 40
0.1139861008
 40
0.1456883619
 40
0.1785577874
 40
0.2124929498
 40
0.2473732206
 40
0.2830650343
 40
0.3194200558
 40
0.3562816629
 40
0.3934850024
 40
0.4308612902
 40
0.4682389467
 40
0.5054463853
 40
0.5423147245
 40
0.5786790244
 40
0.6143826196
 40
0.6492770508
 40
0.6832280922
 40
0.7161147184
 40
0.7478368488
 40
0.7783138694
 40
0.8074940577
 40
0.8353532784
 40
0.8619057317
 40
0.8872030619
 40
0.8994151883
 40
0.9113545777
 40
0.9344862764
 40
0.9568047295
 40
0.9785502109
 40
1.0
 40
1.0
 40
1.0
 40
1.0
 10
15.6572808488
 20
11.7791287601
 30
0.0
 10
15.6510916821
 20
11.7917409558
 30
0.0
 10
15.6370877133
 20
11.8169646134
 30
0.0
 10
15.6122230151
 20
11.8536239742
 30
0.0
 10
15.5831525794
 20
11.8897586411
 30
0.0
 10
15.5500925889
 20
11.925123967
 30
0.0
 10
15.513259373
 20
11.9594834103
 30
0.0
 10
15.4729079787
 20
11.9926160475
 30
0.0
 10
15.4293051071
 20
12.0242878528
 30
0.0
 10
15.3827531906
 20
12.0542935348
 30
0.0
 10
15.3335630525
 20
12.0824213891
 30
0.0
 10
15.2820734283
 20
12.1084895031
 30
0.0
 10
15.2286301354
 20
12.132311481
 30
0.0
 10
15.1736005679
 20
12.1537344105
 30
0.0
 10
15.1173557627
 20
12.1726034267
 30
0.0
 10
15.0602815309
 20
12.1887993309
 30
0.0
 10
15.0027636091
 20
12.2022025514
 30
0.0
 10
14.9451957245
 20
12.2127313631
 30
0.0
 10
14.8879674699
 20
12.2203044824
 30
0.0
 10
14.8314694998
 20
12.2248802256
 30
0.0
 10
14.776084389
 20
12.2264172341
 30
0.0
 10
14.722188671
 20
12.2249151564
 30
0.0
 10
14.6701473387
 20
12.2203728296
 30
0.0
 10
14.6203120365
 20
12.2128309889
 30
0.0
 10
14.5730204046
 20
12.2023272767
 30
0.0
 10
14.5285895744
 20
12.1889415034
 30
0.0
 10
14.4873212856
 20
12.1727464854
 30
0.0
 10
14.4494934069
 20
12.1538588751
 30
0.0
 10
14.4207174647
 20
12.1357489134
 30
0.0
 10
14.39975911
 20
12.1200175036
 30
0.0
 10
14.3806052185
 20
12.1038627601
 30
0.0
 10
14.3591291138
 20
12.0822314224
 30
0.0
 10
14.3374364027
 20
12.0538795876
 30
0.0
 10
14.3202740251
 20
12.0235924724
 30
0.0
 10
14.3119138533
 20
12.0021932573
 30
0.0
 10
14.3085595365
 20
11.9913378056
 30
0.0
  0
SPLINE
  5
4B2
100
AcDbEntity
  8
0
100
AcDbSpline
 62
7
  6
CONTINUOUS
 70
0
 71
3
 72
18
 73
14
 74
0
 42
0.0000001
 43
0.0000001
 44
0.0000000001
 40
0.0
 40
0.0
 40
0.0
 40
0.0
 40
0.0642157289
 40
0.1303257399
 40
0.2659107864
 40
0.4030364261
 40
0.5377163904
 40
0.6662846174
 40
0.7861946214
 40
0.8427015556
 40
0.8969523222
 40
0.9492341725
 40
1.0
 40
1.0
 40
1.0
 40
1.0
 10
14.8366103272
 20
12.3932664862
 30
0.0
 10
14.8329638053
 20
12.3932664862
 30
0.0
 10
14.8255581347
 20
12.3928635607
 30
0.0
 10
14.8106163734
 20
12.3905565324
 30
0.0
 10
14.792101978
 20
12.3848928484
 30
0.0
 10
14.77143346
 20
12.3742411848
 30
0.0
 10
14.7533079358
 20
12.3602977588
 30
0.0
 10
14.7388174272
 20
12.3438785352
 30
0.0
 10
14.730327326
 20
12.3285771323
 30
0.0
 10
14.726296525
 20
12.3160772521
 30
0.0
 10
14.7246930281
 20
12.3069248055
 30
0.0
 10
14.724492286
 20
12.2979607427
 30
0.0
 10
14.7253023993
 20
12.2921334701
 30
0.0
 10
14.7259430592
 20
12.2893227985
 30
0.0
  0
SPLINE
  5
4B3
100
AcDbEntity
  8
0
100
AcDbSpline
 62
7
  6
CONTINUOUS
 70
0
 71
3
 72
28
 73
24
 74
0
 42
0.0000001
 43
0.0000001
 44
0.0000000001
 40
0.0
 40
0.0
 40
0.0
 40
0.0
 40
0.0633841502
 40
0.1350832401
 40
0.2132683091
 40
0.2959248417
 40
0.3807285033
 40
0.4652453919
 40
0.5470585461
 40
0.6238953862
 40
0.6937450958
 40
0.7550390247
 40
0.7821988512
 40
0.80696865
 40
0.829415933
 40
0.8497354419
 40
0.8682531402
 40
0.885475075
 40
0.90207867
 40
0.9188272376
 40
0.9364696572
 40
0.9556229761
 40
1.0
 40
1.0
 40
1.0
 40
1.0
 10
15.671745591
 20
11.8259366829
 30
0.0
 10
15.670247617
 20
11.8289892329
 30
0.0
 10
15.6675669042
 20
11.8357479347
 30
0.0
 10
15.6645305208
 20
11.8467948729
 30
0.0
 10
15.6623200214
 20
11.8590878889
 30
0.0
 10
15.661009595
 20
11.8722124811
 30
0.0
 10
15.6606419165
 20
11.8857364763
 30
0.0
 10
15.6612326375
 20
11.8992074537
 30
0.0
 10
15.6627617042
 20
11.9121749324
 30
0.0
 10
15.6651728414
 20
11.924209669
 30
0.0
 10
15.6683854937
 20
11.9349126381
 30
0.0
 10
15.671766569
 20
11.9427363935
 30
0.0
 10
15.674844445
 20
11.9479812443
 30
0.0
 10
15.6771874045
 20
11.9512200068
 30
0.0
 10
15.6796429506
 20
11.9538972072
 30
0.0
 10
15.6821932161
 20
11.9559927994
 30
0.0
 10
15.6848260312
 20
11.9574833781
 30
0.0
 10
15.687524267
 20
11.9583400153
 30
0.0
 10
15.6902554483
 20
11.958545436
 30
0.0
 10
15.6929787114
 20
11.9580907617
 30
0.0
 10
15.6956539186
 20
11.9569870092
 30
0.0
 10
15.6993018749
 20
11.954571714
 30
0.0
 10
15.7016292341
 20
11.9520048548
 30
0.0
 10
15.7030578216
 20
11.9501004952
 30
0.0
  0
SPLINE
  5
4B4
100
AcDbEntity
  8
0
100
AcDbSpline
 62
7
  6
CONTINUOUS
 70
0
 71
3
 72
9
 73
5
 74
0
 42
0.0000001
 43
0.0000001
 44
0.0000000001
 40
0.0
 40
0.0
 40
0.0
 40
0.0
 40
0.5173049958
 40
1.0
 40
1.0
 40
1.0
 40
1.0
 10
14.4189205112
 20
11.6569540332
 30
0.0
 10
14.4050709555
 20
11.6731773997
 30
0.0
 10
14.3799233477
 20
11.7059804057
 30
0.0
 10
14.3589990018
 20
11.7416773343
 30
0.0
 10
14.3502305367
 20
11.7595455874
 30
0.0
  0
SPLINE
  5
4B5
100
AcDbEntity
  8
0
100
AcDbSpline
 62
7
  6
CONTINUOUS
 70
0
 71
3
 72
27
 73
23
 74
0
 42
0.0000001
 43
0.0000001
 44
0.0000000001
 40
0.0
 40
0.0
 40
0.0
 40
0.0
 40
0.0645908251
 40
0.0955318567
 40
0.1254609663
 40
0.1824020742
 40
0.2363030283
 40
0.2625769197
 40
0.288640655
 40
0.3147238463
 40
0.3410532985
 40
0.3951692304
 40
0.4524222111
 40
0.4825032148
 40
0.5135703592
 40
0.5785057572
 40
0.6467896776
 40
0.7175083912
 40
0.7894804306
 40
0.8613852055
 40
0.9319956092
 40
1.0
 40
1.0
 40
1.0
 40
1.0
 10
14.8264587085
 20
12.3891325297
 30
0.0
 10
14.8308078905
 20
12.3891325297
 30
0.0
 10
14.8372631695
 20
12.3886065181
 30
0.0
 10
14.8455144449
 20
12.3867435927
 30
0.0
 10
14.8530487468
 20
12.384225951
 30
0.0
 10
14.8615355801
 20
12.3798190983
 30
0.0
 10
14.8685464162
 20
12.3736456623
 30
0.0
 10
14.8728800483
 20
12.3679301827
 30
0.0
 10
14.8754785501
 20
12.363314172
 30
0.0
 10
14.8774283916
 20
12.3583851018
 30
0.0
 10
14.8791487403
 20
12.3514017525
 30
0.0
 10
14.8795424633
 20
12.3420302035
 30
0.0
 10
14.8776477501
 20
12.3326119737
 30
0.0
 10
14.8748880696
 20
12.3251212514
 30
0.0
 10
14.8711752174
 20
12.317472507
 30
0.0
 10
14.8649665644
 20
12.3082421032
 30
0.0
 10
14.8555022597
 20
12.2982178345
 30
0.0
 10
14.8442706333
 20
12.2894362965
 30
0.0
 10
14.8316943583
 20
12.2822245498
 30
0.0
 10
14.8182369347
 20
12.2768479206
 30
0.0
 10
14.8044094606
 20
12.2735177421
 30
0.0
 10
14.7950631921
 20
12.2727188476
 30
0.0
 10
14.7904841599
 20
12.2727188476
 30
0.0
  0
SPLINE
  5
4B6
100
AcDbEntity
  8
0
100
AcDbSpline
 62
7
  6
CONTINUOUS
 70
0
 71
3
 72
27
 73
23
 74
0
 42
0.0000001
 43
0.0000001
 44
0.0000000001
 40
0.0
 40
0.0
 40
0.0
 40
0.0
 40
0.0645908251
 40
0.0955318567
 40
0.1254609663
 40
0.1824020742
 40
0.2363030283
 40
0.2625769197
 40
0.288640655
 40
0.3147238463
 40
0.3410532985
 40
0.3951692304
 40
0.4524222111
 40
0.4825032148
 40
0.5135703592
 40
0.5785057572
 40
0.6467896776
 40
0.7175083912
 40
0.7894804306
 40
0.8613852055
 40
0.9319956092
 40
1.0
 40
1.0
 40
1.0
 40
1.0
 10
14.7904841599
 20
12.2727188476
 30
0.0
 10
14.786134978
 20
12.2727188476
 30
0.0
 10
14.7796796989
 20
12.2732448592
 30
0.0
 10
14.7714284236
 20
12.2751077846
 30
0.0
 10
14.7638941216
 20
12.2776254263
 30
0.0
 10
14.7554072883
 20
12.282032279
 30
0.0
 10
14.7483964522
 20
12.288205715
 30
0.0
 10
14.7440628201
 20
12.2939211946
 30
0.0
 10
14.7414643183
 20
12.2985372052
 30
0.0
 10
14.7395144768
 20
12.3034662755
 30
0.0
 10
14.7377941281
 20
12.3104496248
 30
0.0
 10
14.7374004052
 20
12.3198211738
 30
0.0
 10
14.7392951183
 20
12.3292394036
 30
0.0
 10
14.7420547988
 20
12.3367301259
 30
0.0
 10
14.745767651
 20
12.3443788703
 30
0.0
 10
14.751976304
 20
12.3536092741
 30
0.0
 10
14.7614406087
 20
12.3636335427
 30
0.0
 10
14.7726722352
 20
12.3724150808
 30
0.0
 10
14.7852485102
 20
12.3796268275
 30
0.0
 10
14.7987059337
 20
12.3850034567
 30
0.0
 10
14.8125334078
 20
12.3883336352
 30
0.0
 10
14.8218796764
 20
12.3891325297
 30
0.0
 10
14.8264587085
 20
12.3891325297
 30
0.0
  0
SPLINE
  5
4B7
100
AcDbEntity
  8
0
100
AcDbSpline
 62
7
  6
CONTINUOUS
 70
0
 71
3
 72
9
 73
5
 74
0
 42
0.0000001
 43
0.0000001
 44
0.0000000001
 40
0.0
 40
0.0
 40
0.0
 40
0.0
 40
0.2563342243
 40
1.0
 40
1.0
 40
1.0
 40
1.0
 10
14.2724009311
 20
11.9854942312
 30
0.0
 10
14.2694512353
 20
11.9906257578
 30
0.0
 10
14.2582593729
 20
12.0108231269
 30
0.0
 10
14.2483650639
 20
12.0317484449
 30
0.0
 10
14.2418967444
 20
12.047655228
 30
0.0
  0
SPLINE
  5
4B8
100
AcDbEntity
  8
0
100
AcDbSpline
 62
7
  6
CONTINUOUS
 70
0
 71
3
 72
9
 73
5
 74
0
 42
0.0000001
 43
0.0000001
 44
0.0000000001
 40
0.0
 40
0.0
 40
0.0
 40
0.0
 40
0.2429193326
 40
1.0
 40
1.0
 40
1.0
 40
1.0
 10
15.7812326866
 20
11.9854942312
 30
0.0
 10
15.7791812729
 20
11.9907158022
 30
0.0
 10
15.7702757662
 20
12.0120286768
 30
0.0
 10
15.7595973341
 20
12.0325871566
 30
0.0
 10
15.7507284999
 20
12.047655228
 30
0.0
  0
SPLINE
  5
4B9
100
AcDbEntity
  8
0
100
AcDbSpline
 62
7
  6
CONTINUOUS
 70
0
 71
3
 72
9
 73
5
 74
0
 42
0.0000001
 43
0.0000001
 44
0.0000000001
 40
0.0
 40
0.0
 40
0.0
 40
0.0
 40
0.2562908621
 40
1.0
 40
1.0
 40
1.0
 40
1.0
 10
15.6748845073
 20
11.5267417428
 30
0.0
 10
15.6805502497
 20
11.5290554843
 30
0.0
 10
15.7025222983
 20
11.5384071555
 30
0.0
 10
15.7239378059
 20
11.5490846221
 30
0.0
 10
15.7393986359
 20
11.5578222412
 30
0.0
  0
ELLIPSE
  5
4BA
100
AcDbEntity
  8
0
100
AcDbEllipse
 62
7
  6
CONTINUOUS
 10
6.0708720839
 20
13.1390992812
 30
0.0
 11
0.9379987766
 21
1.9768240075
 31
0.0
 40
0.3419987131
 41
-1.5730293716
 42
-1.5117770712
  0
ELLIPSE
  5
4BB
100
AcDbEntity
  8
0
100
AcDbEllipse
 62
7
  6
CONTINUOUS
 10
6.0708720839
 20
12.3891212815
 30
0.0
 11
-0.9379987766
 21
1.9768240075
 31
0.0
 40
0.3419987131
 41
-1.6298155824
 42
-1.568563282
  0
ELLIPSE
  5
4BC
100
AcDbEntity
  8
0
100
AcDbEllipse
 62
7
  6
CONTINUOUS
 10
15.7244177569
 20
4.8974633784
 30
0.0
 11
0.0
 21
1.0496392896
 31
0.0
 40
0.2679491924
 41
0.6321662462
 42
1.4729227761
  0
ELLIPSE
  5
4BD
100
AcDbEntity
  8
0
100
AcDbEllipse
 62
7
  6
CONTINUOUS
 10
15.7244177569
 20
4.8974633784
 30
0.0
 11
-0.0
 21
1.0496392896
 31
0.0
 40
0.2679491924
 41
4.8102625311
 42
5.6510190609
  0
ELLIPSE
  5
4BE
100
AcDbEntity
  8
0
100
AcDbEllipse
 62
7
  6
CONTINUOUS
 10
15.3494287571
 20
5.4449997044
 30
0.0
 11
1.9768240075
 21
-0.9379987766
 31
0.0
 40
0.3419987131
 41
1.568563282
 42
1.6298155824
  0
ELLIPSE
  5
4BF
100
AcDbEntity
  8
0
100
AcDbEllipse
 62
7
  6
CONTINUOUS
 10
16.0994067568
 20
5.4449997044
 30
0.0
 11
1.9768240075
 21
0.9379987766
 31
0.0
 40
0.3419987131
 41
1.5117770712
 42
1.5730293716
  0
ELLIPSE
  5
4C0
100
AcDbEntity
  8
0
100
AcDbEllipse
 62
7
  6
CONTINUOUS
 10
15.1291638573
 20
12.2124150737
 30
0.0
 11
1.5687380331
 21
1.172518119
 31
0.0
 40
0.0578005151
 41
1.0379849523
 42
1.0992372527
  0
ELLIPSE
  5
4C1
100
AcDbEntity
  8
0
100
AcDbEllipse
 62
7
  6
CONTINUOUS
 10
15.1291638573
 20
12.2124150737
 30
0.0
 11
-0.4154897577
 21
2.1351625189
 31
0.0
 40
0.2766889488
 41
-1.2827522252
 42
-1.2214999248
  0
ELLIPSE
  5
4C2
100
AcDbEntity
  8
0
100
AcDbEllipse
 62
7
  6
CONTINUOUS
 10
16.6246332794
 20
12.1658000098
 30
0.0
 11
-0.5635775898
 21
0.6772369665
 31
0.0
 40
0.2216133796
 41
4.9535292408
 42
5.7942857707
  0
ELLIPSE
  5
4C3
100
AcDbEntity
  8
0
100
AcDbEllipse
 62
7
  6
CONTINUOUS
 10
16.6246332794
 20
12.1658000098
 30
0.0
 11
-0.5635775898
 21
0.6772369665
 31
0.0
 40
0.2216133796
 41
0.775432956
 42
1.6687592914
  0
ENDSEC
  0
SECTION
  2
OBJECTS
  0
DICTIONARY
  5
C
100
AcDbDictionary
280
0
281
1
  3
ACAD_GROUP
350
D
  3
ACAD_MLINESTYLE
350
17
  3
ACAD_LAYOUT
350
1A
  3
ACAD_PLOTSETTINGS
350
19
  3
ACAD_PLOTSTYLENAME
350
E
  0
DICTIONARY
  5
D
102
{ACAD_REACTORS
330
C
102
}
100
AcDbDictionary
280
0
281
1
  0
ACDBDICTIONARYWDFLT
  5
E
102
{ACAD_REACTORS
330
C
102
}
100
AcDbDictionary
281
1
  3
Normal
350
F
100
AcDbDictionaryWithDefault
340
F
  0
DICTIONARY
  5
17
102
{ACAD_REACTORS
330
C
102
}
100
AcDbDictionary
280
0
281
1
  3
Standard
350
18
  0
DICTIONARY
  5
19
102
{ACAD_REACTORS
330
C
102
}
100
AcDbDictionary
281
1
  0
DICTIONARY
  5
1A
102
{ACAD_REACTORS
330
C
102
}
100
AcDbDictionary
281
1
  3
Model
350
4C4
  3
Layout1
350
4C5
  0
ACDBPLACEHOLDER
  5
F
102
{ACAD_REACTORS
330
E
102
}
  0
MLINESTYLE
  5
18
102
{ACAD_REACTORS
330
17
102
}
100
AcDbMlineStyle
  2
STANDARD
 70
0
  3

 62
256
 51
90.0
 52
90.0
 71
2
 49
0.5
 62
256
  6
BYLAYER
 49
-0.5
 62
256
  6
BYLAYER
  0
LAYOUT
  5
4C4
102
{ACAD_REACTORS
330
1A
102
}
100
AcDbPlotSettings
  1

  2
none_device
  4
ANSI_C_(22.00_x_17.00_Inches)
  6

 40
0.0
 41
0.0
 42
0.0
 43
0.0
 44
558.8
 45
431.8
 46
0.0
 47
0.0
 48
0.0
 49
0.0
140
0.0
141
0.0
142
1.0
143
1.0
 70
1024
 72
0
 73
0
 74
0
  7

 75
0
147
1.0
148
0.0
149
0.0
100
AcDbLayout
  1
Model
 70
0
 71
0
 10
0.0
 20
0.0
 11
22.0
 21
17.0
 12
0.0
 22
0.0
 32
0.0
 14
0.0
 24
0.0
 34
0.0
 15
0.0
 25
0.0
 35
0.0
146
0.0
 13
0.0
 23
0.0
 33
0.0
 16
1.0
 26
0.0
 36
0.0
 17
0.0
 27
1.0
 37
0.0
 76
0
330
23D
345
0
346
0
  0
LAYOUT
  5
4C5
102
{ACAD_REACTORS
330
1A
102
}
100
AcDbPlotSettings
  1

  2
none_device
  4
ANSI_C_(22.00_x_17.00_Inches)
  6

 40
0.0
 41
0.0
 42
0.0
 43
0.0
 44
558.8
 45
431.8
 46
0.0
 47
0.0
 48
0.0
 49
0.0
140
0.0
141
0.0
142
1.0
143
1.0
 70
0
 72
0
 73
0
 74
0
  7

 75
0
147
1.0
148
0.0
149
0.0
100
AcDbLayout
  1
Layout1
 70
0
 71
1
 10
0.0
 20
0.0
 11
22.0
 21
17.0
 12
0.0
 22
0.0
 32
0.0
 14
0.0
 24
0.0
 34
0.0
 15
0.0
 25
0.0
 35
0.0
146
0.0
 13
0.0
 23
0.0
 33
0.0
 16
1.0
 26
0.0
 36
0.0
 17
0.0
 27
1.0
 37
0.0
 76
0
330
23E
345
0
346
0
  0
ENDSEC
  0
EOF