999
DXF file: _cgs_temp_output.dxf
999
Pro/ENGINEER 2015110 by Parametric Technology Corporation
  0
SECTION
  2
HEADER
  9
$ACADVER
  1
AC1021
  9
$DWGCODEPAGE
  3
ANSI_1252
  9
$EXTMAX
 10
22.0
 20
17.0
 30
0.0
  9
$EXTMIN
 10
0.0
 20
0.0
 30
0.0
  9
$LIMMIN
 10
0.0
 20
0.0
  9
$LIMMAX
 10
22.0
 20
17.0
  9
$VIEWCTR
 10
11.0
 20
8.5
  9
$VIEWSIZE
 40
17.0
  9
$CLAYER
  8
0
  9
$LTSCALE
 40
1.21
  9
$CELTYPE
  6
BYLAYER
  9
$DIMSCALE
 40
1.0
  9
$DIMASZ
 40
0.1875
  9
$DIMEXO
 40
0.0625
  9
$DIMDLI
 40
0.836
  9
$DIMEXE
 40
0.125
  9
$DIMCEN
 40
0.198
  9
$DIMLFAC
 40
1.0
  9
$DIMBLK
  1
_CLOSED
  9
$DIMALT
 70
0
  9
$DIMALTF
 40
25.4
  9
$DIMTXT
 40
0.15625
  9
$DIMTOL
 70
0
  9
$DIMLIM
 70
0
  9
$DIMTFAC
 40
1.0
  9
$DIMGAP
 40
0.09
  9
$DIMDSEP
 70
46
  9
$AUNITS
 70
0
  9
$PDMODE
 70
3
  9
$PDSIZE
 40
0.3125
  9
$HANDSEED
  5
324
  9
$TILEMODE
 70
1
  9
$MEASUREMENT
 70
0
  9
$INSUNITS
 70
1
  0
ENDSEC
  0
SECTION
  2
CLASSES
  0
CLASS
  1
ACDBDICTIONARYWDFLT
  2
AcDbDictionaryWithDefault
  3
AutoCAD 2000
 90
0
 91
1
280
0
281
0
  0
CLASS
  1
ACDBPLACEHOLDER
  2
AcDbPlaceHolder
  3
AutoCAD 2000
 90
0
 91
1
280
0
281
0
  0
CLASS
  1
LAYOUT
  2
AcDbLayout
  3
AutoCAD 2000
 90
0
 91
0
280
0
281
0
  0
ENDSEC
  0
SECTION
  2
TABLES
  0
TABLE
  2
VPORT
  5
8
100
AcDbSymbolTable
 70
2
  0
VPORT
  5
1F4
100
AcDbSymbolTableRecord
100
AcDbViewportTableRecord
  2
*ACTIVE
 70
0
 10
0.0
 20
0.0
 11
1.0
 21
1.0
 12
11.0
 22
8.5
 13
0.0
 23
0.0
 14
1.0
 24
1.0
 15
0.0
 25
0.0
 16
0.0
 26
0.0
 36
1.0
 17
0.0
 27
0.0
 37
0.0
 40
17.0
 41
1.2941176471
 42
50.0
 43
0.0
 44
0.0
 50
0.0
 51
0.0
 71
0
 72
100
 73
1
 74
1
 75
0
 76
0
 77
0
 78
0
  0
ENDTAB
  0
TABLE
  2
LTYPE
  5
5
100
AcDbSymbolTable
 70
6
  0
LTYPE
  5
14
100
AcDbSymbolTableRecord
100
AcDbLinetypeTableRecord
  2
BYBLOCK
 70
0
  3

 72
65
 73
0
 40
0.0
  0
LTYPE
  5
15
100
AcDbSymbolTableRecord
100
AcDbLinetypeTableRecord
  2
BYLAYER
 70
0
  3

 72
65
 73
0
 40
0.0
  0
LTYPE
  5
16
100
AcDbSymbolTableRecord
100
AcDbLinetypeTableRecord
  2
CONTINUOUS
 70
64
  3
Solid line
 72
65
 73
0
 40
0.0
  0
LTYPE
  5
1F5
100
AcDbSymbolTableRecord
100
AcDbLinetypeTableRecord
  2
CENTER
 70
64
  3
____ _ ____ _ ____ _ ____ _ ____ _ ____ _ ____
 72
65
 73
4
 40
0.6
 49
0.375
 74
0
 49
-0.075
 74
0
 49
0.075
 74
0
 49
-0.075
 74
0
  0
LTYPE
  5
1F6
100
AcDbSymbolTableRecord
100
AcDbLinetypeTableRecord
  2
HIDDEN
 70
64
  3
- - - - - - - - - - - - - - - - - - - -
 72
65
 73
2
 40
0.2
 49
0.1
 74
0
 49
-0.1
 74
0
  0
LTYPE
  5
1F7
100
AcDbSymbolTableRecord
100
AcDbLinetypeTableRecord
  2
PHANTOM
 70
64
  3
_____ _ _ _____ _ _ _____ _ _ _____
 72
65
 73
6
 40
0.8
 49
0.45
 74
0
 49
-0.05
 74
0
 49
0.1
 74
0
 49
-0.05
 74
0
 49
0.1
 74
0
 49
-0.05
 74
0
  0
LTYPE
  5
1F8
100
AcDbSymbolTableRecord
100
AcDbLinetypeTableRecord
  2
DOT
 70
64
  3
. . . . . . . . . . . . . . . . . . . .
 72
65
 73
2
 40
0.2
 49
0.1
 74
0
 49
-0.1
 74
0
  0
LTYPE
  5
1F9
100
AcDbSymbolTableRecord
100
AcDbLinetypeTableRecord
  2
DASHED
 70
64
  3
- - - - - - - - - - - - - - - - - - - -
 72
65
 73
2
 40
0.2
 49
0.1
 74
0
 49
-0.1
 74
0
  0
ENDTAB
  0
TABLE
  2
LAYER
  5
2
100
AcDbSymbolTable
 70
36
  0
LAYER
  5
10
100
AcDbSymbolTableRecord
100
AcDbLayerTableRecord
  2
0
 70
0
 62
7
  6
CONTINUOUS
370
-3
390
F
  0
LAYER
  5
1FA
100
AcDbSymbolTableRecord
100
AcDbLayerTableRecord
  2
DEFAULT_1
 70
0
 62
7
  6
CENTER
370
-3
390
F
  0
LAYER
  5
1FB
100
AcDbSymbolTableRecord
100
AcDbLayerTableRecord
  2
DEFAULT_2
 70
0
 62
8
  6
HIDDEN
370
-3
390
F
  0
LAYER
  5
1FC
100
AcDbSymbolTableRecord
100
AcDbLayerTableRecord
  2
DEFAULT_3
 70
0
 62
7
  6
PHANTOM
370
-3
390
F
  0
LAYER
  5
1FD
100
AcDbSymbolTableRecord
100
AcDbLayerTableRecord
  2
01_ALL_DTM_PLN
 70
0
 62
7
  6
CONTINUOUS
370
-3
390
F
  0
LAYER
  5
1FE
100
AcDbSymbolTableRecord
100
AcDbLayerTableRecord
  2
01__ASM_ALL_DTM_PLN
 70
0
 62
7
  6
CONTINUOUS
370
-3
390
F
  0
LAYER
  5
1FF
100
AcDbSymbolTableRecord
100
AcDbLayerTableRecord
  2
01__ASM_DEF_DTM_PLN
 70
0
 62
7
  6
CONTINUOUS
370
-3
390
F
  0
LAYER
  5
200
100
AcDbSymbolTableRecord
100
AcDbLayerTableRecord
  2
01___PRT_ALL_DTM_PLN
 70
0
 62
7
  6
CONTINUOUS
370
-3
390
F
  0
LAYER
  5
201
100
AcDbSymbolTableRecord
100
AcDbLayerTableRecord
  2
01___PRT_DEF_DTM_PLN
 70
0
 62
7
  6
CONTINUOUS
370
-3
390
F
  0
LAYER
  5
202
100
AcDbSymbolTableRecord
100
AcDbLayerTableRecord
  2
02_ALL_AXES
 70
0
 62
7
  6
CONTINUOUS
370
-3
390
F
  0
LAYER
  5
203
100
AcDbSymbolTableRecord
100
AcDbLayerTableRecord
  2
02__ASM_ALL_AXES
 70
0
 62
7
  6
CONTINUOUS
370
-3
390
F
  0
LAYER
  5
204
100
AcDbSymbolTableRecord
100
AcDbLayerTableRecord
  2
02___PRT_ALL_AXES
 70
0
 62
7
  6
CONTINUOUS
370
-3
390
F
  0
LAYER
  5
205
100
AcDbSymbolTableRecord
100
AcDbLayerTableRecord
  2
03_ALL_CURVES
 70
0
 62
7
  6
CONTINUOUS
370
-3
390
F
  0
LAYER
  5
206
100
AcDbSymbolTableRecord
100
AcDbLayerTableRecord
  2
03__ASM_ALL_CURVES
 70
0
 62
7
  6
CONTINUOUS
370
-3
390
F
  0
LAYER
  5
207
100
AcDbSymbolTableRecord
100
AcDbLayerTableRecord
  2
03___PRT_ALL_CURVES
 70
0
 62
7
  6
CONTINUOUS
370
-3
390
F
  0
LAYER
  5
208
100
AcDbSymbolTableRecord
100
AcDbLayerTableRecord
  2
04_ALL_DTM_PNT
 70
0
 62
7
  6
CONTINUOUS
370
-3
390
F
  0
LAYER
  5
209
100
AcDbSymbolTableRecord
100
AcDbLayerTableRecord
  2
04__ASM_ALL_DTM_PNT
 70
0
 62
7
  6
CONTINUOUS
370
-3
390
F
  0
LAYER
  5
20A
100
AcDbSymbolTableRecord
100
AcDbLayerTableRecord
  2
04___PRT_ALL_DTM_PNT
 70
0
 62
7
  6
CONTINUOUS
370
-3
390
F
  0
LAYER
  5
20B
100
AcDbSymbolTableRecord
100
AcDbLayerTableRecord
  2
05_ALL_DTM_CSYS
 70
0
 62
7
  6
CONTINUOUS
370
-3
390
F
  0
LAYER
  5
20C
100
AcDbSymbolTableRecord
100
AcDbLayerTableRecord
  2
05__ASM_ALL_DTM_CSYS
 70
0
 62
7
  6
CONTINUOUS
370
-3
390
F
  0
LAYER
  5
20D
100
AcDbSymbolTableRecord
100
AcDbLayerTableRecord
  2
05__ASM_DEF_DTM_CSYS
 70
0
 62
7
  6
CONTINUOUS
370
-3
390
F
  0
LAYER
  5
20E
100
AcDbSymbolTableRecord
100
AcDbLayerTableRecord
  2
05___PRT_ALL_DTM_CSYS
 70
0
 62
7
  6
CONTINUOUS
370
-3
390
F
  0
LAYER
  5
20F
100
AcDbSymbolTableRecord
100
AcDbLayerTableRecord
  2
05___PRT_DEF_DTM_CSYS
 70
0
 62
7
  6
CONTINUOUS
370
-3
390
F
  0
LAYER
  5
210
100
AcDbSymbolTableRecord
100
AcDbLayerTableRecord
  2
06_ALL_SURFS
 70
0
 62
7
  6
CONTINUOUS
370
-3
390
F
  0
LAYER
  5
211
100
AcDbSymbolTableRecord
100
AcDbLayerTableRecord
  2
06__ASM_ALL_SURFS
 70
0
 62
7
  6
CONTINUOUS
370
-3
390
F
  0
LAYER
  5
212
100
AcDbSymbolTableRecord
100
AcDbLayerTableRecord
  2
06___PRT_ALL_SURFS
 70
0
 62
7
  6
CONTINUOUS
370
-3
390
F
  0
LAYER
  5
213
100
AcDbSymbolTableRecord
100
AcDbLayerTableRecord
  2
07__ASM_ALL_SKELETONS
 70
0
 62
7
  6
CONTINUOUS
370
-3
390
F
  0
LAYER
  5
214
100
AcDbSymbolTableRecord
100
AcDbLayerTableRecord
  2
LAYER_AXIS
 70
0
 62
7
  6
CONTINUOUS
370
-3
390
F
  0
LAYER
  5
215
100
AcDbSymbolTableRecord
100
AcDbLayerTableRecord
  2
LAYER_CHAMFER_FEAT
 70
0
 62
7
  6
CONTINUOUS
370
-3
390
F
  0
LAYER
  5
216
100
AcDbSymbolTableRecord
100
AcDbLayerTableRecord
  2
LAYER_CUT_FEAT
 70
0
 62
7
  6
CONTINUOUS
370
-3
390
F
  0
LAYER
  5
217
100
AcDbSymbolTableRecord
100
AcDbLayerTableRecord
  2
LAYER_DATUM
 70
0
 62
7
  6
CONTINUOUS
370
-3
390
F
  0
LAYER
  5
218
100
AcDbSymbolTableRecord
100
AcDbLayerTableRecord
  2
LAYER_DIM
 70
0
 62
7
  6
CONTINUOUS
370
-3
390
F
  0
LAYER
  5
219
100
AcDbSymbolTableRecord
100
AcDbLayerTableRecord
  2
LAYER_FEATURE
 70
0
 62
7
  6
CONTINUOUS
370
-3
390
F
  0
LAYER
  5
21A
100
AcDbSymbolTableRecord
100
AcDbLayerTableRecord
  2
LAYER_GEOM_FEAT
 70
0
 62
7
  6
CONTINUOUS
370
-3
390
F
  0
LAYER
  5
21B
100
AcDbSymbolTableRecord
100
AcDbLayerTableRecord
  2
LAYER_NOGEOM_FEAT
 70
0
 62
7
  6
CONTINUOUS
370
-3
390
F
  0
LAYER
  5
21C
100
AcDbSymbolTableRecord
100
AcDbLayerTableRecord
  2
LAYER_PARAMETER_DIM
 70
0
 62
7
  6
CONTINUOUS
370
-3
390
F
  0
LAYER
  5
21D
100
AcDbSymbolTableRecord
100
AcDbLayerTableRecord
  2
LAYER_PROTRUSION_FEAT
 70
0
 62
7
  6
CONTINUOUS
370
-3
390
F
  0
LAYER
  5
21E
100
AcDbSymbolTableRecord
100
AcDbLayerTableRecord
  2
LAYER_QUILT
 70
0
 62
7
  6
CONTINUOUS
370
-3
390
F
  0
LAYER
  5
21F
100
AcDbSymbolTableRecord
100
AcDbLayerTableRecord
  2
LAYER_ROUND_FEAT
 70
0
 62
7
  6
CONTINUOUS
370
-3
390
F
  0
ENDTAB
  0
TABLE
  2
STYLE
  5
3
100
AcDbSymbolTable
 70
1
  0
STYLE
  5
11
100
AcDbSymbolTableRecord
100
AcDbTextStyleTableRecord
  2
STANDARD
 70
0
 40
0.0
 41
0.8
 50
0.0
 71
0
 42
0.2
  3
txt
  4

  0
STYLE
  5
220
100
AcDbSymbolTableRecord
100
AcDbTextStyleTableRecord
  2
TEXTSTYLE_1
 70
0
 40
0.0
 41
0.8
 50
0.0
 71
0
 42
0.2
  3
gdt
  4

  0
ENDTAB
  0
TABLE
  2
VIEW
  5
6
100
AcDbSymbolTable
 70
0
  0
ENDTAB
  0
TABLE
  2
UCS
  5
7
100
AcDbSymbolTable
 70
0
  0
ENDTAB
  0
TABLE
  2
APPID
  5
9
100
AcDbSymbolTable
 70
1
  0
APPID
  5
221
100
AcDbSymbolTableRecord
100
AcDbRegAppTableRecord
  2
ACAD
 70
0
  0
ENDTAB
  0
TABLE
  2
BLOCK_RECORD
  5
1
100
AcDbSymbolTable
 70
0
  0
BLOCK_RECORD
  5
222
100
AcDbSymbolTableRecord
100
AcDbBlockTableRecord
  2
*Model_Space
  0
BLOCK_RECORD
  5
223
100
AcDbSymbolTableRecord
100
AcDbBlockTableRecord
  2
*Paper_Space
  0
ENDTAB
  0
TABLE
  2
DIMSTYLE
  5
A
100
AcDbSymbolTable
 70
1
100
AcDbDimStyleTable
 71
0
  0
DIMSTYLE
105
224
100
AcDbSymbolTableRecord
100
AcDbDimStyleTableRecord
  2
STANDARD
 70
0
  3

  4

 40
1.0
 41
0.1875
 42
0.0625
 43
0.38
 44
0.125
 45
0.0
 46
0.0
 47
0.0001
 48
0.0001
140
0.15625
141
0.09
142
0.0
143
25.4
144
1.0
145
0.0
146
1.0
147
0.09
 71
0.0
 72
0.0
 73
1
 74
1
 75
0
 76
0
 77
0
 78
4
170
0
171
2
172
0
173
0
174
0
175
0
176
0
177
0
178
0
270
2
271
4
272
4
273
2
274
2
275
0
280
0
281
0
282
0
283
1
284
4
285
0
286
0
287
3
288
0
340
11
278
46
  0
ENDTAB
  0
ENDSEC
  0
SECTION
  2
BLOCKS
  0
BLOCK
  5
20
100
AcDbEntity
  8
0
100
AcDbBlockBegin
  2
*Model_Space
 70
0
 10
0.0
 20
0.0
 30
0.0
  3
*Model_Space
  1

  0
ENDBLK
  5
21
100
AcDbEntity
  8
0
100
AcDbBlockEnd
  0
BLOCK
  5
1C
100
AcDbEntity
  8
0
100
AcDbBlockBegin
  2
*Paper_Space
 70
0
 10
0.0
 20
0.0
 30
0.0
  3
*Paper_Space
  1

  0
ENDBLK
  5
1D
100
AcDbEntity
  8
0
100
AcDbBlockEnd
  0
ENDSEC
  0
SECTION
  2
ENTITIES
  0
MTEXT
  5
225
100
AcDbEntity
  8
0
100
AcDbMText
 62
7
  6
CONTINUOUS
  7
STANDARD
 71
1
 72
1
 10
15.9560215477
 20
0.9479130325
 30
0.0
 11
1.0
 21
0.0
 31
0.0
 44
0.9
  1
SCALE: 1:2.000
 40
0.3
 41
3.36
  0
LINE
  5
226
100
AcDbEntity
  8
0
100
AcDbLine
 62
7
  6
CONTINUOUS
 10
0.0
 20
0.0
 11
0.0
 21
17.0
  0
LINE
  5
227
100
AcDbEntity
  8
0
100
AcDbLine
 62
7
  6
CONTINUOUS
 10
0.0
 20
0.0
 11
22.0
 21
0.0
  0
LINE
  5
228
100
AcDbEntity
  8
0
100
AcDbLine
 62
7
  6
CONTINUOUS
 10
0.0
 20
17.0
 11
22.0
 21
17.0
  0
LINE
  5
229
100
AcDbEntity
  8
0
100
AcDbLine
 62
7
  6
CONTINUOUS
 10
22.0
 20
0.0
 11
22.0
 21
17.0
  0
LINE
  5
22A
100
AcDbEntity
  8
LAYER_FEATURE
100
AcDbLine
 62
7
  6
CONTINUOUS
 10
5.9991672762
 20
6.4581198968
 11
5.9882542432
 21
6.4472068638
  0
LINE
  5
22B
100
AcDbEntity
  8
LAYER_FEATURE
100
AcDbLine
 62
7
  6
CONTINUOUS
 10
7.0683672762
 20
5.3889198968
 11
7.0574542432
 21
5.3780068638
  0
LINE
  5
22C
100
AcDbEntity
  8
LAYER_FEATURE
100
AcDbLine
 62
7
  6
CONTINUOUS
 10
6.2615672762
 20
6.4581198968
 11
6.2724803091
 21
6.4472068638
  0
LINE
  5
22D
100
AcDbEntity
  8
LAYER_FEATURE
100
AcDbLine
 62
7
  6
CONTINUOUS
 10
7.0683672762
 20
5.6513198968
 11
7.0574542432
 21
5.6622329297
  0
LINE
  5
22E
100
AcDbEntity
  8
LAYER_FEATURE
100
AcDbLine
 62
7
  6
CONTINUOUS
 10
7.0683672762
 20
5.6513198968
 11
7.0683672762
 21
5.3889198968
  0
LINE
  5
22F
100
AcDbEntity
  8
LAYER_FEATURE
100
AcDbLine
 62
7
  6
CONTINUOUS
 10
5.9991672762
 20
6.4581198968
 11
6.2615672762
 21
6.4581198968
  0
LINE
  5
230
100
AcDbEntity
  8
LAYER_FEATURE
100
AcDbLine
 62
7
  6
CONTINUOUS
 10
4.5708720839
 20
12.4740477814
 11
4.5708720839
 21
12.5540477814
  0
LINE
  5
231
100
AcDbEntity
  8
LAYER_FEATURE
100
AcDbLine
 62
7
  6
CONTINUOUS
 10
4.5708720839
 20
13.2700477814
 11
4.5708720839
 21
13.3500477814
  0
LINE
  5
232
100
AcDbEntity
  8
LAYER_CUT_FEAT
100
AcDbLine
 62
7
  6
CONTINUOUS
 10
4.8247605177
 20
13.2220477814
 11
4.8247605177
 21
12.6020477814
  0
LINE
  5
233
100
AcDbEntity
  8
0
100
AcDbLine
 62
7
  6
CONTINUOUS
 10
4.9231587335
 20
13.2220477814
 11
4.9231587335
 21
12.6020477814
  0
LINE
  5
234
100
AcDbEntity
  8
0
100
AcDbLine
 62
7
  6
CONTINUOUS
 10
5.1292045542
 20
13.2220477814
 11
5.1292045542
 21
12.6020477814
  0
LINE
  5
235
100
AcDbEntity
  8
02___PRT_ALL_AXES
100
AcDbLine
 62
7
  6
CONTINUOUS
 10
5.1328720839
 20
11.8500477814
 11
5.1328720839
 21
12.4740477814
  0
LINE
  5
236
100
AcDbEntity
  8
02___PRT_ALL_AXES
100
AcDbLine
 62
7
  6
CONTINUOUS
 10
5.1328720839
 20
11.8500477814
 11
7.0088720839
 21
11.8500477814
  0
LINE
  5
237
100
AcDbEntity
  8
0
100
AcDbLine
 62
7
  6
CONTINUOUS
 10
5.4227287793
 20
13.2220477814
 11
5.4227287793
 21
12.6020477814
  0
LINE
  5
238
100
AcDbEntity
  8
LAYER_FEATURE
100
AcDbLine
 62
7
  6
CONTINUOUS
 10
4.5708720839
 20
12.5540477814
 11
4.6517130721
 21
12.5863841767
  0
LINE
  5
239
100
AcDbEntity
  8
LAYER_CUT_FEAT
100
AcDbLine
 62
7
  6
CONTINUOUS
 10
6.0235293618
 20
12.0800477814
 11
6.1182148059
 21
12.0800477814
  0
LINE
  5
23A
100
AcDbEntity
  8
LAYER_CUT_FEAT
100
AcDbLine
 62
7
  6
CONTINUOUS
 10
6.1182148059
 20
12.2440477814
 11
6.0235293618
 21
12.2440477814
  0
LINE
  5
23B
100
AcDbEntity
  8
LAYER_CUT_FEAT
100
AcDbLine
 62
7
  6
CONTINUOUS
 10
5.9761866397
 20
12.1620477814
 11
6.0235293618
 21
12.0800477814
  0
LINE
  5
23C
100
AcDbEntity
  8
LAYER_FEATURE
100
AcDbLine
 62
7
  6
CONTINUOUS
 10
4.5708720839
 20
12.4740477814
 11
7.5708720839
 21
12.4740477814
  0
LINE
  5
23D
100
AcDbEntity
  8
LAYER_CUT_FEAT
100
AcDbLine
 62
7
  6
CONTINUOUS
 10
6.165557528
 20
12.1620477814
 11
6.1182148059
 21
12.2440477814
  0
LINE
  5
23E
100
AcDbEntity
  8
LAYER_FEATURE
100
AcDbLine
 62
7
  6
CONTINUOUS
 10
7.4900310956
 20
13.2377113861
 11
7.5708720839
 21
13.2700477814
  0
LINE
  5
23F
100
AcDbEntity
  8
LAYER_FEATURE
100
AcDbLine
 62
7
  6
CONTINUOUS
 10
4.5708720839
 20
12.5540477814
 11
7.5708720839
 21
12.5540477814
  0
LINE
  5
240
100
AcDbEntity
  8
LAYER_FEATURE
100
AcDbLine
 62
7
  6
CONTINUOUS
 10
7.4086964507
 20
12.6020477814
 11
4.733047717
 21
12.6020477814
  0
LINE
  5
241
100
AcDbEntity
  8
LAYER_FEATURE
100
AcDbLine
 62
7
  6
CONTINUOUS
 10
4.6517130721
 20
13.2377113861
 11
4.5708720839
 21
13.2700477814
  0
LINE
  5
242
100
AcDbEntity
  8
LAYER_CUT_FEAT
100
AcDbLine
 62
7
  6
CONTINUOUS
 10
6.0235293618
 20
12.2440477814
 11
5.9761866397
 21
12.1620477814
  0
LINE
  5
243
100
AcDbEntity
  8
LAYER_CUT_FEAT
100
AcDbLine
 62
7
  6
CONTINUOUS
 10
6.1182148059
 20
12.0800477814
 11
6.165557528
 21
12.1620477814
  0
LINE
  5
244
100
AcDbEntity
  8
LAYER_FEATURE
100
AcDbLine
 62
7
  6
CONTINUOUS
 10
7.0043488251
 20
12.2977710401
 11
7.0088720839
 21
12.2932477814
  0
LINE
  5
245
100
AcDbEntity
  8
LAYER_FEATURE
100
AcDbLine
 62
7
  6
CONTINUOUS
 10
7.5708720839
 20
12.5540477814
 11
7.4900310956
 21
12.5863841767
  0
LINE
  5
246
100
AcDbEntity
  8
LAYER_CUT_FEAT
100
AcDbLine
 62
7
  6
CONTINUOUS
 10
6.7190153884
 20
13.2220477814
 11
6.7190153884
 21
12.6020477814
  0
LINE
  5
247
100
AcDbEntity
  8
LAYER_FEATURE
100
AcDbLine
 62
7
  6
CONTINUOUS
 10
7.4086964507
 20
13.2220477814
 11
4.733047717
 21
13.2220477814
  0
LINE
  5
248
100
AcDbEntity
  8
LAYER_FEATURE
100
AcDbLine
 62
7
  6
CONTINUOUS
 10
4.5708720839
 20
13.2700477814
 11
7.5708720839
 21
13.2700477814
  0
LINE
  5
249
100
AcDbEntity
  8
LAYER_FEATURE
100
AcDbLine
 62
7
  6
CONTINUOUS
 10
4.5708720839
 20
13.3500477814
 11
7.5708720839
 21
13.3500477814
  0
LINE
  5
24A
100
AcDbEntity
  8
02___PRT_ALL_AXES
100
AcDbLine
 62
7
  6
CONTINUOUS
 10
7.0088720839
 20
11.8500477814
 11
7.0088720839
 21
11.9980477814
  0
LINE
  5
24B
100
AcDbEntity
  8
LAYER_FEATURE
100
AcDbLine
 62
7
  6
CONTINUOUS
 10
7.0088720839
 20
12.0308477814
 11
7.0088720839
 21
12.2932477814
  0
LINE
  5
24C
100
AcDbEntity
  8
02___PRT_ALL_AXES
100
AcDbLine
 62
7
  6
CONTINUOUS
 10
7.0088720839
 20
12.3260477814
 11
7.0088720839
 21
12.4740477814
  0
LINE
  5
24D
100
AcDbEntity
  8
LAYER_CUT_FEAT
100
AcDbLine
 62
7
  6
CONTINUOUS
 10
7.0125396135
 20
13.2220477814
 11
7.0125396135
 21
12.6020477814
  0
LINE
  5
24E
100
AcDbEntity
  8
LAYER_FEATURE
100
AcDbLine
 62
7
  6
CONTINUOUS
 10
7.0043488253
 20
12.0263245228
 11
7.0088720839
 21
12.0308477814
  0
LINE
  5
24F
100
AcDbEntity
  8
LAYER_CUT_FEAT
100
AcDbLine
 62
7
  6
CONTINUOUS
 10
7.2185854342
 20
13.2220477814
 11
7.2185854342
 21
12.6020477814
  0
LINE
  5
250
100
AcDbEntity
  8
LAYER_CUT_FEAT
100
AcDbLine
 62
7
  6
CONTINUOUS
 10
7.3169836501
 20
13.2220477814
 11
7.3169836501
 21
12.6020477814
  0
LINE
  5
251
100
AcDbEntity
  8
LAYER_FEATURE
100
AcDbLine
 62
7
  6
CONTINUOUS
 10
7.5708720839
 20
12.4740477814
 11
7.5708720839
 21
12.5540477814
  0
LINE
  5
252
100
AcDbEntity
  8
LAYER_FEATURE
100
AcDbLine
 62
7
  6
CONTINUOUS
 10
7.5708720839
 20
13.2700477814
 11
7.5708720839
 21
13.3500477814
  0
LINE
  5
253
100
AcDbEntity
  8
LAYER_FEATURE
100
AcDbLine
 62
7
  6
CONTINUOUS
 10
16.3103552569
 20
3.9606247044
 11
16.2303552569
 21
3.9606247044
  0
LINE
  5
254
100
AcDbEntity
  8
LAYER_FEATURE
100
AcDbLine
 62
7
  6
CONTINUOUS
 10
15.5143552569
 20
3.9606247044
 11
15.4343552569
 21
3.9606247044
  0
LINE
  5
255
100
AcDbEntity
  8
LAYER_CUT_FEAT
100
AcDbLine
 62
7
  6
CONTINUOUS
 10
16.1823552569
 20
4.2145131382
 11
15.5623552569
 21
4.2145131382
  0
LINE
  5
256
100
AcDbEntity
  8
LAYER_CUT_FEAT
100
AcDbLine
 62
7
  6
CONTINUOUS
 10
16.1823552569
 20
4.3129113541
 11
15.5623552569
 21
4.3129113541
  0
LINE
  5
257
100
AcDbEntity
  8
LAYER_FEATURE
100
AcDbLine
 62
7
  6
CONTINUOUS
 10
14.9866283629
 20
6.3940978104
 11
14.9911552569
 21
6.3986247044
  0
LINE
  5
258
100
AcDbEntity
  8
LAYER_CUT_FEAT
100
AcDbLine
 62
7
  6
CONTINUOUS
 10
16.1823552569
 20
4.5189571748
 11
15.5623552569
 21
4.5189571748
  0
LINE
  5
259
100
AcDbEntity
  8
02___PRT_ALL_AXES
100
AcDbLine
 62
7
  6
CONTINUOUS
 10
15.4343552569
 20
4.5226247044
 11
14.8103552569
 21
4.5226247044
  0
LINE
  5
25A
100
AcDbEntity
  8
02___PRT_ALL_AXES
100
AcDbLine
 62
7
  6
CONTINUOUS
 10
14.8103552569
 20
6.3986247044
 11
14.8103552569
 21
4.5226247044
  0
LINE
  5
25B
100
AcDbEntity
  8
LAYER_CUT_FEAT
100
AcDbLine
 62
7
  6
CONTINUOUS
 10
16.1823552569
 20
4.8124813999
 11
15.5623552569
 21
4.8124813999
  0
LINE
  5
25C
100
AcDbEntity
  8
LAYER_CUT_FEAT
100
AcDbLine
 62
7
  6
CONTINUOUS
 10
15.0403552569
 20
5.5079674265
 11
15.0403552569
 21
5.4132819824
  0
LINE
  5
25D
100
AcDbEntity
  8
LAYER_CUT_FEAT
100
AcDbLine
 62
7
  6
CONTINUOUS
 10
15.2043552569
 20
5.4132819824
 11
15.2043552569
 21
5.5079674265
  0
LINE
  5
25E
100
AcDbEntity
  8
LAYER_CUT_FEAT
100
AcDbLine
 62
7
  6
CONTINUOUS
 10
15.1223552569
 20
5.5553101486
 11
15.0403552569
 21
5.5079674265
  0
LINE
  5
25F
100
AcDbEntity
  8
LAYER_CUT_FEAT
100
AcDbLine
 62
7
  6
CONTINUOUS
 10
15.0403552569
 20
5.4132819824
 11
15.1223552569
 21
5.3659392603
  0
LINE
  5
260
100
AcDbEntity
  8
LAYER_FEATURE
100
AcDbLine
 62
7
  6
CONTINUOUS
 10
15.4343552569
 20
6.9606247044
 11
15.4343552569
 21
3.9606247044
  0
LINE
  5
261
100
AcDbEntity
  8
LAYER_CUT_FEAT
100
AcDbLine
 62
7
  6
CONTINUOUS
 10
15.1223552569
 20
5.3659392603
 11
15.2043552569
 21
5.4132819824
  0
LINE
  5
262
100
AcDbEntity
  8
LAYER_CUT_FEAT
100
AcDbLine
 62
7
  6
CONTINUOUS
 10
15.2043552569
 20
5.5079674265
 11
15.1223552569
 21
5.5553101486
  0
LINE
  5
263
100
AcDbEntity
  8
LAYER_FEATURE
100
AcDbLine
 62
7
  6
CONTINUOUS
 10
15.5143552569
 20
6.9606247044
 11
15.5143552569
 21
3.9606247044
  0
LINE
  5
264
100
AcDbEntity
  8
LAYER_FEATURE
100
AcDbLine
 62
7
  6
CONTINUOUS
 10
15.5623552569
 20
4.1228002508
 11
15.5623552569
 21
6.7984491581
  0
LINE
  5
265
100
AcDbEntity
  8
LAYER_FEATURE
100
AcDbLine
 62
7
  6
CONTINUOUS
 10
16.2303552569
 20
6.9606247044
 11
16.1980188616
 21
6.8797837162
  0
LINE
  5
266
100
AcDbEntity
  8
LAYER_FEATURE
100
AcDbLine
 62
7
  6
CONTINUOUS
 10
16.2303552569
 20
3.9606247044
 11
16.1980188616
 21
4.0414656927
  0
LINE
  5
267
100
AcDbEntity
  8
LAYER_FEATURE
100
AcDbLine
 62
7
  6
CONTINUOUS
 10
15.2580821503
 20
6.394097811
 11
15.2535552569
 21
6.3986247044
  0
LINE
  5
268
100
AcDbEntity
  8
LAYER_FEATURE
100
AcDbLine
 62
7
  6
CONTINUOUS
 10
15.5466916522
 20
4.0414656927
 11
15.5143552569
 21
3.9606247044
  0
LINE
  5
269
100
AcDbEntity
  8
LAYER_FEATURE
100
AcDbLine
 62
7
  6
CONTINUOUS
 10
15.5466916522
 20
6.8797837162
 11
15.5143552569
 21
6.9606247044
  0
LINE
  5
26A
100
AcDbEntity
  8
LAYER_FEATURE
100
AcDbLine
 62
7
  6
CONTINUOUS
 10
16.1823552569
 20
4.1228002508
 11
16.1823552569
 21
6.7984491581
  0
LINE
  5
26B
100
AcDbEntity
  8
LAYER_FEATURE
100
AcDbLine
 62
7
  6
CONTINUOUS
 10
16.2303552569
 20
6.9606247044
 11
16.2303552569
 21
3.9606247044
  0
LINE
  5
26C
100
AcDbEntity
  8
LAYER_CUT_FEAT
100
AcDbLine
 62
7
  6
CONTINUOUS
 10
16.1823552569
 20
6.108768009
 11
15.5623552569
 21
6.108768009
  0
LINE
  5
26D
100
AcDbEntity
  8
LAYER_FEATURE
100
AcDbLine
 62
7
  6
CONTINUOUS
 10
16.3103552569
 20
6.9606247044
 11
16.3103552569
 21
3.9606247044
  0
LINE
  5
26E
100
AcDbEntity
  8
02___PRT_ALL_AXES
100
AcDbLine
 62
7
  6
CONTINUOUS
 10
15.4343552569
 20
6.3986247044
 11
15.2863552569
 21
6.3986247044
  0
LINE
  5
26F
100
AcDbEntity
  8
02___PRT_ALL_AXES
100
AcDbLine
 62
7
  6
CONTINUOUS
 10
14.9583552569
 20
6.3986247044
 11
14.8103552569
 21
6.3986247044
  0
LINE
  5
270
100
AcDbEntity
  8
LAYER_FEATURE
100
AcDbLine
 62
7
  6
CONTINUOUS
 10
14.9911553445
 20
6.3986247044
 11
15.2535551694
 21
6.3986247044
  0
LINE
  5
271
100
AcDbEntity
  8
LAYER_CUT_FEAT
100
AcDbLine
 62
7
  6
CONTINUOUS
 10
16.1823552569
 20
6.4022922341
 11
15.5623552569
 21
6.4022922341
  0
LINE
  5
272
100
AcDbEntity
  8
LAYER_CUT_FEAT
100
AcDbLine
 62
7
  6
CONTINUOUS
 10
16.1823552569
 20
6.6083380548
 11
15.5623552569
 21
6.6083380548
  0
LINE
  5
273
100
AcDbEntity
  8
0
100
AcDbLine
 62
7
  6
CONTINUOUS
 10
16.1823552569
 20
6.7067362707
 11
15.5623552569
 21
6.7067362707
  0
LINE
  5
274
100
AcDbEntity
  8
LAYER_FEATURE
100
AcDbLine
 62
7
  6
CONTINUOUS
 10
16.3103552569
 20
6.9606247044
 11
16.2303552569
 21
6.9606247044
  0
LINE
  5
275
100
AcDbEntity
  8
LAYER_FEATURE
100
AcDbLine
 62
7
  6
CONTINUOUS
 10
15.5143552569
 20
6.9606247044
 11
15.4343552569
 21
6.9606247044
  0
LINE
  5
276
100
AcDbEntity
  8
LAYER_FEATURE
100
AcDbLine
 62
7
  6
CONTINUOUS
 10
13.9319561524
 20
12.6803044584
 11
13.9513214583
 21
12.7429706112
  0
LINE
  5
277
100
AcDbEntity
  8
LAYER_FEATURE
100
AcDbLine
 62
7
  6
CONTINUOUS
 10
14.1246409459
 20
13.3038326785
 11
14.1440062517
 21
13.3664988313
  0
LINE
  5
278
100
AcDbEntity
  8
02___PRT_ALL_AXES
100
AcDbLine
 62
7
  6
CONTINUOUS
 10
14.3266178367
 20
13.1208435186
 11
14.3490107109
 21
13.1933068861
  0
LINE
  5
279
100
AcDbEntity
  8
0
100
AcDbLine
 62
7
  6
CONTINUOUS
 10
14.4305986826
 20
13.3399943897
 11
14.3682335716
 21
13.1381808165
  0
LINE
  5
27A
100
AcDbEntity
  8
LAYER_FEATURE
100
AcDbLine
 62
7
  6
CONTINUOUS
 10
14.3490107187
 20
13.1933068837
 11
14.3550213069
 21
13.2112772747
  0
LINE
  5
27B
100
AcDbEntity
  8
0
100
AcDbLine
 62
7
  6
CONTINUOUS
 10
14.6287805918
 20
13.487065066
 11
14.5370499326
 21
13.1902245439
  0
LINE
  5
27C
100
AcDbEntity
  8
LAYER_CUT_FEAT
100
AcDbLine
 62
7
  6
CONTINUOUS
 10
14.3504304822
 20
12.5509861097
 11
14.3620496657
 21
12.5885858014
  0
LINE
  5
27D
100
AcDbEntity
  8
02___PRT_ALL_AXES
100
AcDbLine
 62
7
  6
CONTINUOUS
 10
14.3178532811
 20
12.025579444
 11
14.4689026669
 21
12.5143754357
  0
LINE
  5
27E
100
AcDbEntity
  8
0
100
AcDbLine
 62
7
  6
CONTINUOUS
 10
14.9122721909
 20
13.5705550968
 11
14.8066399133
 21
13.2287289212
  0
LINE
  5
27F
100
AcDbEntity
  8
LAYER_FEATURE
100
AcDbLine
 62
7
  6
CONTINUOUS
 10
15.6007785627
 20
13.5033852615
 11
15.6220901449
 21
13.5273036854
  0
LINE
  5
280
100
AcDbEntity
  8
LAYER_FEATURE
100
AcDbLine
 62
7
  6
CONTINUOUS
 10
15.9492175608
 20
13.3891154782
 11
15.983820177
 21
13.4049708461
  0
LINE
  5
281
100
AcDbEntity
  8
LAYER_CUT_FEAT
100
AcDbLine
 62
7
  6
CONTINUOUS
 10
16.1824009629
 20
11.9341779895
 11
16.1310306412
 21
11.9341779895
  0
LINE
  5
282
100
AcDbEntity
  8
0
100
AcDbLine
 62
7
  6
CONTINUOUS
 10
15.2533233469
 20
13.5822918961
 11
15.141873469
 21
13.2216399591
  0
LINE
  5
283
100
AcDbEntity
  8
LAYER_CUT_FEAT
100
AcDbLine
 62
7
  6
CONTINUOUS
 10
14.9796773589
 20
12.6403383622
 11
14.9162223857
 21
12.5761055556
  0
LINE
  5
284
100
AcDbEntity
  8
LAYER_CUT_FEAT
100
AcDbLine
 62
7
  6
CONTINUOUS
 10
16.1878088891
 20
12.027839504
 11
16.1232460981
 21
12.027839504
  0
LINE
  5
285
100
AcDbEntity
  8
LAYER_CUT_FEAT
100
AcDbLine
 62
7
  6
CONTINUOUS
 10
14.9162223857
 20
12.5761055556
 11
14.9477432689
 21
12.5118727491
  0
LINE
  5
286
100
AcDbEntity
  8
LAYER_CUT_FEAT
100
AcDbLine
 62
7
  6
CONTINUOUS
 10
14.9162223857
 20
12.5761055556
 11
14.9399784818
 21
12.5118727491
  0
LINE
  5
287
100
AcDbEntity
  8
LAYER_CUT_FEAT
100
AcDbLine
 62
7
  6
CONTINUOUS
 10
15.029704225
 20
12.5383943274
 11
15.0035038123
 21
12.5118727491
  0
LINE
  5
288
100
AcDbEntity
  8
LAYER_CUT_FEAT
100
AcDbLine
 62
7
  6
CONTINUOUS
 10
15.0271895512
 20
12.5118727491
 11
15.0906445243
 21
12.5761055556
  0
LINE
  5
289
100
AcDbEntity
  8
LAYER_CUT_FEAT
100
AcDbLine
 62
7
  6
CONTINUOUS
 10
14.9796773589
 20
12.6403383622
 11
15.029704225
 21
12.5383943274
  0
LINE
  5
28A
100
AcDbEntity
  8
LAYER_CUT_FEAT
100
AcDbLine
 62
7
  6
CONTINUOUS
 10
15.0906445243
 20
12.5761055556
 11
15.0668884282
 21
12.6403383622
  0
LINE
  5
28B
100
AcDbEntity
  8
LAYER_CUT_FEAT
100
AcDbLine
 62
7
  6
CONTINUOUS
 10
14.9399784818
 20
12.5118727491
 11
15.0271895512
 21
12.5118727491
  0
LINE
  5
28C
100
AcDbEntity
  8
LAYER_CUT_FEAT
100
AcDbLine
 62
7
  6
CONTINUOUS
 10
15.0533899639
 20
12.5383943274
 11
15.029704225
 21
12.5383943274
  0
LINE
  5
28D
100
AcDbEntity
  8
LAYER_CUT_FEAT
100
AcDbLine
 62
7
  6
CONTINUOUS
 10
15.0668884282
 20
12.6403383622
 11
14.9796773589
 21
12.6403383622
  0
LINE
  5
28E
100
AcDbEntity
  8
LAYER_FEATURE
100
AcDbLine
 62
7
  6
CONTINUOUS
 10
16.1503086609
 20
12.1416564994
 11
16.1751191569
 21
12.1119322806
  0
LINE
  5
28F
100
AcDbEntity
  8
LAYER_CUT_FEAT
100
AcDbLine
 62
7
  6
CONTINUOUS
 10
16.16856369
 20
13.3116506421
 11
16.0566760914
 21
12.9495822405
  0
LINE
  5
290
100
AcDbEntity
  8
LAYER_CUT_FEAT
100
AcDbLine
 62
7
  6
CONTINUOUS
 10
16.1192269875
 20
11.9582313068
 11
16.1481100121
 21
11.8993738909
  0
LINE
  5
291
100
AcDbEntity
  8
LAYER_CUT_FEAT
100
AcDbLine
 62
7
  6
CONTINUOUS
 10
16.1878088891
 20
12.027839504
 11
16.1589258645
 21
12.08669692
  0
LINE
  5
292
100
AcDbEntity
  8
LAYER_FEATURE
100
AcDbLine
 62
7
  6
CONTINUOUS
 10
15.8263704452
 20
13.4671999711
 11
15.8328780931
 21
13.4350965236
  0
LINE
  5
293
100
AcDbEntity
  8
LAYER_CUT_FEAT
100
AcDbLine
 62
7
  6
CONTINUOUS
 10
16.1246349137
 20
12.0518928213
 11
16.1192269875
 21
11.9582313068
  0
LINE
  5
294
100
AcDbEntity
  8
LAYER_FEATURE
100
AcDbLine
 62
7
  6
CONTINUOUS
 10
16.2582017942
 20
13.2194657957
 11
16.3027082992
 21
13.2257060737
  0
LINE
  5
295
100
AcDbEntity
  8
LAYER_FEATURE
100
AcDbLine
 62
7
  6
CONTINUOUS
 10
16.4974857333
 20
13.011042707
 11
16.5475395203
 21
13.0070570532
  0
LINE
  5
296
100
AcDbEntity
  8
LAYER_FEATURE
100
AcDbLine
 62
7
  6
CONTINUOUS
 10
14.3947141012
 20
13.2257060737
 11
14.3952601253
 21
13.2256387763
  0
LINE
  5
297
100
AcDbEntity
  8
LAYER_FEATURE
100
AcDbLine
 62
7
  6
CONTINUOUS
 10
16.6436465989
 20
12.7842481162
 11
16.6943480546
 21
12.7704266742
  0
LINE
  5
298
100
AcDbEntity
  8
LAYER_FEATURE
100
AcDbLine
 62
7
  6
CONTINUOUS
 10
14.5376614774
 20
13.4049708461
 11
14.5878254625
 21
13.3891154782
  0
LINE
  5
299
100
AcDbEntity
  8
LAYER_FEATURE
100
AcDbLine
 62
7
  6
CONTINUOUS
 10
16.719288282
 20
12.5435339136
 11
16.7287632598
 21
12.5389779667
  0
LINE
  5
29A
100
AcDbEntity
  8
LAYER_FEATURE
100
AcDbLine
 62
7
  6
CONTINUOUS
 10
14.7793270332
 20
13.5273036854
 11
14.8241135307
 21
13.5033852615
  0
LINE
  5
29B
100
AcDbEntity
  8
LAYER_FEATURE
100
AcDbLine
 62
7
  6
CONTINUOUS
 10
15.0960548603
 20
13.580729801
 11
15.1310798557
 21
13.5510896231
  0
LINE
  5
29C
100
AcDbEntity
  8
LAYER_FEATURE
100
AcDbLine
 62
7
  6
CONTINUOUS
 10
15.456841432
 20
13.5600194725
 11
15.4786764349
 21
13.5275589276
  0
LINE
  5
29D
100
AcDbEntity
  8
LAYER_CUT_FEAT
100
AcDbLine
 62
7
  6
CONTINUOUS
 10
16.1824009629
 20
11.9341779895
 11
16.1878088891
 21
12.027839504
  0
LINE
  5
29E
100
AcDbEntity
  8
LAYER_CUT_FEAT
100
AcDbLine
 62
7
  6
CONTINUOUS
 10
16.4546524337
 20
13.1153956227
 11
16.3477232965
 21
12.769372808
  0
LINE
  5
29F
100
AcDbEntity
  8
LAYER_CUT_FEAT
100
AcDbLine
 62
7
  6
CONTINUOUS
 10
16.1589258645
 20
12.08669692
 11
16.1246349137
 21
12.0518928213
  0
LINE
  5
2A0
100
AcDbEntity
  8
02___PRT_ALL_AXES
100
AcDbLine
 62
7
  6
CONTINUOUS
 10
16.1102227849
 20
11.4716953752
 11
16.2612721707
 21
11.9604913668
  0
LINE
  5
2A1
100
AcDbEntity
  8
LAYER_FEATURE
100
AcDbLine
 62
7
  6
CONTINUOUS
 10
16.1503086609
 20
11.8444143114
 11
16.1751191569
 21
11.8741385302
  0
LINE
  5
2A2
100
AcDbEntity
  8
LAYER_CUT_FEAT
100
AcDbLine
 62
7
  6
CONTINUOUS
 10
16.1481100121
 20
11.8993738909
 11
16.1824009629
 21
11.9341779895
  0
LINE
  5
2A3
100
AcDbEntity
  8
LAYER_FEATURE
100
AcDbLine
 62
7
  6
CONTINUOUS
 10
15.864929672
 20
13.4052644371
 11
15.9008365909
 21
13.3910728846
  0
LINE
  5
2A4
100
AcDbEntity
  8
LAYER_CUT_FEAT
100
AcDbLine
 62
7
  6
CONTINUOUS
 10
16.6563000417
 20
12.889167069
 11
16.5617518706
 21
12.5832090754
  0
LINE
  5
2A5
100
AcDbEntity
  8
LAYER_CUT_FEAT
100
AcDbLine
 62
7
  6
CONTINUOUS
 10
16.3797443554
 20
11.9238806927
 11
16.3913635389
 21
11.9614803844
  0
LINE
  5
2A6
100
AcDbEntity
  8
LAYER_FEATURE
100
AcDbLine
 62
7
  6
CONTINUOUS
 10
14.8740488365
 20
13.4953572983
 11
14.8902657432
 21
13.4993422061
  0
LINE
  5
2A7
100
AcDbEntity
  8
LAYER_FEATURE
100
AcDbLine
 62
7
  6
CONTINUOUS
 10
15.1796025927
 20
13.5338621233
 11
15.2153777576
 21
13.5338621233
  0
LINE
  5
2A8
100
AcDbEntity
  8
LAYER_FEATURE
100
AcDbLine
 62
7
  6
CONTINUOUS
 10
15.5210368596
 20
13.502818239
 11
15.5587223612
 21
13.4953572983
  0
LINE
  5
2A9
100
AcDbEntity
  8
LAYER_FEATURE
100
AcDbLine
 62
7
  6
CONTINUOUS
 10
16.1776184056
 20
13.2507499634
 11
16.2082319223
 21
13.2312169671
  0
LINE
  5
2AA
100
AcDbEntity
  8
LAYER_FEATURE
100
AcDbLine
 62
7
  6
CONTINUOUS
 10
16.4340405158
 20
13.0486954319
 11
16.4508183587
 21
13.0314373568
  0
LINE
  5
2AB
100
AcDbEntity
  8
LAYER_CUT_FEAT
100
AcDbLine
 62
7
  6
CONTINUOUS
 10
16.7537678412
 20
12.6551098081
 11
16.6855435394
 21
12.4343358866
  0
LINE
  5
2AC
100
AcDbEntity
  8
02___PRT_ALL_AXES
100
AcDbLine
 62
7
  6
CONTINUOUS
 10
16.7209292598
 20
12.3810402898
 11
16.7432953466
 21
12.4534169732
  0
LINE
  5
2AD
100
AcDbEntity
  8
LAYER_FEATURE
100
AcDbLine
 62
7
  6
CONTINUOUS
 10
16.7982186852
 20
11.794562344
 11
16.8175839911
 21
11.8572284968
  0
LINE
  5
2AE
100
AcDbEntity
  8
LAYER_FEATURE
100
AcDbLine
 62
7
  6
CONTINUOUS
 10
16.9909034786
 20
12.4180905641
 11
17.0102687845
 21
12.4807567168
  0
CIRCLE
  5
2AF
100
AcDbEntity
  8
LAYER_FEATURE
100
AcDbCircle
 62
7
  6
CONTINUOUS
 10
6.1303672762
 20
5.5201198968
 40
1.5
  0
CIRCLE
  5
2B0
100
AcDbEntity
  8
LAYER_FEATURE
100
AcDbCircle
 62
7
  6
CONTINUOUS
 10
6.1303672762
 20
5.5201198968
 40
1.38
  0
CIRCLE
  5
2B1
100
AcDbEntity
  8
LAYER_CUT_FEAT
100
AcDbCircle
 62
7
  6
CONTINUOUS
 10
6.1303672762
 20
5.5201198968
 40
1.062
  0
CIRCLE
  5
2B2
100
AcDbEntity
  8
02___PRT_ALL_AXES
100
AcDbCircle
 62
7
  6
CONTINUOUS
 10
6.1303672762
 20
5.5201198968
 40
0.938
  0
CIRCLE
  5
2B3
100
AcDbEntity
  8
LAYER_CHAMFER_FEAT
100
AcDbCircle
 62
7
  6
CONTINUOUS
 10
6.1303672762
 20
5.5201198968
 40
0.2875
  0
CIRCLE
  5
2B4
100
AcDbEntity
  8
LAYER_CHAMFER_FEAT
100
AcDbCircle
 62
7
  6
CONTINUOUS
 10
6.1303672762
 20
5.5201198968
 40
0.25
  0
ARC
  5
2B5
100
AcDbEntity
  8
LAYER_FEATURE
100
AcDbCircle
 62
7
  6
CONTINUOUS
 10
7.4086965375
 20
12.3830477814
 40
0.219
100
AcDbArc
 50
68.1985905136
 51
90.0
  0
ARC
  5
2B6
100
AcDbEntity
  8
LAYER_FEATURE
100
AcDbCircle
 62
7
  6
CONTINUOUS
 10
4.7330476302
 20
12.3830477814
 40
0.219
100
AcDbArc
 50
90.0
 51
111.8014094864
  0
ARC
  5
2B7
100
AcDbEntity
  8
LAYER_FEATURE
100
AcDbCircle
 62
7
  6
CONTINUOUS
 10
7.4086965375
 20
13.4410477814
 40
0.219
100
AcDbArc
 50
270.0
 51
291.8014094864
  0
ARC
  5
2B8
100
AcDbEntity
  8
LAYER_FEATURE
100
AcDbCircle
 62
7
  6
CONTINUOUS
 10
4.7330476302
 20
13.4410477814
 40
0.219
100
AcDbArc
 50
248.1985905136
 51
270.0
  0
CIRCLE
  5
2B9
100
AcDbEntity
  8
02___PRT_ALL_AXES
100
AcDbCircle
 62
7
  6
CONTINUOUS
 10
6.0708720839
 20
12.1620477814
 40
0.164
  0
CIRCLE
  5
2BA
100
AcDbEntity
  8
LAYER_FEATURE
100
AcDbCircle
 62
7
  6
CONTINUOUS
 10
6.0708720839
 20
12.1620477814
 40
0.1312
  0
ARC
  5
2BB
100
AcDbEntity
  8
LAYER_FEATURE
100
AcDbCircle
 62
7
  6
CONTINUOUS
 10
15.3433552569
 20
4.1228002508
 40
0.219
100
AcDbArc
 50
338.1985905136
 51
360.0
  0
ARC
  5
2BC
100
AcDbEntity
  8
LAYER_FEATURE
100
AcDbCircle
 62
7
  6
CONTINUOUS
 10
15.3433552569
 20
6.7984491581
 40
0.219
100
AcDbArc
 50
0.0
 51
21.8014094864
  0
ARC
  5
2BD
100
AcDbEntity
  8
LAYER_FEATURE
100
AcDbCircle
 62
7
  6
CONTINUOUS
 10
16.4013552569
 20
4.1228002508
 40
0.219
100
AcDbArc
 50
180.0
 51
201.8014094864
  0
ARC
  5
2BE
100
AcDbEntity
  8
LAYER_FEATURE
100
AcDbCircle
 62
7
  6
CONTINUOUS
 10
16.4013552569
 20
6.7984491581
 40
0.219
100
AcDbArc
 50
158.1985905136
 51
180.0
  0
CIRCLE
  5
2BF
100
AcDbEntity
  8
02___PRT_ALL_AXES
100
AcDbCircle
 62
7
  6
CONTINUOUS
 10
15.1223552569
 20
5.4606247044
 40
0.164
  0
CIRCLE
  5
2C0
100
AcDbEntity
  8
LAYER_FEATURE
100
AcDbCircle
 62
7
  6
CONTINUOUS
 10
15.1223552569
 20
5.4606247044
 40
0.1312
  0
ARC
  5
2C1
100
AcDbEntity
  8
LAYER_FEATURE
100
AcDbCircle
 62
7
  6
CONTINUOUS
 10
15.1124563596
 20
11.4199147806
 40
2.1863241524
100
AcDbArc
 50
71.9605243791
 51
75.2494121608
  0
ARC
  5
2C2
100
AcDbEntity
  8
LAYER_FEATURE
100
AcDbCircle
 62
7
  6
CONTINUOUS
 10
15.183166326
 20
11.5822308311
 40
2.0091594266
100
AcDbArc
 50
61.3761166771
 51
64.8556645892
  0
ARC
  5
2C3
100
AcDbEntity
  8
LAYER_FEATURE
100
AcDbCircle
 62
7
  6
CONTINUOUS
 10
15.152510751
 20
11.6528324408
 40
1.9497617867
100
AcDbArc
 50
82.4257703427
 51
85.9756527362
  0
ARC
  5
2C4
100
AcDbEntity
  8
LAYER_FEATURE
100
AcDbCircle
 62
7
  6
CONTINUOUS
 10
16.3489377588
 20
12.575219113
 40
0.4127395308
100
AcDbArc
 50
342.8360600954
 51
350.1988881127
  0
ARC
  5
2C5
100
AcDbEntity
  8
LAYER_FEATURE
100
AcDbCircle
 62
7
  6
CONTINUOUS
 10
14.6128338777
 20
13.4681535155
 40
0.0829001337
100
AcDbArc
 50
252.4421146063
 51
259.5202224038
  0
SPLINE
  5
2C6
100
AcDbEntity
  8
02___PRT_ALL_AXES
100
AcDbSpline
 62
7
  6
CONTINUOUS
 70
0
 71
3
 72
21
 73
17
 74
0
 42
0.0000001
 43
0.0000001
 44
0.0000000001
 40
0.0
 40
0.0
 40
0.0
 40
0.0
 40
0.0384940641
 40
0.0850099125
 40
0.1473457188
 40
0.2230536406
 40
0.3092715606
 40
0.402768524
 40
0.5000000006
 40
0.5972314772
 40
0.6907284405
 40
0.7769463604
 40
0.8526542819
 40
0.9149900878
 40
0.9615059361
 40
1.0
 40
1.0
 40
1.0
 40
1.0
 10
7.0088720839
 20
11.9980477814
 30
0.0
 10
7.0081435191
 20
12.0022147463
 30
0.0
 10
7.0065922871
 20
12.0114271424
 30
0.0
 10
7.0041277425
 20
12.0274311022
 30
0.0
 10
7.0014065236
 20
12.0475306966
 30
0.0
 10
6.9986751904
 20
12.0720260405
 30
0.0
 10
6.9963489858
 20
12.1000024614
 30
0.0
 10
6.9947879547
 20
12.1304019403
 30
0.0
 10
6.9942383548
 20
12.1620477816
 30
0.0
 10
6.9947879547
 20
12.1936936228
 30
0.0
 10
6.9963489859
 20
12.2240931017
 30
0.0
 10
6.9986751905
 20
12.2520695225
 30
0.0
 10
7.0014065236
 20
12.2765648663
 30
0.0
 10
7.0041277425
 20
12.2966644607
 30
0.0
 10
7.0065922871
 20
12.3126684204
 30
0.0
 10
7.0081435191
 20
12.3218808165
 30
0.0
 10
7.0088720839
 20
12.3260477814
 30
0.0
  0
SPLINE
  5
2C7
100
AcDbEntity
  8
02___PRT_ALL_AXES
100
AcDbSpline
 62
7
  6
CONTINUOUS
 70
0
 71
3
 72
21
 73
17
 74
0
 42
0.0000001
 43
0.0000001
 44
0.0000000001
 40
0.0
 40
0.0
 40
0.0
 40
0.0
 40
0.0384940368
 40
0.0850098871
 40
0.1473457177
 40
0.2230536665
 40
0.309271584
 40
0.4027685342
 40
0.5000000003
 40
0.5972314663
 40
0.6907284165
 40
0.776946334
 40
0.8526542827
 40
0.9149901132
 40
0.9615059634
 40
1.0
 40
1.0
 40
1.0
 40
1.0
 10
15.2863552569
 20
6.3986247044
 30
0.0
 10
15.2821882947
 20
6.397896142
 30
0.0
 10
15.2729759011
 20
6.3963449119
 30
0.0
 10
15.2569719419
 20
6.3938803644
 30
0.0
 10
15.2368723419
 20
6.3911591427
 30
0.0
 10
15.2123769923
 20
6.3884278126
 30
0.0
 10
15.1844005701
 20
6.3861016095
 30
0.0
 10
15.1540010943
 20
6.3845405752
 30
0.0
 10
15.1223552569
 20
6.3839909736
 30
0.0
 10
15.0907094194
 20
6.3845405752
 30
0.0
 10
15.0603099436
 20
6.3861016095
 30
0.0
 10
15.0323335214
 20
6.3884278127
 30
0.0
 10
15.0078381718
 20
6.3911591427
 30
0.0
 10
14.9877385718
 20
6.3938803644
 30
0.0
 10
14.9717346128
 20
6.3963449119
 30
0.0
 10
14.9625222192
 20
6.397896142
 30
0.0
 10
14.9583552569
 20
6.3986247044
 30
0.0
  0
SPLINE
  5
2C8
100
AcDbEntity
  8
02___PRT_ALL_AXES
100
AcDbSpline
 62
7
  6
CONTINUOUS
 70
0
 71
3
 72
59
 73
55
 74
0
 42
0.0000001
 43
0.0000001
 44
0.0000000001
 40
0.0
 40
0.0
 40
0.0
 40
0.0
 40
0.0136911034
 40
0.0278706659
 40
0.0425203874
 40
0.0576233196
 40
0.0731611636
 40
0.0891137645
 40
0.1054600889
 40
0.1221784193
 40
0.139246178
 40
0.1566402496
 40
0.1923112081
 40
0.2289987013
 40
0.2665054874
 40
0.3046330131
 40
0.3431833296
 40
0.3819605566
 40
0.4207721896
 40
0.4594301296
 40
0.4977518158
 40
0.5355613295
 40
0.5726907591
 40
0.6089817178
 40
0.62676752
 40
0.6442896395
 40
0.6615317764
 40
0.6784786599
 40
0.6951160021
 40
0.7114306843
 40
0.7274107217
 40
0.7430454527
 40
0.7583255319
 40
0.7732430191
 40
0.787791524
 40
0.8019661833
 40
0.8157638901
 40
0.8291832085
 40
0.8422246743
 40
0.854890726
 40
0.8671859608
 40
0.8791171774
 40
0.8906935415
 40
0.9019267686
 40
0.9128311953
 40
0.9234240272
 40
0.9337253424
 40
0.9437583413
 40
0.9535492688
 40
0.9631274974
 40
0.9725253688
 40
0.98177802
 40
0.9909230437
 40
1.0
 40
1.0
 40
1.0
 40
1.0
 10
16.1138190613
 20
11.8645697922
 30
0.0
 10
16.1131621023
 20
11.8659085339
 30
0.0
 10
16.1118570466
 20
11.8686497329
 30
0.0
 10
16.1099572023
 20
11.8728738399
 30
0.0
 10
16.1080833734
 20
11.8772771772
 30
0.0
 10
16.1062389178
 20
11.8818527801
 30
0.0
 10
16.1044271929
 20
11.886593663
 30
0.0
 10
16.1026517161
 20
11.8914925272
 30
0.0
 10
16.1009160976
 20
11.8965418041
 30
0.0
 10
16.0992240175
 20
11.9017337305
 30
0.0
 10
16.0975792036
 20
11.9070603853
 30
0.0
 10
16.0954362985
 20
11.9143928478
 30
0.0
 10
16.0929049071
 20
11.9238369479
 30
0.0
 10
16.0901414906
 20
11.9354817795
 30
0.0
 10
16.0876583901
 20
11.9474630758
 30
0.0
 10
16.0854861909
 20
11.9597107982
 30
0.0
 10
16.0836546579
 20
11.972154078
 30
0.0
 10
16.0821922724
 20
11.984721289
 30
0.0
 10
16.0811257427
 20
11.997340217
 30
0.0
 10
16.0804794761
 20
12.0099381811
 30
0.0
 10
16.0802750099
 20
12.0224421449
 30
0.0
 10
16.0805304189
 20
12.0347790066
 30
0.0
 10
16.0812597062
 20
12.0468755741
 30
0.0
 10
16.0822768372
 20
12.0567611984
 30
0.0
 10
16.0833412514
 20
12.0644874508
 30
0.0
 10
16.084256404
 20
12.070138206
 30
0.0
 10
16.085293385
 20
12.0756749504
 30
0.0
 10
16.0864513474
 20
12.0810891957
 30
0.0
 10
16.0877292685
 20
12.0863725514
 30
0.0
 10
16.0891255109
 20
12.091516881
 30
0.0
 10
16.0906382701
 20
12.0965142174
 30
0.0
 10
16.0922651903
 20
12.10135688
 30
0.0
 10
16.0940036434
 20
12.1060374238
 30
0.0
 10
16.0958506127
 20
12.1105486897
 30
0.0
 10
16.0978026704
 20
12.1148838411
 30
0.0
 10
16.0998561797
 20
12.1190363016
 30
0.0
 10
16.1020069957
 20
12.1229999013
 30
0.0
 10
16.1042508847
 20
12.1267686998
 30
0.0
 10
16.1065831121
 20
12.1303372099
 30
0.0
 10
16.1089988725
 20
12.1337001798
 30
0.0
 10
16.1114929743
 20
12.136852789
 30
0.0
 10
16.114060096
 20
12.1397905011
 30
0.0
 10
16.1166946899
 20
12.1425091329
 30
0.0
 10
16.1193910081
 20
12.1450048598
 30
0.0
 10
16.1221432164
 20
12.1472741061
 30
0.0
 10
16.1249452397
 20
12.1493137238
 30
0.0
 10
16.1277909954
 20
12.1511207247
 30
0.0
 10
16.130674173
 20
12.1526925807
 30
0.0
 10
16.1335884591
 20
12.154026897
 30
0.0
 10
16.13652737
 20
12.1551217181
 30
0.0
 10
16.1394843622
 20
12.1559752765
 30
0.0
 10
16.1424528749
 20
12.1565861892
 30
0.0
 10
16.1454259524
 20
12.1569533876
 30
0.0
 10
16.1474116531
 20
12.1570354002
 30
0.0
 10
16.1484003246
 20
12.1570353972
 30
0.0
  0
SPLINE
  5
2C9
100
AcDbEntity
  8
02___PRT_ALL_AXES
100
AcDbSpline
 62
7
  6
CONTINUOUS
 70
0
 71
3
 72
30
 73
26
 74
0
 42
0.0000001
 43
0.0000001
 44
0.0000000001
 40
0.0
 40
0.0
 40
0.0
 40
0.0
 40
0.0746736889
 40
0.1477451584
 40
0.2191051414
 40
0.2886727729
 40
0.3563937467
 40
0.4222464645
 40
0.4862438291
 40
0.5175653293
 40
0.5484450933
 40
0.6089223219
 40
0.6678146184
 40
0.6967238767
 40
0.7253043153
 40
0.7535832371
 40
0.7815903756
 40
0.8093573792
 40
0.8369178891
 40
0.8643071321
 40
0.8915617734
 40
0.9187195978
 40
0.9458191843
 40
0.97289958
 40
1.0
 40
1.0
 40
1.0
 40
1.0
 10
14.963734578
 20
12.4476399425
 30
0.0
 10
14.9606952378
 20
12.4476399425
 30
0.0
 10
14.9546807913
 20
12.4477727885
 30
0.0
 10
14.9457806205
 20
12.4483843225
 30
0.0
 10
14.937126796
 20
12.4494047807
 30
0.0
 10
14.9287512387
 20
12.4508318508
 30
0.0
 10
14.9206837825
 20
12.4526624545
 30
0.0
 10
14.9129529406
 20
12.4548924977
 30
0.0
 10
14.9067688615
 20
12.4570955524
 30
0.0
 10
14.9020204252
 20
12.4590563481
 30
0.0
 10
14.8974713877
 20
12.4611170609
 30
0.0
 10
14.8920342124
 20
12.4639280868
 30
0.0
 10
14.8868870612
 20
12.4670914094
 30
0.0
 10
14.8830037086
 20
12.4698058655
 30
0.0
 10
14.8802241586
 20
12.4719195268
 30
0.0
 10
14.8775621085
 20
12.4741222134
 30
0.0
 10
14.8750194858
 20
12.4764126322
 30
0.0
 10
14.8725982668
 20
12.4787895134
 30
0.0
 10
14.8703002162
 20
12.4812514219
 30
0.0
 10
14.8681270822
 20
12.4837969375
 30
0.0
 10
14.86608045
 20
12.4864245126
 30
0.0
 10
14.8641618334
 20
12.4891325451
 30
0.0
 10
14.86237264
 20
12.4919193858
 30
0.0
 10
14.8607141747
 20
12.4947831728
 30
0.0
 10
14.8596972815
 20
12.4967409948
 30
0.0
 10
14.8592113484
 20
12.4977312202
 30
0.0
  0
SPLINE
  5
2CA
100
AcDbEntity
  8
LAYER_CUT_FEAT
100
AcDbSpline
 62
7
  6
CONTINUOUS
 70
0
 71
3
 72
22
 73
18
 74
0
 42
0.0000001
 43
0.0000001
 44
0.0000000001
 40
0.0
 40
0.0
 40
0.0
 40
0.0
 40
0.1378341489
 40
0.2049726589
 40
0.2709766545
 40
0.3358978374
 40
0.3997953088
 40
0.4627349001
 40
0.5247890493
 40
0.5860367299
 40
0.6465631374
 40
0.7064592634
 40
0.7658213654
 40
0.8247503314
 40
0.8833509193
 40
0.9417308776
 40
1.0
 40
1.0
 40
1.0
 40
1.0
 10
14.3846471195
 20
12.242116523
 30
0.0
 10
14.3783179549
 20
12.2552963729
 30
0.0
 10
14.3696067197
 20
12.2752480022
 30
0.0
 10
14.3596927586
 20
12.3022340667
 30
0.0
 10
14.3532558237
 20
12.322240059
 30
0.0
 10
14.3477597925
 20
12.3421681146
 30
0.0
 10
14.3432096986
 20
12.3620002803
 30
0.0
 10
14.3396100177
 20
12.381717984
 30
0.0
 10
14.3369643029
 20
12.4013029152
 30
0.0
 10
14.3352752565
 20
12.420736792
 30
0.0
 10
14.3345446423
 20
12.4400014444
 30
0.0
 10
14.3347733366
 20
12.4590788112
 30
0.0
 10
14.3359613297
 20
12.4779509777
 30
0.0
 10
14.3381076596
 20
12.4966001171
 30
0.0
 10
14.3412104701
 20
12.515008809
 30
0.0
 10
14.34526672
 20
12.5331589971
 30
0.0
 10
14.3486055966
 20
12.5450807459
 30
0.0
 10
14.3504304852
 20
12.5509861088
 30
0.0
  0
SPLINE
  5
2CB
100
AcDbEntity
  8
LAYER_CHAMFER_FEAT
100
AcDbSpline
 62
7
  6
CONTINUOUS
 70
0
 71
3
 72
23
 73
19
 74
0
 42
0.0000001
 43
0.0000001
 44
0.0000000001
 40
0.0
 40
0.0
 40
0.0
 40
0.0
 40
0.0738889147
 40
0.1459880551
 40
0.2163025821
 40
0.2848520831
 40
0.351671785
 40
0.4168132419
 40
0.4803452424
 40
0.5423547688
 40
0.6029472454
 40
0.6622466861
 40
0.7203956243
 40
0.7775541256
 40
0.8338983197
 40
0.8896184269
 40
0.9449158925
 40
1.0
 40
1.0
 40
1.0
 40
1.0
 10
15.0670830556
 20
11.9223903742
 30
0.0
 10
15.0644189235
 20
11.921565716
 30
0.0
 10
15.0591876282
 20
11.919828942
 30
0.0
 10
15.051555476
 20
11.9169230601
 30
0.0
 10
15.0442478001
 20
11.9137534616
 30
0.0
 10
15.0372786133
 20
11.9103260537
 30
0.0
 10
15.0306610631
 20
11.9066472013
 30
0.0
 10
15.0244077307
 20
11.9027237047
 30
0.0
 10
15.0185305534
 20
11.8985627816
 30
0.0
 10
15.0130407605
 20
11.8941721603
 30
0.0
 10
15.0079489173
 20
11.8895599764
 30
0.0
 10
15.0032649316
 20
11.8847347733
 30
0.0
 10
14.9989979391
 20
11.879705605
 30
0.0
 10
14.9951563439
 20
11.8744819407
 30
0.0
 10
14.9917478409
 20
11.8690737129
 30
0.0
 10
14.9887791985
 20
11.8634911927
 30
0.0
 10
14.9862564915
 20
11.8577456522
 30
0.0
 10
14.9848741647
 20
11.8538104057
 30
0.0
 10
14.984260314
 20
11.8518240101
 30
0.0
  0
SPLINE
  5
2CC
100
AcDbEntity
  8
LAYER_CHAMFER_FEAT
100
AcDbSpline
 62
7
  6
CONTINUOUS
 70
0
 71
3
 72
23
 73
19
 74
0
 42
0.0000001
 43
0.0000001
 44
0.0000000001
 40
0.0
 40
0.0
 40
0.0
 40
0.0
 40
0.0739091665
 40
0.1460262935
 40
0.2163563599
 40
0.2849187977
 40
0.3517484307
 40
0.4168967266
 40
0.4804325034
 40
0.5424425511
 40
0.6030323665
 40
0.6623262134
 40
0.7204667235
 40
0.7776142524
 40
0.8339453999
 40
0.8896507872
 40
0.9449323608
 40
1.0
 40
1.0
 40
1.0
 40
1.0
 10
15.4332699296
 20
11.8093524957
 30
0.0
 10
15.435010195
 20
11.8071657361
 30
0.0
 10
15.4383610351
 20
11.8027746051
 30
0.0
 10
15.4430394587
 20
11.7960601443
 30
0.0
 10
15.4473001112
 20
11.7893106325
 30
0.0
 10
15.4511347282
 20
11.7825389198
 30
0.0
 10
15.4545359279
 20
11.7757576988
 30
0.0
 10
15.4574971398
 20
11.7689797578
 30
0.0
 10
15.4600125948
 20
11.7622178672
 30
0.0
 10
15.4620772683
 20
11.7554847715
 30
0.0
 10
15.4636870079
 20
11.7487932177
 30
0.0
 10
15.4648385005
 20
11.7421559202
 30
0.0
 10
15.4655292126
 20
11.7355855503
 30
0.0
 10
15.4657575245
 20
11.7290947343
 30
0.0
 10
15.4655227616
 20
11.7226960728
 30
0.0
 10
15.4648250621
 20
11.7164019173
 30
0.0
 10
15.4636657239
 20
11.7102250813
 30
0.0
 10
15.4625855168
 20
11.7061897642
 30
0.0
 10
15.4619707263
 20
11.7042003274
 30
0.0
  0
SPLINE
  5
2CD
100
AcDbEntity
  8
LAYER_FEATURE
100
AcDbSpline
 62
7
  6
CONTINUOUS
 70
0
 71
3
 72
39
 73
35
 74
0
 42
0.0000001
 43
0.0000001
 44
0.0000000001
 40
0.0
 40
0.0
 40
0.0
 40
0.0
 40
0.0202790618
 40
0.0417769734
 40
0.0645047683
 40
0.088457389
 40
0.1136160365
 40
0.139950159
 40
0.1674191595
 40
0.1959737238
 40
0.225556867
 40
0.2561048794
 40
0.2875482221
 40
0.3198122362
 40
0.3528177379
 40
0.386481608
 40
0.4207174009
 40
0.4554358481
 40
0.4905453185
 40
0.5259523001
 40
0.5615618996
 40
0.5972782806
 40
0.6330050961
 40
0.6686459545
 40
0.7041048759
 40
0.7392867167
 40
0.7740976211
 40
0.8084455377
 40
0.8422406052
 40
0.8753957699
 40
0.9078272053
 40
0.939454174
 40
0.9702031791
 40
1.0
 40
1.0
 40
1.0
 40
1.0
 10
16.1751191565
 20
12.1119322785
 30
0.0
 10
16.1760161423
 20
12.1108576528
 30
0.0
 10
16.1777821059
 20
12.1085745402
 30
0.0
 10
16.1802766403
 20
12.1048833952
 30
0.0
 10
16.182685981
 20
12.1008380918
 30
0.0
 10
16.185002538
 20
12.0964514867
 30
0.0
 10
16.1872191907
 20
12.0917372156
 30
0.0
 10
16.189328999
 20
12.0867100902
 30
0.0
 10
16.1913253271
 20
12.0813859122
 30
0.0
 10
16.1932018553
 20
12.0757814597
 30
0.0
 10
16.1949526325
 20
12.0699144312
 30
0.0
 10
16.1965721061
 20
12.0638033878
 30
0.0
 10
16.1980551234
 20
12.0574676791
 30
0.0
 10
16.1993969545
 20
12.0509273795
 30
0.0
 10
16.2005933198
 20
12.0442032292
 30
0.0
 10
16.2016404146
 20
12.0373165665
 30
0.0
 10
16.2025348999
 20
12.0302892509
 30
0.0
 10
16.2032739162
 20
12.0231435926
 30
0.0
 10
16.2038551009
 20
12.0159022848
 30
0.0
 10
16.2042766093
 20
12.0085883301
 30
0.0
 10
16.2045370976
 20
12.0012249632
 30
0.0
 10
16.2046357294
 20
11.9938355768
 30
0.0
 10
16.2045721836
 20
11.9864436481
 30
0.0
 10
16.204346673
 20
11.9790726624
 30
0.0
 10
16.2039599186
 20
11.971746037
 30
0.0
 10
16.2034131502
 20
11.9644870479
 30
0.0
 10
16.2027081055
 20
11.9573187536
 30
0.0
 10
16.2018470422
 20
11.950263921
 30
0.0
 10
16.2008327121
 20
11.9433449476
 30
0.0
 10
16.1996683442
 20
11.9365837908
 30
0.0
 10
16.1983576418
 20
11.9300019547
 30
0.0
 10
16.1969047979
 20
11.9236201717
 30
0.0
 10
16.1953144303
 20
11.9174589056
 30
0.0
 10
16.1941466848
 20
11.9134452509
 30
0.0
 10
16.1935394312
 20
11.9114801776
 30
0.0
  0
SPLINE
  5
2CE
100
AcDbEntity
  8
LAYER_FEATURE
100
AcDbSpline
 62
7
  6
CONTINUOUS
 70
0
 71
3
 72
15
 73
11
 74
0
 42
0.0000001
 43
0.0000001
 44
0.0000000001
 40
0.0
 40
0.0
 40
0.0
 40
0.0
 40
0.103041611
 40
0.2124414656
 40
0.3282548063
 40
0.450449333
 40
0.5789186776
 40
0.713488756
 40
0.8539451102
 40
1.0
 40
1.0
 40
1.0
 40
1.0
 10
16.1751191562
 20
11.8741385341
 30
0.0
 10
16.176041143
 20
11.875243111
 30
0.0
 10
16.1778554107
 20
11.877593661
 30
0.0
 10
16.1804137422
 20
11.8814000098
 30
0.0
 10
16.1828817616
 20
11.8855791359
 30
0.0
 10
16.185251283
 20
11.8901170486
 30
0.0
 10
16.1875145947
 20
11.8949988445
 30
0.0
 10
16.1896643085
 20
11.9002084502
 30
0.0
 10
16.1916931439
 20
11.9057284261
 30
0.0
 10
16.192937301
 20
11.9095316837
 30
0.0
 10
16.1935394312
 20
11.9114801776
 30
0.0
  0
SPLINE
  5
2CF
100
AcDbEntity
  8
02___PRT_ALL_AXES
100
AcDbSpline
 62
7
  6
CONTINUOUS
 70
0
 71
3
 72
26
 73
22
 74
0
 42
0.0000001
 43
0.0000001
 44
0.0000000001
 40
0.0
 40
0.0
 40
0.0
 40
0.0
 40
0.020614699
 40
0.0413742716
 40
0.0623675123
 40
0.0836796813
 40
0.1053918058
 40
0.1275801516
 40
0.1736448088
 40
0.222385871
 40
0.2742024604
 40
0.3294075307
 40
0.3882361896
 40
0.4508589651
 40
0.5173902955
 40
0.5878980519
 40
0.6624114607
 40
0.7409231015
 40
0.8234010312
 40
0.9097921197
 40
1.0
 40
1.0
 40
1.0
 40
1.0
 10
16.1484003245
 20
11.8290354136
 30
0.0
 10
16.1480445325
 20
11.8290354152
 30
0.0
 10
16.14733022
 20
11.8290595564
 30
0.0
 10
16.1462585099
 20
11.8291677604
 30
0.0
 10
16.1451843058
 20
11.8293480056
 30
0.0
 10
16.1441078381
 20
11.8296001597
 30
0.0
 10
16.1430292116
 20
11.8299240946
 30
0.0
 10
16.1415703894
 20
11.8304580974
 30
0.0
 10
16.1397366593
 20
11.8313136969
 30
0.0
 10
16.1375600023
 20
11.8326115574
 30
0.0
 10
16.1353802676
 20
11.834190451
 30
0.0
 10
16.1331986113
 20
11.8360474459
 30
0.0
 10
16.1310160846
 20
11.8381794202
 30
0.0
 10
16.1288342364
 20
11.8405829297
 30
0.0
 10
16.1266548897
 20
11.8432540697
 30
0.0
 10
16.1244802053
 20
11.8461884581
 30
0.0
 10
16.122312683
 20
11.8493811756
 30
0.0
 10
16.1201550347
 20
11.8528267651
 30
0.0
 10
16.1180102409
 20
11.8565193623
 30
0.0
 10
16.1158816604
 20
11.8604523329
 30
0.0
 10
16.1145049469
 20
11.8631721042
 30
0.0
 10
16.1138190613
 20
11.8645697922
 30
0.0
  0
SPLINE
  5
2D0
100
AcDbEntity
  8
LAYER_FEATURE
100
AcDbSpline
 62
7
  6
CONTINUOUS
 70
0
 71
3
 72
40
 73
36
 74
0
 42
0.0000001
 43
0.0000001
 44
0.0000000001
 40
0.0
 40
0.0
 40
0.0
 40
0.0
 40
0.0128480323
 40
0.0257017714
 40
0.0514470143
 40
0.0772830456
 40
0.1032542723
 40
0.1294039491
 40
0.1557738434
 40
0.1824039325
 40
0.2093321439
 40
0.2365941479
 40
0.2642231911
 40
0.2922499655
 40
0.3207025227
 40
0.3496062363
 40
0.3789837888
 40
0.4088551776
 40
0.4392377499
 40
0.4701462699
 40
0.5015929892
 40
0.5335877192
 40
0.566137918
 40
0.5992487969
 40
0.6329234176
 40
0.6671627797
 40
0.7019659179
 40
0.7373300109
 40
0.7732504754
 40
0.8097210483
 40
0.8467338748
 40
0.8842796065
 40
0.9223474834
 40
0.9609254037
 40
1.0
 40
1.0
 40
1.0
 40
1.0
 10
13.9319561606
 20
12.6803044559
 30
0.0
 10
13.9307118094
 20
12.6762777279
 30
0.0
 10
13.9283260084
 20
12.6681900355
 30
0.0
 10
13.9239682531
 20
12.6518844243
 30
0.0
 10
13.9192994076
 20
12.6312591302
 30
0.0
 10
13.9149557866
 20
12.6061818535
 30
0.0
 10
13.9118713397
 20
12.5807849356
 30
0.0
 10
13.9100487635
 20
12.555091154
 30
0.0
 10
13.9094894472
 20
12.5291229429
 30
0.0
 10
13.91019368
 20
12.5029030867
 30
0.0
 10
13.9121605907
 20
12.476454497
 30
0.0
 10
13.91538822
 20
12.4498002423
 30
0.0
 10
13.9198735267
 20
12.4229635194
 30
0.0
 10
13.9256123698
 20
12.3959676388
 30
0.0
 10
13.9325995118
 20
12.3688360038
 30
0.0
 10
13.9408286701
 20
12.3415921018
 30
0.0
 10
13.9502925223
 20
12.3142594934
 30
0.0
 10
13.9609826867
 20
12.2868617928
 30
0.0
 10
13.9728897236
 20
12.2594226476
 30
0.0
 10
13.9860031806
 20
12.231965735
 30
0.0
 10
14.0003115963
 20
12.2045147465
 30
0.0
 10
14.0158024829
 20
12.1770933633
 30
0.0
 10
14.0324623298
 20
12.1497252332
 30
0.0
 10
14.0502766459
 20
12.1224339663
 30
0.0
 10
14.0692299667
 20
12.0952431175
 30
0.0
 10
14.0893058421
 20
12.0681761558
 30
0.0
 10
14.1104868448
 20
12.0412564398
 30
0.0
 10
14.1327546121
 20
12.0145072147
 30
0.0
 10
14.156089858
 20
11.9879515917
 30
0.0
 10
14.1804723656
 20
11.9616125167
 30
0.0
 10
14.2058810066
 20
11.9355127411
 30
0.0
 10
14.2322937626
 20
11.9096748363
 30
0.0
 10
14.2596878176
 20
11.8841211098
 30
0.0
 10
14.2880392692
 20
11.8588738169
 30
0.0
 10
14.3074409143
 20
11.8423642737
 30
0.0
 10
14.3172928813
 20
11.8341645058
 30
0.0
  0
SPLINE
  5
2D1
100
AcDbEntity
  8
LAYER_FEATURE
100
AcDbSpline
 62
7
  6
CONTINUOUS
 70
0
 71
3
 72
23
 73
19
 74
0
 42
0.0000001
 43
0.0000001
 44
0.0000000001
 40
0.0
 40
0.0
 40
0.0
 40
0.0
 40
0.0601488654
 40
0.1203563212
 40
0.1806806703
 40
0.2411796678
 40
0.301910224
 40
0.3629281809
 40
0.4242880398
 40
0.4860427584
 40
0.5482435486
 40
0.6109396702
 40
0.6741783309
 40
0.7380044679
 40
0.8024607447
 40
0.8675873496
 40
0.9334220373
 40
1.0
 40
1.0
 40
1.0
 40
1.0
 10
14.124640954
 20
13.303832676
 30
0.0
 10
14.122797622
 20
13.2978676423
 30
0.0
 10
14.1193361939
 20
13.2858602393
 30
0.0
 10
14.1148299628
 20
13.2676508653
 30
0.0
 10
14.1110104488
 20
13.2492477915
 30
0.0
 10
14.1078796678
 20
13.2306601686
 30
0.0
 10
14.105438983
 20
13.2118968341
 30
0.0
 10
14.1036895976
 20
13.1929667989
 30
0.0
 10
14.1026322785
 20
13.173879129
 30
0.0
 10
14.1022674851
 20
13.1546429615
 30
0.0
 10
14.1025953787
 20
13.1352674979
 30
0.0
 10
14.1036156887
 20
13.1157619927
 30
0.0
 10
14.1053279574
 20
13.0961357661
 30
0.0
 10
14.1077312217
 20
13.0763981639
 30
0.0
 10
14.1108243672
 20
13.0565586224
 30
0.0
 10
14.1146058039
 20
13.0366265101
 30
0.0
 10
14.1190736727
 20
13.0166115662
 30
0.0
 10
14.1224888244
 20
13.0032957066
 30
0.0
 10
14.1243077027
 20
12.9966286781
 30
0.0
  0
SPLINE
  5
2D2
100
AcDbEntity
  8
LAYER_FEATURE
100
AcDbSpline
 62
7
  6
CONTINUOUS
 70
0
 71
3
 72
42
 73
38
 74
0
 42
0.0000001
 43
0.0000001
 44
0.0000000001
 40
0.0
 40
0.0
 40
0.0
 40
0.0
 40
0.0128478128
 40
0.0257013336
 40
0.038566257
 40
0.0514482529
 40
0.0772838576
 40
0.1032546706
 40
0.1294039491
 40
0.1557734618
 40
0.1824031911
 40
0.2093310694
 40
0.2365927666
 40
0.2642215283
 40
0.292248051
 40
0.3207003907
 40
0.349603918
 40
0.3789813117
 40
0.3938547506
 40
0.4088539248
 40
0.4392364052
 40
0.4701448632
 40
0.501591545
 40
0.5335862657
 40
0.5661364859
 40
0.5992474103
 40
0.6329220939
 40
0.6671615397
 40
0.701964784
 40
0.737328998
 40
0.7732495914
 40
0.8097203038
 40
0.8467332816
 40
0.8842791671
 40
0.9223471964
 40
0.9609252683
 40
1.0
 40
1.0
 40
1.0
 40
1.0
 10
16.7982186771
 20
11.7945623465
 30
0.0
 10
16.7969742603
 20
11.790535406
 30
0.0
 10
16.7943811603
 20
11.7825113607
 30
0.0
 10
16.7901819364
 20
11.7705751828
 30
0.0
 10
16.7856736484
 20
11.7587400964
 30
0.0
 10
16.7792462371
 20
11.7430845384
 30
0.0
 10
16.7704355155
 20
11.723767398
 30
0.0
 10
16.7586532701
 20
11.7010572971
 30
0.0
 10
16.7456613973
 20
11.6788136276
 30
0.0
 10
16.7314716093
 20
11.6570562316
 30
0.0
 10
16.7160964581
 20
11.6358039483
 30
0.0
 10
16.6995495935
 20
11.6150752548
 30
0.0
 10
16.6818456613
 20
11.594888077
 30
0.0
 10
16.6630002712
 20
11.5752598439
 30
0.0
 10
16.6430299965
 20
11.5562074876
 30
0.0
 10
16.6219523065
 20
11.53774735
 30
0.0
 10
16.5997858549
 20
11.5198954196
 30
0.0
 10
16.5805026039
 20
11.505597705
 30
0.0
 10
16.5645600458
 20
11.4944761742
 30
0.0
 10
16.5481348191
 20
11.4834763883
 30
0.0
 10
16.5269503269
 20
11.4701381749
 30
0.0
 10
16.5006305911
 20
11.4548662671
 30
0.0
 10
16.4733273063
 20
11.4402733641
 30
0.0
 10
16.4450643803
 20
11.426372139
 30
0.0
 10
16.415866242
 20
11.4131744639
 30
0.0
 10
16.3857582069
 20
11.400691659
 30
0.0
 10
16.3547663375
 20
11.3889344346
 30
0.0
 10
16.3229174563
 20
11.3779129013
 30
0.0
 10
16.2902391308
 20
11.3676365238
 30
0.0
 10
16.256759648
 20
11.3581141247
 30
0.0
 10
16.2225079795
 20
11.3493538946
 30
0.0
 10
16.1875137632
 20
11.3413633858
 30
0.0
 10
16.1518072824
 20
11.3341494732
 30
0.0
 10
16.1154194604
 20
11.3277183592
 30
0.0
 10
16.078381729
 20
11.3220755811
 30
0.0
 10
16.0407263866
 20
11.3172260363
 30
0.0
 10
16.0153910948
 20
11.3145413956
 30
0.0
 10
16.0026296886
 20
11.3133297653
 30
0.0
  0
SPLINE
  5
2D3
100
AcDbEntity
  8
LAYER_FEATURE
100
AcDbSpline
 62
7
  6
CONTINUOUS
 70
0
 71
3
 72
23
 73
19
 74
0
 42
0.0000001
 43
0.0000001
 44
0.0000000001
 40
0.0
 40
0.0
 40
0.0
 40
0.0
 40
0.0601500975
 40
0.120358753
 40
0.1806842386
 40
0.2411842721
 40
0.3019157437
 40
0.362934451
 40
0.4242948852
 40
0.4860499597
 40
0.5482508764
 40
0.6109468653
 40
0.6741851106
 40
0.738010546
 40
0.8024657935
 40
0.8675910624
 40
0.9334240565
 40
1.0
 40
1.0
 40
1.0
 40
1.0
 10
16.9909034705
 20
12.4180905666
 30
0.0
 10
16.9890606703
 20
12.4121272538
 30
0.0
 10
16.9851455804
 20
12.4002638202
 30
0.0
 10
16.9785951895
 20
12.3826917915
 30
0.0
 10
16.9713688728
 20
12.3653471395
 30
0.0
 10
16.9634702149
 20
12.3482385105
 30
0.0
 10
16.9549029711
 20
12.3313740118
 30
0.0
 10
16.9456713317
 20
12.3147617009
 30
0.0
 10
16.9357796774
 20
12.2984095439
 30
0.0
 10
16.9252328571
 20
12.28232529
 30
0.0
 10
16.9140358721
 20
12.2665166543
 30
0.0
 10
16.9021941819
 20
12.2509911065
 30
0.0
 10
16.8897134289
 20
12.2357560655
 30
0.0
 10
16.8765996348
 20
12.2208187354
 30
0.0
 10
16.8628590975
 20
12.2061862148
 30
0.0
 10
16.8484983358
 20
12.1918654101
 30
0.0
 10
16.8335244491
 20
12.1778632256
 30
0.0
 10
16.8231970088
 20
12.1687972461
 30
0.0
 10
16.8179363165
 20
12.1643194897
 30
0.0
  0
SPLINE
  5
2D4
100
AcDbEntity
  8
LAYER_CUT_FEAT
100
AcDbSpline
 62
7
  6
CONTINUOUS
 70
0
 71
3
 72
22
 73
18
 74
0
 42
0.0000001
 43
0.0000001
 44
0.0000000001
 40
0.0
 40
0.0
 40
0.0
 40
0.0
 40
0.0582717567
 40
0.116654272
 40
0.1752572688
 40
0.2341884286
 40
0.2935524319
 40
0.3534501038
 40
0.4139776595
 40
0.4752260426
 40
0.5372803857
 40
0.6002196297
 40
0.6641162344
 40
0.7290359622
 40
0.7950378013
 40
0.8621739873
 40
1.0
 40
1.0
 40
1.0
 40
1.0
 10
16.3797443525
 20
11.9238806936
 30
0.0
 10
16.377920128
 20
11.9179774797
 30
0.0
 10
16.3739525252
 20
11.9062547474
 30
0.0
 10
16.3670648376
 20
11.8889865969
 30
0.0
 10
16.3592447518
 20
11.8720426692
 30
0.0
 10
16.3504999296
 20
11.8554395785
 30
0.0
 10
16.3408386952
 20
11.8391927193
 30
0.0
 10
16.3302702975
 20
11.823317335
 30
0.0
 10
16.3188047939
 20
11.8078282244
 30
0.0
 10
16.3064530839
 20
11.792739795
 30
0.0
 10
16.2932268959
 20
11.7780660118
 30
0.0
 10
16.2791387402
 20
11.7638204407
 30
0.0
 10
16.2642018401
 20
11.7500162074
 30
0.0
 10
16.2484303775
 20
11.7366660993
 30
0.0
 10
16.231838611
 20
11.7237820283
 30
0.0
 10
16.2084422581
 20
11.7070969511
 30
0.0
 10
16.1900045511
 20
11.6955398048
 30
0.0
 10
16.1773506175
 20
11.6882292201
 30
0.0
  0
SPLINE
  5
2D5
100
AcDbEntity
  8
02___PRT_ALL_AXES
100
AcDbSpline
 62
7
  6
CONTINUOUS
 70
0
 71
3
 72
50
 73
46
 74
0
 42
0.0000001
 43
0.0000001
 44
0.0000000001
 40
0.0
 40
0.0
 40
0.0
 40
0.0
 40
0.0134688493
 40
0.0269212966
 40
0.0403646162
 40
0.0538062606
 40
0.0672538601
 40
0.0807151782
 40
0.0941981024
 40
0.1077105907
 40
0.1212606473
 40
0.1348562725
 40
0.1485054328
 40
0.1622159977
 40
0.1759956943
 40
0.1898520598
 40
0.2037923947
 40
0.2178237043
 40
0.2319526405
 40
0.2461854711
 40
0.2749801653
 40
0.3042541781
 40
0.3190837265
 40
0.3340442131
 40
0.364362523
 40
0.3952257401
 40
0.4108644715
 40
0.426638929
 40
0.4585845443
 40
0.4910464303
 40
0.5239942209
 40
0.5573877495
 40
0.5911775226
 40
0.6253053186
 40
0.6597047665
 40
0.694302092
 40
0.7290168499
 40
0.7637628955
 40
0.7984493867
 40
0.8329820893
 40
0.8672647704
 40
0.9012008852
 40
0.9346954648
 40
0.9676569973
 40
1.0
 40
1.0
 40
1.0
 40
1.0
 10
15.153667317
 20
12.6422292218
 30
0.0
 10
15.1543008106
 20
12.6409382998
 30
0.0
 10
15.155511177
 20
12.638330179
 30
0.0
 10
15.1571535349
 20
12.6343445241
 30
0.0
 10
15.1586191065
 20
12.6302935208
 30
0.0
 10
15.1599055295
 20
12.6261826778
 30
0.0
 10
15.1610108784
 20
12.6220174947
 30
0.0
 10
15.1619332485
 20
12.617803497
 30
0.0
 10
15.1626711413
 20
12.6135462834
 30
0.0
 10
15.1632231063
 20
12.6092514473
 30
0.0
 10
15.1635881156
 20
12.6049246299
 30
0.0
 10
15.163765206
 20
12.6005714607
 30
0.0
 10
15.1637538504
 20
12.5961975799
 30
0.0
 10
15.163553607
 20
12.5918086108
 30
0.0
 10
15.1631644739
 20
12.5874101492
 30
0.0
 10
15.1625865581
 20
12.5830077661
 30
0.0
 10
15.1618203962
 20
12.5786069607
 30
0.0
 10
15.160866671
 20
12.5742132162
 30
0.0
 10
15.1597264359
 20
12.5698318303
 30
0.0
 10
15.1579525253
 20
12.5639916794
 30
0.0
 10
15.1552689363
 20
12.5567449691
 30
0.0
 10
15.1520106624
 20
12.549668428
 30
0.0
 10
15.1490604845
 20
12.5440938674
 30
0.0
 10
15.1458544101
 20
12.5385332993
 30
0.0
 10
15.141419056
 20
12.5317122823
 30
0.0
 10
15.1364868464
 20
12.5251515029
 30
0.0
 10
15.1322374135
 20
12.5200365808
 30
0.0
 10
15.1277507735
 20
12.5149728992
 30
0.0
 10
15.1217759218
 20
12.5088342911
 30
0.0
 10
15.1140928866
 20
12.5018254402
 30
0.0
 10
15.1059050391
 20
12.4951660894
 30
0.0
 10
15.0972535606
 20
12.4888777703
 30
0.0
 10
15.0881811751
 20
12.4829797498
 30
0.0
 10
15.0787322717
 20
12.4774895429
 30
0.0
 10
15.0689526738
 20
12.4724229867
 30
0.0
 10
15.0588895403
 20
12.4677944157
 30
0.0
 10
15.0485912357
 20
12.4636167655
 30
0.0
 10
15.0381072087
 20
12.4599016601
 30
0.0
 10
15.0274878316
 20
12.4566594528
 30
0.0
 10
15.0167842183
 20
12.4538992401
 30
0.0
 10
15.006047971
 20
12.4516288465
 30
0.0
 10
14.9953309351
 20
12.4498547837
 30
0.0
 10
14.984684717
 20
12.4485822179
 30
0.0
 10
14.974160857
 20
12.4478148999
 30
0.0
 10
14.9671876327
 20
12.4476399425
 30
0.0
 10
14.963734578
 20
12.4476399425
 30
0.0
  0
SPLINE
  5
2D6
100
AcDbEntity
  8
02___PRT_ALL_AXES
100
AcDbSpline
 62
7
  6
CONTINUOUS
 70
0
 71
3
 72
72
 73
68
 74
0
 42
0.0000001
 43
0.0000001
 44
0.0000000001
 40
0.0
 40
0.0
 40
0.0
 40
0.0
 40
0.0106253559
 40
0.0212733553
 40
0.031966404
 40
0.0427264401
 40
0.0535747197
 40
0.0645316226
 40
0.0756164847
 40
0.0868474578
 40
0.0982413996
 40
0.1098137918
 40
0.1215786866
 40
0.1335486761
 40
0.1396144689
 40
0.1457355835
 40
0.158147678
 40
0.1707938919
 40
0.1836810623
 40
0.1968146739
 40
0.2101989109
 40
0.2238367117
 40
0.2377298265
 40
0.2518788761
 40
0.2662834104
 40
0.2809419663
 40
0.2958521243
 40
0.3110105633
 40
0.3264131132
 40
0.3420548056
 40
0.3579299225
 40
0.374032043
 40
0.3903540879
 40
0.406888362
 40
0.4236265955
 40
0.4405599823
 40
0.4576792183
 40
0.4749745369
 40
0.4924357441
 40
0.5100522523
 40
0.5278131126
 40
0.545707047
 40
0.5637224785
 40
0.5818475618
 40
0.6000702124
 40
0.6183781354
 40
0.6367588541
 40
0.6551997379
 40
0.6736880299
 40
0.6922108743
 40
0.7107553436
 40
0.7293084655
 40
0.7478572497
 40
0.7663887148
 40
0.7848899155
 40
0.8033479692
 40
0.8217500831
 40
0.8400835816
 40
0.8583359338
 40
0.8764947813
 40
0.8945479665
 40
0.9124835612
 40
0.9302898968
 40
0.9479555893
 40
0.9654695892
 40
0.9828211485
 40
1.0
 40
1.0
 40
1.0
 40
1.0
 10
14.3178532823
 20
12.0255794437
 30
0.0
 10
14.3161469457
 20
12.0200577413
 30
0.0
 10
14.3130418795
 20
12.0089036205
 30
0.0
 10
14.3093272024
 20
11.9919090121
 30
0.0
 10
14.3065568699
 20
11.9746605149
 30
0.0
 10
14.3047339077
 20
11.9571771253
 30
0.0
 10
14.3038600212
 20
11.9394771736
 30
0.0
 10
14.3039359498
 20
11.9215794112
 30
0.0
 10
14.3049613858
 20
11.9035026817
 30
0.0
 10
14.3069350162
 20
11.8852659736
 30
0.0
 10
14.3098545235
 20
11.8668884005
 30
0.0
 10
14.3137166301
 20
11.8483891066
 30
0.0
 10
14.318517003
 20
11.8297875715
 30
0.0
 10
14.3232737453
 20
11.8142860493
 30
0.0
 10
14.3275354725
 20
11.8018560798
 30
0.0
 10
14.3321452701
 20
11.7892944264
 30
0.0
 10
14.3384912678
 20
11.7735617069
 30
0.0
 10
14.3469832274
 20
11.7547445487
 30
0.0
 10
14.3563780553
 20
11.735921974
 30
0.0
 10
14.3666657832
 20
11.7171137058
 30
0.0
 10
14.3778356447
 20
11.6983391578
 30
0.0
 10
14.3898759434
 20
11.6796177921
 30
0.0
 10
14.4027741008
 20
11.6609689969
 30
0.0
 10
14.4165166571
 20
11.642412097
 30
0.0
 10
14.4310892855
 20
11.623966327
 30
0.0
 10
14.446476804
 20
11.6056508134
 30
0.0
 10
14.4626631901
 20
11.5874845541
 30
0.0
 10
14.4796315951
 20
11.5694863995
 30
0.0
 10
14.4973643606
 20
11.5516750317
 30
0.0
 10
14.5158430352
 20
11.5340689449
 30
0.0
 10
14.5350483927
 20
11.5166864254
 30
0.0
 10
14.5549604518
 20
11.4995455325
 30
0.0
 10
14.5755584961
 20
11.4826640787
 30
0.0
 10
14.5968210957
 20
11.4660596114
 30
0.0
 10
14.6187261288
 20
11.4497493934
 30
0.0
 10
14.6412508041
 20
11.4337503849
 30
0.0
 10
14.6643716848
 20
11.4180792255
 30
0.0
 10
14.6880647123
 20
11.4027522158
 30
0.0
 10
14.7123052312
 20
11.3877853001
 30
0.0
 10
14.7370680153
 20
11.3731940505
 30
0.0
 10
14.7623272938
 20
11.3589936493
 30
0.0
 10
14.7880567783
 20
11.3451988738
 30
0.0
 10
14.81422969
 20
11.3318240803
 30
0.0
 10
14.8408187874
 20
11.3188831889
 30
0.0
 10
14.8677963952
 20
11.3063896691
 30
0.0
 10
14.8951344322
 20
11.2943565246
 30
0.0
 10
14.9228044417
 20
11.2827962807
 30
0.0
 10
14.9507776207
 20
11.2717209707
 30
0.0
 10
14.9790248502
 20
11.2611421236
 30
0.0
 10
15.0075167255
 20
11.2510707517
 30
0.0
 10
15.036223587
 20
11.2415173394
 30
0.0
 10
15.0651155512
 20
11.2324918322
 30
0.0
 10
15.0941625416
 20
11.2240036256
 30
0.0
 10
15.1233343203
 20
11.2160615555
 30
0.0
 10
15.1526005196
 20
11.2086738892
 30
0.0
 10
15.181930674
 20
11.2018483172
 30
0.0
 10
15.2112942518
 20
11.1955919444
 30
0.0
 10
15.2406606871
 20
11.1899112837
 30
0.0
 10
15.2699994115
 20
11.1848122485
 30
0.0
 10
15.2992798865
 20
11.1803001471
 30
0.0
 10
15.3284716351
 20
11.1763796762
 30
0.0
 10
15.3575442732
 20
11.1730549165
 30
0.0
 10
15.3864675449
 20
11.1703293299
 30
0.0
 10
15.4152113407
 20
11.1682057524
 30
0.0
 10
15.4437457814
 20
11.1666864006
 30
0.0
 10
15.4720410149
 20
11.1657728509
 30
0.0
 10
15.4908233873
 20
11.1655672594
 30
0.0
 10
15.5001673039
 20
11.1655672594
 30
0.0
  0
SPLINE
  5
2D7
100
AcDbEntity
  8
02___PRT_ALL_AXES
100
AcDbSpline
 62
7
  6
CONTINUOUS
 70
0
 71
3
 72
44
 73
40
 74
0
 42
0.0000001
 43
0.0000001
 44
0.0000000001
 40
0.0
 40
0.0
 40
0.0
 40
0.0
 40
0.0123993417
 40
0.0248058637
 40
0.0372267258
 40
0.0496690472
 40
0.0621398854
 40
0.0746462182
 40
0.0871949242
 40
0.0997927642
 40
0.1251597126
 40
0.150800774
 40
0.1767642592
 40
0.2030952771
 40
0.2298354525
 40
0.2570227263
 40
0.2846912311
 40
0.3128712333
 40
0.3271623181
 40
0.3415908549
 40
0.3708692406
 40
0.4007269639
 40
0.43117926
 40
0.4622378794
 40
0.4939112368
 40
0.5262045682
 40
0.5591200915
 40
0.5926571677
 40
0.6268124597
 40
0.6615800873
 40
0.6969517801
 40
0.7329170223
 40
0.7694631925
 40
0.8065756976
 40
0.8442380996
 40
0.8824322313
 40
0.9211383507
 40
0.9603351032
 40
1.0
 40
1.0
 40
1.0
 40
1.0
 10
16.1102227837
 20
11.4716953755
 30
0.0
 10
16.1093342414
 20
11.4688200542
 30
0.0
 10
16.1074720603
 20
11.4630934926
 30
0.0
 10
16.1044265272
 20
11.4545855173
 30
0.0
 10
16.1011292341
 20
11.4461606256
 30
0.0
 10
16.0975811371
 20
11.437821314
 30
0.0
 10
16.0937832444
 20
11.4295699145
 30
0.0
 10
16.089736653
 20
11.421408795
 30
0.0
 10
16.0854424564
 20
11.4133401989
 30
0.0
 10
16.0793750312
 20
11.4026849391
 30
0.0
 10
16.0711668503
 20
11.3895994121
 30
0.0
 10
16.0603704957
 20
11.3743417171
 30
0.0
 10
16.0486169075
 20
11.359508902
 30
0.0
 10
16.0359199063
 20
11.3451180646
 30
0.0
 10
16.0222941249
 20
11.33118529
 30
0.0
 10
16.0077552066
 20
11.3177261808
 30
0.0
 10
15.9923200016
 20
11.3047559058
 30
0.0
 10
15.9787886465
 20
11.2944153344
 30
0.0
 10
15.9675417396
 20
11.2863993143
 30
0.0
 10
15.9559016064
 20
11.2784813915
 30
0.0
 10
15.9408162501
 20
11.2689188096
 30
0.0
 10
15.9219810219
 20
11.2580422906
 30
0.0
 10
15.902346637
 20
11.2477208511
 30
0.0
 10
15.8819355151
 20
11.2379661337
 30
0.0
 10
15.8607706458
 20
11.2287889638
 30
0.0
 10
15.8388759337
 20
11.2201995848
 30
0.0
 10
15.8162760741
 20
11.2122075781
 30
0.0
 10
15.7929965571
 20
11.2048218705
 30
0.0
 10
15.7690636342
 20
11.1980507171
 30
0.0
 10
15.7445042933
 20
11.1919016909
 30
0.0
 10
15.7193462288
 20
11.1863816747
 30
0.0
 10
15.6936178117
 20
11.1814968516
 30
0.0
 10
15.6673480579
 20
11.1772526967
 30
0.0
 10
15.6405665981
 20
11.17365397
 30
0.0
 10
15.6133036407
 20
11.1707047085
 30
0.0
 10
15.5855899517
 20
11.1684082182
 30
0.0
 10
15.5574567677
 20
11.1667670807
 30
0.0
 10
15.5289360031
 20
11.1657831268
 30
0.0
 10
15.5097944908
 20
11.1655672594
 30
0.0
 10
15.5001673039
 20
11.1655672594
 30
0.0
  0
SPLINE
  5
2D8
100
AcDbEntity
  8
LAYER_CHAMFER_FEAT
100
AcDbSpline
 62
7
  6
CONTINUOUS
 70
0
 71
3
 72
15
 73
11
 74
0
 42
0.0000001
 43
0.0000001
 44
0.0000000001
 40
0.0
 40
0.0
 40
0.0
 40
0.0
 40
0.1317621271
 40
0.2617726774
 40
0.389919274
 40
0.5161208126
 40
0.6402988927
 40
0.7623789888
 40
0.8822975184
 40
1.0
 40
1.0
 40
1.0
 40
1.0
 10
15.1263384964
 20
11.9273502755
 30
0.0
 10
15.1230190329
 20
11.9273502755
 30
0.0
 10
15.1164238975
 20
11.9272665807
 30
0.0
 10
15.1066070434
 20
11.9268846545
 30
0.0
 10
15.0969437118
 20
11.9262475538
 30
0.0
 10
15.0874480374
 20
11.9253562367
 30
0.0
 10
15.0781334101
 20
11.9242120224
 30
0.0
 10
15.0690131173
 20
11.9228164301
 30
0.0
 10
15.0601003445
 20
11.9211715478
 30
0.0
 10
15.0542497163
 20
11.919898177
 30
0.0
 10
15.0513632045
 20
11.9192193382
 30
0.0
  0
SPLINE
  5
2D9
100
AcDbEntity
  8
LAYER_CHAMFER_FEAT
100
AcDbSpline
 62
7
  6
CONTINUOUS
 70
0
 71
3
 72
34
 73
30
 74
0
 42
0.0000001
 43
0.0000001
 44
0.0000000001
 40
0.0
 40
0.0
 40
0.0
 40
0.0
 40
0.030540153
 40
0.0614606621
 40
0.0927286168
 40
0.1243153571
 40
0.1561893701
 40
0.1883177853
 40
0.2206672927
 40
0.2532037295
 40
0.3186931772
 40
0.384506992
 40
0.4503572026
 40
0.5159553632
 40
0.5810163142
 40
0.6132604025
 40
0.6452667249
 40
0.6770022651
 40
0.7084349754
 40
0.7395338401
 40
0.7702690666
 40
0.8006122282
 40
0.8305363413
 40
0.8600161123
 40
0.8890280485
 40
0.9175505837
 40
0.9455643673
 40
0.9730523524
 40
1.0
 40
1.0
 40
1.0
 40
1.0
 10
15.1263384964
 20
11.9273502755
 30
0.0
 10
15.1299272852
 20
11.9273502755
 30
0.0
 10
15.1371499131
 20
11.9272511916
 30
0.0
 10
15.1480388494
 20
11.9268124888
 30
0.0
 10
15.1590355014
 20
11.9260833346
 30
0.0
 10
15.1701216119
 20
11.9250649744
 30
0.0
 10
15.1812793309
 20
11.9237590974
 30
0.0
 10
15.1924904242
 20
11.9221677869
 30
0.0
 10
15.2037366808
 20
11.9202936368
 30
0.0
 10
15.2187856323
 20
11.9174157056
 30
0.0
 10
15.2375633973
 20
11.9131302322
 30
0.0
 10
15.2598944173
 20
11.9069306001
 30
0.0
 10
15.2819279322
 20
11.8997027093
 30
0.0
 10
15.303520129
 20
11.8914937202
 30
0.0
 10
15.3210821651
 20
11.883856702
 30
0.0
 10
15.3347908189
 20
11.8772983781
 30
0.0
 10
15.3448454865
 20
11.8721842689
 30
0.0
 10
15.3546869103
 20
11.866868812
 30
0.0
 10
15.3642991406
 20
11.8613606599
 30
0.0
 10
15.3736664813
 20
11.8556687621
 30
0.0
 10
15.3827736811
 20
11.8498023931
 30
0.0
 10
15.3916059192
 20
11.8437711289
 30
0.0
 10
15.4001487856
 20
11.8375847484
 30
0.0
 10
15.4083883823
 20
11.8312533433
 30
0.0
 10
15.4163113016
 20
11.8247872195
 30
0.0
 10
15.4239046054
 20
11.8181968652
 30
0.0
 10
15.4311559865
 20
11.8114929928
 30
0.0
 10
15.4380535253
 20
11.8046866072
 30
0.0
 10
15.4424530453
 20
11.8000409511
 30
0.0
 10
15.4445891725
 20
11.7977033205
 30
0.0
  0
SPLINE
  5
2DA
100
AcDbEntity
  8
LAYER_FEATURE
100
AcDbSpline
 62
7
  6
CONTINUOUS
 70
0
 71
3
 72
50
 73
46
 74
0
 42
0.0000001
 43
0.0000001
 44
0.0000000001
 40
0.0
 40
0.0
 40
0.0
 40
0.0
 40
0.0396641793
 40
0.0788606661
 40
0.1175661307
 40
0.1557597858
 40
0.1934216622
 40
0.2305336657
 40
0.2670793388
 40
0.3030440904
 40
0.3384152998
 40
0.3731824522
 40
0.4073372782
 40
0.4408738985
 40
0.4737889752
 40
0.5060818677
 40
0.5377547925
 40
0.5688129867
 40
0.5992648666
 40
0.6291221833
 40
0.6584001714
 40
0.6728285106
 40
0.6871194029
 40
0.7152990215
 40
0.7429671481
 40
0.7566197094
 40
0.7701560775
 40
0.7835806402
 40
0.7968980187
 40
0.8101130807
 40
0.8232309096
 40
0.8362568292
 40
0.8491963692
 40
0.8620552768
 40
0.874839498
 40
0.8875551653
 40
0.9002085963
 40
0.9128062638
 40
0.9253547993
 40
0.9378609614
 40
0.9503316297
 40
0.9627737816
 40
0.9751944743
 40
0.9876008274
 40
1.0
 40
1.0
 40
1.0
 40
1.0
 10
14.9268899247
 20
13.2325145064
 30
0.0
 10
14.9114947052
 20
13.2325145064
 30
0.0
 10
14.8808845757
 20
13.2321692913
 30
0.0
 10
14.8352756902
 20
13.2305958283
 30
0.0
 10
14.7902865197
 20
13.2279713805
 30
0.0
 10
14.7459682901
 20
13.2242989701
 30
0.0
 10
14.7023707971
 20
13.2195826605
 30
0.0
 10
14.659543305
 20
13.2138277724
 30
0.0
 10
14.6175341017
 20
13.2070407464
 30
0.0
 10
14.5763905781
 20
13.1992291944
 30
0.0
 10
14.5361591337
 20
13.1904018736
 30
0.0
 10
14.4968851365
 20
13.1805686735
 30
0.0
 10
14.4586128723
 20
13.1697406021
 30
0.0
 10
14.4213854981
 20
13.1579297714
 30
0.0
 10
14.3852449947
 20
13.1451493808
 30
0.0
 10
14.3502321271
 20
13.1314137024
 30
0.0
 10
14.3163863891
 20
13.1167380551
 30
0.0
 10
14.283746006
 20
13.101138823
 30
0.0
 10
14.252347738
 20
13.0846333207
 30
0.0
 10
14.2222274386
 20
13.0672401674
 30
0.0
 10
14.1981037254
 20
13.0519481965
 30
0.0
 10
14.1794894517
 20
13.0392862712
 30
0.0
 10
14.1615039553
 20
13.0264674607
 30
0.0
 10
14.1398655449
 20
13.0099315612
 30
0.0
 10
14.119204921
 20
12.9925702735
 30
0.0
 10
14.1034084868
 20
12.9782907479
 30
0.0
 10
14.0919749944
 20
12.9674362026
 30
0.0
 10
14.0809067364
 20
12.9563929542
 30
0.0
 10
14.0702068151
 20
12.9451640196
 30
0.0
 10
14.0598782347
 20
12.9337526344
 30
0.0
 10
14.0499239874
 20
12.9221619538
 30
0.0
 10
14.040346844
 20
12.9103953054
 30
0.0
 10
14.0311495711
 20
12.8984559728
 30
0.0
 10
14.0223347682
 20
12.8863473458
 30
0.0
 10
14.0139049313
 20
12.874072855
 30
0.0
 10
14.0058625046
 20
12.861635943
 30
0.0
 10
13.9982097134
 20
12.8490401725
 30
0.0
 10
13.9909488155
 20
12.836289062
 30
0.0
 10
13.9840818089
 20
12.8233862666
 30
0.0
 10
13.9776107027
 20
12.8103354148
 30
0.0
 10
13.9715373206
 20
12.7971402169
 30
0.0
 10
13.9658633809
 20
12.7838044334
 30
0.0
 10
13.9605905383
 20
12.7703317871
 30
0.0
 10
13.955720267
 20
12.7567262885
 30
0.0
 10
13.9527423731
 20
12.7475686714
 30
0.0
 10
13.9513214664
 20
12.7429706087
 30
0.0
  0
SPLINE
  5
2DB
100
AcDbEntity
  8
LAYER_FEATURE
100
AcDbSpline
 62
7
  6
CONTINUOUS
 70
0
 71
3
 72
50
 73
46
 74
0
 42
0.0000001
 43
0.0000001
 44
0.0000000001
 40
0.0
 40
0.0
 40
0.0
 40
0.0
 40
0.0396641793
 40
0.0788606661
 40
0.1175661307
 40
0.1557597858
 40
0.1934216622
 40
0.2305336657
 40
0.2670793388
 40
0.3030440904
 40
0.3384152998
 40
0.3731824522
 40
0.4073372782
 40
0.4408738985
 40
0.4737889752
 40
0.5060818677
 40
0.5377547925
 40
0.5688129867
 40
0.5992648666
 40
0.6291221833
 40
0.6584001714
 40
0.6728285106
 40
0.6871194029
 40
0.7152990215
 40
0.7429671481
 40
0.7566197094
 40
0.7701560775
 40
0.7835806402
 40
0.7968980187
 40
0.8101130807
 40
0.8232309096
 40
0.8362568292
 40
0.8491963692
 40
0.8620552768
 40
0.874839498
 40
0.8875551653
 40
0.9002085963
 40
0.9128062638
 40
0.9253547993
 40
0.9378609614
 40
0.9503316297
 40
0.9627737816
 40
0.9751944743
 40
0.9876008274
 40
1.0
 40
1.0
 40
1.0
 40
1.0
 10
15.1195747182
 20
13.8560427264
 30
0.0
 10
15.1041794986
 20
13.8560427264
 30
0.0
 10
15.0735693691
 20
13.8556975114
 30
0.0
 10
15.0279604837
 20
13.8541240484
 30
0.0
 10
14.9829713132
 20
13.8514996005
 30
0.0
 10
14.9386530835
 20
13.8478271901
 30
0.0
 10
14.8950555905
 20
13.8431108805
 30
0.0
 10
14.8522280984
 20
13.8373559925
 30
0.0
 10
14.8102188951
 20
13.8305689664
 30
0.0
 10
14.7690753715
 20
13.8227574145
 30
0.0
 10
14.7288439271
 20
13.8139300936
 30
0.0
 10
14.6895699299
 20
13.8040968935
 30
0.0
 10
14.6512976658
 20
13.7932688222
 30
0.0
 10
14.6140702915
 20
13.7814579915
 30
0.0
 10
14.5779297881
 20
13.7686776009
 30
0.0
 10
14.5429169206
 20
13.7549419224
 30
0.0
 10
14.5090711826
 20
13.7402662751
 30
0.0
 10
14.4764307995
 20
13.7246670431
 30
0.0
 10
14.4450325314
 20
13.7081615408
 30
0.0
 10
14.414912232
 20
13.6907683874
 30
0.0
 10
14.3907885188
 20
13.6754764166
 30
0.0
 10
14.3721742452
 20
13.6628144912
 30
0.0
 10
14.3541887487
 20
13.6499956807
 30
0.0
 10
14.3325503383
 20
13.6334597812
 30
0.0
 10
14.3118897144
 20
13.6160984936
 30
0.0
 10
14.2960932802
 20
13.6018189679
 30
0.0
 10
14.2846597878
 20
13.5909644227
 30
0.0
 10
14.2735915299
 20
13.5799211743
 30
0.0
 10
14.2628916085
 20
13.5686922396
 30
0.0
 10
14.2525630282
 20
13.5572808545
 30
0.0
 10
14.2426087808
 20
13.5456901738
 30
0.0
 10
14.2330316374
 20
13.5339235255
 30
0.0
 10
14.2238343646
 20
13.5219841928
 30
0.0
 10
14.2150195616
 20
13.5098755659
 30
0.0
 10
14.2065897247
 20
13.4976010751
 30
0.0
 10
14.198547298
 20
13.485164163
 30
0.0
 10
14.1908945068
 20
13.4725683926
 30
0.0
 10
14.183633609
 20
13.459817282
 30
0.0
 10
14.1767666023
 20
13.4469144867
 30
0.0
 10
14.1702954961
 20
13.4338636349
 30
0.0
 10
14.164222114
 20
13.420668437
 30
0.0
 10
14.1585481744
 20
13.4073326535
 30
0.0
 10
14.1532753317
 20
13.3938600071
 30
0.0
 10
14.1484050605
 20
13.3802545086
 30
0.0
 10
14.1454271665
 20
13.3710968914
 30
0.0
 10
14.1440062599
 20
13.3664988287
 30
0.0
  0
SPLINE
  5
2DC
100
AcDbEntity
  8
LAYER_FEATURE
100
AcDbSpline
 62
7
  6
CONTINUOUS
 70
0
 71
3
 72
80
 73
76
 74
0
 42
0.0000001
 43
0.0000001
 44
0.0000000001
 40
0.0
 40
0.0
 40
0.0
 40
0.0
 40
0.017178625
 40
0.0345301896
 40
0.0520439856
 40
0.0697095611
 40
0.0875157513
 40
0.105451206
 40
0.1235042502
 40
0.1416629551
 40
0.159915164
 40
0.1782485184
 40
0.1966504877
 40
0.2151083967
 40
0.2336094524
 40
0.2521407721
 40
0.2706894106
 40
0.2892423869
 40
0.3077867108
 40
0.3263094099
 40
0.3447975567
 40
0.3632382956
 40
0.3816188701
 40
0.3999266497
 40
0.4181491573
 40
0.4362740982
 40
0.4542893881
 40
0.4721831821
 40
0.4899439035
 40
0.5075602738
 40
0.5250213437
 40
0.5423165259
 40
0.5594356272
 40
0.5763688815
 40
0.5931069843
 40
0.6096411291
 40
0.6259630453
 40
0.6420650388
 40
0.6579400309
 40
0.673581601
 40
0.6889840307
 40
0.7041423508
 40
0.7190523912
 40
0.7337108317
 40
0.7481152531
 40
0.7622641923
 40
0.7761571984
 40
0.7897948916
 40
0.8031790229
 40
0.8163125314
 40
0.8291996012
 40
0.8418457167
 40
0.8542577138
 40
0.8603787793
 40
0.8664445248
 40
0.8784144197
 40
0.8901792221
 40
0.8959889949
 40
0.9017523402
 40
0.9131461931
 40
0.9243770779
 40
0.9299370835
 40
0.935462781
 40
0.9409564793
 40
0.9464205592
 40
0.9518574755
 40
0.9572697442
 40
0.9626599452
 40
0.9680307112
 40
0.9733847242
 40
0.9787247102
 40
0.9840534294
 40
0.9893736733
 40
0.9946882542
 40
1.0
 40
1.0
 40
1.0
 40
1.0
 10
14.9268899247
 20
13.2325145064
 30
0.0
 10
14.9418321424
 20
13.2325145064
 30
0.0
 10
14.9718679622
 20
13.2321857222
 30
0.0
 10
15.0171161896
 20
13.2307248471
 30
0.0
 10
15.0627470409
 20
13.2282951521
 30
0.0
 10
15.1087125563
 20
13.2248992577
 30
0.0
 10
15.1549651371
 20
13.2205406403
 30
0.0
 10
15.2014565591
 20
13.2152238626
 30
0.0
 10
15.2481384604
 20
13.2089544482
 30
0.0
 10
15.2949622476
 20
13.2017389314
 30
0.0
 10
15.341879184
 20
13.193584825
 30
0.0
 10
15.3888404345
 20
13.1845006162
 30
0.0
 10
15.4357971159
 20
13.1744957594
 30
0.0
 10
15.4827003477
 20
13.1635806639
 30
0.0
 10
15.5295013052
 20
13.151766695
 30
0.0
 10
15.5761512704
 20
13.1390661544
 30
0.0
 10
15.6226016814
 20
13.125492264
 30
0.0
 10
15.6688041837
 20
13.1110591534
 30
0.0
 10
15.7147106796
 20
13.0957818441
 30
0.0
 10
15.7602733791
 20
13.0796762364
 30
0.0
 10
15.8054448536
 20
13.0627591012
 30
0.0
 10
15.8501780818
 20
13.0450480506
 30
0.0
 10
15.8944264985
 20
13.0265615215
 30
0.0
 10
15.9381440431
 20
13.0073187558
 30
0.0
 10
15.9812852066
 20
12.987339779
 30
0.0
 10
16.0238050833
 20
12.9666453871
 30
0.0
 10
16.0656594185
 20
12.9452571234
 30
0.0
 10
16.1068046503
 20
12.9231972489
 30
0.0
 10
16.147197955
 20
12.9004887208
 30
0.0
 10
16.1867972916
 20
12.8771551681
 30
0.0
 10
16.2255614455
 20
12.8532208658
 30
0.0
 10
16.263450079
 20
12.8287107194
 30
0.0
 10
16.3004237676
 20
12.8036502292
 30
0.0
 10
16.3364440391
 20
12.7780654625
 30
0.0
 10
16.3714734132
 20
12.7519830273
 30
0.0
 10
16.4054754397
 20
12.7254300423
 30
0.0
 10
16.43841474
 20
12.6984341117
 30
0.0
 10
16.4702570486
 20
12.6710233004
 30
0.0
 10
16.5009692399
 20
12.6432260942
 30
0.0
 10
16.5305193613
 20
12.6150713724
 30
0.0
 10
16.5588766659
 20
12.5865883771
 30
0.0
 10
16.5860116415
 20
12.5578066795
 30
0.0
 10
16.6118960509
 20
12.5287561567
 30
0.0
 10
16.636502955
 20
12.4994669552
 30
0.0
 10
16.6598067327
 20
12.4699694558
 30
0.0
 10
16.6817831055
 20
12.4402942442
 30
0.0
 10
16.702409159
 20
12.4104720781
 30
0.0
 10
16.7216633638
 20
12.3805338582
 30
0.0
 10
16.7395256117
 20
12.3505105931
 30
0.0
 10
16.7559772019
 20
12.3204334054
 30
0.0
 10
16.7710009182
 20
12.2903333397
 30
0.0
 10
16.7845808144
 20
12.2602419373
 30
0.0
 10
16.7947290047
 20
12.2350830022
 30
0.0
 10
16.8021007335
 20
12.2149950742
 30
0.0
 10
16.8089158757
 20
12.1951176953
 30
0.0
 10
16.8165225477
 20
12.1703287237
 30
0.0
 10
16.8229463226
 20
12.145436305
 30
0.0
 10
16.8273242608
 20
12.1256126165
 30
0.0
 10
16.8311681164
 20
12.1060072507
 30
0.0
 10
16.8350439392
 20
12.0816104444
 30
0.0
 10
16.837682784
 20
12.0572261226
 30
0.0
 10
16.8390275683
 20
12.0378596453
 30
0.0
 10
16.8396539074
 20
12.0234505534
 30
0.0
 10
16.8399011103
 20
12.0091134752
 30
0.0
 10
16.839769058
 20
11.9948520522
 30
0.0
 10
16.83925785
 20
11.9806700372
 30
0.0
 10
16.8383675328
 20
11.9665711302
 30
0.0
 10
16.8370983818
 20
11.9525590177
 30
0.0
 10
16.8354507096
 20
11.938637362
 30
0.0
 10
16.833424905
 20
11.9248098111
 30
0.0
 10
16.8310215591
 20
11.9110799693
 30
0.0
 10
16.8282412149
 20
11.8974514537
 30
0.0
 10
16.8250846556
 20
11.8839277808
 30
0.0
 10
16.8215527098
 20
11.8705126352
 30
0.0
 10
16.8189480929
 20
11.8616427674
 30
0.0
 10
16.8175839829
 20
11.8572284993
 30
0.0
  0
SPLINE
  5
2DD
100
AcDbEntity
  8
LAYER_FEATURE
100
AcDbSpline
 62
7
  6
CONTINUOUS
 70
0
 71
3
 72
80
 73
76
 74
0
 42
0.0000001
 43
0.0000001
 44
0.0000000001
 40
0.0
 40
0.0
 40
0.0
 40
0.0
 40
0.017178625
 40
0.0345301896
 40
0.0520439856
 40
0.0697095611
 40
0.0875157513
 40
0.105451206
 40
0.1235042502
 40
0.1416629551
 40
0.159915164
 40
0.1782485184
 40
0.1966504877
 40
0.2151083967
 40
0.2336094524
 40
0.2521407721
 40
0.2706894106
 40
0.2892423869
 40
0.3077867108
 40
0.3263094099
 40
0.3447975567
 40
0.3632382956
 40
0.3816188701
 40
0.3999266497
 40
0.4181491573
 40
0.4362740982
 40
0.4542893881
 40
0.4721831821
 40
0.4899439035
 40
0.5075602738
 40
0.5250213437
 40
0.5423165259
 40
0.5594356272
 40
0.5763688815
 40
0.5931069843
 40
0.6096411291
 40
0.6259630453
 40
0.6420650388
 40
0.6579400309
 40
0.673581601
 40
0.6889840307
 40
0.7041423508
 40
0.7190523912
 40
0.7337108317
 40
0.7481152531
 40
0.7622641923
 40
0.7761571984
 40
0.7897948916
 40
0.8031790229
 40
0.8163125314
 40
0.8291996012
 40
0.8418457167
 40
0.8542577138
 40
0.8603787793
 40
0.8664445248
 40
0.8784144197
 40
0.8901792221
 40
0.8959889949
 40
0.9017523402
 40
0.9131461931
 40
0.9243770779
 40
0.9299370835
 40
0.935462781
 40
0.9409564793
 40
0.9464205592
 40
0.9518574755
 40
0.9572697442
 40
0.9626599452
 40
0.9680307112
 40
0.9733847242
 40
0.9787247102
 40
0.9840534294
 40
0.9893736733
 40
0.9946882542
 40
1.0
 40
1.0
 40
1.0
 40
1.0
 10
15.1195747182
 20
13.8560427264
 30
0.0
 10
15.1345169358
 20
13.8560427264
 30
0.0
 10
15.1645527556
 20
13.8557139423
 30
0.0
 10
15.2098009831
 20
13.8542530672
 30
0.0
 10
15.2554318343
 20
13.8518233721
 30
0.0
 10
15.3013973497
 20
13.8484274778
 30
0.0
 10
15.3476499305
 20
13.8440688604
 30
0.0
 10
15.3941413525
 20
13.8387520826
 30
0.0
 10
15.4408232538
 20
13.8324826683
 30
0.0
 10
15.487647041
 20
13.8252671515
 30
0.0
 10
15.5345639775
 20
13.817113045
 30
0.0
 10
15.581525228
 20
13.8080288362
 30
0.0
 10
15.6284819094
 20
13.7980239795
 30
0.0
 10
15.6753851411
 20
13.787108884
 30
0.0
 10
15.7221860987
 20
13.775294915
 30
0.0
 10
15.7688360638
 20
13.7625943744
 30
0.0
 10
15.8152864749
 20
13.7490204841
 30
0.0
 10
15.8614889772
 20
13.7345873735
 30
0.0
 10
15.907395473
 20
13.7193100642
 30
0.0
 10
15.9529581725
 20
13.7032044565
 30
0.0
 10
15.998129647
 20
13.6862873212
 30
0.0
 10
16.0428628752
 20
13.6685762707
 30
0.0
 10
16.087111292
 20
13.6500897415
 30
0.0
 10
16.1308288366
 20
13.6308469758
 30
0.0
 10
16.17397
 20
13.610867999
 30
0.0
 10
16.2164898767
 20
13.5901736072
 30
0.0
 10
16.2583442119
 20
13.5687853435
 30
0.0
 10
16.2994894437
 20
13.546725469
 30
0.0
 10
16.3398827484
 20
13.5240169409
 30
0.0
 10
16.379482085
 20
13.5006833882
 30
0.0
 10
16.4182462389
 20
13.4767490859
 30
0.0
 10
16.4561348724
 20
13.4522389395
 30
0.0
 10
16.493108561
 20
13.4271784493
 30
0.0
 10
16.5291288325
 20
13.4015936826
 30
0.0
 10
16.5641582067
 20
13.3755112473
 30
0.0
 10
16.5981602332
 20
13.3489582623
 30
0.0
 10
16.6310995335
 20
13.3219623318
 30
0.0
 10
16.6629418421
 20
13.2945515204
 30
0.0
 10
16.6936540333
 20
13.2667543142
 30
0.0
 10
16.7232041548
 20
13.2385995925
 30
0.0
 10
16.7515614593
 20
13.2101165972
 30
0.0
 10
16.778696435
 20
13.1813348996
 30
0.0
 10
16.8045808444
 20
13.1522843768
 30
0.0
 10
16.8291877484
 20
13.1229951753
 30
0.0
 10
16.8524915262
 20
13.0934976758
 30
0.0
 10
16.874467899
 20
13.0638224643
 30
0.0
 10
16.8950939524
 20
13.0340002981
 30
0.0
 10
16.9143481572
 20
13.0040620783
 30
0.0
 10
16.9322104051
 20
12.9740388132
 30
0.0
 10
16.9486619953
 20
12.9439616254
 30
0.0
 10
16.9636857116
 20
12.9138615598
 30
0.0
 10
16.9772656078
 20
12.8837701574
 30
0.0
 10
16.9874137981
 20
12.8586112223
 30
0.0
 10
16.9947855269
 20
12.8385232943
 30
0.0
 10
17.0016006691
 20
12.8186459153
 30
0.0
 10
17.0092073411
 20
12.7938569438
 30
0.0
 10
17.0156311161
 20
12.768964525
 30
0.0
 10
17.0200090542
 20
12.7491408366
 30
0.0
 10
17.0238529098
 20
12.7295354708
 30
0.0
 10
17.0277287326
 20
12.7051386645
 30
0.0
 10
17.0303675774
 20
12.6807543426
 30
0.0
 10
17.0317123617
 20
12.6613878654
 30
0.0
 10
17.0323387008
 20
12.6469787735
 30
0.0
 10
17.0325859037
 20
12.6326416953
 30
0.0
 10
17.0324538514
 20
12.6183802723
 30
0.0
 10
17.0319426435
 20
12.6041982573
 30
0.0
 10
17.0310523262
 20
12.5900993502
 30
0.0
 10
17.0297831752
 20
12.5760872378
 30
0.0
 10
17.0281355031
 20
12.5621655821
 30
0.0
 10
17.0261096985
 20
12.5483380311
 30
0.0
 10
17.0237063525
 20
12.5346081894
 30
0.0
 10
17.0209260083
 20
12.5209796738
 30
0.0
 10
17.0177694491
 20
12.5074560009
 30
0.0
 10
17.0142375032
 20
12.4940408553
 30
0.0
 10
17.0116328863
 20
12.4851709875
 30
0.0
 10
17.0102687764
 20
12.4807567193
 30
0.0
  0
SPLINE
  5
2DE
100
AcDbEntity
  8
LAYER_FEATURE
100
AcDbSpline
 62
7
  6
CONTINUOUS
 70
0
 71
3
 72
80
 73
76
 74
0
 42
0.0000001
 43
0.0000001
 44
0.0000000001
 40
0.0
 40
0.0
 40
0.0
 40
0.0
 40
0.005354095
 40
0.0107128794
 40
0.016081022
 40
0.0214631515
 40
0.026863837
 40
0.0322875689
 40
0.0377387416
 40
0.0432216369
 40
0.0487404093
 40
0.054299072
 40
0.0599014848
 40
0.0655513445
 40
0.0712521748
 40
0.0770073207
 40
0.0828199409
 40
0.0886930059
 40
0.100630124
 40
0.1128399036
 40
0.1190529642
 40
0.125340226
 40
0.1381426333
 40
0.1512590077
 40
0.1646973085
 40
0.1784628141
 40
0.1925582767
 40
0.2069840815
 40
0.2217384053
 40
0.2368173707
 40
0.2522151958
 40
0.2679243362
 40
0.2839356199
 40
0.3002383757
 40
0.3168205532
 40
0.3336688375
 40
0.350768757
 40
0.3681047856
 40
0.3856604408
 40
0.4034183763
 40
0.4213604718
 40
0.4394679185
 40
0.4577213026
 40
0.4761006857
 40
0.4945856837
 40
0.5131555436
 40
0.5317892189
 40
0.5504654444
 40
0.5691628098
 40
0.5878598332
 40
0.6065350335
 40
0.6251670039
 40
0.6437344852
 40
0.6622164391
 40
0.680592123
 40
0.6988411659
 40
0.7169436448
 40
0.734880164
 40
0.7526319353
 40
0.7701808617
 40
0.787509623
 40
0.8046017656
 40
0.8214417956
 40
0.8380152765
 40
0.8543089319
 40
0.8703107538
 40
0.8860101164
 40
0.9013978979
 40
0.9164666077
 40
0.9312105223
 40
0.9456258271
 40
0.9597107683
 40
0.9734657993
 40
0.9868937615
 40
1.0
 40
1.0
 40
1.0
 40
1.0
 10
14.3620496687
 20
12.5885858005
 30
0.0
 10
14.3632871035
 20
12.5925901554
 30
0.0
 10
14.3659080645
 20
12.6005583863
 30
0.0
 10
14.3702712239
 20
12.612369065
 30
0.0
 10
14.3750650715
 20
12.6240354847
 30
0.0
 10
14.3802874376
 20
12.6355524295
 30
0.0
 10
14.3859361025
 20
12.6469149896
 30
0.0
 10
14.3920085939
 20
12.6581182762
 30
0.0
 10
14.3985022985
 20
12.6691574738
 30
0.0
 10
14.4054143908
 20
12.6800278526
 30
0.0
 10
14.4127418878
 20
12.6907247488
 30
0.0
 10
14.4204816135
 20
12.7012435864
 30
0.0
 10
14.4286302256
 20
12.7115798653
 30
0.0
 10
14.4371842035
 20
12.7217291671
 30
0.0
 10
14.4461398605
 20
12.7316871678
 30
0.0
 10
14.4554933168
 20
12.741449594
 30
0.0
 10
14.465240633
 20
12.7510123704
 30
0.0
 10
14.4788291009
 20
12.7635580671
 30
0.0
 10
14.496802337
 20
12.778719538
 30
0.0
 10
14.5158193042
 20
12.7929945488
 30
0.0
 10
14.5317475138
 20
12.8039728556
 30
0.0
 10
14.5483498669
 20
12.8147784306
 30
0.0
 10
14.5700102808
 20
12.8277017133
 30
0.0
 10
14.597223596
 20
12.8421698485
 30
0.0
 10
14.6257670948
 20
12.8556670944
 30
0.0
 10
14.6555915529
 20
12.8681705602
 30
0.0
 10
14.6866462299
 20
12.8796593814
 30
0.0
 10
14.7188781504
 20
12.8901142545
 30
0.0
 10
14.752232398
 20
12.8995176143
 30
0.0
 10
14.7866521371
 20
12.9078536312
 30
0.0
 10
14.8220787179
 20
12.9151082553
 30
0.0
 10
14.8584517666
 20
12.9212692445
 30
0.0
 10
14.895709285
 20
12.9263261919
 30
0.0
 10
14.9337877541
 20
12.9302705496
 30
0.0
 10
14.9726222414
 20
12.9330956481
 30
0.0
 10
15.0121465106
 20
12.9347967118
 30
0.0
 10
15.0522931354
 20
12.9353708712
 30
0.0
 10
15.0929936148
 20
12.9348171708
 30
0.0
 10
15.1341784909
 20
12.9331365729
 30
0.0
 10
15.1757774685
 20
12.9303319585
 30
0.0
 10
15.2177195357
 20
12.926408124
 30
0.0
 10
15.2599330867
 20
12.921371774
 30
0.0
 10
15.302346045
 20
12.9152315115
 30
0.0
 10
15.3448859871
 20
12.9079978236
 30
0.0
 10
15.3874802677
 20
12.8996830643
 30
0.0
 10
15.4300561447
 20
12.8903014339
 30
0.0
 10
15.4725409039
 20
12.8798689551
 30
0.0
 10
15.5148619844
 20
12.8684034458
 30
0.0
 10
15.5569471035
 20
12.8559244885
 30
0.0
 10
15.5987243805
 20
12.8424533969
 30
0.0
 10
15.6401224608
 20
12.8280131795
 30
0.0
 10
15.6810706382
 20
12.8126284997
 30
0.0
 10
15.7214989761
 20
12.7963256333
 30
0.0
 10
15.7613384284
 20
12.7791324236
 30
0.0
 10
15.8005209572
 20
12.7610782326
 30
0.0
 10
15.8389796502
 20
12.7421938903
 30
0.0
 10
15.8766488353
 20
12.7225116412
 30
0.0
 10
15.9134641929
 20
12.7020650884
 30
0.0
 10
15.9493628669
 20
12.6808891342
 30
0.0
 10
15.9842835715
 20
12.6590199198
 30
0.0
 10
16.0181666964
 20
12.6364947615
 30
0.0
 10
16.0509544081
 20
12.6133520852
 30
0.0
 10
16.0825907487
 20
12.5896313581
 30
0.0
 10
16.1130217301
 20
12.5653730193
 30
0.0
 10
16.1421954251
 20
12.5406184078
 30
0.0
 10
16.1700620538
 20
12.5154096887
 30
0.0
 10
16.1965740661
 20
12.4897897778
 30
0.0
 10
16.2216862182
 20
12.4638022658
 30
0.0
 10
16.2453556465
 20
12.437491338
 30
0.0
 10
16.267541928
 20
12.4109017045
 30
0.0
 10
16.2882071598
 20
12.3840784902
 30
0.0
 10
16.3073159481
 20
12.3570672744
 30
0.0
 10
16.3248356783
 20
12.3299135878
 30
0.0
 10
16.3407357861
 20
12.3026643717
 30
0.0
 10
16.3503535935
 20
12.2842434452
 30
0.0
 10
16.354873378
 20
12.2750330929
 30
0.0
  0
SPLINE
  5
2DF
100
AcDbEntity
  8
LAYER_CUT_FEAT
100
AcDbSpline
 62
7
  6
CONTINUOUS
 70
0
 71
3
 72
80
 73
76
 74
0
 42
0.0000001
 43
0.0000001
 44
0.0000000001
 40
0.0
 40
0.0
 40
0.0
 40
0.0
 40
0.005354095
 40
0.0107128794
 40
0.016081022
 40
0.0214631515
 40
0.026863837
 40
0.0322875689
 40
0.0377387416
 40
0.0432216369
 40
0.0487404093
 40
0.054299072
 40
0.0599014848
 40
0.0655513445
 40
0.0712521748
 40
0.0770073207
 40
0.0828199409
 40
0.0886930059
 40
0.100630124
 40
0.1128399036
 40
0.1190529642
 40
0.125340226
 40
0.1381426333
 40
0.1512590077
 40
0.1646973085
 40
0.1784628141
 40
0.1925582767
 40
0.2069840815
 40
0.2217384053
 40
0.2368173707
 40
0.2522151958
 40
0.2679243362
 40
0.2839356199
 40
0.3002383757
 40
0.3168205532
 40
0.3336688375
 40
0.350768757
 40
0.3681047856
 40
0.3856604408
 40
0.4034183763
 40
0.4213604718
 40
0.4394679185
 40
0.4577213026
 40
0.4761006857
 40
0.4945856837
 40
0.5131555436
 40
0.5317892188
 40
0.5504654443
 40
0.5691628098
 40
0.5878598332
 40
0.6065350334
 40
0.6251670039
 40
0.6437344852
 40
0.662216439
 40
0.680592123
 40
0.6988411658
 40
0.7169436448
 40
0.734880164
 40
0.7526319353
 40
0.7701808617
 40
0.787509623
 40
0.8046017656
 40
0.8214417956
 40
0.8380152765
 40
0.8543089319
 40
0.8703107538
 40
0.8860101164
 40
0.9013978979
 40
0.9164666076
 40
0.9312105223
 40
0.9456258271
 40
0.9597107683
 40
0.9734657993
 40
0.9868937615
 40
1.0
 40
1.0
 40
1.0
 40
1.0
 10
14.3504304852
 20
12.5509861088
 30
0.0
 10
14.35166792
 20
12.5549904637
 30
0.0
 10
14.354288881
 20
12.5629586947
 30
0.0
 10
14.3586520404
 20
12.5747693734
 30
0.0
 10
14.363445888
 20
12.586435793
 30
0.0
 10
14.3686682541
 20
12.5979527378
 30
0.0
 10
14.374316919
 20
12.6093152979
 30
0.0
 10
14.3803894104
 20
12.6205185846
 30
0.0
 10
14.386883115
 20
12.6315577821
 30
0.0
 10
14.3937952073
 20
12.6424281609
 30
0.0
 10
14.4011227043
 20
12.6531250571
 30
0.0
 10
14.40886243
 20
12.6636438947
 30
0.0
 10
14.417011042
 20
12.6739801737
 30
0.0
 10
14.42556502
 20
12.6841294755
 30
0.0
 10
14.434520677
 20
12.6940874762
 30
0.0
 10
14.4438741332
 20
12.7038499023
 30
0.0
 10
14.4536214495
 20
12.7134126787
 30
0.0
 10
14.4672099174
 20
12.7259583754
 30
0.0
 10
14.4851831535
 20
12.7411198463
 30
0.0
 10
14.5042001207
 20
12.7553948571
 30
0.0
 10
14.5201283302
 20
12.7663731639
 30
0.0
 10
14.5367306834
 20
12.7771787389
 30
0.0
 10
14.5583910973
 20
12.7901020216
 30
0.0
 10
14.5856044125
 20
12.8045701568
 30
0.0
 10
14.6141479112
 20
12.8180674027
 30
0.0
 10
14.6439723693
 20
12.8305708686
 30
0.0
 10
14.6750270463
 20
12.8420596897
 30
0.0
 10
14.7072589668
 20
12.8525145628
 30
0.0
 10
14.7406132145
 20
12.8619179227
 30
0.0
 10
14.7750329535
 20
12.8702539396
 30
0.0
 10
14.8104595344
 20
12.8775085637
 30
0.0
 10
14.846832583
 20
12.8836695528
 30
0.0
 10
14.8840901014
 20
12.8887265002
 30
0.0
 10
14.9221685706
 20
12.8926708579
 30
0.0
 10
14.9610030578
 20
12.8954959564
 30
0.0
 10
15.000527327
 20
12.8971970201
 30
0.0
 10
15.0406739518
 20
12.8977711796
 30
0.0
 10
15.0813744312
 20
12.8972174791
 30
0.0
 10
15.1225593074
 20
12.8955368812
 30
0.0
 10
15.1641582849
 20
12.8927322669
 30
0.0
 10
15.2061003522
 20
12.8888084323
 30
0.0
 10
15.2483139032
 20
12.8837720824
 30
0.0
 10
15.2907268614
 20
12.8776318199
 30
0.0
 10
15.3332668035
 20
12.8703981319
 30
0.0
 10
15.3758610842
 20
12.8620833726
 30
0.0
 10
15.4184369612
 20
12.8527017422
 30
0.0
 10
15.4609217203
 20
12.8422692635
 30
0.0
 10
15.5032428009
 20
12.8308037542
 30
0.0
 10
15.5453279199
 20
12.8183247969
 30
0.0
 10
15.5871051969
 20
12.8048537053
 30
0.0
 10
15.6285032773
 20
12.7904134879
 30
0.0
 10
15.6694514546
 20
12.775028808
 30
0.0
 10
15.7098797926
 20
12.7587259417
 30
0.0
 10
15.7497192448
 20
12.741532732
 30
0.0
 10
15.7889017737
 20
12.7234785409
 30
0.0
 10
15.8273604667
 20
12.7045941986
 30
0.0
 10
15.8650296517
 20
12.6849119496
 30
0.0
 10
15.9018450093
 20
12.6644653967
 30
0.0
 10
15.9377436833
 20
12.6432894425
 30
0.0
 10
15.9726643879
 20
12.6214202282
 30
0.0
 10
16.0065475128
 20
12.5988950699
 30
0.0
 10
16.0393352246
 20
12.5757523935
 30
0.0
 10
16.0709715652
 20
12.5520316664
 30
0.0
 10
16.1014025466
 20
12.5277733277
 30
0.0
 10
16.1305762415
 20
12.5030187162
 30
0.0
 10
16.1584428702
 20
12.4778099971
 30
0.0
 10
16.1849548825
 20
12.4521900862
 30
0.0
 10
16.2100670347
 20
12.4262025742
 30
0.0
 10
16.233736463
 20
12.3998916463
 30
0.0
 10
16.2559227444
 20
12.3733020129
 30
0.0
 10
16.2765879762
 20
12.3464787986
 30
0.0
 10
16.2956967646
 20
12.3194675828
 30
0.0
 10
16.3132164948
 20
12.2923138962
 30
0.0
 10
16.3291166026
 20
12.2650646801
 30
0.0
 10
16.33873441
 20
12.2466437536
 30
0.0
 10
16.3432541945
 20
12.2374334012
 30
0.0
  0
SPLINE
  5
2E0
100
AcDbEntity
  8
LAYER_CHAMFER_FEAT
100
AcDbSpline
 62
7
  6
CONTINUOUS
 70
0
 71
3
 72
72
 73
68
 74
0
 42
0.0000001
 43
0.0000001
 44
0.0000000001
 40
0.0
 40
0.0
 40
0.0
 40
0.0
 40
0.0157581997
 40
0.0311479129
 40
0.0461654535
 40
0.0608098848
 40
0.0750832742
 40
0.0889908735
 40
0.1025413348
 40
0.1157469579
 40
0.1286238483
 40
0.141192039
 40
0.1534755969
 40
0.1655026252
 40
0.1773051235
 40
0.188918755
 40
0.2003824776
 40
0.2117379849
 40
0.2230290249
 40
0.2343006097
 40
0.2455981357
 40
0.2569664877
 40
0.2684491712
 40
0.2800875195
 40
0.2919200439
 40
0.3039819195
 40
0.316304594
 40
0.328915582
 40
0.3353374161
 40
0.341839788
 40
0.355093881
 40
0.3686947927
 40
0.3826542892
 40
0.3969805488
 40
0.4116783359
 40
0.4267492601
 40
0.4421920038
 40
0.4580025015
 40
0.4741741641
 40
0.4906981064
 40
0.5075633122
 40
0.524756794
 40
0.5422637999
 40
0.5600679645
 40
0.5781514263
 40
0.5964949957
 40
0.6150782978
 40
0.6338798757
 40
0.6528773159
 40
0.6720473853
 40
0.6913661326
 40
0.7108089874
 40
0.7303508875
 40
0.7499663785
 40
0.7696297087
 40
0.7893149421
 40
0.8089960594
 40
0.8286470524
 40
0.8482420329
 40
0.8677553392
 40
0.8871616217
 40
0.9064359444
 40
0.9255539928
 40
0.9444919585
 40
0.9632266375
 40
0.9817369858
 40
1.0
 40
1.0
 40
1.0
 40
1.0
 10
15.0513632045
 20
11.9192193382
 30
0.0
 10
15.0480513116
 20
11.9184404598
 30
0.0
 10
15.0415336226
 20
11.9167754297
 30
0.0
 10
15.0319817857
 20
11.913918229
 30
0.0
 10
15.022787
 20
11.9107358928
 30
0.0
 10
15.0139674796
 20
11.9072345838
 30
0.0
 10
15.0055404586
 20
11.9034210519
 30
0.0
 10
14.9975224897
 20
11.8993026217
 30
0.0
 10
14.9899293564
 20
11.8948871554
 30
0.0
 10
14.9827760241
 20
11.8901831278
 30
0.0
 10
14.976076642
 20
11.8851995592
 30
0.0
 10
14.9698445604
 20
11.8799459806
 30
0.0
 10
14.9640922759
 20
11.8744324858
 30
0.0
 10
14.9588313845
 20
11.8686697486
 30
0.0
 10
14.954072616
 20
11.8626689665
 30
0.0
 10
14.9498257954
 20
11.8564418868
 30
0.0
 10
14.9460997044
 20
11.8500008649
 30
0.0
 10
14.9429021046
 20
11.8433587853
 30
0.0
 10
14.9402397051
 20
11.8365290366
 30
0.0
 10
14.9381180153
 20
11.8295255052
 30
0.0
 10
14.9365413244
 20
11.8223624832
 30
0.0
 10
14.9355127519
 20
11.8150545761
 30
0.0
 10
14.9350342034
 20
11.8076166493
 30
0.0
 10
14.9351063183
 20
11.8000637493
 30
0.0
 10
14.9357286134
 20
11.7924110501
 30
0.0
 10
14.9368995365
 20
11.7846737667
 30
0.0
 10
14.9386163265
 20
11.776867368
 30
0.0
 10
14.9404874642
 20
11.7703564956
 30
0.0
 10
14.9422474536
 20
11.7651311318
 30
0.0
 10
14.9442087784
 20
11.7598295951
 30
0.0
 10
14.9469998037
 20
11.7531859444
 30
0.0
 10
14.9508526904
 20
11.7452564203
 30
0.0
 10
14.9552227946
 20
11.7373345142
 30
0.0
 10
14.9601013601
 20
11.7294358376
 30
0.0
 10
14.9654787139
 20
11.7215756939
 30
0.0
 10
14.9713442308
 20
11.7137693988
 30
0.0
 10
14.9776863851
 20
11.7060321786
 30
0.0
 10
14.9844926979
 20
11.6983791236
 30
0.0
 10
14.9917497827
 20
11.6908251628
 30
0.0
 10
14.9994434049
 20
11.6833850682
 30
0.0
 10
15.0075584762
 20
11.6760734044
 30
0.0
 10
15.0160790511
 20
11.6689044622
 30
0.0
 10
15.0249884108
 20
11.6618922826
 30
0.0
 10
15.0342690877
 20
11.6550506278
 30
0.0
 10
15.043902855
 20
11.6483928975
 30
0.0
 10
15.0538707953
 20
11.6419321403
 30
0.0
 10
15.0641533514
 20
11.6356810484
 30
0.0
 10
15.0747303367
 20
11.629651895
 30
0.0
 10
15.0855809694
 20
11.6238564964
 30
0.0
 10
15.0966839446
 20
11.6183062371
 30
0.0
 10
15.108017466
 20
11.6130120373
 30
0.0
 10
15.1195592618
 20
11.6079842745
 30
0.0
 10
15.1312866586
 20
11.6032328194
 30
0.0
 10
15.1431766277
 20
11.5987670267
 30
0.0
 10
15.1552058086
 20
11.5945956641
 30
0.0
 10
15.1673505637
 20
11.5907269097
 30
0.0
 10
15.1795870379
 20
11.5871683752
 30
0.0
 10
15.1918911956
 20
11.583927067
 30
0.0
 10
15.2042388586
 20
11.5810093285
 30
0.0
 10
15.2166057715
 20
11.5784208916
 30
0.0
 10
15.228967642
 20
11.5761668674
 30
0.0
 10
15.2413001925
 20
11.5742516606
 30
0.0
 10
15.2535792
 20
11.5726790329
 30
0.0
 10
15.265780494
 20
11.5714520938
 30
0.0
 10
15.277880322
 20
11.5705732113
 30
0.0
 10
15.2898545689
 20
11.5700442023
 30
0.0
 10
15.2977945248
 20
11.5699245437
 30
0.0
 10
15.3017375697
 20
11.5699245437
 30
0.0
  0
SPLINE
  5
2E1
100
AcDbEntity
  8
02___PRT_ALL_AXES
100
AcDbSpline
 62
7
  6
CONTINUOUS
 70
0
 71
3
 72
72
 73
68
 74
0
 42
0.0000001
 43
0.0000001
 44
0.0000000001
 40
0.0
 40
0.0
 40
0.0
 40
0.0
 40
0.0171788515
 40
0.0345304108
 40
0.0520444107
 40
0.0697101032
 40
0.0875164388
 40
0.1054520335
 40
0.1235052187
 40
0.1416640662
 40
0.1599164184
 40
0.1782499169
 40
0.1966520308
 40
0.2151100845
 40
0.2336112852
 40
0.2521427503
 40
0.2706915345
 40
0.2892446564
 40
0.3077891257
 40
0.3263119701
 40
0.3448002621
 40
0.3632411459
 40
0.3816218646
 40
0.3999297876
 40
0.4181524382
 40
0.4362775215
 40
0.454292953
 40
0.4721868874
 40
0.4899477477
 40
0.5075642559
 40
0.5250254631
 40
0.5423207817
 40
0.5594400177
 40
0.5763734045
 40
0.593111638
 40
0.6096459121
 40
0.625967957
 40
0.6420700775
 40
0.6579451944
 40
0.6735868868
 40
0.6889894367
 40
0.7041478757
 40
0.7190580337
 40
0.7337165896
 40
0.7481211239
 40
0.7622701735
 40
0.7761632883
 40
0.7898010891
 40
0.8031853261
 40
0.8163189377
 40
0.8292061081
 40
0.841852322
 40
0.8542644165
 40
0.8603855311
 40
0.8664513239
 40
0.8784213134
 40
0.8901862082
 40
0.9017586004
 40
0.9131525422
 40
0.9243835153
 40
0.9354683774
 40
0.9464252803
 40
0.9572735599
 40
0.968033596
 40
0.9787266447
 40
0.9893746441
 40
1.0
 40
1.0
 40
1.0
 40
1.0
 10
14.9279087621
 20
12.3317075598
 30
0.0
 10
14.9372526787
 20
12.3317075598
 30
0.0
 10
14.9560350511
 20
12.3315019683
 30
0.0
 10
14.9843302846
 20
12.3305884186
 30
0.0
 10
15.0128647253
 20
12.3290690668
 30
0.0
 10
15.0416085212
 20
12.3269454893
 30
0.0
 10
15.0705317928
 20
12.3242199027
 30
0.0
 10
15.0996044309
 20
12.320895143
 30
0.0
 10
15.1287961796
 20
12.3169746721
 30
0.0
 10
15.1580766545
 20
12.3124625707
 30
0.0
 10
15.187415379
 20
12.3073635355
 30
0.0
 10
15.2167818142
 20
12.3016828748
 30
0.0
 10
15.246145392
 20
12.2954265021
 30
0.0
 10
15.2754755465
 20
12.28860093
 30
0.0
 10
15.3047417458
 20
12.2812132637
 30
0.0
 10
15.3339135244
 20
12.2732711936
 30
0.0
 10
15.3629605148
 20
12.264782987
 30
0.0
 10
15.391852479
 20
12.2557574798
 30
0.0
 10
15.4205593405
 20
12.2462040675
 30
0.0
 10
15.4490512159
 20
12.2361326956
 30
0.0
 10
15.4772984453
 20
12.2255538485
 30
0.0
 10
15.5052716243
 20
12.2144785385
 30
0.0
 10
15.5329416338
 20
12.2029182946
 30
0.0
 10
15.5602796709
 20
12.1908851501
 30
0.0
 10
15.5872572786
 20
12.1783916303
 30
0.0
 10
15.613846376
 20
12.1654507389
 30
0.0
 10
15.6400192877
 20
12.1520759454
 30
0.0
 10
15.6657487722
 20
12.1382811699
 30
0.0
 10
15.6910080507
 20
12.1240807687
 30
0.0
 10
15.7157708348
 20
12.1094895191
 30
0.0
 10
15.7400113537
 20
12.0945226034
 30
0.0
 10
15.7637043812
 20
12.0791955937
 30
0.0
 10
15.786825262
 20
12.0635244343
 30
0.0
 10
15.8093499373
 20
12.0475254258
 30
0.0
 10
15.8312549703
 20
12.0312152078
 30
0.0
 10
15.8525175699
 20
12.0146107405
 30
0.0
 10
15.8731156143
 20
11.9977292867
 30
0.0
 10
15.8930276733
 20
11.9805883938
 30
0.0
 10
15.9122330308
 20
11.9632058743
 30
0.0
 10
15.9307117054
 20
11.9455997875
 30
0.0
 10
15.948444471
 20
11.9277884197
 30
0.0
 10
15.965412876
 20
11.9097902651
 30
0.0
 10
15.981599262
 20
11.8916240059
 30
0.0
 10
15.9969867806
 20
11.8733084922
 30
0.0
 10
16.0115594089
 20
11.8548627222
 30
0.0
 10
16.0253019652
 20
11.8363058224
 30
0.0
 10
16.0382001227
 20
11.8176570271
 30
0.0
 10
16.0502404214
 20
11.7989356614
 30
0.0
 10
16.0614102828
 20
11.7801611134
 30
0.0
 10
16.0716980108
 20
11.7613528452
 30
0.0
 10
16.0810928387
 20
11.7425302705
 30
0.0
 10
16.0895847983
 20
11.7237131123
 30
0.0
 10
16.095930796
 20
11.7079803928
 30
0.0
 10
16.1005405935
 20
11.6954187394
 30
0.0
 10
16.1048023207
 20
11.6829887699
 30
0.0
 10
16.1095590631
 20
11.6674872477
 30
0.0
 10
16.1143594359
 20
11.6488857126
 30
0.0
 10
16.1182215426
 20
11.6303864187
 30
0.0
 10
16.1211410499
 20
11.6120088456
 30
0.0
 10
16.1231146803
 20
11.5937721375
 30
0.0
 10
16.1241401162
 20
11.575695408
 30
0.0
 10
16.1242160448
 20
11.5577976456
 30
0.0
 10
16.1233421583
 20
11.5400976939
 30
0.0
 10
16.1215191961
 20
11.5226143043
 30
0.0
 10
16.1187488636
 20
11.5053658071
 30
0.0
 10
16.1150341865
 20
11.4883711987
 30
0.0
 10
16.1119291204
 20
11.4772170779
 30
0.0
 10
16.1102227837
 20
11.4716953755
 30
0.0
  0
SPLINE
  5
2E2
100
AcDbEntity
  8
LAYER_CHAMFER_FEAT
100
AcDbSpline
 62
7
  6
CONTINUOUS
 70
0
 71
3
 72
49
 73
45
 74
0
 42
0.0000001
 43
0.0000001
 44
0.0000000001
 40
0.0
 40
0.0
 40
0.0
 40
0.0
 40
0.035733353
 40
0.0703705073
 40
0.1039020219
 40
0.1363329928
 40
0.1676844993
 40
0.1979950272
 40
0.2273217641
 40
0.2557416118
 40
0.2696442148
 40
0.2833582529
 40
0.2968989654
 40
0.3102828161
 40
0.3235273586
 40
0.3366511898
 40
0.3496738311
 40
0.3626155949
 40
0.375497461
 40
0.3883408903
 40
0.4011676758
 40
0.4139997457
 40
0.4268589823
 40
0.4397670467
 40
0.4527451827
 40
0.4658140726
 40
0.4789936632
 40
0.4923030415
 40
0.5057603241
 40
0.5193825315
 40
0.5471776729
 40
0.5758078113
 40
0.6053651996
 40
0.6359219213
 40
0.667530554
 40
0.7002252658
 40
0.7340231555
 40
0.7689256835
 40
0.8049201314
 40
0.841980931
 40
0.8800711605
 40
0.9191432351
 40
0.9591413306
 40
1.0
 40
1.0
 40
1.0
 40
1.0
 10
15.4445891725
 20
11.7977033205
 30
0.0
 10
15.4475680758
 20
11.7944434139
 30
0.0
 10
15.4532763889
 20
11.7878765382
 30
0.0
 10
15.4611733456
 20
11.7777437322
 30
0.0
 10
15.4682479653
 20
11.7675118639
 30
0.0
 10
15.4744762261
 20
11.7572147995
 30
0.0
 10
15.4798371188
 20
11.7468862376
 30
0.0
 10
15.4843122708
 20
11.7365598583
 30
0.0
 10
15.4878859187
 20
11.7262700967
 30
0.0
 10
15.4901183739
 20
11.7176902455
 30
0.0
 10
15.4914304229
 20
11.7108887472
 30
0.0
 10
15.4921757859
 20
11.7058556455
 30
0.0
 10
15.4926887851
 20
11.7008580298
 30
0.0
 10
15.4929690289
 20
11.6959000081
 30
0.0
 10
15.4930162047
 20
11.6909857652
 30
0.0
 10
15.4928302333
 20
11.6861194348
 30
0.0
 10
15.4924112674
 20
11.6813051208
 30
0.0
 10
15.4917595681
 20
11.6765468991
 30
0.0
 10
15.4908757493
 20
11.6718487845
 30
0.0
 10
15.4897604331
 20
11.6672147795
 30
0.0
 10
15.4884146757
 20
11.6626487833
 30
0.0
 10
15.4868394899
 20
11.6581547037
 30
0.0
 10
15.4850363376
 20
11.6537363049
 30
0.0
 10
15.4830066511
 20
11.649397368
 30
0.0
 10
15.4807522567
 20
11.6451415147
 30
0.0
 10
15.478275021
 20
11.6409723636
 30
0.0
 10
15.4755770978
 20
11.6368933907
 30
0.0
 10
15.4726608001
 20
11.6329080361
 30
0.0
 10
15.4695285248
 20
11.6290195727
 30
0.0
 10
15.465038344
 20
11.6239349848
 30
0.0
 10
15.4588800744
 20
11.6178345034
 30
0.0
 10
15.4507248114
 20
11.6110051777
 30
0.0
 10
15.4417817394
 20
11.6046386162
 30
0.0
 10
15.4320815866
 20
11.5987556027
 30
0.0
 10
15.4216568256
 20
11.5933747471
 30
0.0
 10
15.4105422726
 20
11.5885132621
 30
0.0
 10
15.3987748641
 20
11.5841867096
 30
0.0
 10
15.3863936391
 20
11.5804090074
 30
0.0
 10
15.3734396431
 20
11.5771923634
 30
0.0
 10
15.3599558026
 20
11.5745471967
 30
0.0
 10
15.3459868706
 20
11.5724821388
 30
0.0
 10
15.3315790653
 20
11.5710038804
 30
0.0
 10
15.3167805676
 20
11.5701173065
 30
0.0
 10
15.3067869407
 20
11.5699245437
 30
0.0
 10
15.3017375697
 20
11.5699245437
 30
0.0
  0
SPLINE
  5
2E3
100
AcDbEntity
  8
LAYER_FEATURE
100
AcDbSpline
 62
7
  6
CONTINUOUS
 70
0
 71
3
 72
18
 73
14
 74
0
 42
0.0000001
 43
0.0000001
 44
0.0000000001
 40
0.0
 40
0.0
 40
0.0
 40
0.0
 40
0.0594317673
 40
0.1190511392
 40
0.1789135752
 40
0.2390727398
 40
0.299580356
 40
0.3604856721
 40
0.4836462174
 40
0.6089202099
 40
0.7365933162
 40
0.8668956208
 40
1.0
 40
1.0
 40
1.0
 40
1.0
 10
14.8627672574
 20
12.4914988941
 30
0.0
 10
14.8623182234
 20
12.4927137048
 30
0.0
 10
14.8614736168
 20
12.4951678455
 30
0.0
 10
14.8603711775
 20
12.4989089302
 30
0.0
 10
14.8594327468
 20
12.5027108884
 30
0.0
 10
14.858659268
 20
12.5065694877
 30
0.0
 10
14.8580516422
 20
12.5104807065
 30
0.0
 10
14.8574611886
 20
12.5157790477
 30
0.0
 10
14.8571449222
 20
12.5225214902
 30
0.0
 10
14.8574374214
 20
12.5307211561
 30
0.0
 10
14.8583985352
 20
12.5390261694
 30
0.0
 10
14.8600235243
 20
12.5474000169
 30
0.0
 10
14.8615284233
 20
12.5529454311
 30
0.0
 10
14.8623848252
 20
12.5557167487
 30
0.0
  0
SPLINE
  5
2E4
100
AcDbEntity
  8
02___PRT_ALL_AXES
100
AcDbSpline
 62
7
  6
CONTINUOUS
 70
0
 71
3
 72
45
 73
41
 74
0
 42
0.0000001
 43
0.0000001
 44
0.0000000001
 40
0.0
 40
0.0
 40
0.0
 40
0.0
 40
0.0116429393
 40
0.0233344075
 40
0.0350942019
 40
0.0469414425
 40
0.0588942305
 40
0.0709696642
 40
0.0831835062
 40
0.0955502808
 40
0.1080829631
 40
0.1207931567
 40
0.1467791572
 40
0.1735758278
 40
0.2012208045
 40
0.2297290251
 40
0.2590948005
 40
0.2892942291
 40
0.3202878924
 40
0.3520235388
 40
0.3844387675
 40
0.4174635
 40
0.4510222737
 40
0.485036247
 40
0.5194249289
 40
0.5541076506
 40
0.589004735
 40
0.6240385038
 40
0.6591340112
 40
0.694219728
 40
0.729228005
 40
0.7640955799
 40
0.7814597136
 40
0.7987671473
 40
0.8331828372
 40
0.8672979173
 40
0.9010701893
 40
0.9344635233
 40
0.9674479125
 40
1.0
 40
1.0
 40
1.0
 40
1.0
 10
14.8592113484
 20
12.4977312202
 30
0.0
 10
14.8586692408
 20
12.4988359168
 30
0.0
 10
14.8576390228
 20
12.5010780264
 30
0.0
 10
14.8562623952
 20
12.5045238122
 30
0.0
 10
14.8550530567
 20
12.5080547175
 30
0.0
 10
14.8540121661
 20
12.5116675838
 30
0.0
 10
14.8531404807
 20
12.5153592142
 30
0.0
 10
14.8524387701
 20
12.5191262609
 30
0.0
 10
14.8519074717
 20
12.5229652244
 30
0.0
 10
14.8515470045
 20
12.5268724454
 30
0.0
 10
14.8513574773
 20
12.530844201
 30
0.0
 10
14.851332567
 20
12.5362599219
 30
0.0
 10
14.8517383083
 20
12.5431783695
 30
0.0
 10
14.8529016592
 20
12.5516067903
 30
0.0
 10
14.8547379189
 20
12.5601869833
 30
0.0
 10
14.8572374012
 20
12.5688800318
 30
0.0
 10
14.8603877556
 20
12.5776457888
 30
0.0
 10
14.8641740447
 20
12.5864424101
 30
0.0
 10
14.8685788362
 20
12.5952268744
 30
0.0
 10
14.8735823377
 20
12.603955285
 30
0.0
 10
14.879162562
 20
12.6125832466
 30
0.0
 10
14.8852955037
 20
12.6210662179
 30
0.0
 10
14.8919553129
 20
12.6293598394
 30
0.0
 10
14.8991144492
 20
12.6374202298
 30
0.0
 10
14.9067438041
 20
12.6452042477
 30
0.0
 10
14.9148127843
 20
12.6526697224
 30
0.0
 10
14.9232893524
 20
12.6597756661
 30
0.0
 10
14.9321400348
 20
12.6664824749
 30
0.0
 10
14.941329873
 20
12.6727521269
 30
0.0
 10
14.9508224554
 20
12.6785484331
 30
0.0
 10
14.9605795618
 20
12.683837142
 30
0.0
 10
14.968909913
 20
12.6878005746
 30
0.0
 10
14.9756697851
 20
12.6906871609
 30
0.0
 10
14.9824615409
 20
12.6933704693
 30
0.0
 10
14.9910348963
 20
12.6963532021
 30
0.0
 10
15.0014381533
 20
12.6993210138
 30
0.0
 10
15.0118922177
 20
12.7016514417
 30
0.0
 10
15.022350099
 20
12.7033288488
 30
0.0
 10
15.0327633819
 20
12.7043418753
 30
0.0
 10
15.0396919009
 20
12.7045711688
 30
0.0
 10
15.0431323321
 20
12.7045711688
 30
0.0
  0
SPLINE
  5
2E5
100
AcDbEntity
  8
LAYER_FEATURE
100
AcDbSpline
 62
7
  6
CONTINUOUS
 70
0
 71
3
 72
14
 73
10
 74
0
 42
0.0000001
 43
0.0000001
 44
0.0000000001
 40
0.0
 40
0.0
 40
0.0
 40
0.0
 40
0.1217571947
 40
0.2438366888
 40
0.3665540645
 40
0.4902184537
 40
0.6151332022
 40
0.7415887189
 40
1.0
 40
1.0
 40
1.0
 40
1.0
 10
16.7537678382
 20
12.655109809
 30
0.0
 10
16.7538651514
 20
12.6554247051
 30
0.0
 10
16.7540402438
 20
12.6560616433
 30
0.0
 10
16.7542428651
 20
12.6570336023
 30
0.0
 10
16.7543854317
 20
12.6580214182
 30
0.0
 10
16.7544676936
 20
12.6590237353
 30
0.0
 10
16.7544895945
 20
12.6600393412
 30
0.0
 10
16.7544379291
 20
12.6614188914
 30
0.0
 10
16.7543084351
 20
12.6624555173
 30
0.0
 10
16.7541850028
 20
12.6631440455
 30
0.0
  0
SPLINE
  5
2E6
100
AcDbEntity
  8
LAYER_FEATURE
100
AcDbSpline
 62
7
  6
CONTINUOUS
 70
0
 71
3
 72
17
 73
13
 74
0
 42
0.0000001
 43
0.0000001
 44
0.0000000001
 40
0.0
 40
0.0
 40
0.0
 40
0.0
 40
0.0565663426
 40
0.1132962459
 40
0.1703511127
 40
0.2278875204
 40
0.3449426809
 40
0.4656140489
 40
0.5908244834
 40
0.7212992023
 40
0.8575804015
 40
1.0
 40
1.0
 40
1.0
 40
1.0
 10
16.6563000384
 20
12.8891670701
 30
0.0
 10
16.6564018134
 20
12.8894964257
 30
0.0
 10
16.6565840141
 20
12.8901630027
 30
0.0
 10
16.6567916633
 20
12.8911808742
 30
0.0
 10
16.6569335018
 20
12.8922160165
 30
0.0
 10
16.6570353087
 20
12.8936248303
 30
0.0
 10
16.6569940886
 20
12.8954287165
 30
0.0
 10
16.6566795897
 20
12.8976228485
 30
0.0
 10
16.6561025768
 20
12.8998472096
 30
0.0
 10
16.6552670719
 20
12.9020891644
 30
0.0
 10
16.6541784413
 20
12.9043361698
 30
0.0
 10
16.6533075977
 20
12.9057969947
 30
0.0
 10
16.6528346685
 20
12.9065247492
 30
0.0
  0
SPLINE
  5
2E7
100
AcDbEntity
  8
LAYER_FEATURE
100
AcDbSpline
 62
7
  6
CONTINUOUS
 70
0
 71
3
 72
23
 73
19
 74
0
 42
0.0000001
 43
0.0000001
 44
0.0000000001
 40
0.0
 40
0.0
 40
0.0
 40
0.0
 40
0.0518053922
 40
0.1039564239
 40
0.1567873653
 40
0.2106110727
 40
0.2657111092
 40
0.3223357912
 40
0.3806945754
 40
0.4409575881
 40
0.50325547
 40
0.5676807685
 40
0.6342913383
 40
0.7031124147
 40
0.7741370834
 40
0.8473335559
 40
0.9226538508
 40
1.0
 40
1.0
 40
1.0
 40
1.0
 10
16.4546524288
 20
13.1153956242
 30
0.0
 10
16.4548073939
 20
13.1158970798
 30
0.0
 10
16.4550680458
 20
13.1169196696
 30
0.0
 10
16.4553057406
 20
13.1184927229
 30
0.0
 10
16.4553900463
 20
13.1201019347
 30
0.0
 10
16.4553208427
 20
13.1217415881
 30
0.0
 10
16.4550985688
 20
13.1234062127
 30
0.0
 10
16.4547241601
 20
13.1250902608
 30
0.0
 10
16.4541990993
 20
13.1267882303
 30
0.0
 10
16.4535252542
 20
13.1284946039
 30
0.0
 10
16.4527049693
 20
13.1302038723
 30
0.0
 10
16.4517410569
 20
13.1319105514
 30
0.0
 10
16.4506367016
 20
13.1336091388
 30
0.0
 10
16.4493955638
 20
13.1352941573
 30
0.0
 10
16.4480217588
 20
13.1369601856
 30
0.0
 10
16.446519696
 20
13.1386018832
 30
0.0
 10
16.4448943803
 20
13.1402138013
 30
0.0
 10
16.4437469265
 20
13.1412518372
 30
0.0
 10
16.4431546247
 20
13.1417648967
 30
0.0
  0
SPLINE
  5
2E8
100
AcDbEntity
  8
LAYER_FEATURE
100
AcDbSpline
 62
7
  6
CONTINUOUS
 70
0
 71
3
 72
22
 73
18
 74
0
 42
0.0000001
 43
0.0000001
 44
0.0000000001
 40
0.0
 40
0.0
 40
0.0
 40
0.0
 40
0.049039744
 40
0.0992562188
 40
0.1509093604
 40
0.2042193177
 40
0.3163944085
 40
0.3755675573
 40
0.436858139
 40
0.500286903
 40
0.5658430771
 40
0.6334869753
 40
0.7031539147
 40
0.7747553637
 40
0.8481818067
 40
0.9233159292
 40
1.0
 40
1.0
 40
1.0
 40
1.0
 10
16.1582156051
 20
13.2782120378
 30
0.0
 10
16.1581973605
 20
13.2776394395
 30
0.0
 10
16.1582194622
 20
13.2764778795
 30
0.0
 10
16.1584232277
 20
13.2747242913
 30
0.0
 10
16.1587969327
 20
13.2729478366
 30
0.0
 10
16.1595317939
 20
13.2705173378
 30
0.0
 10
16.160598629
 20
13.2681063621
 30
0.0
 10
16.161949217
 20
13.2657466209
 30
0.0
 10
16.1631366252
 20
13.2639544158
 30
0.0
 10
16.1644756587
 20
13.2621786311
 30
0.0
 10
16.1659615656
 20
13.2604253754
 30
0.0
 10
16.1675888837
 20
13.2587010342
 30
0.0
 10
16.1693516902
 20
13.2570118055
 30
0.0
 10
16.1712435538
 20
13.2553638214
 30
0.0
 10
16.1732576601
 20
13.2537629873
 30
0.0
 10
16.1753865788
 20
13.2522152354
 30
0.0
 10
16.1768632032
 20
13.2512318214
 30
0.0
 10
16.1776184056
 20
13.2507499634
 30
0.0
  0
SPLINE
  5
2E9
100
AcDbEntity
  8
LAYER_FEATURE
100
AcDbSpline
 62
7
  6
CONTINUOUS
 70
0
 71
3
 72
27
 73
23
 74
0
 42
0.0000001
 43
0.0000001
 44
0.0000000001
 40
0.0
 40
0.0
 40
0.0
 40
0.0
 40
0.0238902475
 40
0.0478560215
 40
0.0719633281
 40
0.0962814289
 40
0.1208779399
 40
0.1458152908
 40
0.1969148452
 40
0.2500037555
 40
0.3053952638
 40
0.3340358699
 40
0.3633292072
 40
0.4239164154
 40
0.4872362587
 40
0.5532845525
 40
0.6219970453
 40
0.6932570438
 40
0.7669036654
 40
0.8427349454
 40
0.9205225375
 40
1.0
 40
1.0
 40
1.0
 40
1.0
 10
16.168563687
 20
13.311650643
 30
0.0
 10
16.1686676899
 20
13.3119872172
 30
0.0
 10
16.1688534088
 20
13.3126686561
 30
0.0
 10
16.1690634369
 20
13.3137095722
 30
0.0
 10
16.1692047067
 20
13.3147684301
 30
0.0
 10
16.169277069
 20
13.315843496
 30
0.0
 10
16.1692803967
 20
13.3169332383
 30
0.0
 10
16.169192233
 20
13.31841533
 30
0.0
 10
16.1689046052
 20
13.3203024356
 30
0.0
 10
16.1682883501
 20
13.3225779755
 30
0.0
 10
16.1675584172
 20
13.3244674397
 30
0.0
 10
16.1668473263
 20
13.3259801623
 30
0.0
 10
16.1660322127
 20
13.3275267236
 30
0.0
 10
16.1648477237
 20
13.3294537147
 30
0.0
 10
16.1631942305
 20
13.3317178374
 30
0.0
 10
16.1613025968
 20
13.3339465188
 30
0.0
 10
16.1591840545
 20
13.3361267638
 30
0.0
 10
16.1568510231
 20
13.3382459897
 30
0.0
 10
16.1543172058
 20
13.3402918232
 30
0.0
 10
16.1515974281
 20
13.3422523948
 30
0.0
 10
16.1487077566
 20
13.3441161056
 30
0.0
 10
16.1466983536
 20
13.3452757938
 30
0.0
 10
16.1456698149
 20
13.3458375434
 30
0.0
  0
SPLINE
  5
2EA
100
AcDbEntity
  8
02___PRT_ALL_AXES
100
AcDbSpline
 62
7
  6
CONTINUOUS
 70
0
 71
3
 72
40
 73
36
 74
0
 42
0.0000001
 43
0.0000001
 44
0.0000000001
 40
0.0
 40
0.0
 40
0.0
 40
0.0
 40
0.0248034546
 40
0.049664248
 40
0.0746390663
 40
0.0997833135
 40
0.1251505275
 40
0.1507918574
 40
0.1767556158
 40
0.2030869115
 40
0.2298273685
 40
0.2570149276
 40
0.2846837213
 40
0.3128640179
 40
0.3271552563
 40
0.3415839409
 40
0.3708626359
 40
0.4007206744
 40
0.4311732902
 40
0.4622322343
 40
0.4939059225
 40
0.5261995923
 40
0.5591154628
 40
0.5926528929
 40
0.6268085439
 40
0.6615765358
 40
0.6969485987
 40
0.7329142173
 40
0.7694607716
 40
0.8065736704
 40
0.8442364555
 40
0.8824310358
 40
0.9211374221
 40
0.960334881
 40
1.0
 40
1.0
 40
1.0
 40
1.0
 10
14.4689026672
 20
12.5143754356
 30
0.0
 10
14.4706800711
 20
12.5201271254
 30
0.0
 10
14.4745784952
 20
12.5315420125
 30
0.0
 10
14.4814318392
 20
12.5483219238
 30
0.0
 10
14.4892860539
 20
12.5647496012
 30
0.0
 10
14.4981317062
 20
12.5808054143
 30
0.0
 10
14.5079585127
 20
12.5964712235
 30
0.0
 10
14.5187549788
 20
12.6117291427
 30
0.0
 10
14.5305085374
 20
12.6265618962
 30
0.0
 10
14.5432055503
 20
12.6409527483
 30
0.0
 10
14.5568313317
 20
12.6548855165
 30
0.0
 10
14.5713702497
 20
12.6683446276
 30
0.0
 10
14.5868054532
 20
12.6813149021
 30
0.0
 10
14.6003368021
 20
12.6916554826
 30
0.0
 10
14.611583718
 20
12.6996714891
 30
0.0
 10
14.6232238421
 20
12.7075894258
 30
0.0
 10
14.6383092048
 20
12.7171519982
 30
0.0
 10
14.6571444336
 20
12.7280285173
 30
0.0
 10
14.6767788188
 20
12.7383499561
 30
0.0
 10
14.6971899389
 20
12.7481046753
 30
0.0
 10
14.7183548063
 20
12.7572818472
 30
0.0
 10
14.7402495176
 20
12.7658712274
 30
0.0
 10
14.7628493786
 20
12.7738632321
 30
0.0
 10
14.7861288972
 20
12.7812489374
 30
0.0
 10
14.8100618205
 20
12.7880200903
 30
0.0
 10
14.8346211607
 20
12.7941691173
 30
0.0
 10
14.8597792239
 20
12.7996891352
 30
0.0
 10
14.8855076402
 20
12.8045739598
 30
0.0
 10
14.9117773947
 20
12.8088181146
 30
0.0
 10
14.938558853
 20
12.8124168376
 30
0.0
 10
14.9658218196
 20
12.815366103
 30
0.0
 10
14.9935354839
 20
12.8176625824
 30
0.0
 10
15.021668716
 20
12.8193037386
 30
0.0
 10
15.0501894717
 20
12.8202876761
 30
0.0
 10
15.0693310082
 20
12.8205035514
 30
0.0
 10
15.0789581479
 20
12.8205035514
 30
0.0
  0
SPLINE
  5
2EB
100
AcDbEntity
  8
LAYER_FEATURE
100
AcDbSpline
 62
7
  6
CONTINUOUS
 70
0
 71
3
 72
12
 73
8
 74
0
 42
0.0000001
 43
0.0000001
 44
0.0000000001
 40
0.0
 40
0.0
 40
0.0
 40
0.0
 40
0.2722633933
 40
0.528929381
 40
0.6517495853
 40
0.7710847194
 40
1.0
 40
1.0
 40
1.0
 40
1.0
 10
16.1503086602
 20
11.8444143153
 30
0.0
 10
16.1492924898
 20
11.8431968839
 30
0.0
 10
16.1472377458
 20
11.8408972841
 30
0.0
 10
16.1444919602
 20
11.8382692704
 30
0.0
 10
16.1422625741
 20
11.8364045831
 30
0.0
 10
16.1400776629
 20
11.8347440089
 30
0.0
 10
16.1383733921
 20
11.8336352324
 30
0.0
 10
16.137216557
 20
11.8329723169
 30
0.0
  0
SPLINE
  5
2EC
100
AcDbEntity
  8
LAYER_CHAMFER_FEAT
100
AcDbSpline
 62
7
  6
CONTINUOUS
 70
0
 71
3
 72
44
 73
40
 74
0
 42
0.0000001
 43
0.0000001
 44
0.0000000001
 40
0.0
 40
0.0
 40
0.0
 40
0.0
 40
0.0106260959
 40
0.0212748375
 40
0.0319686312
 40
0.0427294168
 40
0.0535784528
 40
0.0645361183
 40
0.075621754
 40
0.0868535082
 40
0.0982482459
 40
0.1098214423
 40
0.1335519248
 40
0.1581465024
 40
0.183676803
 40
0.2101921586
 40
0.2377211135
 40
0.2662732102
 40
0.2958408542
 40
0.3264011376
 40
0.357917558
 40
0.3903416089
 40
0.4236142386
 40
0.4576671854
 40
0.492424206
 40
0.5278022127
 40
0.563712334
 40
0.6000609162
 40
0.6367504765
 40
0.6736806196
 40
0.7107489283
 40
0.747851836
 40
0.7848854901
 40
0.8217466109
 40
0.8583333604
 40
0.8945462102
 40
0.9302888671
 40
0.9654691316
 40
1.0
 40
1.0
 40
1.0
 40
1.0
 10
14.984260314
 20
11.8518240101
 30
0.0
 10
14.9838055284
 20
11.8503523426
 30
0.0
 10
14.982977964
 20
11.8473794926
 30
0.0
 10
14.9819879018
 20
11.8428500152
 30
0.0
 10
14.9812495486
 20
11.8382528665
 30
0.0
 10
14.9807636759
 20
11.8335931155
 30
0.0
 10
14.9805307725
 20
11.8288756439
 30
0.0
 10
14.9805509995
 20
11.8241054525
 30
0.0
 10
14.9808243146
 20
11.8192875571
 30
0.0
 10
14.9813503197
 20
11.8144270436
 30
0.0
 10
14.9821284722
 20
11.8095289045
 30
0.0
 10
14.9835122745
 20
11.8029003074
 30
0.0
 10
14.9858861754
 20
11.7945347997
 30
0.0
 10
14.9896993776
 20
11.784517966
 30
0.0
 10
14.994483737
 20
11.7744787475
 30
0.0
 10
15.0002182803
 20
11.7644587075
 30
0.0
 10
15.0068786109
 20
11.7544984126
 30
0.0
 10
15.0144367196
 20
11.7446385085
 30
0.0
 10
15.0228610734
 20
11.7349192657
 30
0.0
 10
15.032116661
 20
11.7253805157
 30
0.0
 10
15.0421650908
 20
11.7160614524
 30
0.0
 10
15.0529647125
 20
11.7070004614
 30
0.0
 10
15.0644707669
 20
11.6982349412
 30
0.0
 10
15.0766355566
 20
11.6898011314
 30
0.0
 10
15.0894086359
 20
11.6817339462
 30
0.0
 10
15.1027370164
 20
11.6740668174
 30
0.0
 10
15.1165653857
 20
11.6668315442
 30
0.0
 10
15.1308363383
 20
11.6600581529
 30
0.0
 10
15.1454906156
 20
11.6537747654
 30
0.0
 10
15.1604673545
 20
11.6480074771
 30
0.0
 10
15.175704344
 20
11.6427802444
 30
0.0
 10
15.1911382866
 20
11.6381147826
 30
0.0
 10
15.2067050655
 20
11.6340304734
 30
0.0
 10
15.2223400128
 20
11.6305442829
 30
0.0
 10
15.2379781932
 20
11.6276706926
 30
0.0
 10
15.2535546349
 20
11.6254216364
 30
0.0
 10
15.2690047701
 20
11.6238064595
 30
0.0
 10
15.2842640882
 20
11.6228318739
 30
0.0
 10
15.2943704665
 20
11.6226096766
 30
0.0
 10
15.2993759868
 20
11.6226096766
 30
0.0
  0
SPLINE
  5
2ED
100
AcDbEntity
  8
02___PRT_ALL_AXES
100
AcDbSpline
 62
7
  6
CONTINUOUS
 70
0
 71
3
 72
44
 73
40
 74
0
 42
0.0000001
 43
0.0000001
 44
0.0000000001
 40
0.0
 40
0.0
 40
0.0
 40
0.0
 40
0.0396648968
 40
0.0788616493
 40
0.1175677687
 40
0.1557619004
 40
0.1934243024
 40
0.2305368075
 40
0.2670829777
 40
0.3030482199
 40
0.3384199127
 40
0.3731875403
 40
0.4073428323
 40
0.4408799085
 40
0.4737954318
 40
0.5060887632
 40
0.5377621206
 40
0.56882074
 40
0.5992730361
 40
0.6291307594
 40
0.6584091451
 40
0.6728376819
 40
0.6871287667
 40
0.7153087689
 40
0.7429772737
 40
0.7701645475
 40
0.7969047229
 40
0.8232357408
 40
0.849199226
 40
0.8748402874
 40
0.9002072358
 40
0.9128050758
 40
0.9253537818
 40
0.9378601146
 40
0.9503309528
 40
0.9627732742
 40
0.9751941363
 40
0.9876006583
 40
1.0
 40
1.0
 40
1.0
 40
1.0
 10
14.9279087621
 20
12.3317075598
 30
0.0
 10
14.9182815752
 20
12.3317075598
 30
0.0
 10
14.8991400629
 20
12.3314916924
 30
0.0
 10
14.8706192983
 20
12.3305077385
 30
0.0
 10
14.8424861143
 20
12.328866601
 30
0.0
 10
14.8147724254
 20
12.3265701107
 30
0.0
 10
14.787509468
 20
12.3236208492
 30
0.0
 10
14.7607280081
 20
12.3200221225
 30
0.0
 10
14.7344582543
 20
12.3157779676
 30
0.0
 10
14.7087298372
 20
12.3108931445
 30
0.0
 10
14.6835717727
 20
12.3053731283
 30
0.0
 10
14.6590124319
 20
12.2992241021
 30
0.0
 10
14.6350795089
 20
12.2924529487
 30
0.0
 10
14.6117999919
 20
12.2850672411
 30
0.0
 10
14.5892001323
 20
12.2770752344
 30
0.0
 10
14.5673054202
 20
12.2684858554
 30
0.0
 10
14.5461405509
 20
12.2593086856
 30
0.0
 10
14.525729429
 20
12.2495539681
 30
0.0
 10
14.5060950442
 20
12.2392325286
 30
0.0
 10
14.4872598159
 20
12.2283560096
 30
0.0
 10
14.4721744596
 20
12.2187934277
 30
0.0
 10
14.4605343264
 20
12.2108755049
 30
0.0
 10
14.4492874196
 20
12.2028594848
 30
0.0
 10
14.4357560644
 20
12.1925189134
 30
0.0
 10
14.4203208594
 20
12.1795486384
 30
0.0
 10
14.4057819412
 20
12.1660895292
 30
0.0
 10
14.3921561598
 20
12.1521567546
 30
0.0
 10
14.3794591586
 20
12.1377659172
 30
0.0
 10
14.3677055703
 20
12.1229331021
 30
0.0
 10
14.3569092158
 20
12.1076754071
 30
0.0
 10
14.3487010348
 20
12.0945898801
 30
0.0
 10
14.3426336096
 20
12.0839346203
 30
0.0
 10
14.338339413
 20
12.0758660242
 30
0.0
 10
14.3342928216
 20
12.0677049047
 30
0.0
 10
14.3304949289
 20
12.0594535052
 30
0.0
 10
14.3269468319
 20
12.0511141936
 30
0.0
 10
14.3236495388
 20
12.0426893019
 30
0.0
 10
14.3206040057
 20
12.0341813266
 30
0.0
 10
14.3187418246
 20
12.028454765
 30
0.0
 10
14.3178532823
 20
12.0255794437
 30
0.0
  0
SPLINE
  5
2EE
100
AcDbEntity
  8
LAYER_CHAMFER_FEAT
100
AcDbSpline
 62
7
  6
CONTINUOUS
 70
0
 71
3
 72
29
 73
25
 74
0
 42
0.0000001
 43
0.0000001
 44
0.0000000001
 40
0.0
 40
0.0
 40
0.0
 40
0.0
 40
0.0248056148
 40
0.0496685706
 40
0.0746455629
 40
0.0997920002
 40
0.1251614194
 40
0.1508049872
 40
0.1767709964
 40
0.203104594
 40
0.2298473637
 40
0.2570373059
 40
0.2847084902
 40
0.3128912613
 40
0.3708798346
 40
0.4311838459
 40
0.4939113744
 40
0.5591171839
 40
0.6268077415
 40
0.6969463549
 40
0.7694579634
 40
0.844234029
 40
0.9211358024
 40
1.0
 40
1.0
 40
1.0
 40
1.0
 10
15.4619707263
 20
11.7042003274
 30
0.0
 10
15.4614969982
 20
11.7026673629
 30
0.0
 10
15.4604579813
 20
11.699625013
 30
0.0
 10
15.4586313926
 20
11.6951527569
 30
0.0
 10
15.4565380584
 20
11.6907743749
 30
0.0
 10
15.4541804657
 20
11.6864951126
 30
0.0
 10
15.4515613923
 20
11.6823197826
 30
0.0
 10
15.4486838544
 20
11.6782531846
 30
0.0
 10
15.4455512596
 20
11.6742998776
 30
0.0
 10
15.4421671789
 20
11.6704643801
 30
0.0
 10
15.4385355871
 20
11.6667509322
 30
0.0
 10
15.434660613
 20
11.6631637858
 30
0.0
 10
15.4305466847
 20
11.6597068083
 30
0.0
 10
15.4246941186
 20
11.6552343287
 30
0.0
 10
15.4167843783
 20
11.6499954844
 30
0.0
 10
15.4065122995
 20
11.644351102
 30
0.0
 10
15.3954158852
 20
11.6393127245
 30
0.0
 10
15.3835456289
 20
11.6349023076
 30
0.0
 10
15.3709545916
 20
11.6311386713
 30
0.0
 10
15.3576992
 20
11.6280381364
 30
0.0
 10
15.3438388241
 20
11.625614175
 30
0.0
 10
15.3294355019
 20
11.6238774074
 30
0.0
 10
15.3145542108
 20
11.6228354192
 30
0.0
 10
15.3044771329
 20
11.6226096766
 30
0.0
 10
15.2993759868
 20
11.6226096766
 30
0.0
  0
SPLINE
  5
2EF
100
AcDbEntity
  8
LAYER_FEATURE
100
AcDbSpline
 62
7
  6
CONTINUOUS
 70
0
 71
3
 72
15
 73
11
 74
0
 42
0.0000001
 43
0.0000001
 44
0.0000000001
 40
0.0
 40
0.0
 40
0.0
 40
0.0
 40
0.1112044159
 40
0.225750368
 40
0.3439944635
 40
0.4662465498
 40
0.5927708084
 40
0.7237894553
 40
0.8594837453
 40
1.0
 40
1.0
 40
1.0
 40
1.0
 10
16.1346696546
 20
12.1544189014
 30
0.0
 10
16.1353536846
 20
12.1541013226
 30
0.0
 10
16.1367197184
 20
12.1534069199
 30
0.0
 10
16.1387258747
 20
12.152213301
 30
0.0
 10
16.1407155088
 20
12.1508546161
 30
0.0
 10
16.1426864918
 20
12.1493324276
 30
0.0
 10
16.1446369237
 20
12.1476483822
 30
0.0
 10
16.1465648374
 20
12.1458042331
 30
0.0
 10
16.1484683169
 20
12.143801993
 30
0.0
 10
16.1496980148
 20
12.1423880742
 30
0.0
 10
16.1503086597
 20
12.1416564927
 30
0.0
  0
SPLINE
  5
2F0
100
AcDbEntity
  8
02___PRT_ALL_AXES
100
AcDbSpline
 62
7
  6
CONTINUOUS
 70
0
 71
3
 72
23
 73
19
 74
0
 42
0.0000001
 43
0.0000001
 44
0.0000000001
 40
0.0
 40
0.0
 40
0.0
 40
0.0
 40
0.0532363846
 40
0.1065893612
 40
0.1603481592
 40
0.2147958656
 40
0.2702039705
 40
0.3268277777
 40
0.3849027011
 40
0.4446415137
 40
0.5062330345
 40
0.569841162
 40
0.6356053256
 40
0.7036408242
 40
0.7740378714
 40
0.8468674334
 40
0.9221829924
 40
1.0
 40
1.0
 40
1.0
 40
1.0
 10
16.1484003246
 20
12.1570353972
 30
0.0
 10
16.1494702844
 20
12.157035394
 30
0.0
 10
16.1516137986
 20
12.1569395679
 30
0.0
 10
16.154811502
 20
12.1565070903
 30
0.0
 10
16.1579820417
 20
12.1557867337
 30
0.0
 10
16.1611166883
 20
12.1547796662
 30
0.0
 10
16.1642073736
 20
12.1534876778
 30
0.0
 10
16.1672462045
 20
12.1519131006
 30
0.0
 10
16.1702255495
 20
12.1500586509
 30
0.0
 10
16.1731381656
 20
12.1479276751
 30
0.0
 10
16.1759770382
 20
12.1455238491
 30
0.0
 10
16.1787355246
 20
12.1428513891
 30
0.0
 10
16.181407339
 20
12.1399149853
 30
0.0
 10
16.1839864161
 20
12.1367197354
 30
0.0
 10
16.1864672464
 20
12.1332713571
 30
0.0
 10
16.1888445939
 20
12.1295757995
 30
0.0
 10
16.1911134736
 20
12.1256398608
 30
0.0
 10
16.1925278118
 20
12.1229050601
 30
0.0
 10
16.1932168153
 20
12.1215010186
 30
0.0
  0
SPLINE
  5
2F1
100
AcDbEntity
  8
LAYER_FEATURE
100
AcDbSpline
 62
7
  6
CONTINUOUS
 70
0
 71
3
 72
40
 73
36
 74
0
 42
0.0000001
 43
0.0000001
 44
0.0000000001
 40
0.0
 40
0.0
 40
0.0
 40
0.0
 40
0.0475531159
 40
0.0938226453
 40
0.1387498811
 40
0.1822938682
 40
0.2244186789
 40
0.2650921917
 40
0.3042902716
 40
0.3419970538
 40
0.3782059727
 40
0.4129201139
 40
0.4461547195
 40
0.4779377344
 40
0.50831225
 40
0.5373380112
 40
0.5650935092
 40
0.5785276574
 40
0.5916833956
 40
0.6172186475
 40
0.6418496133
 40
0.6657441719
 40
0.6890916859
 40
0.712098797
 40
0.7349838362
 40
0.7579694531
 40
0.7812747358
 40
0.8051077332
 40
0.8296596957
 40
0.8551006711
 40
0.8815780231
 40
0.9092154606
 40
0.9381144777
 40
0.9683555033
 40
1.0
 40
1.0
 40
1.0
 40
1.0
 10
16.1134964454
 20
12.0745906332
 30
0.0
 10
16.1139328034
 20
12.0760026881
 30
0.0
 10
16.1148270332
 20
12.078778545
 30
0.0
 10
16.116253558
 20
12.0828485776
 30
0.0
 10
16.1177450109
 20
12.0867622792
 30
0.0
 10
16.1192986876
 20
12.0905126803
 30
0.0
 10
16.1209119228
 20
12.0940933929
 30
0.0
 10
16.1225819539
 20
12.0974982251
 30
0.0
 10
16.124305865
 20
12.1007212718
 30
0.0
 10
16.1260807324
 20
12.1037569493
 30
0.0
 10
16.1279034651
 20
12.1066000548
 30
0.0
 10
16.1297710307
 20
12.1092456523
 30
0.0
 10
16.1316802206
 20
12.1116892175
 30
0.0
 10
16.1336278862
 20
12.1139264958
 30
0.0
 10
16.1356108055
 20
12.1159536423
 30
0.0
 10
16.1376256499
 20
12.1177670218
 30
0.0
 10
16.1393470871
 20
12.1191117589
 30
0.0
 10
16.1407362279
 20
12.1200732704
 30
0.0
 10
16.1421041572
 20
12.1209418453
 30
0.0
 10
16.1438295618
 20
12.1218938931
 30
0.0
 10
16.1459391891
 20
12.1228226855
 30
0.0
 10
16.1480637874
 20
12.1235242378
 30
0.0
 10
16.1501993382
 20
12.1239968093
 30
0.0
 10
16.1523417135
 20
12.1242390324
 30
0.0
 10
16.1544865268
 20
12.1242502231
 30
0.0
 10
16.1566293315
 20
12.1240303519
 30
0.0
 10
16.1587657311
 20
12.1235800298
 30
0.0
 10
16.1608915558
 20
12.1229005878
 30
0.0
 10
16.1630028359
 20
12.1219936813
 30
0.0
 10
16.1650959213
 20
12.1208615224
 30
0.0
 10
16.1671672594
 20
12.1195064364
 30
0.0
 10
16.1692135089
 20
12.1179311708
 30
0.0
 10
16.1712313458
 20
12.1161386061
 30
0.0
 10
16.1732174479
 20
12.1141320661
 30
0.0
 10
16.1744889257
 20
12.1126873209
 30
0.0
 10
16.1751191565
 20
12.1119322785
 30
0.0
  0
SPLINE
  5
2F2
100
AcDbEntity
  8
02___PRT_ALL_AXES
100
AcDbSpline
 62
7
  6
CONTINUOUS
 70
0
 71
3
 72
72
 73
68
 74
0
 42
0.0000001
 43
0.0000001
 44
0.0000000001
 40
0.0
 40
0.0
 40
0.0
 40
0.0
 40
0.0171787517
 40
0.0345304647
 40
0.0520443931
 40
0.0697101079
 40
0.0875164383
 40
0.1054520335
 40
0.1235052196
 40
0.1416640668
 40
0.1599164188
 40
0.178249917
 40
0.196652031
 40
0.2151100848
 40
0.2336112856
 40
0.2521427506
 40
0.2706915347
 40
0.2892446567
 40
0.3077891261
 40
0.3263119704
 40
0.3448002623
 40
0.3632411461
 40
0.381621865
 40
0.399929788
 40
0.4181524382
 40
0.4362775214
 40
0.4542929531
 40
0.472186888
 40
0.4899477485
 40
0.5075642561
 40
0.5250254628
 40
0.5423207814
 40
0.559440018
 40
0.5763734053
 40
0.5931116383
 40
0.6096459119
 40
0.6259679567
 40
0.6420700777
 40
0.6579451952
 40
0.6735868871
 40
0.6889894362
 40
0.704147875
 40
0.7190580337
 40
0.7337165906
 40
0.7481211248
 40
0.7622701734
 40
0.7761632875
 40
0.7898010885
 40
0.8031853264
 40
0.8163189386
 40
0.8292061084
 40
0.8418523217
 40
0.8542644161
 40
0.8603855312
 40
0.866451324
 40
0.878421314
 40
0.8901862084
 40
0.9017586001
 40
0.9131525417
 40
0.9243835152
 40
0.9354683778
 40
0.9464252807
 40
0.9572735599
 40
0.9680335958
 40
0.9787266445
 40
0.989374644
 40
1.0
 40
1.0
 40
1.0
 40
1.0
 10
15.0789581479
 20
12.8205035514
 30
0.0
 10
15.0883020103
 20
12.8205035514
 30
0.0
 10
15.1070844118
 20
12.8202979509
 30
0.0
 10
15.1353796362
 20
12.8193844183
 30
0.0
 10
15.1639141328
 20
12.8178650479
 30
0.0
 10
15.1926578997
 20
12.8157414831
 30
0.0
 10
15.2215811808
 20
12.8130158945
 30
0.0
 10
15.2506538167
 20
12.8096911347
 30
0.0
 10
15.2798455655
 20
12.8057706608
 30
0.0
 10
15.3091260405
 20
12.8012585582
 30
0.0
 10
15.3384647647
 20
12.7961595246
 30
0.0
 10
15.3678312002
 20
12.7904788668
 30
0.0
 10
15.3971947781
 20
12.7842224948
 30
0.0
 10
15.4265249321
 20
12.7773969203
 30
0.0
 10
15.455791131
 20
12.7700092523
 30
0.0
 10
15.4849629095
 20
12.7620671823
 30
0.0
 10
15.5140099003
 20
12.7535789775
 30
0.0
 10
15.542901865
 20
12.744553472
 30
0.0
 10
15.571608726
 20
12.7350000581
 30
0.0
 10
15.6001006006
 20
12.7249286848
 30
0.0
 10
15.6283478299
 20
12.7143498377
 30
0.0
 10
15.6563210096
 20
12.7032745292
 30
0.0
 10
15.68399102
 20
12.6917142872
 30
0.0
 10
15.7113290563
 20
12.6796811414
 30
0.0
 10
15.7383066625
 20
12.6671876194
 30
0.0
 10
15.7648957594
 20
12.6542467275
 30
0.0
 10
15.791068672
 20
12.6408719354
 30
0.0
 10
15.8167981583
 20
12.6270771623
 30
0.0
 10
15.8420574371
 20
12.6128767614
 30
0.0
 10
15.8668202193
 20
12.5982855096
 30
0.0
 10
15.8910607366
 20
12.5833185927
 30
0.0
 10
15.9147537642
 20
12.5679915831
 30
0.0
 10
15.9378746466
 20
12.5523204254
 30
0.0
 10
15.9603993234
 20
12.5363214184
 30
0.0
 10
15.982304355
 20
12.5200111989
 30
0.0
 10
16.003566953
 20
12.5034067305
 30
0.0
 10
16.0241649972
 20
12.4865252768
 30
0.0
 10
16.0440770578
 20
12.469384385
 30
0.0
 10
16.063282417
 20
12.4520018669
 30
0.0
 10
16.08176109
 20
12.434395779
 30
0.0
 10
16.099493853
 20
12.4165844099
 30
0.0
 10
16.1164622574
 20
12.3985862552
 30
0.0
 10
16.1326486455
 20
12.3804199968
 30
0.0
 10
16.1480361673
 20
12.3621044847
 30
0.0
 10
16.1626087955
 20
12.3436587146
 30
0.0
 10
16.1763513483
 20
12.3251018134
 30
0.0
 10
16.1892495033
 20
12.3064530176
 30
0.0
 10
16.2012898026
 20
12.2877316522
 30
0.0
 10
16.2124596675
 20
12.2689571053
 30
0.0
 10
16.2227473978
 20
12.2501488378
 30
0.0
 10
16.2321422229
 20
12.231326262
 30
0.0
 10
16.2406341803
 20
12.2125091037
 30
0.0
 10
16.2469801765
 20
12.1967763837
 30
0.0
 10
16.2515899782
 20
12.1842147316
 30
0.0
 10
16.2558517042
 20
12.1717847612
 30
0.0
 10
16.2606084501
 20
12.1562832401
 30
0.0
 10
16.2654088199
 20
12.1376817045
 30
0.0
 10
16.2692709234
 20
12.1191824106
 30
0.0
 10
16.2721904304
 20
12.1008048376
 30
0.0
 10
16.2741640637
 20
12.0825681295
 30
0.0
 10
16.275189504
 20
12.0644913998
 30
0.0
 10
16.2752654315
 20
12.0465936373
 30
0.0
 10
16.2743915401
 20
12.0288936863
 30
0.0
 10
16.2725685755
 20
12.0114102973
 30
0.0
 10
16.269798244
 20
11.9941618002
 30
0.0
 10
16.266083574
 20
11.97716719
 30
0.0
 10
16.2629785034
 20
11.9660130704
 30
0.0
 10
16.2612721705
 20
11.9604913668
 30
0.0
  0
SPLINE
  5
2F3
100
AcDbEntity
  8
LAYER_FEATURE
100
AcDbSpline
 62
7
  6
CONTINUOUS
 70
0
 71
3
 72
62
 73
58
 74
0
 42
0.0000001
 43
0.0000001
 44
0.0000000001
 40
0.0
 40
0.0
 40
0.0
 40
0.0
 40
0.0176369723
 40
0.0357029934
 40
0.0541721709
 40
0.073021606
 40
0.0922270502
 40
0.1117621972
 40
0.1517110523
 40
0.1926448726
 40
0.2343275524
 40
0.2765151183
 40
0.3189583471
 40
0.3614053955
 40
0.4036043796
 40
0.4453059599
 40
0.4862659543
 40
0.5262480228
 40
0.5458022239
 40
0.5650283271
 40
0.5839003171
 40
0.6023931887
 40
0.6204831112
 40
0.6381475878
 40
0.6553654518
 40
0.6721172361
 40
0.6883850417
 40
0.7041530402
 40
0.7194073703
 40
0.7341366151
 40
0.7483319248
 40
0.7619873496
 40
0.7751003071
 40
0.787671777
 40
0.7997071026
 40
0.8112161897
 40
0.8222144903
 40
0.8327234034
 40
0.8427712008
 40
0.8476339604
 40
0.8523955518
 40
0.8616365063
 40
0.8705483467
 40
0.879191766
 40
0.8876352971
 40
0.8959537832
 40
0.9042263865
 40
0.9125338915
 40
0.920955836
 40
0.9295678046
 40
0.9384392797
 40
0.9476320711
 40
0.9571997399
 40
0.9671872337
 40
0.9776314551
 40
0.9885615923
 40
1.0
 40
1.0
 40
1.0
 40
1.0
 10
16.1134964454
 20
12.0745906332
 30
0.0
 10
16.1130478811
 20
12.0731390785
 30
0.0
 10
16.1121758577
 20
12.070189413
 30
0.0
 10
16.1109561768
 20
12.0656847459
 30
0.0
 10
16.1098108774
 20
12.0610529271
 30
0.0
 10
16.1087419755
 20
12.0563022602
 30
0.0
 10
16.1077512983
 20
12.0514409198
 30
0.0
 10
16.106527993
 20
12.0447733923
 30
0.0
 10
16.105210567
 20
12.0362219337
 30
0.0
 10
16.1039770935
 20
12.0257341177
 30
0.0
 10
16.1030882218
 20
12.0150179926
 30
0.0
 10
16.1025502094
 20
12.0041484461
 30
0.0
 10
16.1023668506
 20
11.9932013125
 30
0.0
 10
16.1025394387
 20
11.9822530207
 30
0.0
 10
16.1030667573
 20
11.9713800075
 30
0.0
 10
16.1039450879
 20
11.9606581335
 30
0.0
 10
16.1051682429
 20
11.9501623231
 30
0.0
 10
16.1064772026
 20
11.9416027347
 30
0.0
 10
16.1076938617
 20
11.9349276067
 30
0.0
 10
16.1086797509
 20
11.9300598216
 30
0.0
 10
16.1097439735
 20
11.9253021975
 30
0.0
 10
16.110884691
 20
11.9206630331
 30
0.0
 10
16.1120999049
 20
11.916150437
 30
0.0
 10
16.1133874676
 20
11.9117722849
 30
0.0
 10
16.114745163
 20
11.9075362253
 30
0.0
 10
16.1161705681
 20
11.9034496377
 30
0.0
 10
16.1176612478
 20
11.8995196588
 30
0.0
 10
16.1192145491
 20
11.8957531203
 30
0.0
 10
16.1208278097
 20
11.8921565885
 30
0.0
 10
16.1224982003
 20
11.8887363073
 30
0.0
 10
16.1242228331
 20
11.8854982155
 30
0.0
 10
16.1259987485
 20
11.8824479351
 30
0.0
 10
16.12782286
 20
11.8795907296
 30
0.0
 10
16.129692109
 20
11.8769315712
 30
0.0
 10
16.1316032693
 20
11.8744750209
 30
0.0
 10
16.1335531924
 20
11.8722253839
 30
0.0
 10
16.1355386132
 20
11.8701865192
 30
0.0
 10
16.1375562183
 20
11.8683621227
 30
0.0
 10
16.1392802164
 20
11.8670086435
 30
0.0
 10
16.1406715433
 20
11.866040538
 30
0.0
 10
16.1420415609
 20
11.8651658274
 30
0.0
 10
16.1437696701
 20
11.8642065584
 30
0.0
 10
16.1458828576
 20
11.8632697515
 30
0.0
 10
16.1480111803
 20
11.8625610004
 30
0.0
 10
16.1501506003
 20
11.8620820539
 30
0.0
 10
16.1522969753
 20
11.8618343332
 30
0.0
 10
16.1544458909
 20
11.8618184976
 30
0.0
 10
16.1565928722
 20
11.8620346412
 30
0.0
 10
16.1587334977
 20
11.8624821105
 30
0.0
 10
16.16086356
 20
11.8631596168
 30
0.0
 10
16.1629790704
 20
11.8640654682
 30
0.0
 10
16.1650763506
 20
11.865197458
 30
0.0
 10
16.1671518241
 20
11.8665532487
 30
0.0
 10
16.1692021415
 20
11.8681300655
 30
0.0
 10
16.1712239419
 20
11.8699250331
 30
0.0
 10
16.1732139096
 20
11.8719347857
 30
0.0
 10
16.1744877569
 20
11.8733820927
 30
0.0
 10
16.1751191562
 20
11.8741385341
 30
0.0
  0
SPLINE
  5
2F4
100
AcDbEntity
  8
LAYER_CUT_FEAT
100
AcDbSpline
 62
7
  6
CONTINUOUS
 70
0
 71
3
 72
22
 73
18
 74
0
 42
0.0000001
 43
0.0000001
 44
0.0000000001
 40
0.0
 40
0.0
 40
0.0
 40
0.0
 40
0.1381197631
 40
0.2053664309
 40
0.2714549167
 40
0.336437138
 40
0.400372579
 40
0.4633278437
 40
0.5253764097
 40
0.5865986125
 40
0.6470813093
 40
0.7069174431
 40
0.7662055021
 40
0.8250488573
 40
0.8835549588
 40
0.9418344159
 40
1.0
 40
1.0
 40
1.0
 40
1.0
 10
16.3432541945
 20
12.2374334012
 30
0.0
 10
16.3498141719
 20
12.2240655726
 30
0.0
 10
16.3588533066
 20
12.2038226305
 30
0.0
 10
16.3691627212
 20
12.1764268526
 30
0.0
 10
16.3758664108
 20
12.1561174122
 30
0.0
 10
16.3816026745
 20
12.1358848191
 30
0.0
 10
16.3863660964
 20
12.1157478375
 30
0.0
 10
16.3901518525
 20
12.095725874
 30
0.0
 10
16.3929560905
 20
12.0758380591
 30
0.0
 10
16.3947758825
 20
12.0561035
 30
0.0
 10
16.3956092751
 20
12.0365411854
 30
0.0
 10
16.3954552511
 20
12.0171699927
 30
0.0
 10
16.3943137361
 20
11.9980086486
 30
0.0
 10
16.3921856769
 20
11.9790757864
 30
0.0
 10
16.3890729521
 20
11.9603896164
 30
0.0
 10
16.3849786986
 20
11.9419690125
 30
0.0
 10
16.3815957906
 20
11.9298719713
 30
0.0
 10
16.3797443525
 20
11.9238806936
 30
0.0
  0
SPLINE
  5
2F5
100
AcDbEntity
  8
02___PRT_ALL_AXES
100
AcDbSpline
 62
7
  6
CONTINUOUS
 70
0
 71
3
 72
28
 73
24
 74
0
 42
0.0000001
 43
0.0000001
 44
0.0000000001
 40
0.0
 40
0.0
 40
0.0
 40
0.0
 40
0.0684286154
 40
0.1023191973
 40
0.1359871085
 40
0.2026488791
 40
0.268423625
 40
0.3333204515
 40
0.3973579895
 40
0.4605628567
 40
0.5229695978
 40
0.5846201738
 40
0.6455635928
 40
0.6757923287
 40
0.7058657957
 40
0.7357919803
 40
0.7655793262
 40
0.8247626676
 40
0.8835014331
 40
0.912734781
 40
0.9418881511
 40
0.9709727116
 40
1.0
 40
1.0
 40
1.0
 40
1.0
 10
15.0431323321
 20
12.7045711688
 30
0.0
 10
15.0461830745
 20
12.7045711688
 30
0.0
 10
15.050746378
 20
12.7044372394
 30
0.0
 10
15.0567927749
 20
12.7039836159
 30
0.0
 10
15.062744244
 20
12.7033533493
 30
0.0
 10
15.0700696168
 20
12.7022323734
 30
0.0
 10
15.0786699942
 20
12.7003517289
 30
0.0
 10
15.0870183091
 20
12.697949965
 30
0.0
 10
15.0950817188
 20
12.6950397689
 30
0.0
 10
15.1028286971
 20
12.691636256
 30
0.0
 10
15.1102289258
 20
12.6877567809
 30
0.0
 10
15.117253105
 20
12.6834210206
 30
0.0
 10
15.122785937
 20
12.6794339974
 30
0.0
 10
15.1269932198
 20
12.6760386034
 30
0.0
 10
15.1300298892
 20
12.6733989517
 30
0.0
 10
15.1329528493
 20
12.6706626104
 30
0.0
 10
15.1366862054
 20
12.6668981872
 30
0.0
 10
15.1410589726
 20
12.661965426
 30
0.0
 10
15.145030782
 20
12.6567351635
 30
0.0
 10
15.1479447935
 20
12.6524007826
 30
0.0
 10
15.1499948228
 20
12.6490821732
 30
0.0
 10
15.1519102816
 20
12.6456947853
 30
0.0
 10
15.1530972014
 20
12.6433909931
 30
0.0
 10
15.153667317
 20
12.6422292218
 30
0.0
  0
SPLINE
  5
2F6
100
AcDbEntity
  8
LAYER_FEATURE
100
AcDbSpline
 62
7
  6
CONTINUOUS
 70
0
 71
3
 72
50
 73
46
 74
0
 42
0.0000001
 43
0.0000001
 44
0.0000000001
 40
0.0
 40
0.0
 40
0.0
 40
0.0
 40
0.0396641793
 40
0.0788606661
 40
0.1175661307
 40
0.1557597858
 40
0.1934216622
 40
0.2305336657
 40
0.2670793388
 40
0.3030440904
 40
0.3384152998
 40
0.3731824522
 40
0.4073372782
 40
0.4408738985
 40
0.4737889752
 40
0.5060818677
 40
0.5377547925
 40
0.5688129867
 40
0.5992648666
 40
0.6291221833
 40
0.6584001714
 40
0.6728285106
 40
0.6871194029
 40
0.7152990215
 40
0.7429671481
 40
0.7566197094
 40
0.7701560775
 40
0.7835806402
 40
0.7968980187
 40
0.8101130807
 40
0.8232309096
 40
0.8362568292
 40
0.8491963692
 40
0.8620552768
 40
0.874839498
 40
0.8875551653
 40
0.9002085963
 40
0.9128062638
 40
0.9253547993
 40
0.9378609614
 40
0.9503316297
 40
0.9627737816
 40
0.9751944743
 40
0.9876008274
 40
1.0
 40
1.0
 40
1.0
 40
1.0
 10
14.9075246189
 20
13.1698483536
 30
0.0
 10
14.8921293993
 20
13.1698483536
 30
0.0
 10
14.8615192698
 20
13.1695031385
 30
0.0
 10
14.8159103844
 20
13.1679296755
 30
0.0
 10
14.7709212139
 20
13.1653052277
 30
0.0
 10
14.7266029842
 20
13.1616328173
 30
0.0
 10
14.6830054912
 20
13.1569165077
 30
0.0
 10
14.6401779991
 20
13.1511616196
 30
0.0
 10
14.5981687958
 20
13.1443745936
 30
0.0
 10
14.5570252722
 20
13.1365630417
 30
0.0
 10
14.5167938278
 20
13.1277357208
 30
0.0
 10
14.4775198306
 20
13.1179025207
 30
0.0
 10
14.4392475665
 20
13.1070744494
 30
0.0
 10
14.4020201922
 20
13.0952636186
 30
0.0
 10
14.3658796888
 20
13.082483228
 30
0.0
 10
14.3308668212
 20
13.0687475496
 30
0.0
 10
14.2970210833
 20
13.0540719023
 30
0.0
 10
14.2643807002
 20
13.0384726703
 30
0.0
 10
14.2329824321
 20
13.021967168
 30
0.0
 10
14.2028621327
 20
13.0045740146
 30
0.0
 10
14.1787384195
 20
12.9892820437
 30
0.0
 10
14.1601241459
 20
12.9766201184
 30
0.0
 10
14.1421386494
 20
12.9638013079
 30
0.0
 10
14.120500239
 20
12.9472654084
 30
0.0
 10
14.0998396151
 20
12.9299041207
 30
0.0
 10
14.0840431809
 20
12.9156245951
 30
0.0
 10
14.0726096885
 20
12.9047700498
 30
0.0
 10
14.0615414306
 20
12.8937268014
 30
0.0
 10
14.0508415092
 20
12.8824978668
 30
0.0
 10
14.0405129289
 20
12.8710864816
 30
0.0
 10
14.0305586815
 20
12.859495801
 30
0.0
 10
14.0209815381
 20
12.8477291526
 30
0.0
 10
14.0117842653
 20
12.83578982
 30
0.0
 10
14.0029694623
 20
12.823681193
 30
0.0
 10
13.9945396254
 20
12.8114067022
 30
0.0
 10
13.9864971987
 20
12.7989697902
 30
0.0
 10
13.9788444075
 20
12.7863740198
 30
0.0
 10
13.9715835097
 20
12.7736229092
 30
0.0
 10
13.964716503
 20
12.7607201139
 30
0.0
 10
13.9582453968
 20
12.7476692621
 30
0.0
 10
13.9521720147
 20
12.7344740642
 30
0.0
 10
13.9464980751
 20
12.7211382806
 30
0.0
 10
13.9412252324
 20
12.7076656343
 30
0.0
 10
13.9363549612
 20
12.6940601358
 30
0.0
 10
13.9333770672
 20
12.6849025186
 30
0.0
 10
13.9319561606
 20
12.6803044559
 30
0.0
  0
SPLINE
  5
2F7
100
AcDbEntity
  8
LAYER_FEATURE
100
AcDbSpline
 62
7
  6
CONTINUOUS
 70
0
 71
3
 72
50
 73
46
 74
0
 42
0.0000001
 43
0.0000001
 44
0.0000000001
 40
0.0
 40
0.0
 40
0.0
 40
0.0
 40
0.0396641793
 40
0.0788606661
 40
0.1175661307
 40
0.1557597858
 40
0.1934216622
 40
0.2305336657
 40
0.2670793388
 40
0.3030440904
 40
0.3384152998
 40
0.3731824522
 40
0.4073372782
 40
0.4408738985
 40
0.4737889752
 40
0.5060818677
 40
0.5377547925
 40
0.5688129867
 40
0.5992648666
 40
0.6291221833
 40
0.6584001714
 40
0.6728285106
 40
0.6871194029
 40
0.7152990215
 40
0.7429671481
 40
0.7566197094
 40
0.7701560775
 40
0.7835806402
 40
0.7968980187
 40
0.8101130807
 40
0.8232309096
 40
0.8362568292
 40
0.8491963692
 40
0.8620552768
 40
0.874839498
 40
0.8875551653
 40
0.9002085963
 40
0.9128062638
 40
0.9253547993
 40
0.9378609614
 40
0.9503316297
 40
0.9627737816
 40
0.9751944743
 40
0.9876008274
 40
1.0
 40
1.0
 40
1.0
 40
1.0
 10
15.1002094123
 20
13.7933765737
 30
0.0
 10
15.0848141928
 20
13.7933765737
 30
0.0
 10
15.0542040633
 20
13.7930313586
 30
0.0
 10
15.0085951778
 20
13.7914578956
 30
0.0
 10
14.9636060073
 20
13.7888334477
 30
0.0
 10
14.9192877777
 20
13.7851610374
 30
0.0
 10
14.8756902846
 20
13.7804447278
 30
0.0
 10
14.8328627925
 20
13.7746898397
 30
0.0
 10
14.7908535892
 20
13.7679028137
 30
0.0
 10
14.7497100657
 20
13.7600912617
 30
0.0
 10
14.7094786212
 20
13.7512639409
 30
0.0
 10
14.670204624
 20
13.7414307407
 30
0.0
 10
14.6319323599
 20
13.7306026694
 30
0.0
 10
14.5947049856
 20
13.7187918387
 30
0.0
 10
14.5585644823
 20
13.7060114481
 30
0.0
 10
14.5235516147
 20
13.6922757697
 30
0.0
 10
14.4897058767
 20
13.6776001224
 30
0.0
 10
14.4570654936
 20
13.6620008903
 30
0.0
 10
14.4256672255
 20
13.645495388
 30
0.0
 10
14.3955469261
 20
13.6281022346
 30
0.0
 10
14.3714232129
 20
13.6128102638
 30
0.0
 10
14.3528089393
 20
13.6001483385
 30
0.0
 10
14.3348234429
 20
13.5873295279
 30
0.0
 10
14.3131850324
 20
13.5707936284
 30
0.0
 10
14.2925244085
 20
13.5534323408
 30
0.0
 10
14.2767279744
 20
13.5391528152
 30
0.0
 10
14.2652944819
 20
13.5282982699
 30
0.0
 10
14.254226224
 20
13.5172550215
 30
0.0
 10
14.2435263027
 20
13.5060260869
 30
0.0
 10
14.2331977223
 20
13.4946147017
 30
0.0
 10
14.2232434749
 20
13.483024021
 30
0.0
 10
14.2136663315
 20
13.4712573727
 30
0.0
 10
14.2044690587
 20
13.4593180401
 30
0.0
 10
14.1956542557
 20
13.4472094131
 30
0.0
 10
14.1872244189
 20
13.4349349223
 30
0.0
 10
14.1791819922
 20
13.4224980103
 30
0.0
 10
14.1715292009
 20
13.4099022398
 30
0.0
 10
14.1642683031
 20
13.3971511293
 30
0.0
 10
14.1574012965
 20
13.3842483339
 30
0.0
 10
14.1509301902
 20
13.3711974821
 30
0.0
 10
14.1448568081
 20
13.3580022842
 30
0.0
 10
14.1391828685
 20
13.3446665007
 30
0.0
 10
14.1339100258
 20
13.3311938544
 30
0.0
 10
14.1290397546
 20
13.3175883558
 30
0.0
 10
14.1260618607
 20
13.3084307387
 30
0.0
 10
14.124640954
 20
13.303832676
 30
0.0
  0
SPLINE
  5
2F8
100
AcDbEntity
  8
LAYER_FEATURE
100
AcDbSpline
 62
7
  6
CONTINUOUS
 70
0
 71
3
 72
101
 73
97
 74
0
 42
0.0000001
 43
0.0000001
 44
0.0000000001
 40
0.0
 40
0.0
 40
0.0
 40
0.0
 40
0.0182540505
 40
0.036758266
 40
0.0554908531
 40
0.0744287762
 40
0.0935481916
 40
0.1128244382
 40
0.1322321953
 40
0.1517455897
 40
0.1713383114
 40
0.1909837254
 40
0.2106549823
 40
0.2303251279
 40
0.2499672126
 40
0.2695544007
 40
0.2890600795
 40
0.3084579709
 40
0.3277222428
 40
0.346827624
 40
0.3657495197
 40
0.3844641317
 40
0.4029485818
 40
0.4211810394
 40
0.4391408552
 40
0.4568087013
 40
0.4741667175
 40
0.4911986666
 40
0.5078900983
 40
0.5161044889
 40
0.524229242
 40
0.5322631334
 40
0.5402050888
 40
0.5480541805
 40
0.5558096488
 40
0.5634708916
 40
0.5710374879
 40
0.5785091921
 40
0.5858859482
 40
0.5931678973
 40
0.6003553781
 40
0.6144482502
 40
0.6213565239
 40
0.6281738734
 40
0.6415405995
 40
0.6480949584
 40
0.6545657527
 40
0.6672652914
 40
0.6735013179
 40
0.6796652857
 40
0.6857607369
 40
0.6917914743
 40
0.6977615625
 40
0.7036753115
 40
0.7095372772
 40
0.7153522399
 40
0.7211251964
 40
0.7268613386
 40
0.7325660343
 40
0.7382448068
 40
0.743903306
 40
0.7495472866
 40
0.7551825758
 40
0.7608150463
 40
0.7664505853
 40
0.7720950639
 40
0.7777543073
 40
0.7834340659
 40
0.7891399849
 40
0.7948775817
 40
0.8006522164
 40
0.806469074
 40
0.8123331415
 40
0.8182491907
 40
0.8242217669
 40
0.8302551697
 40
0.8363534534
 40
0.8425204088
 40
0.8487595682
 40
0.8550741955
 40
0.86794011
 40
0.8811405365
 40
0.8946921136
 40
0.9016042741
 40
0.9086086309
 40
0.9157061708
 40
0.9228976508
 40
0.9301836182
 40
0.9375644018
 40
0.9450401361
 40
0.9526107548
 40
0.9602760066
 40
0.9680354612
 40
0.9758885106
 40
0.9838343876
 40
1.0
 40
1.0
 40
1.0
 40
1.0
 10
14.9557488264
 20
13.1328548491
 30
0.0
 10
14.9750226678
 20
13.1328548491
 30
0.0
 10
15.0138368515
 20
13.1322593093
 30
0.0
 10
15.0723764994
 20
13.1296265767
 30
0.0
 10
15.1315362533
 20
13.1252534281
 30
0.0
 10
15.1911950538
 20
13.1191487398
 30
0.0
 10
15.2512315948
 20
13.1113249748
 30
0.0
 10
15.3115236137
 20
13.1017980556
 30
0.0
 10
15.3719483588
 20
13.0905873861
 30
0.0
 10
15.4323827847
 20
13.0777157921
 30
0.0
 10
15.4927038226
 20
13.063209487
 30
0.0
 10
15.5527886283
 20
13.0470980148
 30
0.0
 10
15.6125148353
 20
13.0294141883
 30
0.0
 10
15.6717608054
 20
13.0101940226
 30
0.0
 10
15.7304058788
 20
12.9894766611
 30
0.0
 10
15.7883306209
 20
12.9673042956
 30
0.0
 10
15.8454170669
 20
12.9437220783
 30
0.0
 10
15.9015489647
 20
12.9187780309
 30
0.0
 10
15.9566120147
 20
12.8925229474
 30
0.0
 10
16.0104941019
 20
12.8650102839
 30
0.0
 10
16.0630855256
 20
12.8362960484
 30
0.0
 10
16.114279223
 20
12.8064386838
 30
0.0
 10
16.1639709888
 20
12.775498945
 30
0.0
 10
16.2120596841
 20
12.7435397744
 30
0.0
 10
16.2584474553
 20
12.7106261565
 30
0.0
 10
16.3030398871
 20
12.6768250276
 30
0.0
 10
16.3457463671
 20
12.642204974
 30
0.0
 10
16.3864796242
 20
12.6068366495
 30
0.0
 10
16.4188814583
 20
12.5766401381
 30
0.0
 10
16.4437295703
 20
12.5521653311
 30
0.0
 10
16.4617233581
 20
12.5337648044
 30
0.0
 10
16.4791640778
 20
12.5152323397
 30
0.0
 10
16.4960429261
 20
12.4965773195
 30
0.0
 10
16.5123512457
 20
12.47780922
 30
0.0
 10
16.5280807739
 20
12.4589376322
 30
0.0
 10
16.5432234446
 20
12.4399721146
 30
0.0
 10
16.5577715722
 20
12.420922356
 30
0.0
 10
16.5717177264
 20
12.401798008
 30
0.0
 10
16.5850547508
 20
12.3826088699
 30
0.0
 10
16.5977760202
 20
12.3633644617
 30
0.0
 10
16.6138015254
 20
12.3378143063
 30
0.0
 10
16.6286918844
 20
12.3120260704
 30
0.0
 10
16.6423764831
 20
12.2860326988
 30
0.0
 10
16.6550266497
 20
12.2603730361
 30
0.0
 10
16.6664785
 20
12.2345485617
 30
0.0
 10
16.6766603696
 20
12.2086052946
 30
0.0
 10
16.685834625
 20
12.1830365354
 30
0.0
 10
16.6937524996
 20
12.1573843903
 30
0.0
 10
16.700346109
 20
12.1317122254
 30
0.0
 10
16.7045867569
 20
12.1126456848
 30
0.0
 10
16.7081500521
 20
12.093661637
 30
0.0
 10
16.711034167
 20
12.0747694805
 30
0.0
 10
16.7132376108
 20
12.0559789476
 30
0.0
 10
16.7147591192
 20
12.0372996119
 30
0.0
 10
16.7155979373
 20
12.018741045
 30
0.0
 10
16.7157535073
 20
12.0003127443
 30
0.0
 10
16.7152257376
 20
11.9820241612
 30
0.0
 10
16.7140148388
 20
11.963884679
 30
0.0
 10
16.7121213577
 20
11.9459036192
 30
0.0
 10
16.7095462872
 20
11.9280902183
 30
0.0
 10
16.7062908348
 20
11.9104536523
 30
0.0
 10
16.7023567389
 20
11.8930029831
 30
0.0
 10
16.6977459271
 20
11.8757472115
 30
0.0
 10
16.6924608202
 20
11.8586952088
 30
0.0
 10
16.686504116
 20
11.841855758
 30
0.0
 10
16.6798788766
 20
11.8252375305
 30
0.0
 10
16.6725885737
 20
11.8088490513
 30
0.0
 10
16.6646369123
 20
11.7926987728
 30
0.0
 10
16.6560280914
 20
11.7767949431
 30
0.0
 10
16.6467664954
 20
11.7611457559
 30
0.0
 10
16.6368569787
 20
11.745759189
 30
0.0
 10
16.6263046377
 20
11.7306431279
 30
0.0
 10
16.6151149297
 20
11.715805292
 30
0.0
 10
16.6032936601
 20
11.7012532242
 30
0.0
 10
16.590846877
 20
11.6869943783
 30
0.0
 10
16.5777810554
 20
11.6730359541
 30
0.0
 10
16.5641028455
 20
11.6593850959
 30
0.0
 10
16.5498193702
 20
11.6460487154
 30
0.0
 10
16.5349377596
 20
11.6330334896
 30
0.0
 10
16.5141807801
 20
11.6160122108
 30
0.0
 10
16.486739725
 20
11.5955788396
 30
0.0
 10
16.4517569168
 20
11.5726031798
 30
0.0
 10
16.4209858944
 20
11.5547722101
 30
0.0
 10
16.3953346716
 20
11.5412327877
 30
0.0
 10
16.3754489722
 20
11.531384855
 30
0.0
 10
16.3550545286
 20
11.5219163638
 30
0.0
 10
16.3341615313
 20
11.5128319366
 30
0.0
 10
16.3127806637
 20
11.5041362762
 30
0.0
 10
16.2909228258
 20
11.4958337164
 30
0.0
 10
16.2685991397
 20
11.4879285211
 30
0.0
 10
16.2458209892
 20
11.4804246694
 30
0.0
 10
16.2225999625
 20
11.4733259681
 30
0.0
 10
16.1989479337
 20
11.4666360558
 30
0.0
 10
16.1748767658
 20
11.4603582315
 30
0.0
 10
16.1420531638
 20
11.4524970063
 30
0.0
 10
16.1171224015
 20
11.4472994511
 30
0.0
 10
16.1003513362
 20
11.4441256688
 30
0.0
  0
SPLINE
  5
2F9
100
AcDbEntity
  8
LAYER_FEATURE
100
AcDbSpline
 62
7
  6
CONTINUOUS
 70
0
 71
3
 72
71
 73
67
 74
0
 42
0.0000001
 43
0.0000001
 44
0.0000000001
 40
0.0
 40
0.0
 40
0.0
 40
0.0
 40
0.0204311027
 40
0.040651013
 40
0.060649823
 40
0.0804192696
 40
0.0999510285
 40
0.1192374695
 40
0.1382715565
 40
0.1570468504
 40
0.1755575852
 40
0.1937987
 40
0.2117658768
 40
0.2294555832
 40
0.2468651195
 40
0.263992671
 40
0.2808373499
 40
0.2973992425
 40
0.3136794632
 40
0.3296802098
 40
0.3454048068
 40
0.3608577536
 40
0.3760447749
 40
0.3909728688
 40
0.4056503381
 40
0.4200868215
 40
0.4342933203
 40
0.4482822125
 40
0.462067245
 40
0.4756635152
 40
0.4890874377
 40
0.5023566879
 40
0.5154901187
 40
0.5285076572
 40
0.5414301815
 40
0.5542793721
 40
0.5670775416
 40
0.5798474506
 40
0.5926121109
 40
0.6053945812
 40
0.6182177615
 40
0.6311041926
 40
0.6440758643
 40
0.6571540379
 40
0.6703590911
 40
0.6837103815
 40
0.6972261302
 40
0.7109233317
 40
0.7248176897
 40
0.7389235719
 40
0.753253978
 40
0.7678205322
 40
0.782633493
 40
0.7977017711
 40
0.8130329505
 40
0.8286333274
 40
0.8445079556
 40
0.8606606917
 40
0.8770942363
 40
0.8938101876
 40
0.9108090966
 40
0.9280905157
 40
0.9456530419
 40
0.9634943699
 40
0.9816113436
 40
1.0
 40
1.0
 40
1.0
 40
1.0
 10
14.9557488264
 20
13.1328548491
 30
0.0
 10
14.9432295493
 20
13.1328548491
 30
0.0
 10
14.9183196363
 20
13.1326065098
 30
0.0
 10
14.8811707694
 20
13.1314763297
 30
0.0
 10
14.8444582712
 20
13.1295912462
 30
0.0
 10
14.8082149165
 20
13.1269530023
 30
0.0
 10
14.7724723821
 20
13.1235638447
 30
0.0
 10
14.7372622232
 20
13.1194267732
 30
0.0
 10
14.7026154311
 20
13.114545422
 30
0.0
 10
14.668562511
 20
13.1089240595
 30
0.0
 10
14.6351334514
 20
13.1025676026
 30
0.0
 10
14.6023576779
 20
13.0954816344
 30
0.0
 10
14.5702640417
 20
13.0876723637
 30
0.0
 10
14.5388807977
 20
13.0791466202
 30
0.0
 10
14.5082355761
 20
13.0699118517
 30
0.0
 10
14.4783553482
 20
13.0599761493
 30
0.0
 10
14.4492664161
 20
13.0493481994
 30
0.0
 10
14.4209943957
 20
13.0380372778
 30
0.0
 10
14.3935641899
 20
13.0260532486
 30
0.0
 10
14.3669999545
 20
13.0134065838
 30
0.0
 10
14.3413250979
 20
13.0001083141
 30
0.0
 10
14.3165622667
 20
12.9861700232
 30
0.0
 10
14.2927333215
 20
12.9716038485
 30
0.0
 10
14.2698593027
 20
12.9564224968
 30
0.0
 10
14.2479604405
 20
12.9406391973
 30
0.0
 10
14.2270561438
 20
12.9242676972
 30
0.0
 10
14.2071649737
 20
12.9073222678
 30
0.0
 10
14.1883046098
 20
12.8898177163
 30
0.0
 10
14.1704918667
 20
12.8717693447
 30
0.0
 10
14.1537426815
 20
12.853192948
 30
0.0
 10
14.1380720787
 20
12.8341048244
 30
0.0
 10
14.1234941336
 20
12.8145217801
 30
0.0
 10
14.1100219886
 20
12.7944610922
 30
0.0
 10
14.0976678347
 20
12.7739405042
 30
0.0
 10
14.0864428632
 20
12.752978229
 30
0.0
 10
14.0763572282
 20
12.7315929364
 30
0.0
 10
14.0674200647
 20
12.7098037121
 30
0.0
 10
14.0596394696
 20
12.6876300379
 30
0.0
 10
14.0530224521
 20
12.6650917783
 30
0.0
 10
14.0475749122
 20
12.6422091463
 30
0.0
 10
14.0433016729
 20
12.6190026592
 30
0.0
 10
14.0402064776
 20
12.5954931107
 30
0.0
 10
14.0382919523
 20
12.5717015467
 30
0.0
 10
14.0375596125
 20
12.5476492296
 30
0.0
 10
14.0380099097
 20
12.523357607
 30
0.0
 10
14.0396422418
 20
12.4988482925
 30
0.0
 10
14.042454923
 20
12.4741430443
 30
0.0
 10
14.0464452069
 20
12.4492637427
 30
0.0
 10
14.0516093293
 20
12.4242323764
 30
0.0
 10
14.0579425194
 20
12.3990710319
 30
0.0
 10
14.0654389665
 20
12.3738018727
 30
0.0
 10
14.0740918467
 20
12.348447126
 30
0.0
 10
14.0838933558
 20
12.3230290749
 30
0.0
 10
14.0948347161
 20
12.2975700483
 30
0.0
 10
14.1069061432
 20
12.2720923931
 30
0.0
 10
14.1200968743
 20
12.2466184637
 30
0.0
 10
14.1343951952
 20
12.2211706124
 30
0.0
 10
14.1497884472
 20
12.1957711768
 30
0.0
 10
14.1662629987
 20
12.1704424433
 30
0.0
 10
14.1838042778
 20
12.145206639
 30
0.0
 10
14.2023967961
 20
12.12008592
 30
0.0
 10
14.2220241643
 20
12.0951023523
 30
0.0
 10
14.24266905
 20
12.0702778885
 30
0.0
 10
14.2643132939
 20
12.0456342884
 30
0.0
 10
14.2869376335
 20
12.0211933933
 30
0.0
 10
14.3025463087
 20
12.0051663609
 30
0.0
 10
14.3105058194
 20
11.997190866
 30
0.0
  0
SPLINE
  5
2FA
100
AcDbEntity
  8
LAYER_FEATURE
100
AcDbSpline
 62
7
  6
CONTINUOUS
 70
0
 71
3
 72
80
 73
76
 74
0
 42
0.0000001
 43
0.0000001
 44
0.0000000001
 40
0.0
 40
0.0
 40
0.0
 40
0.0
 40
0.017178625
 40
0.0345301896
 40
0.0520439856
 40
0.0697095611
 40
0.0875157513
 40
0.105451206
 40
0.1235042502
 40
0.1416629551
 40
0.159915164
 40
0.1782485184
 40
0.1966504877
 40
0.2151083967
 40
0.2336094524
 40
0.2521407721
 40
0.2706894106
 40
0.2892423869
 40
0.3077867108
 40
0.3263094099
 40
0.3447975567
 40
0.3632382956
 40
0.3816188701
 40
0.3999266497
 40
0.4181491573
 40
0.4362740982
 40
0.4542893881
 40
0.4721831821
 40
0.4899439035
 40
0.5075602738
 40
0.5250213437
 40
0.5423165259
 40
0.5594356272
 40
0.5763688815
 40
0.5931069843
 40
0.6096411291
 40
0.6259630453
 40
0.6420650388
 40
0.6579400309
 40
0.673581601
 40
0.6889840307
 40
0.7041423508
 40
0.7190523912
 40
0.7337108317
 40
0.7481152531
 40
0.7622641923
 40
0.7761571984
 40
0.7897948916
 40
0.8031790229
 40
0.8163125314
 40
0.8291996012
 40
0.8418457167
 40
0.8542577138
 40
0.8603787793
 40
0.8664445248
 40
0.8784144197
 40
0.8901792221
 40
0.8959889949
 40
0.9017523402
 40
0.9131461931
 40
0.9243770779
 40
0.9299370835
 40
0.935462781
 40
0.9409564793
 40
0.9464205592
 40
0.9518574755
 40
0.9572697442
 40
0.9626599452
 40
0.9680307112
 40
0.9733847242
 40
0.9787247102
 40
0.9840534294
 40
0.9893736733
 40
0.9946882542
 40
1.0
 40
1.0
 40
1.0
 40
1.0
 10
14.9075246189
 20
13.1698483536
 30
0.0
 10
14.9224668365
 20
13.1698483536
 30
0.0
 10
14.9525026563
 20
13.1695195695
 30
0.0
 10
14.9977508837
 20
13.1680586944
 30
0.0
 10
15.043381735
 20
13.1656289993
 30
0.0
 10
15.0893472504
 20
13.1622331049
 30
0.0
 10
15.1355998312
 20
13.1578744875
 30
0.0
 10
15.1820912532
 20
13.1525577098
 30
0.0
 10
15.2287731545
 20
13.1462882955
 30
0.0
 10
15.2755969417
 20
13.1390727787
 30
0.0
 10
15.3225138782
 20
13.1309186722
 30
0.0
 10
15.3694751287
 20
13.1218344634
 30
0.0
 10
15.4164318101
 20
13.1118296066
 30
0.0
 10
15.4633350418
 20
13.1009145111
 30
0.0
 10
15.5101359994
 20
13.0891005422
 30
0.0
 10
15.5567859645
 20
13.0764000016
 30
0.0
 10
15.6032363756
 20
13.0628261113
 30
0.0
 10
15.6494388779
 20
13.0483930006
 30
0.0
 10
15.6953453737
 20
13.0331156913
 30
0.0
 10
15.7409080732
 20
13.0170100837
 30
0.0
 10
15.7860795477
 20
13.0000929484
 30
0.0
 10
15.8308127759
 20
12.9823818979
 30
0.0
 10
15.8750611927
 20
12.9638953687
 30
0.0
 10
15.9187787373
 20
12.944652603
 30
0.0
 10
15.9619199007
 20
12.9246736262
 30
0.0
 10
16.0044397774
 20
12.9039792343
 30
0.0
 10
16.0462941126
 20
12.8825909707
 30
0.0
 10
16.0874393444
 20
12.8605310962
 30
0.0
 10
16.1278326491
 20
12.837822568
 30
0.0
 10
16.1674319857
 20
12.8144890154
 30
0.0
 10
16.2061961396
 20
12.7905547131
 30
0.0
 10
16.2440847731
 20
12.7660445667
 30
0.0
 10
16.2810584617
 20
12.7409840764
 30
0.0
 10
16.3170787332
 20
12.7153993097
 30
0.0
 10
16.3521081074
 20
12.6893168745
 30
0.0
 10
16.3861101339
 20
12.6627638895
 30
0.0
 10
16.4190494342
 20
12.635767959
 30
0.0
 10
16.4508917428
 20
12.6083571476
 30
0.0
 10
16.481603934
 20
12.5805599414
 30
0.0
 10
16.5111540555
 20
12.5524052196
 30
0.0
 10
16.53951136
 20
12.5239222244
 30
0.0
 10
16.5666463357
 20
12.4951405268
 30
0.0
 10
16.5925307451
 20
12.466090004
 30
0.0
 10
16.6171376491
 20
12.4368008024
 30
0.0
 10
16.6404414269
 20
12.407303303
 30
0.0
 10
16.6624177997
 20
12.3776280914
 30
0.0
 10
16.6830438531
 20
12.3478059253
 30
0.0
 10
16.7022980579
 20
12.3178677055
 30
0.0
 10
16.7201603058
 20
12.2878444404
 30
0.0
 10
16.736611896
 20
12.2577672526
 30
0.0
 10
16.7516356123
 20
12.2276671869
 30
0.0
 10
16.7652155085
 20
12.1975757846
 30
0.0
 10
16.7753636988
 20
12.1724168494
 30
0.0
 10
16.7827354276
 20
12.1523289214
 30
0.0
 10
16.7895505698
 20
12.1324515425
 30
0.0
 10
16.7971572418
 20
12.1076625709
 30
0.0
 10
16.8035810168
 20
12.0827701522
 30
0.0
 10
16.8079589549
 20
12.0629464637
 30
0.0
 10
16.8118028105
 20
12.043341098
 30
0.0
 10
16.8156786333
 20
12.0189442916
 30
0.0
 10
16.8183174781
 20
11.9945599698
 30
0.0
 10
16.8196622624
 20
11.9751934925
 30
0.0
 10
16.8202886015
 20
11.9607844007
 30
0.0
 10
16.8205358044
 20
11.9464473225
 30
0.0
 10
16.8204037521
 20
11.9321858994
 30
0.0
 10
16.8198925442
 20
11.9180038845
 30
0.0
 10
16.8190022269
 20
11.9039049774
 30
0.0
 10
16.8177330759
 20
11.8898928649
 30
0.0
 10
16.8160854038
 20
11.8759712092
 30
0.0
 10
16.8140595992
 20
11.8621436583
 30
0.0
 10
16.8116562532
 20
11.8484138166
 30
0.0
 10
16.808875909
 20
11.834785301
 30
0.0
 10
16.8057193498
 20
11.8212616281
 30
0.0
 10
16.8021874039
 20
11.8078464825
 30
0.0
 10
16.799582787
 20
11.7989766146
 30
0.0
 10
16.7982186771
 20
11.7945623465
 30
0.0
  0
SPLINE
  5
2FB
100
AcDbEntity
  8
LAYER_FEATURE
100
AcDbSpline
 62
7
  6
CONTINUOUS
 70
0
 71
3
 72
26
 73
22
 74
0
 42
0.0000001
 43
0.0000001
 44
0.0000000001
 40
0.0
 40
0.0
 40
0.0
 40
0.0
 40
0.0791087957
 40
0.1566678454
 40
0.232398693
 40
0.3060581545
 40
0.3774277834
 40
0.4463278294
 40
0.5126203815
 40
0.5762174308
 40
0.6370883591
 40
0.6952684028
 40
0.7508672299
 40
0.8040767294
 40
0.8551773373
 40
0.8800602313
 40
0.9045612218
 40
0.928740291
 40
0.9526626785
 40
0.9763945525
 40
1.0
 40
1.0
 40
1.0
 40
1.0
 10
14.3947141012
 20
13.2257060737
 30
0.0
 10
14.3935297203
 20
13.2258520486
 30
0.0
 10
14.3911769767
 20
13.2260862975
 30
0.0
 10
14.3876743401
 20
13.226262889
 30
0.0
 10
14.3842492706
 20
13.2262605881
 30
0.0
 10
14.3809223814
 20
13.2260794243
 30
0.0
 10
14.3777134524
 20
13.2257204074
 30
0.0
 10
14.3746416275
 20
13.2251856314
 30
0.0
 10
14.3717251752
 20
13.224478164
 30
0.0
 10
14.3689814343
 20
13.2236020508
 30
0.0
 10
14.3664267143
 20
13.2225622403
 30
0.0
 10
14.3640762606
 20
13.2213645746
 30
0.0
 10
14.3619441617
 20
13.2200156336
 30
0.0
 10
14.3600435952
 20
13.218523093
 30
0.0
 10
14.3586500234
 20
13.2171539149
 30
0.0
 10
14.3576686235
 20
13.2159976578
 30
0.0
 10
14.3570036474
 20
13.2151083465
 30
0.0
 10
14.3564044399
 20
13.2141907183
 30
0.0
 10
14.3558718985
 20
13.2132461033
 30
0.0
 10
14.3554069514
 20
13.2122760745
 30
0.0
 10
14.355142008
 20
13.2116122779
 30
0.0
 10
14.3550213069
 20
13.2112772747
 30
0.0
  0
SPLINE
  5
2FC
100
AcDbEntity
  8
LAYER_FEATURE
100
AcDbSpline
 62
7
  6
CONTINUOUS
 70
0
 71
3
 72
11
 73
7
 74
0
 42
0.0000001
 43
0.0000001
 44
0.0000000001
 40
0.0
 40
0.0
 40
0.0
 40
0.0
 40
0.2560767339
 40
0.5070281511
 40
0.7544130388
 40
1.0
 40
1.0
 40
1.0
 40
1.0
 10
14.4338486599
 20
13.3458375434
 30
0.0
 10
14.4334767614
 20
13.3453997575
 30
0.0
 10
14.4327802258
 20
13.344498032
 30
0.0
 10
14.4318811752
 20
13.3430610487
 30
0.0
 10
14.4311437659
 20
13.3415608675
 30
0.0
 10
14.4307613466
 20
13.3405207225
 30
0.0
 10
14.4305986899
 20
13.3399943875
 30
0.0
  0
SPLINE
  5
2FD
100
AcDbEntity
  8
LAYER_FEATURE
100
AcDbSpline
 62
7
  6
CONTINUOUS
 70
0
 71
3
 72
11
 73
7
 74
0
 42
0.0000001
 43
0.0000001
 44
0.0000000001
 40
0.0
 40
0.0
 40
0.0
 40
0.0
 40
0.2455810963
 40
0.4939780693
 40
0.7453897596
 40
1.0
 40
1.0
 40
1.0
 40
1.0
 10
14.4338486599
 20
13.3458375434
 30
0.0
 10
14.4379684313
 20
13.3506871939
 30
0.0
 10
14.4464483606
 20
13.3602797392
 30
0.0
 10
14.4597888647
 20
13.374252248
 30
0.0
 10
14.4738110265
 20
13.3878782807
 30
0.0
 10
14.4835442574
 20
13.3966684364
 30
0.0
 10
14.4885178312
 20
13.4010028789
 30
0.0
  0
SPLINE
  5
2FE
100
AcDbEntity
  8
LAYER_FEATURE
100
AcDbSpline
 62
7
  6
CONTINUOUS
 70
0
 71
3
 72
23
 73
19
 74
0
 42
0.0000001
 43
0.0000001
 44
0.0000000001
 40
0.0
 40
0.0
 40
0.0
 40
0.0
 40
0.0726988723
 40
0.1451492323
 40
0.2170550431
 40
0.2881358706
 40
0.3581161569
 40
0.4267365243
 40
0.4937548294
 40
0.5589513452
 40
0.6221330946
 40
0.6831389648
 40
0.7418452874
 40
0.7981718612
 40
0.8520893425
 40
0.9036248491
 40
0.9528741932
 40
1.0
 40
1.0
 40
1.0
 40
1.0
 10
14.5376614774
 20
13.4049708461
 30
0.0
 10
14.5364783736
 20
13.4053447906
 30
0.0
 10
14.5340993056
 20
13.4060390899
 30
0.0
 10
14.5304992809
 20
13.4069180707
 30
0.0
 10
14.526890372
 20
13.4076289915
 30
0.0
 10
14.5232943538
 20
13.4081675998
 30
0.0
 10
14.5197326859
 20
13.4085306518
 30
0.0
 10
14.5162267137
 20
13.4087159817
 30
0.0
 10
14.5127973936
 20
13.4087224623
 30
0.0
 10
14.5094652164
 20
13.4085500351
 30
0.0
 10
14.5062500644
 20
13.4081996886
 30
0.0
 10
14.5031710938
 20
13.40767345
 30
0.0
 10
14.5002466283
 20
13.4069743483
 30
0.0
 10
14.4974940348
 20
13.4061063818
 30
0.0
 10
14.4949297234
 20
13.4050744694
 30
0.0
 10
14.4925688467
 20
13.4038843383
 30
0.0
 10
14.4904259641
 20
13.4025428336
 30
0.0
 10
14.4891241984
 20
13.4015313246
 30
0.0
 10
14.4885178312
 20
13.4010028789
 30
0.0
  0
SPLINE
  5
2FF
100
AcDbEntity
  8
LAYER_FEATURE
100
AcDbSpline
 62
7
  6
CONTINUOUS
 70
0
 71
3
 72
16
 73
12
 74
0
 42
0.0000001
 43
0.0000001
 44
0.0000000001
 40
0.0
 40
0.0
 40
0.0
 40
0.0
 40
0.1405509328
 40
0.2087382316
 40
0.2755657826
 40
0.4053377444
 40
0.5304430361
 40
0.6515633609
 40
0.7695355464
 40
0.8853263292
 40
1.0
 40
1.0
 40
1.0
 40
1.0
 10
14.6399249522
 20
13.4987666367
 30
0.0
 10
14.6392222443
 20
13.4984302743
 30
0.0
 10
14.6381967645
 20
13.4978909143
 30
0.0
 10
14.6368923069
 20
13.4970955482
 30
0.0
 10
14.6356733412
 20
13.4962773796
 30
0.0
 10
14.6342607402
 20
13.4951845085
 30
0.0
 10
14.6327423592
 20
13.4937517467
 30
0.0
 10
14.6314249446
 20
13.4922169433
 30
0.0
 10
14.6303154991
 20
13.4905873121
 30
0.0
 10
14.6294201469
 20
13.4888711518
 30
0.0
 10
14.6289682574
 20
13.4876723575
 30
0.0
 10
14.6287805961
 20
13.4870650647
 30
0.0
  0
SPLINE
  5
300
100
AcDbEntity
  8
LAYER_FEATURE
100
AcDbSpline
 62
7
  6
CONTINUOUS
 70
0
 71
3
 72
11
 73
7
 74
0
 42
0.0000001
 43
0.0000001
 44
0.0000000001
 40
0.0
 40
0.0
 40
0.0
 40
0.0
 40
0.2445940483
 40
0.4927810109
 40
0.7445800445
 40
1.0
 40
1.0
 40
1.0
 40
1.0
 10
14.6399249522
 20
13.4987666367
 30
0.0
 10
14.6467417975
 20
13.5020296284
 30
0.0
 10
14.6605686746
 20
13.5084109233
 30
0.0
 10
14.6817134538
 20
13.5174832612
 30
0.0
 10
14.7034002932
 20
13.5261198908
 30
0.0
 10
14.7181056656
 20
13.5315449584
 30
0.0
 10
14.7255430576
 20
13.5341849623
 30
0.0
  0
SPLINE
  5
301
100
AcDbEntity
  8
LAYER_FEATURE
100
AcDbSpline
 62
7
  6
CONTINUOUS
 70
0
 71
3
 72
23
 73
19
 74
0
 42
0.0000001
 43
0.0000001
 44
0.0000000001
 40
0.0
 40
0.0
 40
0.0
 40
0.0
 40
0.0651135565
 40
0.1310764926
 40
0.1976253248
 40
0.2644974136
 40
0.3314214987
 40
0.3981276324
 40
0.4643478269
 40
0.5298201652
 40
0.5942919189
 40
0.657523086
 40
0.7192900697
 40
0.7793893833
 40
0.8376425006
 40
0.8938984524
 40
0.9480441365
 40
1.0
 40
1.0
 40
1.0
 40
1.0
 10
14.7793270332
 20
13.5273036854
 30
0.0
 10
14.778262069
 20
13.5278724342
 30
0.0
 10
14.7760904361
 20
13.5289660333
 30
0.0
 10
14.7727439341
 20
13.5304617045
 30
0.0
 10
14.7693028482
 20
13.5318165249
 30
0.0
 10
14.7657879624
 20
13.5330223488
 30
0.0
 10
14.7622202622
 20
13.5340719491
 30
0.0
 10
14.7586211608
 20
13.5349590417
 30
0.0
 10
14.7550122146
 20
13.5356783055
 30
0.0
 10
14.7514150487
 20
13.5362254322
 30
0.0
 10
14.7478512047
 20
13.5365971404
 30
0.0
 10
14.7443420126
 20
13.5367912028
 30
0.0
 10
14.7409084619
 20
13.5368064458
 30
0.0
 10
14.7375710542
 20
13.5366427653
 30
0.0
 10
14.7343497401
 20
13.5363010892
 30
0.0
 10
14.731263609
 20
13.5357834014
 30
0.0
 10
14.7283313082
 20
13.5350927178
 30
0.0
 10
14.7264509133
 20
13.5345072181
 30
0.0
 10
14.7255430576
 20
13.5341849623
 30
0.0
  0
SPLINE
  5
302
100
AcDbEntity
  8
LAYER_FEATURE
100
AcDbSpline
 62
7
  6
CONTINUOUS
 70
0
 71
3
 72
23
 73
19
 74
0
 42
0.0000001
 43
0.0000001
 44
0.0000000001
 40
0.0
 40
0.0
 40
0.0
 40
0.0
 40
0.0640931051
 40
0.1289721729
 40
0.1944178536
 40
0.2602174247
 40
0.3261476458
 40
0.3919864226
 40
0.4575119648
 40
0.5225057137
 40
0.5867545684
 40
0.6500531549
 40
0.7122062031
 40
0.7730310797
 40
0.8323610747
 40
0.8900456948
 40
0.9459616192
 40
1.0
 40
1.0
 40
1.0
 40
1.0
 10
14.8241135307
 20
13.5033852615
 30
0.0
 10
14.8250861267
 20
13.5028658424
 30
0.0
 10
14.8270664183
 20
13.5018634404
 30
0.0
 10
14.8301125914
 20
13.5004801798
 30
0.0
 10
14.8332407444
 20
13.4992133698
 30
0.0
 10
14.8364350466
 20
13.4980693674
 30
0.0
 10
14.8396795924
 20
13.4970539048
 30
0.0
 10
14.8429580966
 20
13.4961720682
 30
0.0
 10
14.8462541488
 20
13.4954282745
 30
0.0
 10
14.8495512405
 20
13.494826245
 30
0.0
 10
14.8528328653
 20
13.4943689925
 30
0.0
 10
14.8560826002
 20
13.4940588085
 30
0.0
 10
14.8592841863
 20
13.4938972533
 30
0.0
 10
14.8624216269
 20
13.4938851384
 30
0.0
 10
14.8654792153
 20
13.4940225485
 30
0.0
 10
14.86844179
 20
13.4943087904
 30
0.0
 10
14.8712943612
 20
13.4947424971
 30
0.0
 10
14.87314606
 20
13.4951354631
 30
0.0
 10
14.8740488365
 20
13.4953572983
 30
0.0
  0
SPLINE
  5
303
100
AcDbEntity
  8
LAYER_FEATURE
100
AcDbSpline
 62
7
  6
CONTINUOUS
 70
0
 71
3
 72
23
 73
19
 74
0
 42
0.0000001
 43
0.0000001
 44
0.0000000001
 40
0.0
 40
0.0
 40
0.0
 40
0.0
 40
0.0767243901
 40
0.1514434278
 40
0.2240795469
 40
0.2946042801
 40
0.3630058756
 40
0.429293085
 40
0.4935049194
 40
0.555709599
 40
0.6160062518
 40
0.6745279539
 40
0.7314415056
 40
0.7869482482
 40
0.8412822872
 40
0.8947071131
 40
0.9475110931
 40
1.0
 40
1.0
 40
1.0
 40
1.0
 10
14.9347091627
 20
13.5855824114
 30
0.0
 10
14.9339900171
 20
13.5854727601
 30
0.0
 10
14.9325749148
 20
13.5852260258
 30
0.0
 10
14.9304998958
 20
13.5847663102
 30
0.0
 10
14.9285059366
 20
13.5842229723
 30
0.0
 10
14.9265990254
 20
13.5835976306
 30
0.0
 10
14.9247846497
 20
13.5828920994
 30
0.0
 10
14.9230681579
 20
13.5821083242
 30
0.0
 10
14.9214545922
 20
13.5812485745
 30
0.0
 10
14.9199487041
 20
13.5803152824
 30
0.0
 10
14.9185549791
 20
13.5793110591
 30
0.0
 10
14.9172775593
 20
13.5782387915
 30
0.0
 10
14.9161203418
 20
13.5771014942
 30
0.0
 10
14.9150868704
 20
13.5759024483
 30
0.0
 10
14.9141803635
 20
13.5746451652
 30
0.0
 10
14.9134037291
 20
13.5733332934
 30
0.0
 10
14.9127594573
 20
13.5719709907
 30
0.0
 10
14.912419135
 20
13.5710305785
 30
0.0
 10
14.9122721943
 20
13.5705550957
 30
0.0
  0
SPLINE
  5
304
100
AcDbEntity
  8
LAYER_FEATURE
100
AcDbSpline
 62
7
  6
CONTINUOUS
 70
0
 71
3
 72
11
 73
7
 74
0
 42
0.0000001
 43
0.0000001
 44
0.0000000001
 40
0.0
 40
0.0
 40
0.0
 40
0.0
 40
0.245920341
 40
0.4946051844
 40
0.7459886943
 40
1.0
 40
1.0
 40
1.0
 40
1.0
 10
14.9347091627
 20
13.5855824114
 30
0.0
 10
14.9435338409
 20
13.5869279496
 30
0.0
 10
14.9613099871
 20
13.5894563548
 30
0.0
 10
14.9881895988
 20
13.5927468694
 30
0.0
 10
15.0154191431
 20
13.5955546964
 30
0.0
 10
15.033700866
 20
13.5970958083
 30
0.0
 10
15.0428953055
 20
13.5977867347
 30
0.0
  0
SPLINE
  5
305
100
AcDbEntity
  8
LAYER_FEATURE
100
AcDbSpline
 62
7
  6
CONTINUOUS
 70
0
 71
3
 72
23
 73
19
 74
0
 42
0.0000001
 43
0.0000001
 44
0.0000000001
 40
0.0
 40
0.0
 40
0.0
 40
0.0
 40
0.0577766888
 40
0.1172590515
 40
0.1782546939
 40
0.2405568021
 40
0.3039368442
 40
0.368154083
 40
0.4329567512
 40
0.4980860908
 40
0.5632793631
 40
0.6282730633
 40
0.6928061283
 40
0.7566229151
 40
0.8194772016
 40
0.8811332496
 40
0.9413753087
 40
1.0
 40
1.0
 40
1.0
 40
1.0
 10
15.0960548603
 20
13.580729801
 30
0.0
 10
15.095215341
 20
13.5814402508
 30
0.0
 10
15.0934684631
 20
13.5828319264
 30
0.0
 10
15.0907015896
 20
13.584798595
 30
0.0
 10
15.0877637152
 20
13.5866652965
 30
0.0
 10
15.0846725993
 20
13.5884207995
 30
0.0
 10
15.0814466553
 20
13.5900546261
 30
0.0
 10
15.0781052335
 20
13.5915569965
 30
0.0
 10
15.074668337
 20
13.5929189094
 30
0.0
 10
15.0711565634
 20
13.5941322047
 30
0.0
 10
15.0675909577
 20
13.5951896086
 30
0.0
 10
15.0639928898
 20
13.5960847866
 30
0.0
 10
15.0603839242
 20
13.5968123717
 30
0.0
 10
15.0567856741
 20
13.5973680141
 30
0.0
 10
15.0532197157
 20
13.597748365
 30
0.0
 10
15.0497073134
 20
13.5979511768
 30
0.0
 10
15.0462696688
 20
13.5979751837
 30
0.0
 10
15.0440080968
 20
13.5978703566
 30
0.0
 10
15.0428953055
 20
13.5977867347
 30
0.0
  0
SPLINE
  5
306
100
AcDbEntity
  8
LAYER_FEATURE
100
AcDbSpline
 62
7
  6
CONTINUOUS
 70
0
 71
3
 72
23
 73
19
 74
0
 42
0.0000001
 43
0.0000001
 44
0.0000000001
 40
0.0
 40
0.0
 40
0.0
 40
0.0
 40
0.0573920273
 40
0.1163498391
 40
0.1767129676
 40
0.2383151853
 40
0.3009700287
 40
0.3644817319
 40
0.428644911
 40
0.4932475301
 40
0.5580731513
 40
0.622903106
 40
0.6875186379
 40
0.7517030686
 40
0.8152446706
 40
0.8779360303
 40
0.9395852176
 40
1.0
 40
1.0
 40
1.0
 40
1.0
 10
15.1310798557
 20
13.5510896231
 30
0.0
 10
15.1318460315
 20
13.5504412408
 30
0.0
 10
15.1334350996
 20
13.5491685794
 30
0.0
 10
15.1359423639
 20
13.5473597748
 30
0.0
 10
15.1385950091
 20
13.5456328193
 30
0.0
 10
15.141379591
 20
13.5439963951
 30
0.0
 10
15.1442822773
 20
13.5424586638
 30
0.0
 10
15.1472885089
 20
13.5410273232
 30
0.0
 10
15.1503832468
 20
13.5397095358
 30
0.0
 10
15.1535509911
 20
13.5385118967
 30
0.0
 10
15.156775878
 20
13.5374404022
 30
0.0
 10
15.1600417568
 20
13.53650042
 30
0.0
 10
15.1633322693
 20
13.5356966626
 30
0.0
 10
15.1666309444
 20
13.5350331503
 30
0.0
 10
15.1699212351
 20
13.5345132222
 30
0.0
 10
15.173186753
 20
13.5341394347
 30
0.0
 10
15.1764109951
 20
13.5339137296
 30
0.0
 10
15.1785460234
 20
13.5338621233
 30
0.0
 10
15.1796025927
 20
13.5338621233
 30
0.0
  0
SPLINE
  5
307
100
AcDbEntity
  8
LAYER_FEATURE
100
AcDbSpline
 62
7
  6
CONTINUOUS
 70
0
 71
3
 72
15
 73
11
 74
0
 42
0.0000001
 43
0.0000001
 44
0.0000000001
 40
0.0
 40
0.0
 40
0.0
 40
0.0
 40
0.1441962006
 40
0.2835314683
 40
0.417524435
 40
0.5458096372
 40
0.6681618548
 40
0.7845202629
 40
0.8950160782
 40
1.0
 40
1.0
 40
1.0
 40
1.0
 10
15.2153777576
 20
13.5338621233
 30
0.0
 10
15.2166597667
 20
13.5338621233
 30
0.0
 10
15.2191813421
 20
13.5339360016
 30
0.0
 10
15.2228800619
 20
13.534279681
 30
0.0
 10
15.2264076035
 20
13.5348519173
 30
0.0
 10
15.2297366809
 20
13.5356485083
 30
0.0
 10
15.2328417304
 20
13.536663608
 30
0.0
 10
15.235699021
 20
13.5378900348
 30
0.0
 10
15.2382860146
 20
13.5393187203
 30
0.0
 10
15.2398552842
 20
13.5404265608
 30
0.0
 10
15.2405827807
 20
13.5410113286
 30
0.0
  0
SPLINE
  5
308
100
AcDbEntity
  8
LAYER_FEATURE
100
AcDbSpline
 62
7
  6
CONTINUOUS
 70
0
 71
3
 72
27
 73
23
 74
0
 42
0.0000001
 43
0.0000001
 44
0.0000000001
 40
0.0
 40
0.0
 40
0.0
 40
0.0
 40
0.0793783718
 40
0.1569657364
 40
0.2325242953
 40
0.3058573974
 40
0.3767922778
 40
0.4451964369
 40
0.5109796308
 40
0.5741014452
 40
0.6345780554
 40
0.6638538396
 40
0.6925040322
 40
0.748000999
 40
0.8013108971
 40
0.8527406285
 40
0.8778791332
 40
0.9026980021
 40
0.9272555995
 40
0.9516141228
 40
0.9758397749
 40
1.0
 40
1.0
 40
1.0
 40
1.0
 10
15.289345759
 20
13.5977867347
 30
0.0
 10
15.2882355258
 20
13.5978644338
 30
0.0
 10
15.2860361593
 20
13.5979672659
 30
0.0
 10
15.2827746923
 20
13.5979606602
 30
0.0
 10
15.279602296
 20
13.5977915812
 30
0.0
 10
15.276536326
 20
13.5974609773
 30
0.0
 10
15.2735933021
 20
13.5969705427
 30
0.0
 10
15.2707891798
 20
13.5963228793
 30
0.0
 10
15.2681390662
 20
13.5955213342
 30
0.0
 10
15.2656574076
 20
13.5945701323
 30
0.0
 10
15.2637200752
 20
13.5936468559
 30
0.0
 10
15.2622706447
 20
13.5928364525
 30
0.0
 10
15.2609184533
 20
13.5919986332
 30
0.0
 10
15.2593519269
 20
13.5908703147
 30
0.0
 10
15.2576688773
 20
13.5893760734
 30
0.0
 10
15.2564453392
 20
13.5880214782
 30
0.0
 10
15.2555894706
 20
13.5868855683
 30
0.0
 10
15.2550119082
 20
13.5860141586
 30
0.0
 10
15.2544947805
 20
13.5851181979
 30
0.0
 10
15.2540388293
 20
13.5841988453
 30
0.0
 10
15.2536446717
 20
13.5832574273
 30
0.0
 10
15.2534233716
 20
13.5826155375
 30
0.0
 10
15.2533233619
 20
13.5822918915
 30
0.0
  0
SPLINE
  5
309
100
AcDbEntity
  8
LAYER_FEATURE
100
AcDbSpline
 62
7
  6
CONTINUOUS
 70
0
 71
3
 72
23
 73
19
 74
0
 42
0.0000001
 43
0.0000001
 44
0.0000000001
 40
0.0
 40
0.0
 40
0.0
 40
0.0
 40
0.0512427851
 40
0.1047116533
 40
0.1603482532
 40
0.2180573232
 40
0.2777028575
 40
0.3391186387
 40
0.4021111293
 40
0.4664645259
 40
0.5319446396
 40
0.5983027073
 40
0.665279035
 40
0.7326061901
 40
0.8000131786
 40
0.8672260878
 40
0.9339781337
 40
1.0
 40
1.0
 40
1.0
 40
1.0
 10
15.456841432
 20
13.5600194725
 30
0.0
 10
15.4563148677
 20
13.5608022783
 30
0.0
 10
15.4551729068
 20
13.562358312
 30
0.0
 10
15.4532547964
 20
13.5646054354
 30
0.0
 10
15.4511060087
 20
13.5668028468
 30
0.0
 10
15.4487396084
 20
13.5689373716
 30
0.0
 10
15.4461696376
 20
13.5709964219
 30
0.0
 10
15.4434114847
 20
13.5729677461
 30
0.0
 10
15.44048162
 20
13.5748395972
 30
0.0
 10
15.4373975696
 20
13.576600798
 30
0.0
 10
15.4341777879
 20
13.5782408155
 30
0.0
 10
15.4308415552
 20
13.579749836
 30
0.0
 10
15.4274088585
 20
13.5811188185
 30
0.0
 10
15.42390026
 20
13.5823395707
 30
0.0
 10
15.4203368085
 20
13.5834047534
 30
0.0
 10
15.4167397966
 20
13.5843080292
 30
0.0
 10
15.4131309274
 20
13.5850439121
 30
0.0
 10
15.410714898
 20
13.5854225993
 30
0.0
 10
15.4095099257
 20
13.5855824114
 30
0.0
  0
SPLINE
  5
30A
100
AcDbEntity
  8
LAYER_FEATURE
100
AcDbSpline
 62
7
  6
CONTINUOUS
 70
0
 71
3
 72
23
 73
19
 74
0
 42
0.0000001
 43
0.0000001
 44
0.0000000001
 40
0.0
 40
0.0
 40
0.0
 40
0.0
 40
0.0514319631
 40
0.1049135046
 40
0.1603977953
 40
0.2178139404
 40
0.2770559854
 40
0.3379942208
 40
0.4004762641
 40
0.4643308703
 40
0.5293709258
 40
0.5953961934
 40
0.6621958577
 40
0.7295509549
 40
0.7972374879
 40
0.865025544
 40
0.9326915321
 40
1.0
 40
1.0
 40
1.0
 40
1.0
 10
15.4786764349
 20
13.5275589276
 30
0.0
 10
15.4791567355
 20
13.5268448988
 30
0.0
 10
15.4801912569
 20
13.5254246219
 30
0.0
 10
15.4819154814
 20
13.5233657728
 30
0.0
 10
15.4838342682
 20
13.521346462
 30
0.0
 10
15.4859378187
 20
13.519376823
 30
0.0
 10
15.4882157244
 20
13.5174665688
 30
0.0
 10
15.4906565748
 20
13.5156252077
 30
0.0
 10
15.4932481852
 20
13.5138619066
 30
0.0
 10
15.4959775967
 20
13.5121854608
 30
0.0
 10
15.4988311602
 20
13.510604243
 30
0.0
 10
15.5017946006
 20
13.5091261606
 30
0.0
 10
15.5048530864
 20
13.507758614
 30
0.0
 10
15.507991312
 20
13.506508443
 30
0.0
 10
15.5111935349
 20
13.5053819296
 30
0.0
 10
15.5144437865
 20
13.5043846559
 30
0.0
 10
15.5177256557
 20
13.5035217099
 30
0.0
 10
15.5199321248
 20
13.5030369534
 30
0.0
 10
15.5210368596
 20
13.502818239
 30
0.0
  0
SPLINE
  5
30B
100
AcDbEntity
  8
LAYER_FEATURE
100
AcDbSpline
 62
7
  6
CONTINUOUS
 70
0
 71
3
 72
23
 73
19
 74
0
 42
0.0000001
 43
0.0000001
 44
0.0000000001
 40
0.0
 40
0.0
 40
0.0
 40
0.0
 40
0.0751772171
 40
0.1494626706
 40
0.2226111315
 40
0.2944042861
 40
0.3646306396
 40
0.4330998572
 40
0.499642576
 40
0.5641148726
 40
0.6264022152
 40
0.6864238397
 40
0.7441376272
 40
0.7995454266
 40
0.8526991119
 40
0.9037038172
 40
0.9527294542
 40
1.0
 40
1.0
 40
1.0
 40
1.0
 10
15.5587223612
 20
13.4953572983
 30
0.0
 10
15.5598176173
 20
13.4951404605
 30
0.0
 10
15.5620043209
 20
13.4947542378
 30
0.0
 10
15.5652824536
 20
13.4943172242
 30
0.0
 10
15.5685265277
 20
13.4940275577
 30
0.0
 10
15.5717201621
 20
13.4938866528
 30
0.0
 10
15.5748474771
 20
13.4938952529
 30
0.0
 10
15.5778928192
 20
13.4940533195
 30
0.0
 10
15.5808410006
 20
13.4943600911
 30
0.0
 10
15.5836773248
 20
13.4948140721
 30
0.0
 10
15.5863876702
 20
13.4954130599
 30
0.0
 10
15.5889585534
 20
13.4961541674
 30
0.0
 10
15.5913771818
 20
13.4970338472
 30
0.0
 10
15.5936315235
 20
13.4980479215
 30
0.0
 10
15.5957102669
 20
13.4991915947
 30
0.0
 10
15.5976030638
 20
13.500459554
 30
0.0
 10
15.5992999053
 20
13.5018456342
 30
0.0
 10
15.6003115242
 20
13.5028610946
 30
0.0
 10
15.6007785627
 20
13.5033852615
 30
0.0
  0
SPLINE
  5
30C
100
AcDbEntity
  8
LAYER_FEATURE
100
AcDbSpline
 62
7
  6
CONTINUOUS
 70
0
 71
3
 72
23
 73
19
 74
0
 42
0.0000001
 43
0.0000001
 44
0.0000000001
 40
0.0
 40
0.0
 40
0.0
 40
0.0
 40
0.0746596708
 40
0.1487349403
 40
0.2219282031
 40
0.2939620468
 40
0.3645683764
 40
0.4335002776
 40
0.5005334162
 40
0.5654717777
 40
0.6281526422
 40
0.688452471
 40
0.7462933552
 40
0.8016499602
 40
0.8545577177
 40
0.9051189092
 40
0.9535144065
 40
1.0
 40
1.0
 40
1.0
 40
1.0
 10
15.6691204401
 20
13.5341849623
 30
0.0
 10
15.667925324
 20
13.5344995785
 30
0.0
 10
15.6655301677
 20
13.5350735369
 30
0.0
 10
15.6619216531
 20
13.5357681483
 30
0.0
 10
15.6583279404
 20
13.5362900814
 30
0.0
 10
15.6547707023
 20
13.5366362233
 30
0.0
 10
15.6512711532
 20
13.5368044765
 30
0.0
 10
15.6478502477
 20
13.5367938367
 30
0.0
 10
15.6445284109
 20
13.5366043369
 30
0.0
 10
15.6413254642
 20
13.5362370698
 30
0.0
 10
15.6382604899
 20
13.5356941548
 30
0.0
 10
15.6353517211
 20
13.5349787183
 30
0.0
 10
15.6326164506
 20
13.5340948454
 30
0.0
 10
15.6300709243
 20
13.5330475356
 30
0.0
 10
15.6277303723
 20
13.5318426615
 30
0.0
 10
15.6256087387
 20
13.5304868281
 30
0.0
 10
15.6237193772
 20
13.5289878474
 30
0.0
 10
15.6226020346
 20
13.5278781897
 30
0.0
 10
15.6220901449
 20
13.5273036854
 30
0.0
  0
SPLINE
  5
30D
100
AcDbEntity
  8
LAYER_FEATURE
100
AcDbSpline
 62
7
  6
CONTINUOUS
 70
0
 71
3
 72
23
 73
19
 74
0
 42
0.0000001
 43
0.0000001
 44
0.0000000001
 40
0.0
 40
0.0
 40
0.0
 40
0.0
 40
0.0467931254
 40
0.0956282726
 40
0.1467079983
 40
0.2001641212
 40
0.2560553193
 40
0.3143792907
 40
0.3750786435
 40
0.4380486615
 40
0.5031437302
 40
0.5701832839
 40
0.638957241
 40
0.7092306006
 40
0.7807488534
 40
0.8532391723
 40
0.9264219513
 40
1.0
 40
1.0
 40
1.0
 40
1.0
 10
15.8263704452
 20
13.4671999711
 30
0.0
 10
15.8262138596
 20
13.4679724373
 30
0.0
 10
15.8258012165
 20
13.4695334632
 30
0.0
 10
15.8249198529
 20
13.4718462868
 30
0.0
 10
15.8237697334
 20
13.4741636762
 30
0.0
 10
15.8223583364
 20
13.4764717148
 30
0.0
 10
15.8206942788
 20
13.4787571021
 30
0.0
 10
15.8187876663
 20
13.481006455
 30
0.0
 10
15.816649927
 20
13.4832065765
 30
0.0
 10
15.8142938483
 20
13.4853444861
 30
0.0
 10
15.8117335012
 20
13.4874075187
 30
0.0
 10
15.8089841819
 20
13.4893834148
 30
0.0
 10
15.8060623235
 20
13.4912603971
 30
0.0
 10
15.8029853962
 20
13.4930272708
 30
0.0
 10
15.7997718295
 20
13.4946734445
 30
0.0
 10
15.7964408133
 20
13.4961891226
 30
0.0
 10
15.7930124212
 20
13.497565132
 30
0.0
 10
15.7906785461
 20
13.4983828608
 30
0.0
 10
15.7895001249
 20
13.4987666367
 30
0.0
  0
SPLINE
  5
30E
100
AcDbEntity
  8
LAYER_FEATURE
100
AcDbSpline
 62
7
  6
CONTINUOUS
 70
0
 71
3
 72
23
 73
19
 74
0
 42
0.0000001
 43
0.0000001
 44
0.0000000001
 40
0.0
 40
0.0
 40
0.0
 40
0.0
 40
0.0475005208
 40
0.0968804646
 40
0.1483178796
 40
0.2019398544
 40
0.2578128499
 40
0.3159546829
 40
0.3763377301
 40
0.4388947382
 40
0.5035237879
 40
0.5700927912
 40
0.6384435108
 40
0.7083952009
 40
0.7797487949
 40
0.8522865335
 40
0.9257859628
 40
1.0
 40
1.0
 40
1.0
 40
1.0
 10
15.8328780931
 20
13.4350965236
 30
0.0
 10
15.8330209393
 20
13.4343918369
 30
0.0
 10
15.8333892006
 20
13.4329692638
 30
0.0
 10
15.8341612915
 20
13.4308578414
 30
0.0
 10
15.8351588338
 20
13.4287403494
 30
0.0
 10
15.8363763659
 20
13.4266274759
 30
0.0
 10
15.837807693
 20
13.4245294342
 30
0.0
 10
15.8394455245
 20
13.4224565272
 30
0.0
 10
15.8412816341
 20
13.4204189307
 30
0.0
 10
15.8433068238
 20
13.4184266944
 30
0.0
 10
15.8455109734
 20
13.4164896763
 30
0.0
 10
15.8478830769
 20
13.4146174927
 30
0.0
 10
15.8504112873
 20
13.4128194635
 30
0.0
 10
15.8530829766
 20
13.4111045453
 30
0.0
 10
15.8558847644
 20
13.4094813265
 30
0.0
 10
15.8588026909
 20
13.4079578491
 30
0.0
 10
15.8618220454
 20
13.4065418491
 30
0.0
 10
15.8638849277
 20
13.4056773532
 30
0.0
 10
15.864929672
 20
13.4052644371
 30
0.0
  0
SPLINE
  5
30F
100
AcDbEntity
  8
LAYER_FEATURE
100
AcDbSpline
 62
7
  6
CONTINUOUS
 70
0
 71
3
 72
23
 73
19
 74
0
 42
0.0000001
 43
0.0000001
 44
0.0000000001
 40
0.0
 40
0.0
 40
0.0
 40
0.0
 40
0.0683699877
 40
0.1369480687
 40
0.205494858
 40
0.2737845838
 40
0.3415865903
 40
0.4086777916
 40
0.4748418067
 40
0.5398721693
 40
0.6035748626
 40
0.6657709991
 40
0.7262997377
 40
0.7850214856
 40
0.8418219442
 40
0.8966135094
 40
0.9493467556
 40
1.0
 40
1.0
 40
1.0
 40
1.0
 10
15.9008365909
 20
13.3910728846
 30
0.0
 10
15.901887999
 20
13.3906573348
 30
0.0
 10
15.9040113975
 20
13.3898682269
 30
0.0
 10
15.9072428761
 20
13.388814642
 30
0.0
 10
15.9105131889
 20
13.3878932614
 30
0.0
 10
15.9138057962
 20
13.3871086927
 30
0.0
 10
15.9171042992
 20
13.3864648778
 30
0.0
 10
15.9203921479
 20
13.3859650373
 30
0.0
 10
15.9236528948
 20
13.3856116759
 30
0.0
 10
15.9268702238
 20
13.3854065605
 30
0.0
 10
15.9300280484
 20
13.3853507212
 30
0.0
 10
15.9331105908
 20
13.38544445
 30
0.0
 10
15.9361024585
 20
13.3856873025
 30
0.0
 10
15.9389887411
 20
13.3860780974
 30
0.0
 10
15.9417550222
 20
13.3866149417
 30
0.0
 10
15.9443876486
 20
13.3872952298
 30
0.0
 10
15.9468732561
 20
13.3881156576
 30
0.0
 10
15.9484561032
 20
13.3887665684
 30
0.0
 10
15.9492175608
 20
13.3891154782
 30
0.0
  0
SPLINE
  5
310
100
AcDbEntity
  8
LAYER_FEATURE
100
AcDbSpline
 62
7
  6
CONTINUOUS
 70
0
 71
3
 72
23
 73
19
 74
0
 42
0.0000001
 43
0.0000001
 44
0.0000000001
 40
0.0
 40
0.0
 40
0.0
 40
0.0
 40
0.0671706238
 40
0.1349165005
 40
0.2029616891
 40
0.2710349138
 40
0.3388596707
 40
0.4061644382
 40
0.4726833306
 40
0.5381603803
 40
0.6023528451
 40
0.6650350113
 40
0.7260022039
 40
0.7850749222
 40
0.8421041916
 40
0.8969748651
 40
0.9496164735
 40
1.0
 40
1.0
 40
1.0
 40
1.0
 10
16.0368582142
 20
13.4010028789
 30
0.0
 10
16.0357500964
 20
13.401523388
 30
0.0
 10
16.0334997953
 20
13.402517369
 30
0.0
 10
16.0300508534
 20
13.4038582584
 30
0.0
 10
16.0265299469
 20
13.4050494411
 30
0.0
 10
16.0229583375
 20
13.4060837613
 30
0.0
 10
16.0193573523
 20
13.4069550153
 30
0.0
 10
16.0157486007
 20
13.40765799
 30
0.0
 10
16.0121536914
 20
13.4081884678
 30
0.0
 10
16.0085941554
 20
13.408543271
 30
0.0
 10
16.0050912955
 20
13.4087202679
 30
0.0
 10
16.0016660581
 20
13.4087183907
 30
0.0
 10
15.9983389081
 20
13.408537627
 30
0.0
 10
15.9951296834
 20
13.4081790236
 30
0.0
 10
15.9920575433
 20
13.407644644
 30
0.0
 10
15.9891406513
 20
13.4069375612
 30
0.0
 10
15.9863966582
 20
13.4060618887
 30
0.0
 10
15.9846550177
 20
13.405353381
 30
0.0
 10
15.983820177
 20
13.4049708461
 30
0.0
  0
SPLINE
  5
311
100
AcDbEntity
  8
LAYER_FEATURE
100
AcDbSpline
 62
7
  6
CONTINUOUS
 70
0
 71
3
 72
23
 73
19
 74
0
 42
0.0000001
 43
0.0000001
 44
0.0000000001
 40
0.0
 40
0.0
 40
0.0
 40
0.0
 40
0.0614300241
 40
0.1239752196
 40
0.187434797
 40
0.2516100923
 40
0.3162883838
 40
0.3812541796
 40
0.4462885055
 40
0.5111717763
 40
0.5756859617
 40
0.6396167455
 40
0.7027557346
 40
0.7649027656
 40
0.8258689341
 40
0.8854764206
 40
0.9435693935
 40
1.0
 40
1.0
 40
1.0
 40
1.0
 10
16.2082319223
 20
13.2312169671
 30
0.0
 10
16.2091350474
 20
13.2306407269
 30
0.0
 10
16.2109851959
 20
13.2295203471
 30
0.0
 10
16.2138547782
 20
13.2279529696
 30
0.0
 10
16.2168323213
 20
13.2264897595
 30
0.0
 10
16.21990275
 20
13.2251380677
 30
0.0
 10
16.223050785
 20
13.2239046571
 30
0.0
 10
16.2262606271
 20
13.2227957068
 30
0.0
 10
16.2295162095
 20
13.2218167708
 30
0.0
 10
16.2328012232
 20
13.2209727488
 30
0.0
 10
16.2360992165
 20
13.2202678662
 30
0.0
 10
16.239393676
 20
13.2197056539
 30
0.0
 10
16.2426681071
 20
13.2192889319
 30
0.0
 10
16.2459061327
 20
13.2190197837
 30
0.0
 10
16.2490915252
 20
13.2188995734
 30
0.0
 10
16.2522084537
 20
13.218928873
 30
0.0
 10
16.2552411577
 20
13.2191075976
 30
0.0
 10
16.2572272121
 20
13.2193291491
 30
0.0
 10
16.2582017942
 20
13.2194657957
 30
0.0
  0
SPLINE
  5
312
100
AcDbEntity
  8
02___PRT_ALL_AXES
100
AcDbSpline
 62
7
  6
CONTINUOUS
 70
0
 71
3
 72
61
 73
57
 74
0
 42
0.0000001
 43
0.0000001
 44
0.0000000001
 40
0.0
 40
0.0
 40
0.0
 40
0.0
 40
0.0142244419
 40
0.0288612031
 40
0.0439046936
 40
0.0593502979
 40
0.0751913762
 40
0.0914187809
 40
0.1080218392
 40
0.1249884889
 40
0.1423051525
 40
0.1599569677
 40
0.1961982625
 40
0.2335730687
 40
0.2719241286
 40
0.311081006
 40
0.3508619463
 40
0.3910753461
 40
0.4315211359
 40
0.4719919617
 40
0.5122745741
 40
0.5521513183
 40
0.5914020564
 40
0.6298064384
 40
0.6671467108
 40
0.6853515928
 40
0.7032116584
 40
0.7207018604
 40
0.7377981163
 40
0.7544771788
 40
0.7707170257
 40
0.7864968078
 40
0.8017970543
 40
0.81659991
 40
0.8308890897
 40
0.8446503731
 40
0.8578713789
 40
0.8705422665
 40
0.882655535
 40
0.8942067173
 40
0.9051944837
 40
0.9156212304
 40
0.9254936696
 40
0.9348233714
 40
0.9436278664
 40
0.95193132
 40
0.959766058
 40
0.9671734329
 40
0.9742052505
 40
0.9809243237
 40
0.984190608
 40
0.9874073177
 40
0.9905852289
 40
0.9937355678
 40
0.9968699004
 40
1.0
 40
1.0
 40
1.0
 40
1.0
 10
16.1932168153
 20
12.1215010186
 30
0.0
 10
16.1938712988
 20
12.1201673215
 30
0.0
 10
16.1951451435
 20
12.1174344156
 30
0.0
 10
16.1969268556
 20
12.1132082004
 30
0.0
 10
16.1986043149
 20
12.1088027894
 30
0.0
 10
16.2001754303
 20
12.1042252523
 30
0.0
 10
16.2016384902
 20
12.0994825495
 30
0.0
 10
16.2029920795
 20
12.0945819875
 30
0.0
 10
16.204235168
 20
12.089531143
 30
0.0
 10
16.2053669703
 20
12.0843377665
 30
0.0
 10
16.2063871986
 20
12.0790097836
 30
0.0
 10
16.2076091477
 20
12.0716729489
 30
0.0
 10
16.2088482211
 20
12.0622181955
 30
0.0
 10
16.2098833797
 20
12.0505670399
 30
0.0
 10
16.2104892965
 20
12.0385810609
 30
0.0
 10
16.2106794167
 20
12.0263303501
 30
0.0
 10
16.2104704066
 20
12.0138856963
 30
0.0
 10
16.2098816182
 20
12.0013187023
 30
0.0
 10
16.2089345714
 20
11.9887015586
 30
0.0
 10
16.2076524498
 20
11.9761069408
 30
0.0
 10
16.2060596219
 20
11.9636078644
 30
0.0
 10
16.2041811738
 20
11.9512774841
 30
0.0
 10
16.2020424687
 20
11.9391887724
 30
0.0
 10
16.1996686929
 20
11.9274142003
 30
0.0
 10
16.1974972764
 20
11.9178440757
 30
0.0
 10
16.1956591508
 20
11.9104009155
 30
0.0
 10
16.194247997
 20
11.9049882686
 30
0.0
 10
16.1927954341
 20
11.8997065789
 30
0.0
 10
16.1913040708
 20
11.8945640077
 30
0.0
 10
16.1897764369
 20
11.8895684848
 30
0.0
 10
16.1882149188
 20
11.8847277069
 30
0.0
 10
16.1866217857
 20
11.8800490979
 30
0.0
 10
16.1849991666
 20
11.8755397984
 30
0.0
 10
16.1833490534
 20
11.8712066529
 30
0.0
 10
16.1816732942
 20
11.867056174
 30
0.0
 10
16.1799735989
 20
11.863094561
 30
0.0
 10
16.1782515234
 20
11.8593276533
 30
0.0
 10
16.1765084953
 20
11.8557609566
 30
0.0
 10
16.1747457819
 20
11.8523996065
 30
0.0
 10
16.1729645254
 20
11.8492483889
 30
0.0
 10
16.1711657199
 20
11.846311722
 30
0.0
 10
16.1693502136
 20
11.8435936741
 30
0.0
 10
16.1675187367
 20
11.8410979484
 30
0.0
 10
16.1656718263
 20
11.8388279335
 30
0.0
 10
16.1638099394
 20
11.8367866642
 30
0.0
 10
16.1619332872
 20
11.8349769535
 30
0.0
 10
16.1600420554
 20
11.8334013255
 30
0.0
 10
16.1581361517
 20
11.8320622267
 30
0.0
 10
16.1562158209
 20
11.8309620163
 30
0.0
 10
16.1545879108
 20
11.8302393965
 30
0.0
 10
16.1532842826
 20
11.8297882082
 30
0.0
 10
16.1523127202
 20
11.8295136804
 30
0.0
 10
16.1513383788
 20
11.829300029
 30
0.0
 10
16.1503613161
 20
11.8291473407
 30
0.0
 10
16.1493816925
 20
11.8290557237
 30
0.0
 10
16.1487272386
 20
11.8290354121
 30
0.0
 10
16.1484003245
 20
11.8290354136
 30
0.0
  0
SPLINE
  5
313
100
AcDbEntity
  8
LAYER_FEATURE
100
AcDbSpline
 62
7
  6
CONTINUOUS
 70
0
 71
3
 72
23
 73
19
 74
0
 42
0.0000001
 43
0.0000001
 44
0.0000000001
 40
0.0
 40
0.0
 40
0.0
 40
0.0
 40
0.0597066915
 40
0.1209135275
 40
0.1834043928
 40
0.2469532595
 40
0.3113161976
 40
0.3762408934
 40
0.441467592
 40
0.5067330702
 40
0.5717735911
 40
0.6363281207
 40
0.7001415682
 40
0.7629678548
 40
0.8245740212
 40
0.8847415681
 40
0.943276009
 40
1.0
 40
1.0
 40
1.0
 40
1.0
 10
16.3565623458
 20
13.2112772747
 30
0.0
 10
16.3556521865
 20
13.2119556093
 30
0.0
 10
16.3537707013
 20
13.2132786167
 30
0.0
 10
16.3508175143
 20
13.2151351021
 30
0.0
 10
16.3477126339
 20
13.2168794259
 30
0.0
 10
16.3444748232
 20
13.2185010914
 30
0.0
 10
16.3411233868
 20
13.2199904043
 30
0.0
 10
16.3376784346
 20
13.2213384455
 30
0.0
 10
16.3341605968
 20
13.2225371339
 30
0.0
 10
16.3305909596
 20
13.2235792864
 30
0.0
 10
16.3269909155
 20
13.2244586546
 30
0.0
 10
16.3233820382
 20
13.2251699717
 30
0.0
 10
16.3197859511
 20
13.2257089732
 30
0.0
 10
16.31622418
 20
13.2260724385
 30
0.0
 10
16.3127180708
 20
13.226258169
 30
0.0
 10
16.3092885059
 20
13.2262650717
 30
0.0
 10
16.3059561882
 20
13.2260930553
 30
0.0
 10
16.3037762794
 20
13.2258558157
 30
0.0
 10
16.3027082992
 20
13.2257060737
 30
0.0
  0
SPLINE
  5
314
100
AcDbEntity
  8
LAYER_FEATURE
100
AcDbSpline
 62
7
  6
CONTINUOUS
 70
0
 71
3
 72
53
 73
49
 74
0
 42
0.0000001
 43
0.0000001
 44
0.0000000001
 40
0.0
 40
0.0
 40
0.0
 40
0.0
 40
0.0146678477
 40
0.0291030727
 40
0.0433127358
 40
0.0573100314
 40
0.0711095372
 40
0.0847283665
 40
0.0981863145
 40
0.1115053971
 40
0.1247096766
 40
0.1378249683
 40
0.1508784846
 40
0.1638984229
 40
0.1769135192
 40
0.1899525879
 40
0.2030440572
 40
0.2162155204
 40
0.2294932997
 40
0.2429020841
 40
0.2564646199
 40
0.2702014173
 40
0.2841305744
 40
0.298267659
 40
0.3126255821
 40
0.3272145916
 40
0.3571037938
 40
0.3879761571
 40
0.4198228628
 40
0.4526000642
 40
0.4862331954
 40
0.5206215353
 40
0.5556426868
 40
0.591157028
 40
0.6270120745
 40
0.6630466924
 40
0.6990952764
 40
0.7349918745
 40
0.7705743174
 40
0.8056883732
 40
0.8401919562
 40
0.8739594821
 40
0.8905372151
 40
0.9068937071
 40
0.9389005212
 40
0.9545465164
 40
0.9699466081
 40
1.0
 40
1.0
 40
1.0
 40
1.0
 10
14.8825902526
 20
12.5761055556
 30
0.0
 10
14.8820748714
 20
12.5744377816
 30
0.0
 10
14.881138565
 20
12.5711012187
 30
0.0
 10
14.8800172655
 20
12.5660675244
 30
0.0
 10
14.8791933342
 20
12.561057274
 30
0.0
 10
14.8786688729
 20
12.5560828661
 30
0.0
 10
14.8784451978
 20
12.5511561392
 30
0.0
 10
14.8785229726
 20
12.546289025
 30
0.0
 10
14.8789021373
 20
12.5414933139
 30
0.0
 10
14.8795818393
 20
12.536780633
 30
0.0
 10
14.880560508
 20
12.5321624362
 30
0.0
 10
14.8818358823
 20
12.5276499833
 30
0.0
 10
14.8834048796
 20
12.5232542744
 30
0.0
 10
14.8852636994
 20
12.5189860311
 30
0.0
 10
14.8874078654
 20
12.5148556922
 30
0.0
 10
14.8898321098
 20
12.5108733193
 30
0.0
 10
14.8925304808
 20
12.5070485952
 30
0.0
 10
14.8954963989
 20
12.5033908364
 30
0.0
 10
14.8987225676
 20
12.4999088842
 30
0.0
 10
14.9022010723
 20
12.4966111243
 30
0.0
 10
14.905923441
 20
12.4935055199
 30
0.0
 10
14.9098805748
 20
12.4905994993
 30
0.0
 10
14.9140628433
 20
12.4878999824
 30
0.0
 10
14.918460081
 20
12.4854134495
 30
0.0
 10
14.9230617658
 20
12.4831457522
 30
0.0
 10
14.9295058535
 20
12.4803993771
 30
0.0
 10
14.9380279075
 20
12.4775527958
 30
0.0
 10
14.9487931067
 20
12.4751154832
 30
0.0
 10
14.9600788571
 20
12.473649642
 30
0.0
 10
14.9717765639
 20
12.4731683156
 30
0.0
 10
14.9837749389
 20
12.4736749892
 30
0.0
 10
14.9959595186
 20
12.4751642141
 30
0.0
 10
15.0082140951
 20
12.4776212919
 30
0.0
 10
15.0204217038
 20
12.4810224182
 30
0.0
 10
15.0324657461
 20
12.4853349327
 30
0.0
 10
15.044231136
 20
12.4905174924
 30
0.0
 10
15.0556054127
 20
12.4965204884
 30
0.0
 10
15.0664798036
 20
12.5032865946
 30
0.0
 10
15.0767502845
 20
12.5107511682
 30
0.0
 10
15.0863187141
 20
12.518843137
 30
0.0
 10
15.0950931209
 20
12.5274850391
 30
0.0
 10
15.1017148748
 20
12.5351242987
 30
0.0
 10
15.1065314439
 20
12.5414367861
 30
0.0
 10
15.1109555745
 20
12.5477758441
 30
0.0
 10
15.1149068198
 20
12.5543028177
 30
0.0
 10
15.1183357133
 20
12.5609802064
 30
0.0
 10
15.1213453147
 20
12.5676014657
 30
0.0
 10
15.1232206775
 20
12.5726884035
 30
0.0
 10
15.1242766574
 20
12.5761055556
 30
0.0
  0
SPLINE
  5
315
100
AcDbEntity
  8
LAYER_FEATURE
100
AcDbSpline
 62
7
  6
CONTINUOUS
 70
0
 71
3
 72
11
 73
7
 74
0
 42
0.0000001
 43
0.0000001
 44
0.0000000001
 40
0.0
 40
0.0
 40
0.0
 40
0.0
 40
0.2537335074
 40
0.505028924
 40
0.753808758
 40
1.0
 40
1.0
 40
1.0
 40
1.0
 10
16.3565623458
 20
13.2112772747
 30
0.0
 10
16.3640942226
 20
13.2056638258
 30
0.0
 10
16.3789879458
 20
13.1943590991
 30
0.0
 10
16.4009115893
 20
13.1770892522
 30
0.0
 10
16.4222990704
 20
13.1595974427
 30
0.0
 10
16.4362654353
 20
13.1477324022
 30
0.0
 10
16.4431546247
 20
13.1417648967
 30
0.0
  0
SPLINE
  5
316
100
AcDbEntity
  8
LAYER_FEATURE
100
AcDbSpline
 62
7
  6
CONTINUOUS
 70
0
 71
3
 72
23
 73
19
 74
0
 42
0.0000001
 43
0.0000001
 44
0.0000000001
 40
0.0
 40
0.0
 40
0.0
 40
0.0
 40
0.054949652
 40
0.1116997458
 40
0.1701250779
 40
0.2300886394
 40
0.2914283915
 40
0.3539681762
 40
0.4175178088
 40
0.4818762474
 40
0.546834023
 40
0.6121755379
 40
0.6776812802
 40
0.7431300162
 40
0.8083016851
 40
0.8729765977
 40
0.9369469417
 40
1.0
 40
1.0
 40
1.0
 40
1.0
 10
16.4508183587
 20
13.0314373568
 30
0.0
 10
16.4514815098
 20
13.0307552243
 30
0.0
 10
16.452871874
 20
13.029409221
 30
0.0
 10
16.4550998812
 20
13.0274806655
 30
0.0
 10
16.4574943736
 20
13.0256181848
 30
0.0
 10
16.4600431986
 20
13.02383114
 30
0.0
 10
16.4627337156
 20
13.0221284155
 30
0.0
 10
16.465552438
 20
13.0205185236
 30
0.0
 10
16.4684852747
 20
13.0190095098
 30
0.0
 10
16.4715175438
 20
13.0176089211
 30
0.0
 10
16.4746340653
 20
13.0163237666
 30
0.0
 10
16.4778192348
 20
13.0151604824
 30
0.0
 10
16.4810570999
 20
13.0141248991
 30
0.0
 10
16.4843314513
 20
13.013222198
 30
0.0
 10
16.4876258604
 20
13.0124569186
 30
0.0
 10
16.4909239061
 20
13.0118328413
 30
0.0
 10
16.4942089261
 20
13.0113531699
 30
0.0
 10
16.496397528
 20
13.011129358
 30
0.0
 10
16.4974857333
 20
13.011042707
 30
0.0
  0
SPLINE
  5
317
100
AcDbEntity
  8
LAYER_FEATURE
100
AcDbSpline
 62
7
  6
CONTINUOUS
 70
0
 71
3
 72
23
 73
19
 74
0
 42
0.0000001
 43
0.0000001
 44
0.0000000001
 40
0.0
 40
0.0
 40
0.0
 40
0.0
 40
0.0528874655
 40
0.1079069675
 40
0.1649546265
 40
0.2238969465
 40
0.2845659072
 40
0.3467690322
 40
0.4102916534
 40
0.4749015416
 40
0.540352423
 40
0.606387519
 40
0.6727429742
 40
0.7391509022
 40
0.80534343
 40
0.8710533707
 40
0.9360240285
 40
1.0
 40
1.0
 40
1.0
 40
1.0
 10
16.596937967
 20
12.9835798137
 30
0.0
 10
16.596319583
 20
12.9843506858
 30
0.0
 10
16.5949989753
 20
12.9858769833
 30
0.0
 10
16.5928289415
 20
12.9880688052
 30
0.0
 10
16.5904423798
 20
12.9901966915
 30
0.0
 10
16.5878537561
 20
12.9922478661
 30
0.0
 10
16.5850784429
 20
12.9942101778
 30
0.0
 10
16.5821330642
 20
12.9960719216
 30
0.0
 10
16.5790352225
 20
12.9978219791
 30
0.0
 10
16.5758034611
 20
12.9994498848
 30
0.0
 10
16.5724571301
 20
13.0009458922
 30
0.0
 10
16.5690162764
 20
13.0023010429
 30
0.0
 10
16.5655015203
 20
13.0035072141
 30
0.0
 10
16.5619339188
 20
13.0045571875
 30
0.0
 10
16.5583348765
 20
13.0054446481
 30
0.0
 10
16.5547258936
 20
13.0061643214
 30
0.0
 10
16.5511287488
 20
13.0067118288
 30
0.0
 10
16.5487311999
 20
13.0069621629
 30
0.0
 10
16.5475395203
 20
13.0070570532
 30
0.0
  0
SPLINE
  5
318
100
AcDbEntity
  8
LAYER_FEATURE
100
AcDbSpline
 62
7
  6
CONTINUOUS
 70
0
 71
3
 72
11
 73
7
 74
0
 42
0.0000001
 43
0.0000001
 44
0.0000000001
 40
0.0
 40
0.0
 40
0.0
 40
0.0
 40
0.2552873095
 40
0.5070537952
 40
0.7552910552
 40
1.0
 40
1.0
 40
1.0
 40
1.0
 10
16.596937967
 20
12.9835798137
 30
0.0
 10
16.6020087783
 20
12.9772585856
 30
0.0
 10
16.6119338814
 20
12.9645848304
 30
0.0
 10
16.6262559825
 20
12.9453539682
 30
0.0
 10
16.6399005651
 20
12.9260462882
 30
0.0
 10
16.6486019148
 20
12.91303821
 30
0.0
 10
16.6528346685
 20
12.9065247492
 30
0.0
  0
SPLINE
  5
319
100
AcDbEntity
  8
LAYER_FEATURE
100
AcDbSpline
 62
7
  6
CONTINUOUS
 70
0
 71
3
 72
11
 73
7
 74
0
 42
0.0000001
 43
0.0000001
 44
0.0000000001
 40
0.0
 40
0.0
 40
0.0
 40
0.0
 40
0.2456068784
 40
0.4952432751
 40
0.7472665859
 40
1.0
 40
1.0
 40
1.0
 40
1.0
 10
16.6260423407
 20
12.7913033394
 30
0.0
 10
16.6274073278
 20
12.7905564246
 30
0.0
 10
16.630207446
 20
12.789136049
 30
0.0
 10
16.6345516005
 20
12.787248001
 30
0.0
 10
16.6390400971
 20
12.785599033
 30
0.0
 10
16.6421018408
 20
12.7846692241
 30
0.0
 10
16.6436465989
 20
12.7842481162
 30
0.0
  0
SPLINE
  5
31A
100
AcDbEntity
  8
LAYER_FEATURE
100
AcDbSpline
 62
7
  6
CONTINUOUS
 70
0
 71
3
 72
28
 73
24
 74
0
 42
0.0000001
 43
0.0000001
 44
0.0000000001
 40
0.0
 40
0.0
 40
0.0
 40
0.0
 40
0.0272344782
 40
0.0549175092
 40
0.0830495783
 40
0.111630886
 40
0.1700990247
 40
0.1999781093
 40
0.2302613386
 40
0.2919459064
 40
0.3233119283
 40
0.3549868464
 40
0.4191311635
 40
0.4841311026
 40
0.549704929
 40
0.6155563881
 40
0.6813823343
 40
0.7468802544
 40
0.8117557979
 40
0.8757303985
 40
0.9073049568
 40
0.9385606267
 40
1.0
 40
1.0
 40
1.0
 40
1.0
 10
14.8623848252
 20
12.5557167487
 30
0.0
 10
14.8630396333
 20
12.5578357084
 30
0.0
 10
14.8644737857
 20
12.5620742223
 30
0.0
 10
14.8669660449
 20
12.5683642217
 30
0.0
 10
14.8698110954
 20
12.5746236489
 30
0.0
 10
14.8740970482
 20
12.5829700487
 30
0.0
 10
14.8790361961
 20
12.5911288939
 30
0.0
 10
14.8845663518
 20
12.5990527285
 30
0.0
 10
14.8905869519
 20
12.6069432229
 30
0.0
 10
14.8971739642
 20
12.6145423626
 30
0.0
 10
14.9042678166
 20
12.6218142445
 30
0.0
 10
14.9117830975
 20
12.6289445936
 30
0.0
 10
14.9217929936
 20
12.6374099044
 30
0.0
 10
14.9346308316
 20
12.6467404124
 30
0.0
 10
14.9482239015
 20
12.6551980826
 30
0.0
 10
14.9624417205
 20
12.6627018419
 30
0.0
 10
14.9771484478
 20
12.6691800169
 30
0.0
 10
14.992203593
 20
12.6745706896
 30
0.0
 10
15.007462747
 20
12.6788220243
 30
0.0
 10
15.0202850293
 20
12.6813929304
 30
0.0
 10
15.0305121143
 20
12.6828382203
 30
0.0
 10
15.0405816017
 20
12.6838634754
 30
0.0
 10
15.0481344149
 20
12.6841823619
 30
0.0
 10
15.0531377053
 20
12.6841823619
 30
0.0
  0
SPLINE
  5
31B
100
AcDbEntity
  8
LAYER_FEATURE
100
AcDbSpline
 62
7
  6
CONTINUOUS
 70
0
 71
3
 72
22
 73
18
 74
0
 42
0.0000001
 43
0.0000001
 44
0.0000000001
 40
0.0
 40
0.0
 40
0.0
 40
0.0
 40
0.1404478428
 40
0.208967598
 40
0.276289765
 40
0.3423945372
 40
0.4072783404
 40
0.4709530763
 40
0.5334474018
 40
0.5948071755
 40
0.6550958021
 40
0.7143942147
 40
0.7728004636
 40
0.8304288385
 40
0.8874084683
 40
0.9438813752
 40
1.0
 40
1.0
 40
1.0
 40
1.0
 10
15.0531377053
 20
12.6841823619
 30
0.0
 10
15.0587525741
 20
12.6841823619
 30
0.0
 10
15.0671157066
 20
12.6837862021
 30
0.0
 10
15.0780789098
 20
12.6824099068
 30
0.0
 10
15.0860289725
 20
12.6809796774
 30
0.0
 10
15.0937467066
 20
12.6791475494
 30
0.0
 10
15.1012077896
 20
12.676919239
 30
0.0
 10
15.1083881949
 20
12.674301709
 30
0.0
 10
15.115264889
 20
12.6713031598
 30
0.0
 10
15.1218157357
 20
12.667933004
 30
0.0
 10
15.1280196044
 20
12.6642018492
 30
0.0
 10
15.1338564171
 20
12.6601214773
 30
0.0
 10
15.1393072239
 20
12.6557048098
 30
0.0
 10
15.1443542362
 20
12.6509659423
 30
0.0
 10
15.1489810184
 20
12.6459199101
 30
0.0
 10
15.1531721119
 20
12.6405834147
 30
0.0
 10
15.1556727173
 20
12.6368342084
 30
0.0
 10
15.1568434882
 20
12.6349203863
 30
0.0
  0
SPLINE
  5
31C
100
AcDbEntity
  8
LAYER_FEATURE
100
AcDbSpline
 62
7
  6
CONTINUOUS
 70
0
 71
3
 72
53
 73
49
 74
0
 42
0.0000001
 43
0.0000001
 44
0.0000000001
 40
0.0
 40
0.0
 40
0.0
 40
0.0
 40
0.0300533919
 40
0.0454534836
 40
0.0610994788
 40
0.0931062929
 40
0.1094627849
 40
0.1260405179
 40
0.1598080438
 40
0.1943116268
 40
0.2294256826
 40
0.2650081255
 40
0.3009047236
 40
0.3369533076
 40
0.3729879255
 40
0.408842972
 40
0.4443573132
 40
0.4793784647
 40
0.5137668046
 40
0.5473999358
 40
0.5801771372
 40
0.6120238429
 40
0.6428962062
 40
0.6727854084
 40
0.6873744179
 40
0.701732341
 40
0.7158694256
 40
0.7297985827
 40
0.7435353801
 40
0.7570979159
 40
0.7705067003
 40
0.7837844796
 40
0.7969559428
 40
0.8100474121
 40
0.8230864808
 40
0.8361015771
 40
0.8491215154
 40
0.8621750317
 40
0.8752903234
 40
0.8884946029
 40
0.9018136855
 40
0.9152716335
 40
0.9288904628
 40
0.9426899686
 40
0.9566872642
 40
0.9708969273
 40
0.9853321523
 40
1.0
 40
1.0
 40
1.0
 40
1.0
 10
14.8825902526
 20
12.5761055556
 30
0.0
 10
14.8836462325
 20
12.5795227078
 30
0.0
 10
14.8855215953
 20
12.5846096456
 30
0.0
 10
14.8885311967
 20
12.5912309049
 30
0.0
 10
14.8919600903
 20
12.5979082936
 30
0.0
 10
14.8959113355
 20
12.6044352672
 30
0.0
 10
14.9003354661
 20
12.6107743252
 30
0.0
 10
14.9051520352
 20
12.6170868126
 30
0.0
 10
14.9117737891
 20
12.6247260722
 30
0.0
 10
14.9205481959
 20
12.6333679743
 30
0.0
 10
14.9301166256
 20
12.6414599431
 30
0.0
 10
14.9403871065
 20
12.6489245167
 30
0.0
 10
14.9512614973
 20
12.6556906229
 30
0.0
 10
14.962635774
 20
12.6616936189
 30
0.0
 10
14.9744011639
 20
12.6668761786
 30
0.0
 10
14.9864452062
 20
12.6711886931
 30
0.0
 10
14.998652815
 20
12.6745898194
 30
0.0
 10
15.0109073914
 20
12.6770468971
 30
0.0
 10
15.0230919712
 20
12.6785361221
 30
0.0
 10
15.0350903461
 20
12.6790427957
 30
0.0
 10
15.0467880529
 20
12.6785614693
 30
0.0
 10
15.0580738034
 20
12.6770956281
 30
0.0
 10
15.0688390025
 20
12.6746583155
 30
0.0
 10
15.0773610566
 20
12.6718117342
 30
0.0
 10
15.0838051443
 20
12.669065359
 30
0.0
 10
15.088406829
 20
12.6667976618
 30
0.0
 10
15.0928040668
 20
12.6643111289
 30
0.0
 10
15.0969863353
 20
12.661611612
 30
0.0
 10
15.100943469
 20
12.6587055914
 30
0.0
 10
15.1046658378
 20
12.655599987
 30
0.0
 10
15.1081443424
 20
12.6523022271
 30
0.0
 10
15.1113705111
 20
12.6488202749
 30
0.0
 10
15.1143364292
 20
12.6451625161
 30
0.0
 10
15.1170348002
 20
12.641337792
 30
0.0
 10
15.1194590446
 20
12.6373554191
 30
0.0
 10
15.1216032106
 20
12.6332250802
 30
0.0
 10
15.1234620304
 20
12.6289568369
 30
0.0
 10
15.1250310277
 20
12.624561128
 30
0.0
 10
15.126306402
 20
12.6200486751
 30
0.0
 10
15.1272850708
 20
12.6154304782
 30
0.0
 10
15.1279647728
 20
12.6107177974
 30
0.0
 10
15.1283439375
 20
12.6059220863
 30
0.0
 10
15.1284217123
 20
12.6010549721
 30
0.0
 10
15.1281980371
 20
12.5961282452
 30
0.0
 10
15.1276735758
 20
12.5911538372
 30
0.0
 10
15.1268496445
 20
12.5861435869
 30
0.0
 10
15.1257283451
 20
12.5811098926
 30
0.0
 10
15.1247920386
 20
12.5777733297
 30
0.0
 10
15.1242766574
 20
12.5761055556
 30
0.0
  0
SPLINE
  5
31D
100
AcDbEntity
  8
LAYER_FEATURE
100
AcDbSpline
 62
7
  6
CONTINUOUS
 70
0
 71
3
 72
23
 73
19
 74
0
 42
0.0000001
 43
0.0000001
 44
0.0000000001
 40
0.0
 40
0.0
 40
0.0
 40
0.0
 40
0.0476422574
 40
0.0974835494
 40
0.1496395435
 40
0.2041644273
 40
0.261049231
 40
0.3202339331
 40
0.3816126135
 40
0.4450403619
 40
0.5103388228
 40
0.5773013572
 40
0.6456977991
 40
0.7152785011
 40
0.7857792658
 40
0.856922261
 40
0.9284270515
 40
1.0
 40
1.0
 40
1.0
 40
1.0
 10
16.7344554372
 20
12.74019911
 30
0.0
 10
16.7341954392
 20
12.740983157
 30
0.0
 10
16.7335772137
 20
12.7425598649
 30
0.0
 10
16.732401889
 20
12.7448766521
 30
0.0
 10
16.7309658758
 20
12.7471831908
 30
0.0
 10
16.7292781898
 20
12.7494656845
 30
0.0
 10
16.7273489483
 20
12.7517109023
 30
0.0
 10
16.7251897602
 20
12.7539056305
 30
0.0
 10
16.72281352
 20
12.7560369223
 30
0.0
 10
16.720234425
 20
12.7580921472
 30
0.0
 10
16.7174678794
 20
12.7600590852
 30
0.0
 10
16.7145304204
 20
12.7619260153
 30
0.0
 10
16.7114396182
 20
12.7636817861
 30
0.0
 10
16.7082139656
 20
12.7653159098
 30
0.0
 10
16.7048727951
 20
12.7668185793
 30
0.0
 10
16.7014360665
 20
12.7681808482
 30
0.0
 10
16.6979244993
 20
12.7693944646
 30
0.0
 10
16.6955453131
 20
12.7701002962
 30
0.0
 10
16.6943480546
 20
12.7704266742
 30
0.0
  0
SPLINE
  5
31E
100
AcDbEntity
  8
LAYER_FEATURE
100
AcDbSpline
 62
7
  6
CONTINUOUS
 70
0
 71
3
 72
11
 73
7
 74
0
 42
0.0000001
 43
0.0000001
 44
0.0000000001
 40
0.0
 40
0.0
 40
0.0
 40
0.0
 40
0.2549861671
 40
0.5065444015
 40
0.7548266699
 40
1.0
 40
1.0
 40
1.0
 40
1.0
 10
16.7344554372
 20
12.74019911
 30
0.0
 10
16.7365850701
 20
12.7337770156
 30
0.0
 10
16.7406017578
 20
12.7209469567
 30
0.0
 10
16.7459188421
 20
12.7016323068
 30
0.0
 10
16.7504828195
 20
12.682393365
 30
0.0
 10
16.753037044
 20
12.6695475719
 30
0.0
 10
16.7541850028
 20
12.6631440455
 30
0.0
  0
SPLINE
  5
31F
100
AcDbEntity
  8
LAYER_FEATURE
100
AcDbSpline
 62
7
  6
CONTINUOUS
 70
0
 71
3
 72
25
 73
21
 74
0
 42
0.0000001
 43
0.0000001
 44
0.0000000001
 40
0.0
 40
0.0
 40
0.0
 40
0.0
 40
0.0232950038
 40
0.0467974711
 40
0.0705667582
 40
0.0946632303
 40
0.14404492
 40
0.1953641776
 40
0.2489289495
 40
0.3049608916
 40
0.3635979634
 40
0.4249021397
 40
0.4888675574
 40
0.5554288655
 40
0.6244691835
 40
0.6958270073
 40
0.7693036945
 40
0.8446661349
 40
0.9216601954
 40
1.0
 40
1.0
 40
1.0
 40
1.0
 10
16.7556535883
 20
12.5049589625
 30
0.0
 10
16.7557146922
 20
12.5053121785
 30
0.0
 10
16.7558135721
 20
12.506026113
 30
0.0
 10
16.7558912623
 20
12.5071099396
 30
0.0
 10
16.7558986562
 20
12.5082089122
 30
0.0
 10
16.7558142027
 20
12.5097038002
 30
0.0
 10
16.7555279254
 20
12.5116077615
 30
0.0
 10
16.7549081933
 20
12.5139040401
 30
0.0
 10
16.7540140831
 20
12.5162176684
 30
0.0
 10
16.752851638
 20
12.5185348339
 30
0.0
 10
16.7514282338
 20
12.5208421391
 30
0.0
 10
16.7497526307
 20
12.5231261357
 30
0.0
 10
16.747834962
 20
12.5253734839
 30
0.0
 10
16.7456867367
 20
12.5275709878
 30
0.0
 10
16.7433208013
 20
12.5297056785
 30
0.0
 10
16.7407512864
 20
12.5317649211
 30
0.0
 10
16.7379935527
 20
12.5337364455
 30
0.0
 10
16.7350640406
 20
12.5356085668
 30
0.0
 10
16.7319803776
 20
12.5373699936
 30
0.0
 10
16.7298496797
 20
12.5384555727
 30
0.0
 10
16.7287632598
 20
12.5389779667
 30
0.0
  0
SPLINE
  5
320
100
AcDbEntity
  8
LAYER_FEATURE
100
AcDbSpline
 62
7
  6
CONTINUOUS
 70
0
 71
3
 72
22
 73
18
 74
0
 42
0.0000001
 43
0.0000001
 44
0.0000000001
 40
0.0
 40
0.0
 40
0.0
 40
0.0
 40
0.1381197631
 40
0.2053664309
 40
0.2714549167
 40
0.336437138
 40
0.400372579
 40
0.4633278437
 40
0.5253764097
 40
0.5865986125
 40
0.6470813093
 40
0.7069174431
 40
0.7662055021
 40
0.8250488573
 40
0.8835549588
 40
0.9418344159
 40
1.0
 40
1.0
 40
1.0
 40
1.0
 10
16.354873378
 20
12.2750330929
 30
0.0
 10
16.3614333554
 20
12.2616652643
 30
0.0
 10
16.3704724901
 20
12.2414223222
 30
0.0
 10
16.3807819047
 20
12.2140265443
 30
0.0
 10
16.3874855943
 20
12.1937171039
 30
0.0
 10
16.393221858
 20
12.1734845108
 30
0.0
 10
16.3979852799
 20
12.1533475291
 30
0.0
 10
16.401771036
 20
12.1333255657
 30
0.0
 10
16.4045752741
 20
12.1134377508
 30
0.0
 10
16.406395066
 20
12.0937031917
 30
0.0
 10
16.4072284586
 20
12.074140877
 30
0.0
 10
16.4070744346
 20
12.0547696844
 30
0.0
 10
16.4059329196
 20
12.0356083403
 30
0.0
 10
16.4038048604
 20
12.0166754781
 30
0.0
 10
16.4006921356
 20
11.997989308
 30
0.0
 10
16.3965978822
 20
11.9795687042
 30
0.0
 10
16.3932149742
 20
11.9674716629
 30
0.0
 10
16.391363536
 20
11.9614803853
 30
0.0
  0
SPLINE
  5
321
100
AcDbEntity
  8
LAYER_FEATURE
100
AcDbSpline
 62
7
  6
CONTINUOUS
 70
0
 71
3
 72
80
 73
76
 74
0
 42
0.0000001
 43
0.0000001
 44
0.0000000001
 40
0.0
 40
0.0
 40
0.0
 40
0.0
 40
0.017178625
 40
0.0345301896
 40
0.0520439856
 40
0.0697095611
 40
0.0875157513
 40
0.105451206
 40
0.1235042502
 40
0.1416629551
 40
0.159915164
 40
0.1782485184
 40
0.1966504877
 40
0.2151083967
 40
0.2336094524
 40
0.2521407721
 40
0.2706894106
 40
0.2892423869
 40
0.3077867108
 40
0.3263094099
 40
0.3447975567
 40
0.3632382956
 40
0.3816188701
 40
0.3999266497
 40
0.4181491573
 40
0.4362740982
 40
0.4542893881
 40
0.4721831821
 40
0.4899439035
 40
0.5075602738
 40
0.5250213437
 40
0.5423165259
 40
0.5594356272
 40
0.5763688815
 40
0.5931069843
 40
0.6096411291
 40
0.6259630453
 40
0.6420650388
 40
0.6579400309
 40
0.673581601
 40
0.6889840307
 40
0.7041423508
 40
0.7190523912
 40
0.7337108317
 40
0.7481152531
 40
0.7622641923
 40
0.7761571984
 40
0.7897948916
 40
0.8031790229
 40
0.8163125314
 40
0.8291996012
 40
0.8418457167
 40
0.8542577138
 40
0.8603787793
 40
0.8664445248
 40
0.8784144197
 40
0.8901792221
 40
0.8959889949
 40
0.9017523402
 40
0.9131461931
 40
0.9243770779
 40
0.9299370835
 40
0.935462781
 40
0.9409564793
 40
0.9464205592
 40
0.9518574755
 40
0.9572697442
 40
0.9626599452
 40
0.9680307112
 40
0.9733847242
 40
0.9787247102
 40
0.9840534294
 40
0.9893736733
 40
0.9946882542
 40
1.0
 40
1.0
 40
1.0
 40
1.0
 10
15.1002094123
 20
13.7933765737
 30
0.0
 10
15.11515163
 20
13.7933765737
 30
0.0
 10
15.1451874497
 20
13.7930477895
 30
0.0
 10
15.1904356772
 20
13.7915869144
 30
0.0
 10
15.2360665284
 20
13.7891572193
 30
0.0
 10
15.2820320439
 20
13.785761325
 30
0.0
 10
15.3282846247
 20
13.7814027076
 30
0.0
 10
15.3747760467
 20
13.7760859298
 30
0.0
 10
15.421457948
 20
13.7698165155
 30
0.0
 10
15.4682817352
 20
13.7626009987
 30
0.0
 10
15.5151986716
 20
13.7544468923
 30
0.0
 10
15.5621599221
 20
13.7453626835
 30
0.0
 10
15.6091166035
 20
13.7353578267
 30
0.0
 10
15.6560198352
 20
13.7244427312
 30
0.0
 10
15.7028207928
 20
13.7126287623
 30
0.0
 10
15.749470758
 20
13.6999282217
 30
0.0
 10
15.795921169
 20
13.6863543313
 30
0.0
 10
15.8421236713
 20
13.6719212207
 30
0.0
 10
15.8880301672
 20
13.6566439114
 30
0.0
 10
15.9335928667
 20
13.6405383037
 30
0.0
 10
15.9787643412
 20
13.6236211685
 30
0.0
 10
16.0234975694
 20
13.6059101179
 30
0.0
 10
16.0677459861
 20
13.5874235888
 30
0.0
 10
16.1114635307
 20
13.5681808231
 30
0.0
 10
16.1546046941
 20
13.5482018463
 30
0.0
 10
16.1971245709
 20
13.5275074544
 30
0.0
 10
16.2389789061
 20
13.5061191907
 30
0.0
 10
16.2801241378
 20
13.4840593162
 30
0.0
 10
16.3205174425
 20
13.4613507881
 30
0.0
 10
16.3601167791
 20
13.4380172354
 30
0.0
 10
16.3988809331
 20
13.4140829331
 30
0.0
 10
16.4367695666
 20
13.3895727867
 30
0.0
 10
16.4737432551
 20
13.3645122965
 30
0.0
 10
16.5097635266
 20
13.3389275298
 30
0.0
 10
16.5447929008
 20
13.3128450946
 30
0.0
 10
16.5787949273
 20
13.2862921096
 30
0.0
 10
16.6117342276
 20
13.259296179
 30
0.0
 10
16.6435765362
 20
13.2318853677
 30
0.0
 10
16.6742887274
 20
13.2040881615
 30
0.0
 10
16.7038388489
 20
13.1759334397
 30
0.0
 10
16.7321961535
 20
13.1474504444
 30
0.0
 10
16.7593311291
 20
13.1186687468
 30
0.0
 10
16.7852155385
 20
13.089618224
 30
0.0
 10
16.8098224425
 20
13.0603290225
 30
0.0
 10
16.8331262203
 20
13.0308315231
 30
0.0
 10
16.8551025931
 20
13.0011563115
 30
0.0
 10
16.8757286466
 20
12.9713341453
 30
0.0
 10
16.8949828514
 20
12.9413959255
 30
0.0
 10
16.9128450993
 20
12.9113726604
 30
0.0
 10
16.9292966895
 20
12.8812954727
 30
0.0
 10
16.9443204058
 20
12.851195407
 30
0.0
 10
16.9579003019
 20
12.8211040046
 30
0.0
 10
16.9680484922
 20
12.7959450695
 30
0.0
 10
16.975420221
 20
12.7758571415
 30
0.0
 10
16.9822353633
 20
12.7559797626
 30
0.0
 10
16.9898420352
 20
12.731190791
 30
0.0
 10
16.9962658102
 20
12.7062983723
 30
0.0
 10
17.0006437483
 20
12.6864746838
 30
0.0
 10
17.004487604
 20
12.666869318
 30
0.0
 10
17.0083634268
 20
12.6424725117
 30
0.0
 10
17.0110022716
 20
12.6180881899
 30
0.0
 10
17.0123470558
 20
12.5987217126
 30
0.0
 10
17.0129733949
 20
12.5843126207
 30
0.0
 10
17.0132205978
 20
12.5699755425
 30
0.0
 10
17.0130885456
 20
12.5557141195
 30
0.0
 10
17.0125773376
 20
12.5415321045
 30
0.0
 10
17.0116870203
 20
12.5274331975
 30
0.0
 10
17.0104178694
 20
12.513421085
 30
0.0
 10
17.0087701972
 20
12.4994994293
 30
0.0
 10
17.0067443926
 20
12.4856718783
 30
0.0
 10
17.0043410467
 20
12.4719420366
 30
0.0
 10
17.0015607024
 20
12.458313521
 30
0.0
 10
16.9984041432
 20
12.4447898481
 30
0.0
 10
16.9948721973
 20
12.4313747025
 30
0.0
 10
16.9922675804
 20
12.4225048347
 30
0.0
 10
16.9909034705
 20
12.4180905666
 30
0.0
  0
ENDSEC
  0
SECTION
  2
OBJECTS
  0
DICTIONARY
  5
C
100
AcDbDictionary
280
0
281
1
  3
ACAD_GROUP
350
D
  3
ACAD_MLINESTYLE
350
17
  3
ACAD_LAYOUT
350
1A
  3
ACAD_PLOTSETTINGS
350
19
  3
ACAD_PLOTSTYLENAME
350
E
  0
DICTIONARY
  5
D
102
{ACAD_REACTORS
330
C
102
}
100
AcDbDictionary
280
0
281
1
  0
ACDBDICTIONARYWDFLT
  5
E
102
{ACAD_REACTORS
330
C
102
}
100
AcDbDictionary
281
1
  3
Normal
350
F
100
AcDbDictionaryWithDefault
340
F
  0
DICTIONARY
  5
17
102
{ACAD_REACTORS
330
C
102
}
100
AcDbDictionary
280
0
281
1
  3
Standard
350
18
  0
DICTIONARY
  5
19
102
{ACAD_REACTORS
330
C
102
}
100
AcDbDictionary
281
1
  0
DICTIONARY
  5
1A
102
{ACAD_REACTORS
330
C
102
}
100
AcDbDictionary
281
1
  3
Model
350
322
  3
Layout1
350
323
  0
ACDBPLACEHOLDER
  5
F
102
{ACAD_REACTORS
330
E
102
}
  0
MLINESTYLE
  5
18
102
{ACAD_REACTORS
330
17
102
}
100
AcDbMlineStyle
  2
STANDARD
 70
0
  3

 62
256
 51
90.0
 52
90.0
 71
2
 49
0.5
 62
256
  6
BYLAYER
 49
-0.5
 62
256
  6
BYLAYER
  0
LAYOUT
  5
322
102
{ACAD_REACTORS
330
1A
102
}
100
AcDbPlotSettings
  1

  2
none_device
  4
ANSI_C_(22.00_x_17.00_Inches)
  6

 40
0.0
 41
0.0
 42
0.0
 43
0.0
 44
558.8
 45
431.8
 46
0.0
 47
0.0
 48
0.0
 49
0.0
140
0.0
141
0.0
142
1.0
143
1.0
 70
1024
 72
0
 73
0
 74
0
  7

 75
0
147
1.0
148
0.0
149
0.0
100
AcDbLayout
  1
Model
 70
0
 71
0
 10
0.0
 20
0.0
 11
22.0
 21
17.0
 12
0.0
 22
0.0
 32
0.0
 14
0.0
 24
0.0
 34
0.0
 15
0.0
 25
0.0
 35
0.0
146
0.0
 13
0.0
 23
0.0
 33
0.0
 16
1.0
 26
0.0
 36
0.0
 17
0.0
 27
1.0
 37
0.0
 76
0
330
222
345
0
346
0
  0
LAYOUT
  5
323
102
{ACAD_REACTORS
330
1A
102
}
100
AcDbPlotSettings
  1

  2
none_device
  4
ANSI_C_(22.00_x_17.00_Inches)
  6

 40
0.0
 41
0.0
 42
0.0
 43
0.0
 44
558.8
 45
431.8
 46
0.0
 47
0.0
 48
0.0
 49
0.0
140
0.0
141
0.0
142
1.0
143
1.0
 70
0
 72
0
 73
0
 74
0
  7

 75
0
147
1.0
148
0.0
149
0.0
100
AcDbLayout
  1
Layout1
 70
0
 71
1
 10
0.0
 20
0.0
 11
22.0
 21
17.0
 12
0.0
 22
0.0
 32
0.0
 14
0.0
 24
0.0
 34
0.0
 15
0.0
 25
0.0
 35
0.0
146
0.0
 13
0.0
 23
0.0
 33
0.0
 16
1.0
 26
0.0
 36
0.0
 17
0.0
 27
1.0
 37
0.0
 76
0
330
223
345
0
346
0
  0
ENDSEC
  0
EOF